  0
SECTION
  2
HEADER
  9
$ACADVER
  1
AC1024
  9
$ACADMAINTVER
 70
     6
  9
$DWGCODEPAGE
  3
UNDEFINED
  9
$INSBASE
 10
0.0
 20
0.0
 30
0.0
  9
$EXTMIN
 10
1.000000000000000E+20
 20
1.000000000000000E+20
 30
1.000000000000000E+20
  9
$EXTMAX
 10
-1.000000000000000E+20
 20
-1.000000000000000E+20
 30
-1.000000000000000E+20
  9
$LIMMIN
 10
0.0
 20
0.0
  9
$LIMMAX
 10
12.0
 20
9.0
  9
$ORTHOMODE
 70
     0
  9
$REGENMODE
 70
     1
  9
$FILLMODE
 70
     1
  9
$QTEXTMODE
 70
     0
  9
$MIRRTEXT
 70
     1
  9
$LTSCALE
 40
1.0
  9
$ATTMODE
 70
     1
  9
$TEXTSIZE
 40
0.2
  9
$TRACEWID
 40
0.05
  9
$TEXTSTYLE
  7
Standard
  9
$CLAYER
  8
0
  9
$CELTYPE
  6
ByLayer
  9
$CECOLOR
 62
   256
  9
$CELTSCALE
 40
1.0
  9
$DISPSILH
 70
     0
  9
$DIMSCALE
 40
1.0
  9
$DIMASZ
 40
0.18
  9
$DIMEXO
 40
0.0625
  9
$DIMDLI
 40
0.38
  9
$DIMRND
 40
0.0
  9
$DIMDLE
 40
0.0
  9
$DIMEXE
 40
0.18
  9
$DIMTP
 40
0.0
  9
$DIMTM
 40
0.0
  9
$DIMTXT
 40
0.18
  9
$DIMCEN
 40
0.09
  9
$DIMTSZ
 40
0.0
  9
$DIMTOL
 70
     0
  9
$DIMLIM
 70
     0
  9
$DIMTIH
 70
     1
  9
$DIMTOH
 70
     1
  9
$DIMSE1
 70
     0
  9
$DIMSE2
 70
     0
  9
$DIMTAD
 70
     0
  9
$DIMZIN
 70
     0
  9
$DIMBLK
  1

  9
$DIMASO
 70
     1
  9
$DIMSHO
 70
     1
  9
$DIMPOST
  1

  9
$DIMAPOST
  1

  9
$DIMALT
 70
     0
  9
$DIMALTD
 70
     2
  9
$DIMALTF
 40
25.4
  9
$DIMLFAC
 40
1.0
  9
$DIMTOFL
 70
     0
  9
$DIMTVP
 40
0.0
  9
$DIMTIX
 70
     0
  9
$DIMSOXD
 70
     0
  9
$DIMSAH
 70
     0
  9
$DIMBLK1
  1

  9
$DIMBLK2
  1

  9
$DIMSTYLE
  2
Standard
  9
$DIMCLRD
 70
     0
  9
$DIMCLRE
 70
     0
  9
$DIMCLRT
 70
     0
  9
$DIMTFAC
 40
1.0
  9
$DIMGAP
 40
0.09
  9
$DIMJUST
 70
     0
  9
$DIMSD1
 70
     0
  9
$DIMSD2
 70
     0
  9
$DIMTOLJ
 70
     1
  9
$DIMTZIN
 70
     0
  9
$DIMALTZ
 70
     0
  9
$DIMALTTZ
 70
     0
  9
$DIMUPT
 70
     0
  9
$DIMDEC
 70
     4
  9
$DIMTDEC
 70
     4
  9
$DIMALTU
 70
     2
  9
$DIMALTTD
 70
     2
  9
$DIMTXSTY
  7
Standard
  9
$DIMAUNIT
 70
     0
  9
$DIMADEC
 70
     0
  9
$DIMALTRND
 40
0.0
  9
$DIMAZIN
 70
     0
  9
$DIMDSEP
 70
    46
  9
$DIMATFIT
 70
     3
  9
$DIMFRAC
 70
     0
  9
$DIMLDRBLK
  1

  9
$DIMLUNIT
 70
     2
  9
$DIMLWD
 70
    -2
  9
$DIMLWE
 70
    -2
  9
$DIMTMOVE
 70
     0
  9
$DIMFXL
 40
1.0
  9
$DIMFXLON
 70
     0
  9
$DIMJOGANG
 40
0.7853981633974483
  9
$DIMTFILL
 70
     0
  9
$DIMTFILLCLR
 70
     0
  9
$DIMARCSYM
 70
     0
  9
$DIMLTYPE
  6

  9
$DIMLTEX1
  6

  9
$DIMLTEX2
  6

  9
$DIMTXTDIRECTION
 70
     0
  9
$LUNITS
 70
     2
  9
$LUPREC
 70
     4
  9
$SKETCHINC
 40
0.1
  9
$FILLETRAD
 40
0.5
  9
$AUNITS
 70
     0
  9
$AUPREC
 70
     0
  9
$MENU
  1
.
  9
$ELEVATION
 40
0.0
  9
$PELEVATION
 40
0.0
  9
$THICKNESS
 40
0.0
  9
$LIMCHECK
 70
     0
  9
$CHAMFERA
 40
0.5
  9
$CHAMFERB
 40
0.5
  9
$CHAMFERC
 40
1.0
  9
$CHAMFERD
 40
0.0
  9
$SKPOLY
 70
     0
  9
$TDCREATE
 40
2458263.57497684
  9
$TDUCREATE
 40
2458263.199976852
  9
$TDUPDATE
 40
2458263.57497684
  9
$TDUUPDATE
 40
2458263.199976852
  9
$TDINDWG
 40
0.0000000116
  9
$TDUSRTIMER
 40
0.0000000116
  9
$USRTIMER
 70
     1
  9
$ANGBASE
 50
0.0
  9
$ANGDIR
 70
     0
  9
$PDMODE
 70
     0
  9
$PDSIZE
 40
0.0
  9
$PLINEWID
 40
0.0
  9
$SPLFRAME
 70
     0
  9
$SPLINETYPE
 70
     6
  9
$SPLINESEGS
 70
     8
  9
$HANDSEED
  5
124
  9
$SURFTAB1
 70
     6
  9
$SURFTAB2
 70
     6
  9
$SURFTYPE
 70
     6
  9
$SURFU
 70
     6
  9
$SURFV
 70
     6
  9
$UCSBASE
  2

  9
$UCSNAME
  2

  9
$UCSORG
 10
0.0
 20
0.0
 30
0.0
  9
$UCSXDIR
 10
1.0
 20
0.0
 30
0.0
  9
$UCSYDIR
 10
0.0
 20
1.0
 30
0.0
  9
$UCSORTHOREF
  2

  9
$UCSORTHOVIEW
 70
     0
  9
$UCSORGTOP
 10
0.0
 20
0.0
 30
0.0
  9
$UCSORGBOTTOM
 10
0.0
 20
0.0
 30
0.0
  9
$UCSORGLEFT
 10
0.0
 20
0.0
 30
0.0
  9
$UCSORGRIGHT
 10
0.0
 20
0.0
 30
0.0
  9
$UCSORGFRONT
 10
0.0
 20
0.0
 30
0.0
  9
$UCSORGBACK
 10
0.0
 20
0.0
 30
0.0
  9
$PUCSBASE
  2

  9
$PUCSNAME
  2

  9
$PUCSORG
 10
0.0
 20
0.0
 30
0.0
  9
$PUCSXDIR
 10
1.0
 20
0.0
 30
0.0
  9
$PUCSYDIR
 10
0.0
 20
1.0
 30
0.0
  9
$PUCSORTHOREF
  2

  9
$PUCSORTHOVIEW
 70
     0
  9
$PUCSORGTOP
 10
0.0
 20
0.0
 30
0.0
  9
$PUCSORGBOTTOM
 10
0.0
 20
0.0
 30
0.0
  9
$PUCSORGLEFT
 10
0.0
 20
0.0
 30
0.0
  9
$PUCSORGRIGHT
 10
0.0
 20
0.0
 30
0.0
  9
$PUCSORGFRONT
 10
0.0
 20
0.0
 30
0.0
  9
$PUCSORGBACK
 10
0.0
 20
0.0
 30
0.0
  9
$USERI1
 70
     0
  9
$USERI2
 70
     0
  9
$USERI3
 70
     0
  9
$USERI4
 70
     0
  9
$USERI5
 70
     0
  9
$USERR1
 40
0.0
  9
$USERR2
 40
0.0
  9
$USERR3
 40
0.0
  9
$USERR4
 40
0.0
  9
$USERR5
 40
0.0
  9
$WORLDVIEW
 70
     1
  9
$SHADEDGE
 70
     3
  9
$SHADEDIF
 70
    70
  9
$TILEMODE
 70
     1
  9
$MAXACTVP
 70
    64
  9
$PINSBASE
 10
0.0
 20
0.0
 30
0.0
  9
$PLIMCHECK
 70
     0
  9
$PEXTMIN
 10
1.000000000000000E+20
 20
1.000000000000000E+20
 30
1.000000000000000E+20
  9
$PEXTMAX
 10
-1.000000000000000E+20
 20
-1.000000000000000E+20
 30
-1.000000000000000E+20
  9
$PLIMMIN
 10
0.0
 20
0.0
  9
$PLIMMAX
 10
12.0
 20
9.0
  9
$UNITMODE
 70
     0
  9
$VISRETAIN
 70
     1
  9
$PLINEGEN
 70
     0
  9
$PSLTSCALE
 70
     1
  9
$TREEDEPTH
 70
  3020
  9
$CMLSTYLE
  2
Standard
  9
$CMLJUST
 70
     0
  9
$CMLSCALE
 40
1.0
  9
$PROXYGRAPHICS
 70
     1
  9
$MEASUREMENT
 70
     0
  9
$CELWEIGHT
370
    -1
  9
$ENDCAPS
280
     0
  9
$JOINSTYLE
280
     0
  9
$LWDISPLAY
290
     1
  9
$INSUNITS
 70
     1
  9
$HYPERLINKBASE
  1

  9
$STYLESHEET
  1

  9
$XEDIT
290
     1
  9
$CEPSNTYPE
380
     0
  9
$PSTYLEMODE
290
     1
  9
$FINGERPRINTGUID
  2
{0A850F47-4362-10D9-962F-5620460687CB}
  9
$VERSIONGUID
  2
{FAEB1C32-E019-11D5-929B-00C0DF256EC4}
  9
$EXTNAMES
290
     1
  9
$PSVPSCALE
 40
0.0
  9
$OLESTARTUP
290
     0
  9
$SORTENTS
280
   127
  9
$INDEXCTL
280
     0
  9
$HIDETEXT
280
     1
  9
$XCLIPFRAME
280
     2
  9
$HALOGAP
280
     0
  9
$OBSCOLOR
 70
   257
  9
$OBSLTYPE
280
     0
  9
$INTERSECTIONDISPLAY
280
     0
  9
$INTERSECTIONCOLOR
 70
   257
  9
$DIMASSOC
280
     2
  9
$PROJECTNAME
  1

  9
$CAMERADISPLAY
290
     0
  9
$LENSLENGTH
 40
50.0
  9
$CAMERAHEIGHT
 40
0.0
  9
$STEPSPERSEC
 40
2.0
  9
$STEPSIZE
 40
6.0
  9
$3DDWFPREC
 40
2.0
  9
$PSOLWIDTH
 40
0.25
  9
$PSOLHEIGHT
 40
4.0
  9
$LOFTANG1
 40
1.570796326794897
  9
$LOFTANG2
 40
1.570796326794897
  9
$LOFTMAG1
 40
0.0
  9
$LOFTMAG2
 40
0.0
  9
$LOFTPARAM
 70
     7
  9
$LOFTNORMALS
280
     1
  9
$LATITUDE
 40
37.795
  9
$LONGITUDE
 40
-122.394
  9
$NORTHDIRECTION
 40
0.0
  9
$TIMEZONE
 70
 -8000
  9
$LIGHTGLYPHDISPLAY
280
     1
  9
$TILEMODELIGHTSYNCH
280
     1
  9
$CMATERIAL
347
3C
  9
$SOLIDHIST
280
     1
  9
$SHOWHIST
280
     1
  9
$DWFFRAME
280
     2
  9
$DGNFRAME
280
     2
  9
$REALWORLDSCALE
290
     1
  9
$INTERFERECOLOR
 62
   256
  9
$CSHADOW
280
     0
  9
$SHADOWPLANELOCATION
 40
0.0
  0
ENDSEC
  0
SECTION
  2
CLASSES
  0
CLASS
  1
ACDBDICTIONARYWDFLT
  2
AcDbDictionaryWithDefault
  3
ObjectDBX Classes
 90
        0
 91
        4
280
     0
281
     0
  0
CLASS
  1
VISUALSTYLE
  2
AcDbVisualStyle
  3
ObjectDBX Classes
 90
     4095
 91
        4
280
     0
281
     0
  0
CLASS
  1
MATERIAL
  2
AcDbMaterial
  3
ObjectDBX Classes
 90
     1153
 91
        4
280
     0
281
     0
  0
CLASS
  1
SUN
  2
AcDbSun
  3
SCENEOE
 90
     1024
 91
        4
280
     0
281
     0
  0
ENDSEC
  0
SECTION
  2
TABLES
  0
TABLE
  2
VPORT
  5
8
330
0
100
AcDbSymbolTable
 70
     1
  0
VPORT
  5
29
330
8
100
AcDbSymbolTableRecord
100
AcDbViewportTableRecord
  2
*Active
 70
     0
 10
0.0
 20
0.0
 11
1.0
 21
1.0
 12
0.0
 22
0.0
 13
0.0
 23
0.0
 14
0.5
 24
0.5
 15
0.5
 25
0.5
 16
0.0
 26
0.0
 36
1.0
 17
105.0007777515277
 27
-148.5000416295416
 37
0.0
 40
297.0000832590831
 41
0.7070757462376333
 42
50.0
 43
0.0
 44
0.0
 50
0.0
 51
0.0
 71
     0
 72
   100
 73
     1
 74
     3
 75
     0
 76
     0
 77
     0
 78
     0
281
     0
 65
     1
110
0.0
120
0.0
130
0.0
111
1.0
121
0.0
131
0.0
112
0.0
122
1.0
132
0.0
 79
     0
146
0.0
 60
     3
 61
     5
292
     1
282
     1
141
0.0
142
0.0
 63
   250
361
3F
  0
ENDTAB
  0
TABLE
  2
LTYPE
  5
5
330
0
100
AcDbSymbolTable
 70
     2
  0
LTYPE
  5
14
330
5
100
AcDbSymbolTableRecord
100
AcDbLinetypeTableRecord
  2
ByBlock
 70
     0
  3

 72
    65
 73
     0
 40
0.0
  0
LTYPE
  5
15
330
5
100
AcDbSymbolTableRecord
100
AcDbLinetypeTableRecord
  2
ByLayer
 70
     0
  3

 72
    65
 73
     0
 40
0.0
  0
LTYPE
  5
16
330
5
100
AcDbSymbolTableRecord
100
AcDbLinetypeTableRecord
  2
Continuous
 70
     0
  3
Solid line
 72
    65
 73
     0
 40
0.0
  0
LTYPE
  5
70
330
5
100
AcDbSymbolTableRecord
100
AcDbLinetypeTableRecord
  2
AI-Linetype-1
 70
     0
  3
Adobe Illustrator Linetype No. 1
 72
    65
 73
     2
 40
1.411111110758333
 49
0.7055555553791667
 74
     0
 49
-0.7055555553791667
 74
     0
  0
ENDTAB
  0
TABLE
  2
LAYER
  5
2
330
0
100
AcDbSymbolTable
 70
     2
  0
LAYER
  5
10
330
2
100
AcDbSymbolTableRecord
100
AcDbLayerTableRecord
  2
0
 70
     0
 62
     7
  6
Continuous
370
    -3
390
F
347
3E
  0
LAYER
  5
40
330
2
100
AcDbSymbolTableRecord
100
AcDbLayerTableRecord
  2
_U+30EC_U+30A4_U+30E4_U+30FC 1
 70
     0
 62
     7
  6
Continuous
370
    -3
390
F
347
3E
  0
ENDTAB
  0
TABLE
  2
STYLE
  5
3
330
0
100
AcDbSymbolTable
 70
     1
  0
STYLE
  5
11
330
3
100
AcDbSymbolTableRecord
100
AcDbTextStyleTableRecord
  2
Standard
 70
     0
 40
0.0
 41
1.0
 50
0.0
 71
     0
 42
0.2
  3
txt
  4

  0
ENDTAB
  0
TABLE
  2
VIEW
  5
6
330
0
100
AcDbSymbolTable
 70
     0
  0
ENDTAB
  0
TABLE
  2
UCS
  5
7
330
0
100
AcDbSymbolTable
 70
     0
  0
ENDTAB
  0
TABLE
  2
APPID
  5
9
330
0
100
AcDbSymbolTable
 70
     1
  0
APPID
  5
12
330
9
100
AcDbSymbolTableRecord
100
AcDbRegAppTableRecord
  2
ACAD
 70
     0
  0
ENDTAB
  0
TABLE
  2
DIMSTYLE
  5
A
330
0
100
AcDbSymbolTable
 70
     1
100
AcDbDimStyleTable
  0
DIMSTYLE
105
27
330
A
100
AcDbSymbolTableRecord
100
AcDbDimStyleTableRecord
  2
Standard
 70
     0
178
     0
340
11
  0
ENDTAB
  0
TABLE
  2
BLOCK_RECORD
  5
1
330
0
100
AcDbSymbolTable
 70
     8
  0
BLOCK_RECORD
  5
1F
330
1
100
AcDbSymbolTableRecord
100
AcDbBlockTableRecord
  2
*Model_Space
340
22
 70
     0
280
     1
281
     0
  0
BLOCK_RECORD
  5
1B
330
1
100
AcDbSymbolTableRecord
100
AcDbBlockTableRecord
  2
*Paper_Space
340
1E
 70
     0
280
     1
281
     0
  0
BLOCK_RECORD
  5
23
330
1
100
AcDbSymbolTableRecord
100
AcDbBlockTableRecord
  2
*Paper_Space0
340
26
 70
     0
280
     1
281
     0
  0
BLOCK_RECORD
  5
95
330
1
100
AcDbSymbolTableRecord
100
AcDbBlockTableRecord
  2
block 2
340
0
102
{BLKREFS
331
96
102
}
 70
     0
280
     1
281
     0
  0
BLOCK_RECORD
  5
9B
330
1
100
AcDbSymbolTableRecord
100
AcDbBlockTableRecord
  2
block 3
340
0
102
{BLKREFS
331
9C
102
}
 70
     0
280
     1
281
     0
  0
BLOCK_RECORD
  5
B6
330
1
100
AcDbSymbolTableRecord
100
AcDbBlockTableRecord
  2
block 4
340
0
102
{BLKREFS
331
B7
102
}
 70
     0
280
     1
281
     0
  0
BLOCK_RECORD
  5
BE
330
1
100
AcDbSymbolTableRecord
100
AcDbBlockTableRecord
  2
block 5
340
0
102
{BLKREFS
331
BF
102
}
 70
     0
280
     1
281
     0
  0
BLOCK_RECORD
  5
C6
330
1
100
AcDbSymbolTableRecord
100
AcDbBlockTableRecord
  2
block 6
340
0
102
{BLKREFS
331
C7
102
}
 70
     0
280
     1
281
     0
  0
BLOCK_RECORD
  5
E9
330
1
100
AcDbSymbolTableRecord
100
AcDbBlockTableRecord
  2
block 7
340
0
102
{BLKREFS
331
EA
102
}
 70
     0
280
     1
281
     0
  0
BLOCK_RECORD
  5
F9
330
1
100
AcDbSymbolTableRecord
100
AcDbBlockTableRecord
  2
block 8
340
0
102
{BLKREFS
331
FA
102
}
 70
     0
280
     1
281
     0
  0
ENDTAB
  0
ENDSEC
  0
SECTION
  2
BLOCKS
  0
BLOCK
  5
20
330
1F
100
AcDbEntity
  8
0
100
AcDbBlockBegin
  2
*Model_Space
 70
     0
 10
0.0
 20
0.0
 30
0.0
  3
*Model_Space
  1

  0
ENDBLK
  5
21
330
1F
100
AcDbEntity
  8
0
100
AcDbBlockEnd
  0
BLOCK
  5
1C
330
1B
100
AcDbEntity
 67
     1
  8
0
100
AcDbBlockBegin
  2
*Paper_Space
 70
     0
 10
0.0
 20
0.0
 30
0.0
  3
*Paper_Space
  1

  0
ENDBLK
  5
1D
330
1B
100
AcDbEntity
 67
     1
  8
0
100
AcDbBlockEnd
  0
BLOCK
  5
24
330
23
100
AcDbEntity
  8
0
100
AcDbBlockBegin
  2
*Paper_Space0
 70
     0
 10
0.0
 20
0.0
 30
0.0
  3
*Paper_Space0
  1

  0
ENDBLK
  5
25
330
23
100
AcDbEntity
  8
0
100
AcDbBlockEnd
  0
BLOCK
  5
97
330
95
100
AcDbEntity
  8
0
100
AcDbBlockBegin
  2
block 2
 70
     0
 10
0.0
 20
0.0
 30
0.0
  3
block 2
  1

  0
SPLINE
  5
99
330
95
100
AcDbEntity
  8
_U+30EC_U+30A4_U+30E4_U+30FC 1
370
     0
100
AcDbSpline
210
0.0
220
0.0
230
1.0
 70
    11
 71
     3
 72
    62
 73
    58
 74
     0
 42
0.0000000001
 43
0.0000000001
 12
1.0
 22
0.0
 32
0.0
 13
1.0
 23
0.0
 33
0.0
 40
0.0
 40
0.0
 40
0.0
 40
0.0
 40
1.0
 40
1.0
 40
1.0
 40
2.0
 40
2.0
 40
2.0
 40
3.0
 40
3.0
 40
3.0
 40
4.0
 40
4.0
 40
4.0
 40
5.0
 40
5.0
 40
5.0
 40
6.0
 40
6.0
 40
6.0
 40
7.0
 40
7.0
 40
7.0
 40
8.0
 40
8.0
 40
8.0
 40
9.0
 40
9.0
 40
9.0
 40
10.0
 40
10.0
 40
10.0
 40
11.0
 40
11.0
 40
11.0
 40
12.0
 40
12.0
 40
12.0
 40
13.0
 40
13.0
 40
13.0
 40
14.0
 40
14.0
 40
14.0
 40
15.0
 40
15.0
 40
15.0
 40
16.0
 40
16.0
 40
16.0
 40
17.0
 40
17.0
 40
17.0
 40
18.0
 40
18.0
 40
18.0
 40
19.0
 40
19.0
 40
19.0
 40
19.0
 10
93.32470836425563
 20
-141.1584811387555
 30
0.0
 10
93.243576365578
 20
-141.1584811387555
 30
0.0
 10
93.05788571892303
 20
-141.1372938015213
 30
0.0
 10
92.95143226842882
 20
-140.9510863905435
 30
0.0
 10
92.88838702104874
 20
-140.8389485324986
 30
0.0
 10
92.88476967078923
 20
-140.7395575277492
 30
0.0
 10
92.88115232052972
 20
-140.6549804335863
 30
0.0
 10
92.88115232052972
 20
-140.6549804335863
 30
0.0
 10
93.06873776970157
 20
-140.6549804335863
 30
0.0
 10
93.06873776970157
 20
-140.6549804335863
 30
0.0
 10
93.0704603174442
 20
-140.7290499865191
 30
0.0
 10
93.07958982048011
 20
-140.9638332438389
 30
0.0
 10
93.32109101399612
 20
-140.9638332438389
 30
0.0
 10
93.43839651526888
 20
-140.9638332438389
 30
0.0
 10
93.5682766150628
 20
-140.8940700602626
 30
0.0
 10
93.5682766150628
 20
-140.6654879748163
 30
0.0
 10
93.5682766150628
 20
-140.5492160021891
 30
0.0
 10
93.53572046272718
 20
-140.5004679010728
 30
0.0
 10
93.50867646316797
 20
-140.4687730226085
 30
0.0
 10
93.4456312157879
 20
-140.3947034696756
 30
0.0
 10
93.3464124658127
 20
-140.3821288711545
 30
0.0
 10
93.2995591672133
 20
-140.3821288711545
 30
0.0
 10
93.28336721843263
 20
-140.3821288711545
 30
0.0
 10
93.25270586861392
 20
-140.3841959284456
 30
0.0
 10
93.22927921931421
 20
-140.3883300430279
 30
0.0
 10
93.22927921931421
 20
-140.3883300430279
 30
0.0
 10
93.22927921931421
 20
-140.1938544028856
 30
0.0
 10
93.22927921931421
 20
-140.1938544028856
 30
0.0
 10
93.26166311687557
 20
-140.200055574759
 30
0.0
 10
93.29766436469642
 20
-140.2022948868244
 30
0.0
 10
93.30317651747282
 20
-140.2022948868244
 30
0.0
 10
93.35898706433387
 20
-140.2022948868244
 30
0.0
 10
93.52848576220816
 20
-140.1811075495901
 30
0.0
 10
93.52848576220816
 20
-139.944084980205
 30
0.0
 10
93.52848576220816
 20
-139.7664903079403
 30
0.0
 10
93.4166924137118
 20
-139.7113687801763
 30
0.0
 10
93.32298581651301
 20
-139.7113687801763
 30
0.0
 10
93.09750431700341
 20
-139.7113687801763
 30
0.0
 10
93.09026961648438
 20
-139.944084980205
 30
0.0
 10
93.08682452099913
 20
-140.0160874758467
 30
0.0
 10
93.08682452099913
 20
-140.0160874758467
 30
0.0
 10
92.91370847286532
 20
-140.0160874758467
 30
0.0
 10
92.91370847286532
 20
-140.0160874758467
 30
0.0
 10
92.92077091861009
 20
-139.8912027645064
 30
0.0
 10
92.94436982268405
 20
-139.5146538279686
 30
0.0
 10
93.33383786729155
 20
-139.5146538279686
 30
0.0
 10
93.52486841194865
 20
-139.5146538279686
 30
0.0
 10
93.73054061241807
 20
-139.6416055966
 30
0.0
 10
93.73054061241807
 20
-139.9377115535572
 30
0.0
 10
93.73054061241807
 20
-140.123918964535
 30
0.0
 10
93.64940861374043
 20
-140.2064290014067
 30
0.0
 10
93.56465926480328
 20
-140.2677517010442
 30
0.0
 10
93.61685246140482
 20
-140.2953124649262
 30
0.0
 10
93.77205401301532
 20
-140.3757554445068
 30
0.0
 10
93.77205401301532
 20
-140.6529133762951
 30
0.0
 10
93.77205401301532
 20
-140.9913940077209
 30
0.0
 10
93.56104191454376
 20
-141.1584811387555
 30
0.0
 10
93.32470836425563
 20
-141.1584811387555
 30
0.0
  0
HATCH
  5
9A
330
95
100
AcDbEntity
  8
_U+30EC_U+30A4_U+30E4_U+30FC 1
 62
   179
420
  2234388
100
AcDbHatch
 10
0.0
 20
0.0
 30
0.0
210
0.0
220
0.0
230
1.0
  2
SOLID
 70
     1
 71
     0
 91
        1
 92
        1
 93
        1
 72
     4
 94
        3
 73
     0
 74
     1
 95
       62
 96
       58
 40
0.0
 40
0.0
 40
0.0
 40
0.0
 40
1.0
 40
1.0
 40
1.0
 40
2.0
 40
2.0
 40
2.0
 40
3.0
 40
3.0
 40
3.0
 40
4.0
 40
4.0
 40
4.0
 40
5.0
 40
5.0
 40
5.0
 40
6.0
 40
6.0
 40
6.0
 40
7.0
 40
7.0
 40
7.0
 40
8.0
 40
8.0
 40
8.0
 40
9.0
 40
9.0
 40
9.0
 40
10.0
 40
10.0
 40
10.0
 40
11.0
 40
11.0
 40
11.0
 40
12.0
 40
12.0
 40
12.0
 40
13.0
 40
13.0
 40
13.0
 40
14.0
 40
14.0
 40
14.0
 40
15.0
 40
15.0
 40
15.0
 40
16.0
 40
16.0
 40
16.0
 40
17.0
 40
17.0
 40
17.0
 40
18.0
 40
18.0
 40
18.0
 40
19.0
 40
19.0
 40
19.0
 40
19.0
 10
93.32470836425563
 20
-141.1584811387555
 10
93.243576365578
 20
-141.1584811387555
 10
93.05788571892303
 20
-141.1372938015213
 10
92.95143226842882
 20
-140.9510863905435
 10
92.88838702104874
 20
-140.8389485324986
 10
92.88476967078923
 20
-140.7395575277492
 10
92.88115232052972
 20
-140.6549804335863
 10
92.88115232052972
 20
-140.6549804335863
 10
93.06873776970157
 20
-140.6549804335863
 10
93.06873776970157
 20
-140.6549804335863
 10
93.0704603174442
 20
-140.7290499865191
 10
93.07958982048011
 20
-140.9638332438389
 10
93.32109101399612
 20
-140.9638332438389
 10
93.43839651526888
 20
-140.9638332438389
 10
93.5682766150628
 20
-140.8940700602626
 10
93.5682766150628
 20
-140.6654879748163
 10
93.5682766150628
 20
-140.5492160021891
 10
93.53572046272718
 20
-140.5004679010728
 10
93.50867646316797
 20
-140.4687730226085
 10
93.4456312157879
 20
-140.3947034696756
 10
93.3464124658127
 20
-140.3821288711545
 10
93.2995591672133
 20
-140.3821288711545
 10
93.28336721843263
 20
-140.3821288711545
 10
93.25270586861392
 20
-140.3841959284456
 10
93.22927921931421
 20
-140.3883300430279
 10
93.22927921931421
 20
-140.3883300430279
 10
93.22927921931421
 20
-140.1938544028856
 10
93.22927921931421
 20
-140.1938544028856
 10
93.26166311687557
 20
-140.200055574759
 10
93.29766436469642
 20
-140.2022948868244
 10
93.30317651747282
 20
-140.2022948868244
 10
93.35898706433387
 20
-140.2022948868244
 10
93.52848576220816
 20
-140.1811075495901
 10
93.52848576220816
 20
-139.944084980205
 10
93.52848576220816
 20
-139.7664903079403
 10
93.4166924137118
 20
-139.7113687801763
 10
93.32298581651301
 20
-139.7113687801763
 10
93.09750431700341
 20
-139.7113687801763
 10
93.09026961648438
 20
-139.944084980205
 10
93.08682452099913
 20
-140.0160874758467
 10
93.08682452099913
 20
-140.0160874758467
 10
92.91370847286532
 20
-140.0160874758467
 10
92.91370847286532
 20
-140.0160874758467
 10
92.92077091861009
 20
-139.8912027645064
 10
92.94436982268405
 20
-139.5146538279686
 10
93.33383786729155
 20
-139.5146538279686
 10
93.52486841194865
 20
-139.5146538279686
 10
93.73054061241807
 20
-139.6416055966
 10
93.73054061241807
 20
-139.9377115535572
 10
93.73054061241807
 20
-140.123918964535
 10
93.64940861374043
 20
-140.2064290014067
 10
93.56465926480328
 20
-140.2677517010442
 10
93.61685246140482
 20
-140.2953124649262
 10
93.77205401301532
 20
-140.3757554445068
 10
93.77205401301532
 20
-140.6529133762951
 10
93.77205401301532
 20
-140.9913940077209
 10
93.56104191454376
 20
-141.1584811387555
 10
93.32470836425563
 20
-141.1584811387555
 97
        0
 97
        0
 75
     2
 76
     1
 98
        0
  0
ENDBLK
  5
98
330
95
100
AcDbEntity
  8
0
100
AcDbBlockEnd
  0
BLOCK
  5
9D
330
9B
100
AcDbEntity
  8
0
100
AcDbBlockBegin
  2
block 3
 70
     0
 10
0.0
 20
0.0
 30
0.0
  3
block 3
  1

  0
SPLINE
  5
9F
330
9B
100
AcDbEntity
  8
_U+30EC_U+30A4_U+30E4_U+30FC 1
370
     0
100
AcDbSpline
210
0.0
220
0.0
230
1.0
 70
    11
 71
     3
 72
    26
 73
    22
 74
     0
 42
0.0000000001
 43
0.0000000001
 12
1.0
 22
0.0
 32
0.0
 13
1.0
 23
0.0
 33
0.0
 40
0.0
 40
0.0
 40
0.0
 40
0.0
 40
1.0
 40
1.0
 40
1.0
 40
2.0
 40
2.0
 40
2.0
 40
3.0
 40
3.0
 40
3.0
 40
4.0
 40
4.0
 40
4.0
 40
5.0
 40
5.0
 40
5.0
 40
6.0
 40
6.0
 40
6.0
 40
7.0
 40
7.0
 40
7.0
 40
7.0
 10
101.2926974573157
 20
-141.0081027208244
 30
0.0
 10
101.2926974573157
 20
-141.0081027208244
 30
0.0
 10
101.2926974573157
 20
-139.9037773630275
 30
0.0
 10
101.2926974573157
 20
-139.9037773630275
 30
0.0
 10
101.2926974573157
 20
-139.9037773630275
 30
0.0
 10
101.0112331561708
 20
-139.9037773630275
 30
0.0
 10
101.0112331561708
 20
-139.9037773630275
 30
0.0
 10
101.0112331561708
 20
-139.9037773630275
 30
0.0
 10
101.0112331561708
 20
-139.7556382571618
 30
0.0
 10
101.0112331561708
 20
-139.7556382571618
 30
0.0
 10
101.2944200050583
 20
-139.7409966013495
 30
0.0
 10
101.3340386031387
 20
-139.5780435848972
 30
0.0
 10
101.3593600549553
 20
-139.4638386695611
 30
0.0
 10
101.3593600549553
 20
-139.4638386695611
 30
0.0
 10
101.4837280019728
 20
-139.4638386695611
 30
0.0
 10
101.4837280019728
 20
-139.4638386695611
 30
0.0
 10
101.4837280019728
 20
-139.4638386695611
 30
0.0
 10
101.4837280019728
 20
-141.0081027208244
 30
0.0
 10
101.4837280019728
 20
-141.0081027208244
 30
0.0
 10
101.4837280019728
 20
-141.0081027208244
 30
0.0
 10
101.2926974573157
 20
-141.0081027208244
 30
0.0
 10
101.2926974573157
 20
-141.0081027208244
 30
0.0
  0
HATCH
  5
A0
330
9B
100
AcDbEntity
  8
_U+30EC_U+30A4_U+30E4_U+30FC 1
 62
   179
420
  2234388
100
AcDbHatch
 10
0.0
 20
0.0
 30
0.0
210
0.0
220
0.0
230
1.0
  2
SOLID
 70
     1
 71
     0
 91
        1
 92
        1
 93
        1
 72
     4
 94
        3
 73
     0
 74
     1
 95
       26
 96
       22
 40
0.0
 40
0.0
 40
0.0
 40
0.0
 40
1.0
 40
1.0
 40
1.0
 40
2.0
 40
2.0
 40
2.0
 40
3.0
 40
3.0
 40
3.0
 40
4.0
 40
4.0
 40
4.0
 40
5.0
 40
5.0
 40
5.0
 40
6.0
 40
6.0
 40
6.0
 40
7.0
 40
7.0
 40
7.0
 40
7.0
 10
101.2926974573157
 20
-141.0081027208244
 10
101.2926974573157
 20
-141.0081027208244
 10
101.2926974573157
 20
-139.9037773630275
 10
101.2926974573157
 20
-139.9037773630275
 10
101.2926974573157
 20
-139.9037773630275
 10
101.0112331561708
 20
-139.9037773630275
 10
101.0112331561708
 20
-139.9037773630275
 10
101.0112331561708
 20
-139.9037773630275
 10
101.0112331561708
 20
-139.7556382571618
 10
101.0112331561708
 20
-139.7556382571618
 10
101.2944200050583
 20
-139.7409966013495
 10
101.3340386031387
 20
-139.5780435848972
 10
101.3593600549553
 20
-139.4638386695611
 10
101.3593600549553
 20
-139.4638386695611
 10
101.4837280019728
 20
-139.4638386695611
 10
101.4837280019728
 20
-139.4638386695611
 10
101.4837280019728
 20
-139.4638386695611
 10
101.4837280019728
 20
-141.0081027208244
 10
101.4837280019728
 20
-141.0081027208244
 10
101.4837280019728
 20
-141.0081027208244
 10
101.2926974573157
 20
-141.0081027208244
 10
101.2926974573157
 20
-141.0081027208244
 97
        0
 97
        0
 75
     2
 76
     1
 98
        0
  0
POLYLINE
  5
A1
330
9B
100
AcDbEntity
  8
_U+30EC_U+30A4_U+30E4_U+30FC 1
370
     0
100
AcDb2dPolyline
 66
     1
 10
0.0
 20
0.0
 30
0.0
  0
VERTEX
  5
A2
330
A1
100
AcDbEntity
  8
_U+30EC_U+30A4_U+30E4_U+30FC 1
370
     0
100
AcDbVertex
100
AcDb2dVertex
 10
102.6190592191369
 20
-140.6611816054597
 30
0.0
  0
VERTEX
  5
A3
330
A1
100
AcDbEntity
  8
_U+30EC_U+30A4_U+30E4_U+30FC 1
370
     0
100
AcDbVertex
100
AcDb2dVertex
 10
102.6190592191369
 20
-141.0081027208244
 30
0.0
  0
VERTEX
  5
A4
330
A1
100
AcDbEntity
  8
_U+30EC_U+30A4_U+30E4_U+30FC 1
370
     0
100
AcDbVertex
100
AcDb2dVertex
 10
102.4333685724819
 20
-141.0081027208244
 30
0.0
  0
VERTEX
  5
A5
330
A1
100
AcDbEntity
  8
_U+30EC_U+30A4_U+30E4_U+30FC 1
370
     0
100
AcDbVertex
100
AcDb2dVertex
 10
102.4333685724819
 20
-140.6611816054597
 30
0.0
  0
VERTEX
  5
A6
330
A1
100
AcDbEntity
  8
_U+30EC_U+30A4_U+30E4_U+30FC 1
370
     0
100
AcDbVertex
100
AcDb2dVertex
 10
101.8742295752259
 20
-140.6611816054597
 30
0.0
  0
VERTEX
  5
A7
330
A1
100
AcDbEntity
  8
_U+30EC_U+30A4_U+30E4_U+30FC 1
370
     0
100
AcDbVertex
100
AcDb2dVertex
 10
101.8742295752259
 20
-140.4369058893699
 30
0.0
  0
VERTEX
  5
A8
330
A1
100
AcDbEntity
  8
_U+30EC_U+30A4_U+30E4_U+30FC 1
370
     0
100
AcDbVertex
100
AcDb2dVertex
 10
102.4531778715221
 20
-139.4638386695611
 30
0.0
  0
VERTEX
  5
A9
330
A1
100
AcDbEntity
  8
_U+30EC_U+30A4_U+30E4_U+30FC 1
370
     0
100
AcDbVertex
100
AcDb2dVertex
 10
102.6190592191369
 20
-139.4638386695611
 30
0.0
  0
VERTEX
  5
AA
330
A1
100
AcDbEntity
  8
_U+30EC_U+30A4_U+30E4_U+30FC 1
370
     0
100
AcDbVertex
100
AcDb2dVertex
 10
102.6190592191369
 20
-140.4622273411865
 30
0.0
  0
VERTEX
  5
AB
330
A1
100
AcDbEntity
  8
_U+30EC_U+30A4_U+30E4_U+30FC 1
370
     0
100
AcDbVertex
100
AcDb2dVertex
 10
102.7957926175302
 20
-140.4622273411865
 30
0.0
  0
VERTEX
  5
AC
330
A1
100
AcDbEntity
  8
_U+30EC_U+30A4_U+30E4_U+30FC 1
370
     0
100
AcDbVertex
100
AcDb2dVertex
 10
102.7957926175302
 20
-140.6611816054597
 30
0.0
  0
VERTEX
  5
AD
330
A1
100
AcDbEntity
  8
_U+30EC_U+30A4_U+30E4_U+30FC 1
370
     0
100
AcDbVertex
100
AcDb2dVertex
 10
102.6190592191369
 20
-140.6611816054597
 30
0.0
  0
SEQEND
  5
AE
330
A1
100
AcDbEntity
  8
_U+30EC_U+30A4_U+30E4_U+30FC 1
370
     0
  0
POLYLINE
  5
AF
330
9B
100
AcDbEntity
  8
_U+30EC_U+30A4_U+30E4_U+30FC 1
370
     0
100
AcDb2dPolyline
 66
     1
 10
0.0
 20
0.0
 30
0.0
  0
VERTEX
  5
B0
330
AF
100
AcDbEntity
  8
_U+30EC_U+30A4_U+30E4_U+30FC 1
370
     0
100
AcDbVertex
100
AcDb2dVertex
 10
102.4333685724819
 20
-139.8064534155692
 30
0.0
  0
VERTEX
  5
B1
330
AF
100
AcDbEntity
  8
_U+30EC_U+30A4_U+30E4_U+30FC 1
370
     0
100
AcDbVertex
100
AcDb2dVertex
 10
102.0437282731002
 20
-140.4622273411865
 30
0.0
  0
VERTEX
  5
B2
330
AF
100
AcDbEntity
  8
_U+30EC_U+30A4_U+30E4_U+30FC 1
370
     0
100
AcDbVertex
100
AcDb2dVertex
 10
102.4333685724819
 20
-140.4622273411865
 30
0.0
  0
VERTEX
  5
B3
330
AF
100
AcDbEntity
  8
_U+30EC_U+30A4_U+30E4_U+30FC 1
370
     0
100
AcDbVertex
100
AcDb2dVertex
 10
102.4333685724819
 20
-139.8064534155692
 30
0.0
  0
SEQEND
  5
B4
330
AF
100
AcDbEntity
  8
_U+30EC_U+30A4_U+30E4_U+30FC 1
370
     0
  0
HATCH
  5
B5
330
9B
100
AcDbEntity
  8
_U+30EC_U+30A4_U+30E4_U+30FC 1
 62
   179
420
  2234388
100
AcDbHatch
 10
0.0
 20
0.0
 30
0.0
210
0.0
220
0.0
230
1.0
  2
SOLID
 70
     1
 71
     0
 91
        2
 92
        1
 93
       11
 72
     1
 10
102.6190592191369
 20
-140.6611816054597
 11
102.6190592191369
 21
-141.0081027208244
 72
     1
 10
102.6190592191369
 20
-141.0081027208244
 11
102.4333685724819
 21
-141.0081027208244
 72
     1
 10
102.4333685724819
 20
-141.0081027208244
 11
102.4333685724819
 21
-140.6611816054597
 72
     1
 10
102.4333685724819
 20
-140.6611816054597
 11
101.8742295752259
 21
-140.6611816054597
 72
     1
 10
101.8742295752259
 20
-140.6611816054597
 11
101.8742295752259
 21
-140.4369058893699
 72
     1
 10
101.8742295752259
 20
-140.4369058893699
 11
102.4531778715221
 21
-139.4638386695611
 72
     1
 10
102.4531778715221
 20
-139.4638386695611
 11
102.6190592191369
 21
-139.4638386695611
 72
     1
 10
102.6190592191369
 20
-139.4638386695611
 11
102.6190592191369
 21
-140.4622273411865
 72
     1
 10
102.6190592191369
 20
-140.4622273411865
 11
102.7957926175302
 21
-140.4622273411865
 72
     1
 10
102.7957926175302
 20
-140.4622273411865
 11
102.7957926175302
 21
-140.6611816054597
 72
     1
 10
102.7957926175302
 20
-140.6611816054597
 11
102.6190592191369
 21
-140.6611816054597
 97
        0
 92
        1
 93
        3
 72
     1
 10
102.4333685724819
 20
-139.8064534155692
 11
102.0437282731002
 21
-140.4622273411865
 72
     1
 10
102.0437282731002
 20
-140.4622273411865
 11
102.4333685724819
 21
-140.4622273411865
 72
     1
 10
102.4333685724819
 20
-140.4622273411865
 11
102.4333685724819
 21
-139.8064534155692
 97
        0
 75
     2
 76
     1
 98
        0
  0
ENDBLK
  5
9E
330
9B
100
AcDbEntity
  8
0
100
AcDbBlockEnd
  0
BLOCK
  5
B8
330
B6
100
AcDbEntity
  8
0
100
AcDbBlockBegin
  2
block 4
 70
     0
 10
0.0
 20
0.0
 30
0.0
  3
block 4
  1

  0
SPLINE
  5
BA
330
B6
100
AcDbEntity
  8
_U+30EC_U+30A4_U+30E4_U+30FC 1
370
     0
100
AcDbSpline
210
0.0
220
0.0
230
1.0
 70
    11
 71
     3
 72
    29
 73
    25
 74
     0
 42
0.0000000001
 43
0.0000000001
 12
1.0
 22
0.0
 32
0.0
 13
1.0
 23
0.0
 33
0.0
 40
0.0
 40
0.0
 40
0.0
 40
0.0
 40
1.0
 40
1.0
 40
1.0
 40
2.0
 40
2.0
 40
2.0
 40
3.0
 40
3.0
 40
3.0
 40
4.0
 40
4.0
 40
4.0
 40
5.0
 40
5.0
 40
5.0
 40
6.0
 40
6.0
 40
6.0
 40
7.0
 40
7.0
 40
7.0
 40
8.0
 40
8.0
 40
8.0
 40
8.0
 10
87.53488089174476
 20
-149.5095648497754
 30
0.0
 10
87.53488089174476
 20
-149.7365966422533
 30
0.0
 10
87.39724932710902
 20
-149.952948638727
 30
0.0
 10
87.04826115445321
 20
-149.952948638727
 30
0.0
 10
86.79229055989916
 20
-149.952948638727
 30
0.0
 10
86.697033669732
 20
-149.8320257871948
 30
0.0
 10
86.63571097009455
 20
-149.7417642854812
 30
0.0
 10
86.57645532774825
 20
-149.848562245524
 30
0.0
 10
86.46225041241222
 20
-149.9133300406467
 30
0.0
 10
86.30153670802531
 20
-149.9133300406467
 30
0.0
 10
86.02644583352811
 20
-149.9133300406467
 30
0.0
 10
85.8910535809578
 20
-149.7438313427724
 30
0.0
 10
85.8910535809578
 20
-149.5095648497754
 30
0.0
 10
85.8910535809578
 20
-149.2677191467108
 30
0.0
 10
86.03488631746697
 20
-149.1054551493556
 30
0.0
 10
86.30153670802531
 20
-149.1054551493556
 30
0.0
 10
86.46225041241222
 20
-149.1054551493556
 30
0.0
 10
86.57645532774825
 20
-149.1719454922209
 30
0.0
 10
86.63571097009455
 20
-149.2787434522637
 30
0.0
 10
86.68652612850198
 20
-149.2029513515882
 30
0.0
 10
86.78178301866915
 20
-149.0675590990178
 30
0.0
 10
87.04395478509666
 20
-149.0675590990178
 30
0.0
 10
87.41843666434332
 20
-149.0675590990178
 30
0.0
 10
87.53488089174476
 20
-149.3056151970486
 30
0.0
 10
87.53488089174476
 20
-149.5095648497754
 30
0.0
  0
SPLINE
  5
BB
330
B6
100
AcDbEntity
  8
_U+30EC_U+30A4_U+30E4_U+30FC 1
370
     0
100
AcDbSpline
210
0.0
220
0.0
230
1.0
 70
    11
 71
     3
 72
    17
 73
    13
 74
     0
 42
0.0000000001
 43
0.0000000001
 12
1.0
 22
0.0
 32
0.0
 13
1.0
 23
0.0
 33
0.0
 40
0.0
 40
0.0
 40
0.0
 40
0.0
 40
1.0
 40
1.0
 40
1.0
 40
2.0
 40
2.0
 40
2.0
 40
3.0
 40
3.0
 40
3.0
 40
4.0
 40
4.0
 40
4.0
 40
4.0
 10
86.08363441858326
 20
-149.5095648497754
 30
0.0
 10
86.08363441858326
 20
-149.6501247455736
 30
0.0
 10
86.17871905397615
 20
-149.7221272412153
 30
0.0
 10
86.31411130654648
 20
-149.7221272412153
 30
0.0
 10
86.43692896059564
 20
-149.7221272412153
 30
0.0
 10
86.55544024528822
 20
-149.6608045415779
 30
0.0
 10
86.55544024528822
 20
-149.5095648497754
 30
0.0
 10
86.55544024528822
 20
-149.3579806484244
 30
0.0
 10
86.43692896059564
 20
-149.296657948787
 30
0.0
 10
86.31411130654648
 20
-149.296657948787
 30
0.0
 10
86.17871905397615
 20
-149.296657948787
 30
0.0
 10
86.08363441858326
 20
-149.3703829921713
 30
0.0
 10
86.08363441858326
 20
-149.5095648497754
 30
0.0
  0
SPLINE
  5
BC
330
B6
100
AcDbEntity
  8
_U+30EC_U+30A4_U+30E4_U+30FC 1
370
     0
100
AcDbSpline
210
0.0
220
0.0
230
1.0
 70
    11
 71
     3
 72
    17
 73
    13
 74
     0
 42
0.0000000001
 43
0.0000000001
 12
1.0
 22
0.0
 32
0.0
 13
1.0
 23
0.0
 33
0.0
 40
0.0
 40
0.0
 40
0.0
 40
0.0
 40
1.0
 40
1.0
 40
1.0
 40
2.0
 40
2.0
 40
2.0
 40
3.0
 40
3.0
 40
3.0
 40
4.0
 40
4.0
 40
4.0
 40
4.0
 10
86.74371471355713
 20
-149.5095648497754
 30
0.0
 10
86.74371471355713
 20
-149.6322102490503
 30
0.0
 10
86.83035886501116
 20
-149.7617458392957
 30
0.0
 10
87.03344724386665
 20
-149.7617458392957
 30
0.0
 10
87.23860268001327
 20
-149.7617458392957
 30
0.0
 10
87.34023299682814
 20
-149.6535698410588
 30
0.0
 10
87.34023299682814
 20
-149.5095648497754
 30
0.0
 10
87.34023299682814
 20
-149.3504014383568
 30
0.0
 10
87.21758759755325
 20
-149.2566948411581
 30
0.0
 10
87.03982067051436
 20
-149.2566948411581
 30
0.0
 10
86.81761201171574
 20
-149.2566948411581
 30
0.0
 10
86.74371471355713
 20
-149.3958766987622
 30
0.0
 10
86.74371471355713
 20
-149.5095648497754
 30
0.0
  0
HATCH
  5
BD
330
B6
100
AcDbEntity
  8
_U+30EC_U+30A4_U+30E4_U+30FC 1
 62
   179
420
  2234388
100
AcDbHatch
 10
0.0
 20
0.0
 30
0.0
210
0.0
220
0.0
230
1.0
  2
SOLID
 70
     1
 71
     0
 91
        3
 92
        1
 93
        1
 72
     4
 94
        3
 73
     0
 74
     1
 95
       29
 96
       25
 40
0.0
 40
0.0
 40
0.0
 40
0.0
 40
1.0
 40
1.0
 40
1.0
 40
2.0
 40
2.0
 40
2.0
 40
3.0
 40
3.0
 40
3.0
 40
4.0
 40
4.0
 40
4.0
 40
5.0
 40
5.0
 40
5.0
 40
6.0
 40
6.0
 40
6.0
 40
7.0
 40
7.0
 40
7.0
 40
8.0
 40
8.0
 40
8.0
 40
8.0
 10
87.53488089174476
 20
-149.5095648497754
 10
87.53488089174476
 20
-149.7365966422533
 10
87.39724932710902
 20
-149.952948638727
 10
87.04826115445321
 20
-149.952948638727
 10
86.79229055989916
 20
-149.952948638727
 10
86.697033669732
 20
-149.8320257871948
 10
86.63571097009455
 20
-149.7417642854812
 10
86.57645532774825
 20
-149.848562245524
 10
86.46225041241222
 20
-149.9133300406467
 10
86.30153670802531
 20
-149.9133300406467
 10
86.02644583352811
 20
-149.9133300406467
 10
85.8910535809578
 20
-149.7438313427724
 10
85.8910535809578
 20
-149.5095648497754
 10
85.8910535809578
 20
-149.2677191467108
 10
86.03488631746697
 20
-149.1054551493556
 10
86.30153670802531
 20
-149.1054551493556
 10
86.46225041241222
 20
-149.1054551493556
 10
86.57645532774825
 20
-149.1719454922209
 10
86.63571097009455
 20
-149.2787434522637
 10
86.68652612850198
 20
-149.2029513515882
 10
86.78178301866915
 20
-149.0675590990178
 10
87.04395478509666
 20
-149.0675590990178
 10
87.41843666434332
 20
-149.0675590990178
 10
87.53488089174476
 20
-149.3056151970486
 10
87.53488089174476
 20
-149.5095648497754
 97
        0
 97
        0
 92
        1
 93
        1
 72
     4
 94
        3
 73
     0
 74
     1
 95
       17
 96
       13
 40
0.0
 40
0.0
 40
0.0
 40
0.0
 40
1.0
 40
1.0
 40
1.0
 40
2.0
 40
2.0
 40
2.0
 40
3.0
 40
3.0
 40
3.0
 40
4.0
 40
4.0
 40
4.0
 40
4.0
 10
86.08363441858326
 20
-149.5095648497754
 10
86.08363441858326
 20
-149.6501247455736
 10
86.17871905397615
 20
-149.7221272412153
 10
86.31411130654648
 20
-149.7221272412153
 10
86.43692896059564
 20
-149.7221272412153
 10
86.55544024528822
 20
-149.6608045415779
 10
86.55544024528822
 20
-149.5095648497754
 10
86.55544024528822
 20
-149.3579806484244
 10
86.43692896059564
 20
-149.296657948787
 10
86.31411130654648
 20
-149.296657948787
 10
86.17871905397615
 20
-149.296657948787
 10
86.08363441858326
 20
-149.3703829921713
 10
86.08363441858326
 20
-149.5095648497754
 97
        0
 97
        0
 92
        1
 93
        1
 72
     4
 94
        3
 73
     0
 74
     1
 95
       17
 96
       13
 40
0.0
 40
0.0
 40
0.0
 40
0.0
 40
1.0
 40
1.0
 40
1.0
 40
2.0
 40
2.0
 40
2.0
 40
3.0
 40
3.0
 40
3.0
 40
4.0
 40
4.0
 40
4.0
 40
4.0
 10
86.74371471355713
 20
-149.5095648497754
 10
86.74371471355713
 20
-149.6322102490503
 10
86.83035886501116
 20
-149.7617458392957
 10
87.03344724386665
 20
-149.7617458392957
 10
87.23860268001327
 20
-149.7617458392957
 10
87.34023299682814
 20
-149.6535698410588
 10
87.34023299682814
 20
-149.5095648497754
 10
87.34023299682814
 20
-149.3504014383568
 10
87.21758759755325
 20
-149.2566948411581
 10
87.03982067051436
 20
-149.2566948411581
 10
86.81761201171574
 20
-149.2566948411581
 10
86.74371471355713
 20
-149.3958766987622
 10
86.74371471355713
 20
-149.5095648497754
 97
        0
 97
        0
 75
     2
 76
     1
 98
        0
  0
ENDBLK
  5
B9
330
B6
100
AcDbEntity
  8
0
100
AcDbBlockEnd
  0
BLOCK
  5
C0
330
BE
100
AcDbEntity
  8
0
100
AcDbBlockBegin
  2
block 5
 70
     0
 10
0.0
 20
0.0
 30
0.0
  3
block 5
  1

  0
SPLINE
  5
C2
330
BE
100
AcDbEntity
  8
_U+30EC_U+30A4_U+30E4_U+30FC 1
370
     0
100
AcDbSpline
210
0.0
220
0.0
230
1.0
 70
    11
 71
     3
 72
    26
 73
    22
 74
     0
 42
0.0000000001
 43
0.0000000001
 12
1.0
 22
0.0
 32
0.0
 13
1.0
 23
0.0
 33
0.0
 40
0.0
 40
0.0
 40
0.0
 40
0.0
 40
1.0
 40
1.0
 40
1.0
 40
2.0
 40
2.0
 40
2.0
 40
3.0
 40
3.0
 40
3.0
 40
4.0
 40
4.0
 40
4.0
 40
5.0
 40
5.0
 40
5.0
 40
6.0
 40
6.0
 40
6.0
 40
7.0
 40
7.0
 40
7.0
 40
7.0
 10
100.7848903827899
 20
-158.3875759152642
 30
0.0
 10
100.7848903827899
 20
-158.3875759152642
 30
0.0
 10
100.7848903827899
 20
-157.2830783026931
 30
0.0
 10
100.7848903827899
 20
-157.2830783026931
 30
0.0
 10
100.7848903827899
 20
-157.2830783026931
 30
0.0
 10
100.503426081645
 20
-157.2830783026931
 30
0.0
 10
100.503426081645
 20
-157.2830783026931
 30
0.0
 10
100.503426081645
 20
-157.2830783026931
 30
0.0
 10
100.503426081645
 20
-157.1349391968274
 30
0.0
 10
100.503426081645
 20
-157.1349391968274
 30
0.0
 10
100.7866129305325
 20
-157.1204697957893
 30
0.0
 10
100.8262315286129
 20
-156.957516779337
 30
0.0
 10
100.8515529804295
 20
-156.8431396092267
 30
0.0
 10
100.8515529804295
 20
-156.8431396092267
 30
0.0
 10
100.975920927447
 20
-156.8431396092267
 30
0.0
 10
100.975920927447
 20
-156.8431396092267
 30
0.0
 10
100.975920927447
 20
-156.8431396092267
 30
0.0
 10
100.975920927447
 20
-158.3875759152642
 30
0.0
 10
100.975920927447
 20
-158.3875759152642
 30
0.0
 10
100.975920927447
 20
-158.3875759152642
 30
0.0
 10
100.7848903827899
 20
-158.3875759152642
 30
0.0
 10
100.7848903827899
 20
-158.3875759152642
 30
0.0
  0
HATCH
  5
C3
330
BE
100
AcDbEntity
  8
_U+30EC_U+30A4_U+30E4_U+30FC 1
 62
   179
420
  2234388
100
AcDbHatch
 10
0.0
 20
0.0
 30
0.0
210
0.0
220
0.0
230
1.0
  2
SOLID
 70
     1
 71
     0
 91
        1
 92
        1
 93
        1
 72
     4
 94
        3
 73
     0
 74
     1
 95
       26
 96
       22
 40
0.0
 40
0.0
 40
0.0
 40
0.0
 40
1.0
 40
1.0
 40
1.0
 40
2.0
 40
2.0
 40
2.0
 40
3.0
 40
3.0
 40
3.0
 40
4.0
 40
4.0
 40
4.0
 40
5.0
 40
5.0
 40
5.0
 40
6.0
 40
6.0
 40
6.0
 40
7.0
 40
7.0
 40
7.0
 40
7.0
 10
100.7848903827899
 20
-158.3875759152642
 10
100.7848903827899
 20
-158.3875759152642
 10
100.7848903827899
 20
-157.2830783026931
 10
100.7848903827899
 20
-157.2830783026931
 10
100.7848903827899
 20
-157.2830783026931
 10
100.503426081645
 20
-157.2830783026931
 10
100.503426081645
 20
-157.2830783026931
 10
100.503426081645
 20
-157.2830783026931
 10
100.503426081645
 20
-157.1349391968274
 10
100.503426081645
 20
-157.1349391968274
 10
100.7866129305325
 20
-157.1204697957893
 10
100.8262315286129
 20
-156.957516779337
 10
100.8515529804295
 20
-156.8431396092267
 10
100.8515529804295
 20
-156.8431396092267
 10
100.975920927447
 20
-156.8431396092267
 10
100.975920927447
 20
-156.8431396092267
 10
100.975920927447
 20
-156.8431396092267
 10
100.975920927447
 20
-158.3875759152642
 10
100.975920927447
 20
-158.3875759152642
 10
100.975920927447
 20
-158.3875759152642
 10
100.7848903827899
 20
-158.3875759152642
 10
100.7848903827899
 20
-158.3875759152642
 97
        0
 97
        0
 75
     2
 76
     1
 98
        0
  0
SPLINE
  5
C4
330
BE
100
AcDbEntity
  8
_U+30EC_U+30A4_U+30E4_U+30FC 1
370
     0
100
AcDbSpline
210
0.0
220
0.0
230
1.0
 70
    11
 71
     3
 72
    53
 73
    49
 74
     0
 42
0.0000000001
 43
0.0000000001
 12
1.0
 22
0.0
 32
0.0
 13
1.0
 23
0.0
 33
0.0
 40
0.0
 40
0.0
 40
0.0
 40
0.0
 40
1.0
 40
1.0
 40
1.0
 40
2.0
 40
2.0
 40
2.0
 40
3.0
 40
3.0
 40
3.0
 40
4.0
 40
4.0
 40
4.0
 40
5.0
 40
5.0
 40
5.0
 40
6.0
 40
6.0
 40
6.0
 40
7.0
 40
7.0
 40
7.0
 40
8.0
 40
8.0
 40
8.0
 40
9.0
 40
9.0
 40
9.0
 40
10.0
 40
10.0
 40
10.0
 40
11.0
 40
11.0
 40
11.0
 40
12.0
 40
12.0
 40
12.0
 40
13.0
 40
13.0
 40
13.0
 40
14.0
 40
14.0
 40
14.0
 40
15.0
 40
15.0
 40
15.0
 40
16.0
 40
16.0
 40
16.0
 40
16.0
 10
101.8118733469429
 20
-158.4382188188974
 30
0.0
 10
101.7452107493033
 20
-158.4382188188974
 30
0.0
 10
101.6585665978493
 20
-158.4213378510197
 30
0.0
 10
101.5720947011695
 20
-158.3579480940911
 30
0.0
 10
101.424127850078
 20
-158.2477050385631
 30
0.0
 10
101.4062133535547
 20
-158.1167914101236
 30
0.0
 10
101.3898491499998
 20
-158.0089599214353
 30
0.0
 10
101.3898491499998
 20
-158.0089599214353
 30
0.0
 10
101.5793294016885
 20
-158.0089599214353
 30
0.0
 10
101.5793294016885
 20
-158.0089599214353
 30
0.0
 10
101.6261827002879
 20
-158.2077419309342
 30
0.0
 10
101.7343586985247
 20
-158.2373697521073
 30
0.0
 10
101.8137681494598
 20
-158.2373697521073
 30
0.0
 10
101.9327961984751
 20
-158.2373697521073
 30
0.0
 10
102.0625040434948
 20
-158.1378064925836
 30
0.0
 10
102.0625040434948
 20
-157.9052625473292
 30
0.0
 10
102.0625040434948
 20
-157.6492919527752
 30
0.0
 10
101.9091972944012
 20
-157.5793565144246
 30
0.0
 10
101.8065334489407
 20
-157.5793565144246
 30
0.0
 10
101.7794894493815
 20
-157.5793565144246
 30
0.0
 10
101.6585665978493
 20
-157.5793565144246
 30
0.0
 10
101.582946751948
 20
-157.7085475951215
 30
0.0
 10
101.582946751948
 20
-157.7085475951215
 30
0.0
 10
101.4332573531139
 20
-157.6892550604041
 30
0.0
 10
101.4332573531139
 20
-157.6892550604041
 30
0.0
 10
101.4332573531139
 20
-157.6892550604041
 30
0.0
 10
101.5359211985744
 20
-156.8431396092267
 30
0.0
 10
101.5359211985744
 20
-156.8431396092267
 30
0.0
 10
101.5359211985744
 20
-156.8431396092267
 30
0.0
 10
102.1996188438077
 20
-156.8431396092267
 30
0.0
 10
102.1996188438077
 20
-156.8431396092267
 30
0.0
 10
102.1996188438077
 20
-156.8431396092267
 30
0.0
 10
102.1996188438077
 20
-157.0377875041433
 30
0.0
 10
102.1996188438077
 20
-157.0377875041433
 30
0.0
 10
102.1996188438077
 20
-157.0377875041433
 30
0.0
 10
101.6747585466299
 20
-157.0377875041433
 30
0.0
 10
101.6747585466299
 20
-157.0377875041433
 30
0.0
 10
101.6747585466299
 20
-157.0377875041433
 30
0.0
 10
101.6189479997689
 20
-157.460845229732
 30
0.0
 10
101.6189479997689
 20
-157.460845229732
 30
0.0
 10
101.6713134511447
 20
-157.4270832939766
 30
0.0
 10
101.7415933990438
 20
-157.3867756767991
 30
0.0
 10
101.8425346967616
 20
-157.3867756767991
 30
0.0
 10
102.0588866932353
 20
-157.3867756767991
 30
0.0
 10
102.2609415434452
 20
-157.5731553425512
 30
0.0
 10
102.2609415434452
 20
-157.8859700126118
 30
0.0
 10
102.2609415434452
 20
-158.2036078163519
 30
0.0
 10
102.0697387440138
 20
-158.4382188188974
 30
0.0
 10
101.8118733469429
 20
-158.4382188188974
 30
0.0
  0
HATCH
  5
C5
330
BE
100
AcDbEntity
  8
_U+30EC_U+30A4_U+30E4_U+30FC 1
 62
   179
420
  2234388
100
AcDbHatch
 10
0.0
 20
0.0
 30
0.0
210
0.0
220
0.0
230
1.0
  2
SOLID
 70
     1
 71
     0
 91
        1
 92
        1
 93
        1
 72
     4
 94
        3
 73
     0
 74
     1
 95
       53
 96
       49
 40
0.0
 40
0.0
 40
0.0
 40
0.0
 40
1.0
 40
1.0
 40
1.0
 40
2.0
 40
2.0
 40
2.0
 40
3.0
 40
3.0
 40
3.0
 40
4.0
 40
4.0
 40
4.0
 40
5.0
 40
5.0
 40
5.0
 40
6.0
 40
6.0
 40
6.0
 40
7.0
 40
7.0
 40
7.0
 40
8.0
 40
8.0
 40
8.0
 40
9.0
 40
9.0
 40
9.0
 40
10.0
 40
10.0
 40
10.0
 40
11.0
 40
11.0
 40
11.0
 40
12.0
 40
12.0
 40
12.0
 40
13.0
 40
13.0
 40
13.0
 40
14.0
 40
14.0
 40
14.0
 40
15.0
 40
15.0
 40
15.0
 40
16.0
 40
16.0
 40
16.0
 40
16.0
 10
101.8118733469429
 20
-158.4382188188974
 10
101.7452107493033
 20
-158.4382188188974
 10
101.6585665978493
 20
-158.4213378510197
 10
101.5720947011695
 20
-158.3579480940911
 10
101.424127850078
 20
-158.2477050385631
 10
101.4062133535547
 20
-158.1167914101236
 10
101.3898491499998
 20
-158.0089599214353
 10
101.3898491499998
 20
-158.0089599214353
 10
101.5793294016885
 20
-158.0089599214353
 10
101.5793294016885
 20
-158.0089599214353
 10
101.6261827002879
 20
-158.2077419309342
 10
101.7343586985247
 20
-158.2373697521073
 10
101.8137681494598
 20
-158.2373697521073
 10
101.9327961984751
 20
-158.2373697521073
 10
102.0625040434948
 20
-158.1378064925836
 10
102.0625040434948
 20
-157.9052625473292
 10
102.0625040434948
 20
-157.6492919527752
 10
101.9091972944012
 20
-157.5793565144246
 10
101.8065334489407
 20
-157.5793565144246
 10
101.7794894493815
 20
-157.5793565144246
 10
101.6585665978493
 20
-157.5793565144246
 10
101.582946751948
 20
-157.7085475951215
 10
101.582946751948
 20
-157.7085475951215
 10
101.4332573531139
 20
-157.6892550604041
 10
101.4332573531139
 20
-157.6892550604041
 10
101.4332573531139
 20
-157.6892550604041
 10
101.5359211985744
 20
-156.8431396092267
 10
101.5359211985744
 20
-156.8431396092267
 10
101.5359211985744
 20
-156.8431396092267
 10
102.1996188438077
 20
-156.8431396092267
 10
102.1996188438077
 20
-156.8431396092267
 10
102.1996188438077
 20
-156.8431396092267
 10
102.1996188438077
 20
-157.0377875041433
 10
102.1996188438077
 20
-157.0377875041433
 10
102.1996188438077
 20
-157.0377875041433
 10
101.6747585466299
 20
-157.0377875041433
 10
101.6747585466299
 20
-157.0377875041433
 10
101.6747585466299
 20
-157.0377875041433
 10
101.6189479997689
 20
-157.460845229732
 10
101.6189479997689
 20
-157.460845229732
 10
101.6713134511447
 20
-157.4270832939766
 10
101.7415933990438
 20
-157.3867756767991
 10
101.8425346967616
 20
-157.3867756767991
 10
102.0588866932353
 20
-157.3867756767991
 10
102.2609415434452
 20
-157.5731553425512
 10
102.2609415434452
 20
-157.8859700126118
 10
102.2609415434452
 20
-158.2036078163519
 10
102.0697387440138
 20
-158.4382188188974
 10
101.8118733469429
 20
-158.4382188188974
 97
        0
 97
        0
 75
     2
 76
     1
 98
        0
  0
ENDBLK
  5
C1
330
BE
100
AcDbEntity
  8
0
100
AcDbBlockEnd
  0
BLOCK
  5
C8
330
C6
100
AcDbEntity
  8
0
100
AcDbBlockBegin
  2
block 6
 70
     0
 10
0.0
 20
0.0
 30
0.0
  3
block 6
  1

  0
POLYLINE
  5
CA
330
C6
100
AcDbEntity
  8
_U+30EC_U+30A4_U+30E4_U+30FC 1
370
     0
100
AcDb2dPolyline
 66
     1
 10
0.0
 20
0.0
 30
0.0
  0
VERTEX
  5
CB
330
CA
100
AcDbEntity
  8
_U+30EC_U+30A4_U+30E4_U+30FC 1
370
     0
100
AcDbVertex
100
AcDb2dVertex
 10
114.1911349540911
 20
-151.7013345974914
 30
0.0
  0
VERTEX
  5
CC
330
CA
100
AcDbEntity
  8
_U+30EC_U+30A4_U+30E4_U+30FC 1
370
     0
100
AcDbVertex
100
AcDb2dVertex
 10
114.5380560694558
 20
-151.7013345974914
 30
0.0
  0
VERTEX
  5
CD
330
CA
100
AcDbEntity
  8
_U+30EC_U+30A4_U+30E4_U+30FC 1
370
     0
100
AcDbVertex
100
AcDb2dVertex
 10
114.5380560694558
 20
-151.8873697536948
 30
0.0
  0
VERTEX
  5
CE
330
CA
100
AcDbEntity
  8
_U+30EC_U+30A4_U+30E4_U+30FC 1
370
     0
100
AcDbVertex
100
AcDb2dVertex
 10
114.1911349540911
 20
-151.8873697536948
 30
0.0
  0
VERTEX
  5
CF
330
CA
100
AcDbEntity
  8
_U+30EC_U+30A4_U+30E4_U+30FC 1
370
     0
100
AcDbVertex
100
AcDb2dVertex
 10
114.1911349540911
 20
-152.4461642414024
 30
0.0
  0
VERTEX
  5
D0
330
CA
100
AcDbEntity
  8
_U+30EC_U+30A4_U+30E4_U+30FC 1
370
     0
100
AcDbVertex
100
AcDb2dVertex
 10
113.9668592380013
 20
-152.4461642414024
 30
0.0
  0
VERTEX
  5
D1
330
CA
100
AcDbEntity
  8
_U+30EC_U+30A4_U+30E4_U+30FC 1
370
     0
100
AcDbVertex
100
AcDb2dVertex
 10
112.9936197634183
 20
-151.8673881998804
 30
0.0
  0
VERTEX
  5
D2
330
CA
100
AcDbEntity
  8
_U+30EC_U+30A4_U+30E4_U+30FC 1
370
     0
100
AcDbVertex
100
AcDb2dVertex
 10
112.9936197634183
 20
-151.7013345974914
 30
0.0
  0
VERTEX
  5
D3
330
CA
100
AcDbEntity
  8
_U+30EC_U+30A4_U+30E4_U+30FC 1
370
     0
100
AcDbVertex
100
AcDb2dVertex
 10
113.9920084350437
 20
-151.7013345974914
 30
0.0
  0
VERTEX
  5
D4
330
CA
100
AcDbEntity
  8
_U+30EC_U+30A4_U+30E4_U+30FC 1
370
     0
100
AcDbVertex
100
AcDb2dVertex
 10
113.9920084350437
 20
-151.5249457086466
 30
0.0
  0
VERTEX
  5
D5
330
CA
100
AcDbEntity
  8
_U+30EC_U+30A4_U+30E4_U+30FC 1
370
     0
100
AcDbVertex
100
AcDb2dVertex
 10
114.1911349540911
 20
-151.5249457086466
 30
0.0
  0
VERTEX
  5
D6
330
CA
100
AcDbEntity
  8
_U+30EC_U+30A4_U+30E4_U+30FC 1
370
     0
100
AcDbVertex
100
AcDb2dVertex
 10
114.1911349540911
 20
-151.7013345974914
 30
0.0
  0
SEQEND
  5
D7
330
CA
100
AcDbEntity
  8
_U+30EC_U+30A4_U+30E4_U+30FC 1
370
     0
  0
POLYLINE
  5
D8
330
C6
100
AcDbEntity
  8
_U+30EC_U+30A4_U+30E4_U+30FC 1
370
     0
100
AcDb2dPolyline
 66
     1
 10
0.0
 20
0.0
 30
0.0
  0
VERTEX
  5
D9
330
D8
100
AcDbEntity
  8
_U+30EC_U+30A4_U+30E4_U+30FC 1
370
     0
100
AcDbVertex
100
AcDb2dVertex
 10
113.3364067642006
 20
-151.8873697536948
 30
0.0
  0
VERTEX
  5
DA
330
D8
100
AcDbEntity
  8
_U+30EC_U+30A4_U+30E4_U+30FC 1
370
     0
100
AcDbVertex
100
AcDb2dVertex
 10
113.9920084350437
 20
-152.2766655435281
 30
0.0
  0
VERTEX
  5
DB
330
D8
100
AcDbEntity
  8
_U+30EC_U+30A4_U+30E4_U+30FC 1
370
     0
100
AcDbVertex
100
AcDb2dVertex
 10
113.9920084350437
 20
-151.8873697536948
 30
0.0
  0
VERTEX
  5
DC
330
D8
100
AcDbEntity
  8
_U+30EC_U+30A4_U+30E4_U+30FC 1
370
     0
100
AcDbVertex
100
AcDb2dVertex
 10
113.3364067642006
 20
-151.8873697536948
 30
0.0
  0
SEQEND
  5
DD
330
D8
100
AcDbEntity
  8
_U+30EC_U+30A4_U+30E4_U+30FC 1
370
     0
  0
HATCH
  5
DE
330
C6
100
AcDbEntity
  8
_U+30EC_U+30A4_U+30E4_U+30FC 1
 62
   179
420
  2234388
100
AcDbHatch
 10
0.0
 20
0.0
 30
0.0
210
0.0
220
0.0
230
1.0
  2
SOLID
 70
     1
 71
     0
 91
        2
 92
        1
 93
       11
 72
     1
 10
114.1911349540911
 20
-151.7013345974914
 11
114.5380560694558
 21
-151.7013345974914
 72
     1
 10
114.5380560694558
 20
-151.7013345974914
 11
114.5380560694558
 21
-151.8873697536948
 72
     1
 10
114.5380560694558
 20
-151.8873697536948
 11
114.1911349540911
 21
-151.8873697536948
 72
     1
 10
114.1911349540911
 20
-151.8873697536948
 11
114.1911349540911
 21
-152.4461642414024
 72
     1
 10
114.1911349540911
 20
-152.4461642414024
 11
113.9668592380013
 21
-152.4461642414024
 72
     1
 10
113.9668592380013
 20
-152.4461642414024
 11
112.9936197634183
 21
-151.8673881998804
 72
     1
 10
112.9936197634183
 20
-151.8673881998804
 11
112.9936197634183
 21
-151.7013345974914
 72
     1
 10
112.9936197634183
 20
-151.7013345974914
 11
113.9920084350437
 21
-151.7013345974914
 72
     1
 10
113.9920084350437
 20
-151.7013345974914
 11
113.9920084350437
 21
-151.5249457086466
 72
     1
 10
113.9920084350437
 20
-151.5249457086466
 11
114.1911349540911
 21
-151.5249457086466
 72
     1
 10
114.1911349540911
 20
-151.5249457086466
 11
114.1911349540911
 21
-151.7013345974914
 97
        0
 92
        1
 93
        3
 72
     1
 10
113.3364067642006
 20
-151.8873697536948
 11
113.9920084350437
 21
-152.2766655435281
 72
     1
 10
113.9920084350437
 20
-152.2766655435281
 11
113.9920084350437
 21
-151.8873697536948
 72
     1
 10
113.9920084350437
 20
-151.8873697536948
 11
113.3364067642006
 21
-151.8873697536948
 97
        0
 75
     2
 76
     1
 98
        0
  0
POLYLINE
  5
DF
330
C6
100
AcDbEntity
  8
_U+30EC_U+30A4_U+30E4_U+30FC 1
370
     0
100
AcDb2dPolyline
 66
     1
 10
0.0
 20
0.0
 30
0.0
  0
VERTEX
  5
E0
330
DF
100
AcDbEntity
  8
_U+30EC_U+30A4_U+30E4_U+30FC 1
370
     0
100
AcDbVertex
100
AcDb2dVertex
 10
114.5380560694558
 20
-151.3578585776119
 30
0.0
  0
VERTEX
  5
E1
330
DF
100
AcDbEntity
  8
_U+30EC_U+30A4_U+30E4_U+30FC 1
370
     0
100
AcDbVertex
100
AcDb2dVertex
 10
114.286219589484
 20
-151.3578585776119
 30
0.0
  0
VERTEX
  5
E2
330
DF
100
AcDbEntity
  8
_U+30EC_U+30A4_U+30E4_U+30FC 1
370
     0
100
AcDbVertex
100
AcDb2dVertex
 10
114.286219589484
 20
-151.1432291288809
 30
0.0
  0
VERTEX
  5
E3
330
DF
100
AcDbEntity
  8
_U+30EC_U+30A4_U+30E4_U+30FC 1
370
     0
100
AcDbVertex
100
AcDb2dVertex
 10
114.5380560694558
 20
-151.1432291288809
 30
0.0
  0
VERTEX
  5
E4
330
DF
100
AcDbEntity
  8
_U+30EC_U+30A4_U+30E4_U+30FC 1
370
     0
100
AcDbVertex
100
AcDb2dVertex
 10
114.5380560694558
 20
-151.3578585776119
 30
0.0
  0
SEQEND
  5
E5
330
DF
100
AcDbEntity
  8
_U+30EC_U+30A4_U+30E4_U+30FC 1
370
     0
  0
HATCH
  5
E6
330
C6
100
AcDbEntity
  8
_U+30EC_U+30A4_U+30E4_U+30FC 1
 62
   179
420
  2234388
100
AcDbHatch
 10
0.0
 20
0.0
 30
0.0
210
0.0
220
0.0
230
1.0
  2
SOLID
 70
     1
 71
     0
 91
        1
 92
        1
 93
        4
 72
     1
 10
114.5380560694558
 20
-151.3578585776119
 11
114.286219589484
 21
-151.3578585776119
 72
     1
 10
114.286219589484
 20
-151.3578585776119
 11
114.286219589484
 21
-151.1432291288809
 72
     1
 10
114.286219589484
 20
-151.1432291288809
 11
114.5380560694558
 21
-151.1432291288809
 72
     1
 10
114.5380560694558
 20
-151.1432291288809
 11
114.5380560694558
 21
-151.3578585776119
 97
        0
 75
     2
 76
     1
 98
        0
  0
SPLINE
  5
E7
330
C6
100
AcDbEntity
  8
_U+30EC_U+30A4_U+30E4_U+30FC 1
370
     0
100
AcDbSpline
210
0.0
220
0.0
230
1.0
 70
    11
 71
     3
 72
    53
 73
    49
 74
     0
 42
0.0000000001
 43
0.0000000001
 12
1.0
 22
0.0
 32
0.0
 13
1.0
 23
0.0
 33
0.0
 40
0.0
 40
0.0
 40
0.0
 40
0.0
 40
1.0
 40
1.0
 40
1.0
 40
2.0
 40
2.0
 40
2.0
 40
3.0
 40
3.0
 40
3.0
 40
4.0
 40
4.0
 40
4.0
 40
5.0
 40
5.0
 40
5.0
 40
6.0
 40
6.0
 40
6.0
 40
7.0
 40
7.0
 40
7.0
 40
8.0
 40
8.0
 40
8.0
 40
9.0
 40
9.0
 40
9.0
 40
10.0
 40
10.0
 40
10.0
 40
11.0
 40
11.0
 40
11.0
 40
12.0
 40
12.0
 40
12.0
 40
13.0
 40
13.0
 40
13.0
 40
14.0
 40
14.0
 40
14.0
 40
15.0
 40
15.0
 40
15.0
 40
16.0
 40
16.0
 40
16.0
 40
16.0
 10
114.5886989730889
 20
-150.5324136993461
 30
0.0
 10
114.5886989730889
 20
-150.5989040422114
 30
0.0
 10
114.5718180052112
 20
-150.6857204484397
 30
0.0
 10
114.5084282482826
 20
-150.7721923451195
 30
0.0
 10
114.3981851927546
 20
-150.9199869414367
 30
0.0
 10
114.2672715643151
 20
-150.93790143796
 30
0.0
 10
114.1594400756268
 20
-150.9544378962892
 30
0.0
 10
114.1594400756268
 20
-150.9544378962892
 30
0.0
 10
114.1594400756268
 20
-150.7649576446004
 30
0.0
 10
114.1594400756268
 20
-150.7649576446004
 30
0.0
 10
114.3582220851257
 20
-150.718104346001
 30
0.0
 10
114.3878499062989
 20
-150.6099283477642
 30
0.0
 10
114.3878499062989
 20
-150.5306911516034
 30
0.0
 10
114.3878499062989
 20
-150.4114908478138
 30
0.0
 10
114.2882866467752
 20
-150.2819552575684
 30
0.0
 10
114.0557427015208
 20
-150.2819552575684
 30
0.0
 10
113.7997721069667
 20
-150.2819552575684
 30
0.0
 10
113.7298366686162
 20
-150.4349174971135
 30
0.0
 10
113.7298366686162
 20
-150.537581342574
 30
0.0
 10
113.7298366686162
 20
-150.5647975969074
 30
0.0
 10
113.7298366686162
 20
-150.6857204484397
 30
0.0
 10
113.859027749313
 20
-150.7615125491152
 30
0.0
 10
113.859027749313
 20
-150.7615125491152
 30
0.0
 10
113.8397352145956
 20
-150.911029693175
 30
0.0
 10
113.8397352145956
 20
-150.911029693175
 30
0.0
 10
113.8397352145956
 20
-150.911029693175
 30
0.0
 10
112.9936197634183
 20
-150.8083658477146
 30
0.0
 10
112.9936197634183
 20
-150.8083658477146
 30
0.0
 10
112.9936197634183
 20
-150.8083658477146
 30
0.0
 10
112.9936197634183
 20
-150.1448404572555
 30
0.0
 10
112.9936197634183
 20
-150.1448404572555
 30
0.0
 10
112.9936197634183
 20
-150.1448404572555
 30
0.0
 10
113.1882676583349
 20
-150.1448404572555
 30
0.0
 10
113.1882676583349
 20
-150.1448404572555
 30
0.0
 10
113.1882676583349
 20
-150.1448404572555
 30
0.0
 10
113.1882676583349
 20
-150.669528499659
 30
0.0
 10
113.1882676583349
 20
-150.669528499659
 30
0.0
 10
113.1882676583349
 20
-150.669528499659
 30
0.0
 10
113.6113253839236
 20
-150.72533904652
 30
0.0
 10
113.6113253839236
 20
-150.72533904652
 30
0.0
 10
113.5775634481681
 20
-150.6729735951443
 30
0.0
 10
113.5372558309907
 20
-150.6026936472452
 30
0.0
 10
113.5372558309907
 20
-150.5017523495274
 30
0.0
 10
113.5372558309907
 20
-150.2854003530537
 30
0.0
 10
113.7236354967427
 20
-150.083517757618
 30
0.0
 10
114.0364501668034
 20
-150.083517757618
 30
0.0
 10
114.3540879705434
 20
-150.083517757618
 30
0.0
 10
114.5886989730889
 20
-150.2743760475009
 30
0.0
 10
114.5886989730889
 20
-150.5324136993461
 30
0.0
  0
HATCH
  5
E8
330
C6
100
AcDbEntity
  8
_U+30EC_U+30A4_U+30E4_U+30FC 1
 62
   179
420
  2234388
100
AcDbHatch
 10
0.0
 20
0.0
 30
0.0
210
0.0
220
0.0
230
1.0
  2
SOLID
 70
     1
 71
     0
 91
        1
 92
        1
 93
        1
 72
     4
 94
        3
 73
     0
 74
     1
 95
       53
 96
       49
 40
0.0
 40
0.0
 40
0.0
 40
0.0
 40
1.0
 40
1.0
 40
1.0
 40
2.0
 40
2.0
 40
2.0
 40
3.0
 40
3.0
 40
3.0
 40
4.0
 40
4.0
 40
4.0
 40
5.0
 40
5.0
 40
5.0
 40
6.0
 40
6.0
 40
6.0
 40
7.0
 40
7.0
 40
7.0
 40
8.0
 40
8.0
 40
8.0
 40
9.0
 40
9.0
 40
9.0
 40
10.0
 40
10.0
 40
10.0
 40
11.0
 40
11.0
 40
11.0
 40
12.0
 40
12.0
 40
12.0
 40
13.0
 40
13.0
 40
13.0
 40
14.0
 40
14.0
 40
14.0
 40
15.0
 40
15.0
 40
15.0
 40
16.0
 40
16.0
 40
16.0
 40
16.0
 10
114.5886989730889
 20
-150.5324136993461
 10
114.5886989730889
 20
-150.5989040422114
 10
114.5718180052112
 20
-150.6857204484397
 10
114.5084282482826
 20
-150.7721923451195
 10
114.3981851927546
 20
-150.9199869414367
 10
114.2672715643151
 20
-150.93790143796
 10
114.1594400756268
 20
-150.9544378962892
 10
114.1594400756268
 20
-150.9544378962892
 10
114.1594400756268
 20
-150.7649576446004
 10
114.1594400756268
 20
-150.7649576446004
 10
114.3582220851257
 20
-150.718104346001
 10
114.3878499062989
 20
-150.6099283477642
 10
114.3878499062989
 20
-150.5306911516034
 10
114.3878499062989
 20
-150.4114908478138
 10
114.2882866467752
 20
-150.2819552575684
 10
114.0557427015208
 20
-150.2819552575684
 10
113.7997721069667
 20
-150.2819552575684
 10
113.7298366686162
 20
-150.4349174971135
 10
113.7298366686162
 20
-150.537581342574
 10
113.7298366686162
 20
-150.5647975969074
 10
113.7298366686162
 20
-150.6857204484397
 10
113.859027749313
 20
-150.7615125491152
 10
113.859027749313
 20
-150.7615125491152
 10
113.8397352145956
 20
-150.911029693175
 10
113.8397352145956
 20
-150.911029693175
 10
113.8397352145956
 20
-150.911029693175
 10
112.9936197634183
 20
-150.8083658477146
 10
112.9936197634183
 20
-150.8083658477146
 10
112.9936197634183
 20
-150.8083658477146
 10
112.9936197634183
 20
-150.1448404572555
 10
112.9936197634183
 20
-150.1448404572555
 10
112.9936197634183
 20
-150.1448404572555
 10
113.1882676583349
 20
-150.1448404572555
 10
113.1882676583349
 20
-150.1448404572555
 10
113.1882676583349
 20
-150.1448404572555
 10
113.1882676583349
 20
-150.669528499659
 10
113.1882676583349
 20
-150.669528499659
 10
113.1882676583349
 20
-150.669528499659
 10
113.6113253839236
 20
-150.72533904652
 10
113.6113253839236
 20
-150.72533904652
 10
113.5775634481681
 20
-150.6729735951443
 10
113.5372558309907
 20
-150.6026936472452
 10
113.5372558309907
 20
-150.5017523495274
 10
113.5372558309907
 20
-150.2854003530537
 10
113.7236354967427
 20
-150.083517757618
 10
114.0364501668034
 20
-150.083517757618
 10
114.3540879705434
 20
-150.083517757618
 10
114.5886989730889
 20
-150.2743760475009
 10
114.5886989730889
 20
-150.5324136993461
 97
        0
 97
        0
 75
     2
 76
     1
 98
        0
  0
ENDBLK
  5
C9
330
C6
100
AcDbEntity
  8
0
100
AcDbBlockEnd
  0
BLOCK
  5
EB
330
E9
100
AcDbEntity
  8
0
100
AcDbBlockBegin
  2
block 7
 70
     0
 10
0.0
 20
0.0
 30
0.0
  3
block 7
  1

  0
SPLINE
  5
ED
330
E9
100
AcDbEntity
  8
_U+30EC_U+30A4_U+30E4_U+30FC 1
370
     0
100
AcDbSpline
210
0.0
220
0.0
230
1.0
 70
    11
 71
     3
 72
    62
 73
    58
 74
     0
 42
0.0000000001
 43
0.0000000001
 12
1.0
 22
0.0
 32
0.0
 13
1.0
 23
0.0
 33
0.0
 40
0.0
 40
0.0
 40
0.0
 40
0.0
 40
1.0
 40
1.0
 40
1.0
 40
2.0
 40
2.0
 40
2.0
 40
3.0
 40
3.0
 40
3.0
 40
4.0
 40
4.0
 40
4.0
 40
5.0
 40
5.0
 40
5.0
 40
6.0
 40
6.0
 40
6.0
 40
7.0
 40
7.0
 40
7.0
 40
8.0
 40
8.0
 40
8.0
 40
9.0
 40
9.0
 40
9.0
 40
10.0
 40
10.0
 40
10.0
 40
11.0
 40
11.0
 40
11.0
 40
12.0
 40
12.0
 40
12.0
 40
13.0
 40
13.0
 40
13.0
 40
14.0
 40
14.0
 40
14.0
 40
15.0
 40
15.0
 40
15.0
 40
16.0
 40
16.0
 40
16.0
 40
17.0
 40
17.0
 40
17.0
 40
18.0
 40
18.0
 40
18.0
 40
19.0
 40
19.0
 40
19.0
 40
19.0
 10
114.5886989730889
 20
-147.9956176387824
 30
0.0
 10
114.5886989730889
 20
-148.07674963746
 30
0.0
 10
114.5676838906289
 20
-148.2624402841149
 30
0.0
 10
114.3813042248769
 20
-148.3688937346092
 30
0.0
 10
114.2693386216063
 20
-148.4319389819892
 30
0.0
 10
114.1697753620826
 20
-148.4355563322488
 30
0.0
 10
114.0853705226939
 20
-148.4391736825083
 30
0.0
 10
114.0853705226939
 20
-148.4391736825083
 30
0.0
 10
114.0853705226939
 20
-148.2515882333364
 30
0.0
 10
114.0853705226939
 20
-148.2515882333364
 30
0.0
 10
114.1594400756268
 20
-148.2498656855938
 30
0.0
 10
114.3940510781723
 20
-148.2407361825579
 30
0.0
 10
114.3940510781723
 20
-147.9992349890419
 30
0.0
 10
114.3940510781723
 20
-147.8819294877691
 30
0.0
 10
114.3244601493703
 20
-147.7520493879752
 30
0.0
 10
114.0957058091497
 20
-147.7520493879752
 30
0.0
 10
113.9796060912968
 20
-147.7520493879752
 30
0.0
 10
113.9306857354062
 20
-147.7846055403108
 30
0.0
 10
113.8989908569419
 20
-147.81164953987
 30
0.0
 10
113.8249213040091
 20
-147.8746947872501
 30
0.0
 10
113.8125189602622
 20
-147.9739135372253
 30
0.0
 10
113.8125189602622
 20
-148.0207668358247
 30
0.0
 10
113.8125189602622
 20
-148.0369587846054
 30
0.0
 10
113.8145860175533
 20
-148.0676201344241
 30
0.0
 10
113.8187201321356
 20
-148.0910467837238
 30
0.0
 10
113.8187201321356
 20
-148.0910467837238
 30
0.0
 10
113.624072237219
 20
-148.0910467837238
 30
0.0
 10
113.624072237219
 20
-148.0910467837238
 30
0.0
 10
113.6302734090924
 20
-148.0586628861624
 30
0.0
 10
113.6326849759321
 20
-148.0226616383416
 30
0.0
 10
113.6326849759321
 20
-148.0171494855652
 30
0.0
 10
113.6326849759321
 20
-147.9613389387041
 30
0.0
 10
113.6113253839236
 20
-147.7918402408298
 30
0.0
 10
113.3743028145384
 20
-147.7918402408298
 30
0.0
 10
113.196880397048
 20
-147.7918402408298
 30
0.0
 10
113.141758869284
 20
-147.9036335893262
 30
0.0
 10
113.141758869284
 20
-147.997340186525
 30
0.0
 10
113.141758869284
 20
-148.2228216860346
 30
0.0
 10
113.3743028145384
 20
-148.2300563865536
 30
0.0
 10
113.4463053101801
 20
-148.2335014820389
 30
0.0
 10
113.4463053101801
 20
-148.2335014820389
 30
0.0
 10
113.4463053101801
 20
-148.4066175301727
 30
0.0
 10
113.4463053101801
 20
-148.4066175301727
 30
0.0
 10
113.321592853614
 20
-148.3995550844279
 30
0.0
 10
112.9450439170762
 20
-148.3759561803539
 30
0.0
 10
112.9450439170762
 20
-147.9864881357464
 30
0.0
 10
112.9450439170762
 20
-147.7954575910893
 30
0.0
 10
113.0718234309334
 20
-147.5897853906199
 30
0.0
 10
113.3681016426649
 20
-147.5897853906199
 30
0.0
 10
113.5541367988684
 20
-147.5897853906199
 30
0.0
 10
113.6368190905144
 20
-147.6709173892976
 30
0.0
 10
113.6981417901519
 20
-147.7556667382347
 30
0.0
 10
113.7257025540339
 20
-147.7034735416332
 30
0.0
 10
113.8059732788402
 20
-147.5482719900227
 30
0.0
 10
114.0833034654028
 20
-147.5482719900227
 30
0.0
 10
114.4216118420543
 20
-147.5482719900227
 30
0.0
 10
114.5886989730889
 20
-147.7592840884942
 30
0.0
 10
114.5886989730889
 20
-147.9956176387824
 30
0.0
  0
HATCH
  5
EE
330
E9
100
AcDbEntity
  8
_U+30EC_U+30A4_U+30E4_U+30FC 1
 62
   179
420
  2234388
100
AcDbHatch
 10
0.0
 20
0.0
 30
0.0
210
0.0
220
0.0
230
1.0
  2
SOLID
 70
     1
 71
     0
 91
        1
 92
        1
 93
        1
 72
     4
 94
        3
 73
     0
 74
     1
 95
       62
 96
       58
 40
0.0
 40
0.0
 40
0.0
 40
0.0
 40
1.0
 40
1.0
 40
1.0
 40
2.0
 40
2.0
 40
2.0
 40
3.0
 40
3.0
 40
3.0
 40
4.0
 40
4.0
 40
4.0
 40
5.0
 40
5.0
 40
5.0
 40
6.0
 40
6.0
 40
6.0
 40
7.0
 40
7.0
 40
7.0
 40
8.0
 40
8.0
 40
8.0
 40
9.0
 40
9.0
 40
9.0
 40
10.0
 40
10.0
 40
10.0
 40
11.0
 40
11.0
 40
11.0
 40
12.0
 40
12.0
 40
12.0
 40
13.0
 40
13.0
 40
13.0
 40
14.0
 40
14.0
 40
14.0
 40
15.0
 40
15.0
 40
15.0
 40
16.0
 40
16.0
 40
16.0
 40
17.0
 40
17.0
 40
17.0
 40
18.0
 40
18.0
 40
18.0
 40
19.0
 40
19.0
 40
19.0
 40
19.0
 10
114.5886989730889
 20
-147.9956176387824
 10
114.5886989730889
 20
-148.07674963746
 10
114.5676838906289
 20
-148.2624402841149
 10
114.3813042248769
 20
-148.3688937346092
 10
114.2693386216063
 20
-148.4319389819892
 10
114.1697753620826
 20
-148.4355563322488
 10
114.0853705226939
 20
-148.4391736825083
 10
114.0853705226939
 20
-148.4391736825083
 10
114.0853705226939
 20
-148.2515882333364
 10
114.0853705226939
 20
-148.2515882333364
 10
114.1594400756268
 20
-148.2498656855938
 10
114.3940510781723
 20
-148.2407361825579
 10
114.3940510781723
 20
-147.9992349890419
 10
114.3940510781723
 20
-147.8819294877691
 10
114.3244601493703
 20
-147.7520493879752
 10
114.0957058091497
 20
-147.7520493879752
 10
113.9796060912968
 20
-147.7520493879752
 10
113.9306857354062
 20
-147.7846055403108
 10
113.8989908569419
 20
-147.81164953987
 10
113.8249213040091
 20
-147.8746947872501
 10
113.8125189602622
 20
-147.9739135372253
 10
113.8125189602622
 20
-148.0207668358247
 10
113.8125189602622
 20
-148.0369587846054
 10
113.8145860175533
 20
-148.0676201344241
 10
113.8187201321356
 20
-148.0910467837238
 10
113.8187201321356
 20
-148.0910467837238
 10
113.624072237219
 20
-148.0910467837238
 10
113.624072237219
 20
-148.0910467837238
 10
113.6302734090924
 20
-148.0586628861624
 10
113.6326849759321
 20
-148.0226616383416
 10
113.6326849759321
 20
-148.0171494855652
 10
113.6326849759321
 20
-147.9613389387041
 10
113.6113253839236
 20
-147.7918402408298
 10
113.3743028145384
 20
-147.7918402408298
 10
113.196880397048
 20
-147.7918402408298
 10
113.141758869284
 20
-147.9036335893262
 10
113.141758869284
 20
-147.997340186525
 10
113.141758869284
 20
-148.2228216860346
 10
113.3743028145384
 20
-148.2300563865536
 10
113.4463053101801
 20
-148.2335014820389
 10
113.4463053101801
 20
-148.2335014820389
 10
113.4463053101801
 20
-148.4066175301727
 10
113.4463053101801
 20
-148.4066175301727
 10
113.321592853614
 20
-148.3995550844279
 10
112.9450439170762
 20
-148.3759561803539
 10
112.9450439170762
 20
-147.9864881357464
 10
112.9450439170762
 20
-147.7954575910893
 10
113.0718234309334
 20
-147.5897853906199
 10
113.3681016426649
 20
-147.5897853906199
 10
113.5541367988684
 20
-147.5897853906199
 10
113.6368190905144
 20
-147.6709173892976
 10
113.6981417901519
 20
-147.7556667382347
 10
113.7257025540339
 20
-147.7034735416332
 10
113.8059732788402
 20
-147.5482719900227
 10
114.0833034654028
 20
-147.5482719900227
 10
114.4216118420543
 20
-147.5482719900227
 10
114.5886989730889
 20
-147.7592840884942
 10
114.5886989730889
 20
-147.9956176387824
 97
        0
 97
        0
 75
     2
 76
     1
 98
        0
  0
POLYLINE
  5
EF
330
E9
100
AcDbEntity
  8
_U+30EC_U+30A4_U+30E4_U+30FC 1
370
     0
100
AcDb2dPolyline
 66
     1
 10
0.0
 20
0.0
 30
0.0
  0
VERTEX
  5
F0
330
EF
100
AcDbEntity
  8
_U+30EC_U+30A4_U+30E4_U+30FC 1
370
     0
100
AcDbVertex
100
AcDb2dVertex
 10
114.5380560694558
 20
-147.3615478147221
 30
0.0
  0
VERTEX
  5
F1
330
EF
100
AcDbEntity
  8
_U+30EC_U+30A4_U+30E4_U+30FC 1
370
     0
100
AcDbVertex
100
AcDb2dVertex
 10
114.286219589484
 20
-147.3615478147221
 30
0.0
  0
VERTEX
  5
F2
330
EF
100
AcDbEntity
  8
_U+30EC_U+30A4_U+30E4_U+30FC 1
370
     0
100
AcDbVertex
100
AcDb2dVertex
 10
114.286219589484
 20
-147.146918365991
 30
0.0
  0
VERTEX
  5
F3
330
EF
100
AcDbEntity
  8
_U+30EC_U+30A4_U+30E4_U+30FC 1
370
     0
100
AcDbVertex
100
AcDb2dVertex
 10
114.5380560694558
 20
-147.146918365991
 30
0.0
  0
VERTEX
  5
F4
330
EF
100
AcDbEntity
  8
_U+30EC_U+30A4_U+30E4_U+30FC 1
370
     0
100
AcDbVertex
100
AcDb2dVertex
 10
114.5380560694558
 20
-147.3615478147221
 30
0.0
  0
SEQEND
  5
F5
330
EF
100
AcDbEntity
  8
_U+30EC_U+30A4_U+30E4_U+30FC 1
370
     0
  0
HATCH
  5
F6
330
E9
100
AcDbEntity
  8
_U+30EC_U+30A4_U+30E4_U+30FC 1
 62
   179
420
  2234388
100
AcDbHatch
 10
0.0
 20
0.0
 30
0.0
210
0.0
220
0.0
230
1.0
  2
SOLID
 70
     1
 71
     0
 91
        1
 92
        1
 93
        4
 72
     1
 10
114.5380560694558
 20
-147.3615478147221
 11
114.286219589484
 21
-147.3615478147221
 72
     1
 10
114.286219589484
 20
-147.3615478147221
 11
114.286219589484
 21
-147.146918365991
 72
     1
 10
114.286219589484
 20
-147.146918365991
 11
114.5380560694558
 21
-147.146918365991
 72
     1
 10
114.5380560694558
 20
-147.146918365991
 11
114.5380560694558
 21
-147.3615478147221
 97
        0
 75
     2
 76
     1
 98
        0
  0
SPLINE
  5
F7
330
E9
100
AcDbEntity
  8
_U+30EC_U+30A4_U+30E4_U+30FC 1
370
     0
100
AcDbSpline
210
0.0
220
0.0
230
1.0
 70
    11
 71
     3
 72
    53
 73
    49
 74
     0
 42
0.0000000001
 43
0.0000000001
 12
1.0
 22
0.0
 32
0.0
 13
1.0
 23
0.0
 33
0.0
 40
0.0
 40
0.0
 40
0.0
 40
0.0
 40
1.0
 40
1.0
 40
1.0
 40
2.0
 40
2.0
 40
2.0
 40
3.0
 40
3.0
 40
3.0
 40
4.0
 40
4.0
 40
4.0
 40
5.0
 40
5.0
 40
5.0
 40
6.0
 40
6.0
 40
6.0
 40
7.0
 40
7.0
 40
7.0
 40
8.0
 40
8.0
 40
8.0
 40
9.0
 40
9.0
 40
9.0
 40
10.0
 40
10.0
 40
10.0
 40
11.0
 40
11.0
 40
11.0
 40
12.0
 40
12.0
 40
12.0
 40
13.0
 40
13.0
 40
13.0
 40
14.0
 40
14.0
 40
14.0
 40
15.0
 40
15.0
 40
15.0
 40
16.0
 40
16.0
 40
16.0
 40
16.0
 10
114.5886989730889
 20
-146.5361029364562
 30
0.0
 10
114.5886989730889
 20
-146.6027655340959
 30
0.0
 10
114.5718180052112
 20
-146.6894096855499
 30
0.0
 10
114.5084282482826
 20
-146.7758815822297
 30
0.0
 10
114.3981851927546
 20
-146.9238484333211
 30
0.0
 10
114.2672715643151
 20
-146.9417629298444
 30
0.0
 10
114.1594400756268
 20
-146.9581271333994
 30
0.0
 10
114.1594400756268
 20
-146.9581271333994
 30
0.0
 10
114.1594400756268
 20
-146.7686468817106
 30
0.0
 10
114.1594400756268
 20
-146.7686468817106
 30
0.0
 10
114.3582220851257
 20
-146.7217935831112
 30
0.0
 10
114.3878499062989
 20
-146.6136175848744
 30
0.0
 10
114.3878499062989
 20
-146.5342081339394
 30
0.0
 10
114.3878499062989
 20
-146.415180084924
 30
0.0
 10
114.2882866467752
 20
-146.2854722399043
 30
0.0
 10
114.0557427015208
 20
-146.2854722399043
 30
0.0
 10
113.7997721069667
 20
-146.2854722399043
 30
0.0
 10
113.7298366686162
 20
-146.4387789889979
 30
0.0
 10
113.7298366686162
 20
-146.5414428344584
 30
0.0
 10
113.7298366686162
 20
-146.5684868340176
 30
0.0
 10
113.7298366686162
 20
-146.6894096855499
 30
0.0
 10
113.859027749313
 20
-146.7650295314511
 30
0.0
 10
113.859027749313
 20
-146.7650295314511
 30
0.0
 10
113.8397352145956
 20
-146.9147189302852
 30
0.0
 10
113.8397352145956
 20
-146.9147189302852
 30
0.0
 10
113.8397352145956
 20
-146.9147189302852
 30
0.0
 10
112.9936197634183
 20
-146.8120550848248
 30
0.0
 10
112.9936197634183
 20
-146.8120550848248
 30
0.0
 10
112.9936197634183
 20
-146.8120550848248
 30
0.0
 10
112.9936197634183
 20
-146.1483574395914
 30
0.0
 10
112.9936197634183
 20
-146.1483574395914
 30
0.0
 10
112.9936197634183
 20
-146.1483574395914
 30
0.0
 10
113.1882676583349
 20
-146.1483574395914
 30
0.0
 10
113.1882676583349
 20
-146.1483574395914
 30
0.0
 10
113.1882676583349
 20
-146.1483574395914
 30
0.0
 10
113.1882676583349
 20
-146.6732177367692
 30
0.0
 10
113.1882676583349
 20
-146.6732177367692
 30
0.0
 10
113.1882676583349
 20
-146.6732177367692
 30
0.0
 10
113.6113253839236
 20
-146.7290282836302
 30
0.0
 10
113.6113253839236
 20
-146.7290282836302
 30
0.0
 10
113.5775634481681
 20
-146.6766628322545
 30
0.0
 10
113.5372558309907
 20
-146.6063828843554
 30
0.0
 10
113.5372558309907
 20
-146.5054415866375
 30
0.0
 10
113.5372558309907
 20
-146.2890895901639
 30
0.0
 10
113.7236354967427
 20
-146.0870347399539
 30
0.0
 10
114.0364501668034
 20
-146.0870347399539
 30
0.0
 10
114.3540879705434
 20
-146.0870347399539
 30
0.0
 10
114.5886989730889
 20
-146.2782375393853
 30
0.0
 10
114.5886989730889
 20
-146.5361029364562
 30
0.0
  0
HATCH
  5
F8
330
E9
100
AcDbEntity
  8
_U+30EC_U+30A4_U+30E4_U+30FC 1
 62
   179
420
  2234388
100
AcDbHatch
 10
0.0
 20
0.0
 30
0.0
210
0.0
220
0.0
230
1.0
  2
SOLID
 70
     1
 71
     0
 91
        1
 92
        1
 93
        1
 72
     4
 94
        3
 73
     0
 74
     1
 95
       53
 96
       49
 40
0.0
 40
0.0
 40
0.0
 40
0.0
 40
1.0
 40
1.0
 40
1.0
 40
2.0
 40
2.0
 40
2.0
 40
3.0
 40
3.0
 40
3.0
 40
4.0
 40
4.0
 40
4.0
 40
5.0
 40
5.0
 40
5.0
 40
6.0
 40
6.0
 40
6.0
 40
7.0
 40
7.0
 40
7.0
 40
8.0
 40
8.0
 40
8.0
 40
9.0
 40
9.0
 40
9.0
 40
10.0
 40
10.0
 40
10.0
 40
11.0
 40
11.0
 40
11.0
 40
12.0
 40
12.0
 40
12.0
 40
13.0
 40
13.0
 40
13.0
 40
14.0
 40
14.0
 40
14.0
 40
15.0
 40
15.0
 40
15.0
 40
16.0
 40
16.0
 40
16.0
 40
16.0
 10
114.5886989730889
 20
-146.5361029364562
 10
114.5886989730889
 20
-146.6027655340959
 10
114.5718180052112
 20
-146.6894096855499
 10
114.5084282482826
 20
-146.7758815822297
 10
114.3981851927546
 20
-146.9238484333211
 10
114.2672715643151
 20
-146.9417629298444
 10
114.1594400756268
 20
-146.9581271333994
 10
114.1594400756268
 20
-146.9581271333994
 10
114.1594400756268
 20
-146.7686468817106
 10
114.1594400756268
 20
-146.7686468817106
 10
114.3582220851257
 20
-146.7217935831112
 10
114.3878499062989
 20
-146.6136175848744
 10
114.3878499062989
 20
-146.5342081339394
 10
114.3878499062989
 20
-146.415180084924
 10
114.2882866467752
 20
-146.2854722399043
 10
114.0557427015208
 20
-146.2854722399043
 10
113.7997721069667
 20
-146.2854722399043
 10
113.7298366686162
 20
-146.4387789889979
 10
113.7298366686162
 20
-146.5414428344584
 10
113.7298366686162
 20
-146.5684868340176
 10
113.7298366686162
 20
-146.6894096855499
 10
113.859027749313
 20
-146.7650295314511
 10
113.859027749313
 20
-146.7650295314511
 10
113.8397352145956
 20
-146.9147189302852
 10
113.8397352145956
 20
-146.9147189302852
 10
113.8397352145956
 20
-146.9147189302852
 10
112.9936197634183
 20
-146.8120550848248
 10
112.9936197634183
 20
-146.8120550848248
 10
112.9936197634183
 20
-146.8120550848248
 10
112.9936197634183
 20
-146.1483574395914
 10
112.9936197634183
 20
-146.1483574395914
 10
112.9936197634183
 20
-146.1483574395914
 10
113.1882676583349
 20
-146.1483574395914
 10
113.1882676583349
 20
-146.1483574395914
 10
113.1882676583349
 20
-146.1483574395914
 10
113.1882676583349
 20
-146.6732177367692
 10
113.1882676583349
 20
-146.6732177367692
 10
113.1882676583349
 20
-146.6732177367692
 10
113.6113253839236
 20
-146.7290282836302
 10
113.6113253839236
 20
-146.7290282836302
 10
113.5775634481681
 20
-146.6766628322545
 10
113.5372558309907
 20
-146.6063828843554
 10
113.5372558309907
 20
-146.5054415866375
 10
113.5372558309907
 20
-146.2890895901639
 10
113.7236354967427
 20
-146.0870347399539
 10
114.0364501668034
 20
-146.0870347399539
 10
114.3540879705434
 20
-146.0870347399539
 10
114.5886989730889
 20
-146.2782375393853
 10
114.5886989730889
 20
-146.5361029364562
 97
        0
 97
        0
 75
     2
 76
     1
 98
        0
  0
ENDBLK
  5
EC
330
E9
100
AcDbEntity
  8
0
100
AcDbBlockEnd
  0
BLOCK
  5
FB
330
F9
100
AcDbEntity
  8
0
100
AcDbBlockBegin
  2
block 8
 70
     0
 10
0.0
 20
0.0
 30
0.0
  3
block 8
  1

  0
SPLINE
  5
FD
330
F9
100
AcDbEntity
  8
_U+30EC_U+30A4_U+30E4_U+30FC 1
370
     0
100
AcDbSpline
210
0.0
220
0.0
230
1.0
 70
    11
 71
     3
 72
   242
 73
   238
 74
     0
 42
0.0000000001
 43
0.0000000001
 12
1.0
 22
0.0
 32
0.0
 13
1.0
 23
0.0
 33
0.0
 40
0.0
 40
0.0
 40
0.0
 40
0.0
 40
1.0
 40
1.0
 40
1.0
 40
2.0
 40
2.0
 40
2.0
 40
3.0
 40
3.0
 40
3.0
 40
4.0
 40
4.0
 40
4.0
 40
5.0
 40
5.0
 40
5.0
 40
6.0
 40
6.0
 40
6.0
 40
7.0
 40
7.0
 40
7.0
 40
8.0
 40
8.0
 40
8.0
 40
9.0
 40
9.0
 40
9.0
 40
10.0
 40
10.0
 40
10.0
 40
11.0
 40
11.0
 40
11.0
 40
12.0
 40
12.0
 40
12.0
 40
13.0
 40
13.0
 40
13.0
 40
14.0
 40
14.0
 40
14.0
 40
15.0
 40
15.0
 40
15.0
 40
16.0
 40
16.0
 40
16.0
 40
17.0
 40
17.0
 40
17.0
 40
18.0
 40
18.0
 40
18.0
 40
19.0
 40
19.0
 40
19.0
 40
20.0
 40
20.0
 40
20.0
 40
21.0
 40
21.0
 40
21.0
 40
22.0
 40
22.0
 40
22.0
 40
23.0
 40
23.0
 40
23.0
 40
24.0
 40
24.0
 40
24.0
 40
25.0
 40
25.0
 40
25.0
 40
26.0
 40
26.0
 40
26.0
 40
27.0
 40
27.0
 40
27.0
 40
28.0
 40
28.0
 40
28.0
 40
29.0
 40
29.0
 40
29.0
 40
30.0
 40
30.0
 40
30.0
 40
31.0
 40
31.0
 40
31.0
 40
32.0
 40
32.0
 40
32.0
 40
33.0
 40
33.0
 40
33.0
 40
34.0
 40
34.0
 40
34.0
 40
35.0
 40
35.0
 40
35.0
 40
36.0
 40
36.0
 40
36.0
 40
37.0
 40
37.0
 40
37.0
 40
38.0
 40
38.0
 40
38.0
 40
39.0
 40
39.0
 40
39.0
 40
40.0
 40
40.0
 40
40.0
 40
41.0
 40
41.0
 40
41.0
 40
42.0
 40
42.0
 40
42.0
 40
43.0
 40
43.0
 40
43.0
 40
44.0
 40
44.0
 40
44.0
 40
45.0
 40
45.0
 40
45.0
 40
46.0
 40
46.0
 40
46.0
 40
47.0
 40
47.0
 40
47.0
 40
48.0
 40
48.0
 40
48.0
 40
49.0
 40
49.0
 40
49.0
 40
50.0
 40
50.0
 40
50.0
 40
51.0
 40
51.0
 40
51.0
 40
52.0
 40
52.0
 40
52.0
 40
53.0
 40
53.0
 40
53.0
 40
54.0
 40
54.0
 40
54.0
 40
55.0
 40
55.0
 40
55.0
 40
56.0
 40
56.0
 40
56.0
 40
57.0
 40
57.0
 40
57.0
 40
58.0
 40
58.0
 40
58.0
 40
59.0
 40
59.0
 40
59.0
 40
60.0
 40
60.0
 40
60.0
 40
61.0
 40
61.0
 40
61.0
 40
62.0
 40
62.0
 40
62.0
 40
63.0
 40
63.0
 40
63.0
 40
64.0
 40
64.0
 40
64.0
 40
65.0
 40
65.0
 40
65.0
 40
66.0
 40
66.0
 40
66.0
 40
67.0
 40
67.0
 40
67.0
 40
68.0
 40
68.0
 40
68.0
 40
69.0
 40
69.0
 40
69.0
 40
70.0
 40
70.0
 40
70.0
 40
71.0
 40
71.0
 40
71.0
 40
72.0
 40
72.0
 40
72.0
 40
73.0
 40
73.0
 40
73.0
 40
74.0
 40
74.0
 40
74.0
 40
75.0
 40
75.0
 40
75.0
 40
76.0
 40
76.0
 40
76.0
 40
77.0
 40
77.0
 40
77.0
 40
78.0
 40
78.0
 40
78.0
 40
79.0
 40
79.0
 40
79.0
 40
79.0
 10
116.1572509475232
 20
-140.8628919461211
 30
0.0
 10
116.1572509475232
 20
-140.8628919461211
 30
0.0
 10
115.9408989510495
 20
-140.8628919461211
 30
0.0
 10
115.9408989510495
 20
-140.8628919461211
 30
0.0
 10
115.9408989510495
 20
-140.8628919461211
 30
0.0
 10
115.7049099103099
 20
-140.8628919461211
 30
0.0
 10
115.7049099103099
 20
-140.8628919461211
 30
0.0
 10
115.7049099103099
 20
-140.8628919461211
 30
0.0
 10
115.8130859085467
 20
-140.9052666205897
 30
0.0
 10
115.8130859085467
 20
-140.9052666205897
 30
0.0
 10
115.8220431568084
 20
-140.9095729899462
 30
0.0
 10
115.8327229528127
 20
-140.9157741618197
 30
0.0
 10
115.8327229528127
 20
-140.9285210151151
 30
0.0
 10
115.8327229528127
 20
-140.9497083523494
 30
0.0
 10
115.8055066984792
 20
-140.9560817789971
 30
0.0
 10
115.7875922019559
 20
-140.9602158935794
 30
0.0
 10
115.7786349536942
 20
-140.9834702881048
 30
0.0
 10
115.7531412471034
 20
-141.0490993570988
 30
0.0
 10
115.7372938078712
 20
-141.0935410888586
 30
0.0
 10
115.7372938078712
 20
-141.0935410888586
 30
0.0
 10
115.968115205383
 20
-141.0935410888586
 30
0.0
 10
115.968115205383
 20
-141.0935410888586
 30
0.0
 10
116.0452853442526
 20
-141.0935410888586
 30
0.0
 10
116.2134060039328
 20
-141.089234719502
 30
0.0
 10
116.3339843459165
 20
-141.0807942355631
 30
0.0
 10
116.3339843459165
 20
-141.0807942355631
 30
0.0
 10
116.3339843459165
 20
-141.258561162602
 30
0.0
 10
116.3339843459165
 20
-141.258561162602
 30
0.0
 10
116.2637043980174
 20
-141.2542547932455
 30
0.0
 10
116.2457899014941
 20
-141.2542547932455
 30
0.0
 10
116.0924831524005
 20
-141.2501206786632
 30
0.0
 10
116.065266898067
 20
-141.4044609564024
 30
0.0
 10
116.0273708477293
 20
-141.4849039359829
 30
0.0
 10
115.9894747973915
 20
-141.5546671195593
 30
0.0
 10
116.0924831524005
 20
-141.6139227619055
 30
0.0
 10
116.1824001445655
 20
-141.6816188881907
 30
0.0
 10
116.2709390985364
 20
-141.7641289250624
 30
0.0
 10
116.2709390985364
 20
-141.7641289250624
 30
0.0
 10
116.1699978008186
 20
-141.9312160560971
 30
0.0
 10
116.1699978008186
 20
-141.9312160560971
 30
0.0
 10
116.1500162470042
 20
-141.9122680309282
 30
0.0
 10
116.1393364509999
 20
-141.9038275469893
 30
0.0
 10
116.0439073060585
 20
-141.8192504528265
 30
0.0
 10
116.0022216506869
 20
-141.7810098929402
 30
0.0
 10
115.9515787470538
 20
-141.7451808998936
 30
0.0
 10
115.8833658564458
 20
-141.7007391681339
 30
0.0
 10
115.7028428530187
 20
-141.8867743243374
 30
0.0
 10
115.527832002368
 20
-141.910200973637
 30
0.0
 10
115.2811631656242
 20
-141.9398287948102
 30
0.0
 10
115.2811631656242
 20
-141.9398287948102
 30
0.0
 10
115.1926242116532
 20
-141.7599948104802
 30
0.0
 10
115.1926242116532
 20
-141.7599948104802
 30
0.0
 10
115.4630642072454
 20
-141.7556884411236
 30
0.0
 10
115.6125813513052
 20
-141.730366989307
 30
0.0
 10
115.7428059606476
 20
-141.6202961885533
 30
0.0
 10
115.6415201533813
 20
-141.5694810301458
 30
0.0
 10
115.5657280527058
 20
-141.5420925210381
 30
0.0
 10
115.5354112124356
 20
-141.5293456677427
 30
0.0
 10
115.5188747541064
 20
-141.5569064316247
 30
0.0
 10
115.5064724103595
 20
-141.5758544567935
 30
0.0
 10
115.4830457610598
 20
-141.6097886473233
 30
0.0
 10
115.4830457610598
 20
-141.6097886473233
 30
0.0
 10
115.3149251013796
 20
-141.5272786104515
 30
0.0
 10
115.3149251013796
 20
-141.5272786104515
 30
0.0
 10
115.3855495588272
 20
-141.4468356308709
 30
0.0
 10
115.4375705006545
 20
-141.3515787407038
 30
0.0
 10
115.486490856545
 20
-141.2501206786632
 30
0.0
 10
115.3242268591898
 20
-141.2542547932455
 30
0.0
 10
115.305967853118
 20
-141.2542547932455
 30
0.0
 10
115.2356879052189
 20
-141.258561162602
 30
0.0
 10
115.2356879052189
 20
-141.258561162602
 30
0.0
 10
115.2356879052189
 20
-141.0807942355631
 30
0.0
 10
115.2356879052189
 20
-141.0807942355631
 30
0.0
 10
115.3548882090085
 20
-141.0871676622108
 30
0.0
 10
115.5333441551444
 20
-141.0914740315674
 30
0.0
 10
115.5550482567015
 20
-141.0914740315674
 30
0.0
 10
115.5695176577396
 20
-141.0575398410377
 30
0.0
 10
115.616370956339
 20
-140.936961499054
 30
0.0
 10
115.6325629051196
 20
-140.8628919461211
 30
0.0
 10
115.616370956339
 20
-140.8628919461211
 30
0.0
 10
115.464786754988
 20
-140.8692653727688
 30
0.0
 10
115.2990776621475
 20
-140.8820122260642
 30
0.0
 10
115.2990776621475
 20
-140.8820122260642
 30
0.0
 10
115.2990776621475
 20
-141.0153374213434
 30
0.0
 10
115.2990776621475
 20
-141.0153374213434
 30
0.0
 10
115.2573920067759
 20
-141.04065887316
 30
0.0
 10
115.2067491031428
 20
-141.0723537516243
 30
0.0
 10
115.093405461678
 20
-141.1379828206183
 30
0.0
 10
115.093405461678
 20
-141.1379828206183
 30
0.0
 10
115.093405461678
 20
-141.2838826144186
 30
0.0
 10
115.093405461678
 20
-141.2838826144186
 30
0.0
 10
115.093405461678
 20
-141.2838826144186
 30
0.0
 10
115.093405461678
 20
-141.751382071767
 30
0.0
 10
115.093405461678
 20
-141.751382071767
 30
0.0
 10
115.093405461678
 20
-141.8783338403985
 30
0.0
 10
115.0627441118593
 20
-141.9375894827448
 30
0.0
 10
114.8208984087948
 20
-141.9291489988059
 30
0.0
 10
114.8208984087948
 20
-141.9291489988059
 30
0.0
 10
114.7327039643724
 20
-141.7219265053681
 30
0.0
 10
114.7327039643724
 20
-141.7219265053681
 30
0.0
 10
114.7867919634908
 20
-141.7345011038893
 30
0.0
 10
114.8284776188623
 20
-141.7388074732459
 30
0.0
 10
114.8625840641663
 20
-141.7388074732459
 30
0.0
 10
114.9276963688375
 20
-141.7388074732459
 30
0.0
 10
114.9366536170992
 20
-141.7155530787204
 30
0.0
 10
114.9366536170992
 20
-141.6499240097264
 30
0.0
 10
114.9366536170992
 20
-141.6499240097264
 30
0.0
 10
114.9366536170992
 20
-141.22049285749
 30
0.0
 10
114.9366536170992
 20
-141.22049285749
 30
0.0
 10
114.8532823063561
 20
-141.2606282198932
 30
0.0
 10
114.8391574148666
 20
-141.2670016465409
 30
0.0
 10
114.7995388167862
 20
-141.286121926484
 30
0.0
 10
114.7957492117525
 20
-141.3071370089441
 30
0.0
 10
114.7923041162672
 20
-141.3367648301172
 30
0.0
 10
114.7761121674865
 20
-141.3367648301172
 30
0.0
 10
114.768532957419
 20
-141.3367648301172
 30
0.0
 10
114.7595757091573
 20
-141.3326307155349
 30
0.0
 10
114.7544080659295
 20
-141.3093763210095
 30
0.0
 10
114.7544080659295
 20
-141.3093763210095
 30
0.0
 10
114.7092773150727
 20
-141.116795483384
 30
0.0
 10
114.7092773150727
 20
-141.116795483384
 30
0.0
 10
114.8336452620902
 20
-141.0702866943331
 30
0.0
 10
114.8898003184998
 20
-141.0470322998077
 30
0.0
 10
114.9366536170992
 20
-141.0258449625734
 30
0.0
 10
114.9366536170992
 20
-141.0258449625734
 30
0.0
 10
114.9366536170992
 20
-140.6132947782147
 30
0.0
 10
114.9366536170992
 20
-140.6132947782147
 30
0.0
 10
114.9366536170992
 20
-140.6132947782147
 30
0.0
 10
114.8911783566939
 20
-140.6132947782147
 30
0.0
 10
114.8911783566939
 20
-140.6132947782147
 30
0.0
 10
114.8911783566939
 20
-140.6132947782147
 30
0.0
 10
114.8246880138285
 20
-140.6132947782147
 30
0.0
 10
114.8246880138285
 20
-140.6132947782147
 30
0.0
 10
114.7671549192249
 20
-140.6132947782147
 30
0.0
 10
114.7595757091573
 20
-140.6132947782147
 30
0.0
 10
114.7292588688871
 20
-140.6196682048624
 30
0.0
 10
114.7292588688871
 20
-140.6196682048624
 30
0.0
 10
114.7292588688871
 20
-140.4250203099458
 30
0.0
 10
114.7292588688871
 20
-140.4250203099458
 30
0.0
 10
114.7526855181868
 20
-140.4313937365935
 30
0.0
 10
114.7595757091573
 20
-140.4313937365935
 30
0.0
 10
114.8195203706007
 20
-140.4313937365935
 30
0.0
 10
114.8195203706007
 20
-140.4313937365935
 30
0.0
 10
114.9328640120654
 20
-140.4313937365935
 30
0.0
 10
114.9328640120654
 20
-140.4313937365935
 30
0.0
 10
114.9328640120654
 20
-140.3616305530172
 30
0.0
 10
114.9328640120654
 20
-140.2791205161455
 30
0.0
 10
114.9311414643228
 20
-140.2748141467889
 30
0.0
 10
114.9239067638038
 20
-140.0949801624589
 30
0.0
 10
114.9239067638038
 20
-140.07603213729
 30
0.0
 10
114.9221842160611
 20
-140.0295233482392
 30
0.0
 10
114.9221842160611
 20
-140.0295233482392
 30
0.0
 10
115.1061523149735
 20
-140.037963832178
 30
0.0
 10
115.1061523149735
 20
-140.037963832178
 30
0.0
 10
115.1151095632351
 20
-140.037963832178
 30
0.0
 10
115.1330240597584
 20
-140.0400308894692
 30
0.0
 10
115.1330240597584
 20
-140.0569118573469
 30
0.0
 10
115.1330240597584
 20
-140.07603213729
 30
0.0
 10
115.1206217160115
 20
-140.08653967852
 30
0.0
 10
115.0985731049059
 20
-140.1056599584632
 30
0.0
 10
115.0985731049059
 20
-140.1563028620963
 30
0.0
 10
115.093405461678
 20
-140.3848849475427
 30
0.0
 10
115.0951280094207
 20
-140.4313937365935
 30
0.0
 10
115.2053710649487
 20
-140.4313937365935
 30
0.0
 10
115.2160508609529
 20
-140.4313937365935
 30
0.0
 10
115.2990776621475
 20
-140.4229532526547
 30
0.0
 10
115.2990776621475
 20
-140.4229532526547
 30
0.0
 10
115.2990776621475
 20
-140.6176011475713
 30
0.0
 10
115.2990776621475
 20
-140.6176011475713
 30
0.0
 10
115.2666937645861
 20
-140.6153618355059
 30
0.0
 10
115.2088161604339
 20
-140.6112277209236
 30
0.0
 10
115.093405461678
 20
-140.6132947782147
 30
0.0
 10
115.093405461678
 20
-140.6132947782147
 30
0.0
 10
115.093405461678
 20
-140.9517754096405
 30
0.0
 10
115.093405461678
 20
-140.9517754096405
 30
0.0
 10
115.1402587602774
 20
-140.9285210151151
 30
0.0
 10
115.196413816687
 20
-140.9009602512331
 30
0.0
 10
115.23775496251
 20
-140.8777058567076
 30
0.0
 10
115.23775496251
 20
-140.8777058567076
 30
0.0
 10
115.23775496251
 20
-140.700111184443
 30
0.0
 10
115.23775496251
 20
-140.700111184443
 30
0.0
 10
115.3349066551941
 20
-140.7126857829642
 30
0.0
 10
115.4361924624604
 20
-140.7126857829642
 30
0.0
 10
115.5354112124356
 20
-140.7126857829642
 30
0.0
 10
115.5154296586211
 20
-140.6176011475713
 30
0.0
 10
115.4920030093215
 20
-140.5350911106996
 30
0.0
 10
115.4375705006545
 20
-140.4017659154204
 30
0.0
 10
115.4000189598653
 20
-140.4038329727115
 30
0.0
 10
115.3293945024177
 20
-140.4081393420681
 30
0.0
 10
115.2970106048563
 20
-140.4102063993593
 30
0.0
 10
115.2970106048563
 20
-140.4102063993593
 30
0.0
 10
115.2970106048563
 20
-140.2303724150292
 30
0.0
 10
115.2970106048563
 20
-140.2303724150292
 30
0.0
 10
115.4034640553505
 20
-140.2388128989681
 30
0.0
 10
115.5512586516678
 20
-140.2431192683246
 30
0.0
 10
115.6215385995668
 20
-140.2431192683246
 30
0.0
 10
115.6215385995668
 20
-140.2431192683246
 30
0.0
 10
115.6918185474659
 20
-140.2431192683246
 30
0.0
 10
115.6918185474659
 20
-140.2431192683246
 30
0.0
 10
115.6918185474659
 20
-140.0801662518723
 30
0.0
 10
115.6918185474659
 20
-140.0696587106423
 30
0.0
 10
115.6904405092718
 20
-140.0147094376526
 30
0.0
 10
115.6904405092718
 20
-140.0147094376526
 30
0.0
 10
115.8812987991547
 20
-140.0400308894692
 30
0.0
 10
115.8812987991547
 20
-140.0400308894692
 30
0.0
 10
115.8850884041885
 20
-140.0400308894692
 30
0.0
 10
115.9030029007118
 20
-140.0420979467603
 30
0.0
 10
115.9030029007118
 20
-140.0591511694123
 30
0.0
 10
115.9030029007118
 20
-140.0737928252246
 30
0.0
 10
115.8940456524501
 20
-140.0824055639377
 30
0.0
 10
115.8706190031504
 20
-140.0972194745243
 30
0.0
 10
115.865106850374
 20
-140.1626762887441
 30
0.0
 10
115.8633843026314
 20
-140.1838636259783
 30
0.0
 10
115.8633843026314
 20
-140.2431192683246
 30
0.0
 10
115.8633843026314
 20
-140.2431192683246
 30
0.0
 10
115.9446885560833
 20
-140.2431192683246
 30
0.0
 10
115.9446885560833
 20
-140.2431192683246
 30
0.0
 10
116.0149685039824
 20
-140.2431192683246
 30
0.0
 10
116.1627631002996
 20
-140.2388128989681
 30
0.0
 10
116.2692165507938
 20
-140.2303724150292
 30
0.0
 10
116.2692165507938
 20
-140.2303724150292
 30
0.0
 10
116.2692165507938
 20
-140.4102063993593
 30
0.0
 10
116.2692165507938
 20
-140.4102063993593
 30
0.0
 10
116.243722844203
 20
-140.4081393420681
 30
0.0
 10
116.1431260560337
 20
-140.4038329727115
 30
0.0
 10
116.1086751011812
 20
-140.4017659154204
 30
0.0
 10
116.0959282478858
 20
-140.4525810738278
 30
0.0
 10
116.0673339553582
 20
-140.5647189318727
 30
0.0
 10
116.0111788989486
 20
-140.7042452990253
 30
0.0
 10
116.0473524015437
 20
-140.7042452990253
 30
0.0
 10
116.2836859518319
 20
-140.6852972738565
 30
0.0
 10
116.3360514032077
 20
-140.683057961791
 30
0.0
 10
116.3360514032077
 20
-140.683057961791
 30
0.0
 10
116.3360514032077
 20
-140.8671983154777
 30
0.0
 10
116.3360514032077
 20
-140.8671983154777
 30
0.0
 10
116.3105576966168
 20
-140.8671983154777
 30
0.0
 10
116.2960882955788
 20
-140.8628919461211
 30
0.0
 10
116.1572509475232
 20
-140.8628919461211
 30
0.0
  0
SPLINE
  5
FE
330
F9
100
AcDbEntity
  8
_U+30EC_U+30A4_U+30E4_U+30FC 1
370
     0
100
AcDbSpline
210
0.0
220
0.0
230
1.0
 70
    11
 71
     3
 72
    20
 73
    16
 74
     0
 42
0.0000000001
 43
0.0000000001
 12
1.0
 22
0.0
 32
0.0
 13
1.0
 23
0.0
 33
0.0
 40
0.0
 40
0.0
 40
0.0
 40
0.0
 40
1.0
 40
1.0
 40
1.0
 40
2.0
 40
2.0
 40
2.0
 40
3.0
 40
3.0
 40
3.0
 40
4.0
 40
4.0
 40
4.0
 40
5.0
 40
5.0
 40
5.0
 40
5.0
 10
115.6215385995668
 20
-140.3974595460638
 30
0.0
 10
115.6215385995668
 20
-140.3974595460638
 30
0.0
 10
115.5946668547819
 20
-140.3974595460638
 30
0.0
 10
115.5946668547819
 20
-140.3974595460638
 30
0.0
 10
115.6342854528623
 20
-140.4970228055876
 30
0.0
 10
115.6615017071957
 20
-140.5772935303939
 30
0.0
 10
115.6904405092718
 20
-140.7042452990253
 30
0.0
 10
115.6904405092718
 20
-140.7042452990253
 30
0.0
 10
115.8668293981166
 20
-140.7042452990253
 30
0.0
 10
115.8668293981166
 20
-140.7042452990253
 30
0.0
 10
115.8940456524501
 20
-140.6112277209236
 30
0.0
 10
115.913682696716
 20
-140.5266506267607
 30
0.0
 10
115.9336642505305
 20
-140.3974595460638
 30
0.0
 10
115.9336642505305
 20
-140.3974595460638
 30
0.0
 10
115.6215385995668
 20
-140.3974595460638
 30
0.0
 10
115.6215385995668
 20
-140.3974595460638
 30
0.0
  0
SPLINE
  5
FF
330
F9
100
AcDbEntity
  8
_U+30EC_U+30A4_U+30E4_U+30FC 1
370
     0
100
AcDbSpline
210
0.0
220
0.0
230
1.0
 70
    11
 71
     3
 72
    17
 73
    13
 74
     0
 42
0.0000000001
 43
0.0000000001
 12
1.0
 22
0.0
 32
0.0
 13
1.0
 23
0.0
 33
0.0
 40
0.0
 40
0.0
 40
0.0
 40
0.0
 40
1.0
 40
1.0
 40
1.0
 40
2.0
 40
2.0
 40
2.0
 40
3.0
 40
3.0
 40
3.0
 40
4.0
 40
4.0
 40
4.0
 40
4.0
 10
115.6759711082338
 20
-141.248053621372
 30
0.0
 10
115.6615017071957
 20
-141.2776814425452
 30
0.0
 10
115.6180935040816
 20
-141.3706990206469
 30
0.0
 10
115.6091362558199
 20
-141.3896470458158
 30
0.0
 10
115.7714002531752
 20
-141.4489026881621
 30
0.0
 10
115.789659259247
 20
-141.4552761148098
 30
0.0
 10
115.8509819588845
 20
-141.4828368786918
 30
0.0
 10
115.8978352574839
 20
-141.3960204724635
 30
0.0
 10
115.9174723017498
 20
-141.3219509195306
 30
0.0
 10
115.9302191550452
 20
-141.248053621372
 30
0.0
 10
115.9302191550452
 20
-141.248053621372
 30
0.0
 10
115.6759711082338
 20
-141.248053621372
 30
0.0
 10
115.6759711082338
 20
-141.248053621372
 30
0.0
  0
HATCH
  5
100
330
F9
100
AcDbEntity
  8
_U+30EC_U+30A4_U+30E4_U+30FC 1
 62
   179
420
  2234388
100
AcDbHatch
 10
0.0
 20
0.0
 30
0.0
210
0.0
220
0.0
230
1.0
  2
SOLID
 70
     1
 71
     0
 91
        3
 92
        1
 93
        1
 72
     4
 94
        3
 73
     0
 74
     1
 95
      242
 96
      238
 40
0.0
 40
0.0
 40
0.0
 40
0.0
 40
1.0
 40
1.0
 40
1.0
 40
2.0
 40
2.0
 40
2.0
 40
3.0
 40
3.0
 40
3.0
 40
4.0
 40
4.0
 40
4.0
 40
5.0
 40
5.0
 40
5.0
 40
6.0
 40
6.0
 40
6.0
 40
7.0
 40
7.0
 40
7.0
 40
8.0
 40
8.0
 40
8.0
 40
9.0
 40
9.0
 40
9.0
 40
10.0
 40
10.0
 40
10.0
 40
11.0
 40
11.0
 40
11.0
 40
12.0
 40
12.0
 40
12.0
 40
13.0
 40
13.0
 40
13.0
 40
14.0
 40
14.0
 40
14.0
 40
15.0
 40
15.0
 40
15.0
 40
16.0
 40
16.0
 40
16.0
 40
17.0
 40
17.0
 40
17.0
 40
18.0
 40
18.0
 40
18.0
 40
19.0
 40
19.0
 40
19.0
 40
20.0
 40
20.0
 40
20.0
 40
21.0
 40
21.0
 40
21.0
 40
22.0
 40
22.0
 40
22.0
 40
23.0
 40
23.0
 40
23.0
 40
24.0
 40
24.0
 40
24.0
 40
25.0
 40
25.0
 40
25.0
 40
26.0
 40
26.0
 40
26.0
 40
27.0
 40
27.0
 40
27.0
 40
28.0
 40
28.0
 40
28.0
 40
29.0
 40
29.0
 40
29.0
 40
30.0
 40
30.0
 40
30.0
 40
31.0
 40
31.0
 40
31.0
 40
32.0
 40
32.0
 40
32.0
 40
33.0
 40
33.0
 40
33.0
 40
34.0
 40
34.0
 40
34.0
 40
35.0
 40
35.0
 40
35.0
 40
36.0
 40
36.0
 40
36.0
 40
37.0
 40
37.0
 40
37.0
 40
38.0
 40
38.0
 40
38.0
 40
39.0
 40
39.0
 40
39.0
 40
40.0
 40
40.0
 40
40.0
 40
41.0
 40
41.0
 40
41.0
 40
42.0
 40
42.0
 40
42.0
 40
43.0
 40
43.0
 40
43.0
 40
44.0
 40
44.0
 40
44.0
 40
45.0
 40
45.0
 40
45.0
 40
46.0
 40
46.0
 40
46.0
 40
47.0
 40
47.0
 40
47.0
 40
48.0
 40
48.0
 40
48.0
 40
49.0
 40
49.0
 40
49.0
 40
50.0
 40
50.0
 40
50.0
 40
51.0
 40
51.0
 40
51.0
 40
52.0
 40
52.0
 40
52.0
 40
53.0
 40
53.0
 40
53.0
 40
54.0
 40
54.0
 40
54.0
 40
55.0
 40
55.0
 40
55.0
 40
56.0
 40
56.0
 40
56.0
 40
57.0
 40
57.0
 40
57.0
 40
58.0
 40
58.0
 40
58.0
 40
59.0
 40
59.0
 40
59.0
 40
60.0
 40
60.0
 40
60.0
 40
61.0
 40
61.0
 40
61.0
 40
62.0
 40
62.0
 40
62.0
 40
63.0
 40
63.0
 40
63.0
 40
64.0
 40
64.0
 40
64.0
 40
65.0
 40
65.0
 40
65.0
 40
66.0
 40
66.0
 40
66.0
 40
67.0
 40
67.0
 40
67.0
 40
68.0
 40
68.0
 40
68.0
 40
69.0
 40
69.0
 40
69.0
 40
70.0
 40
70.0
 40
70.0
 40
71.0
 40
71.0
 40
71.0
 40
72.0
 40
72.0
 40
72.0
 40
73.0
 40
73.0
 40
73.0
 40
74.0
 40
74.0
 40
74.0
 40
75.0
 40
75.0
 40
75.0
 40
76.0
 40
76.0
 40
76.0
 40
77.0
 40
77.0
 40
77.0
 40
78.0
 40
78.0
 40
78.0
 40
79.0
 40
79.0
 40
79.0
 40
79.0
 10
116.1572509475232
 20
-140.8628919461211
 10
116.1572509475232
 20
-140.8628919461211
 10
115.9408989510495
 20
-140.8628919461211
 10
115.9408989510495
 20
-140.8628919461211
 10
115.9408989510495
 20
-140.8628919461211
 10
115.7049099103099
 20
-140.8628919461211
 10
115.7049099103099
 20
-140.8628919461211
 10
115.7049099103099
 20
-140.8628919461211
 10
115.8130859085467
 20
-140.9052666205897
 10
115.8130859085467
 20
-140.9052666205897
 10
115.8220431568084
 20
-140.9095729899462
 10
115.8327229528127
 20
-140.9157741618197
 10
115.8327229528127
 20
-140.9285210151151
 10
115.8327229528127
 20
-140.9497083523494
 10
115.8055066984792
 20
-140.9560817789971
 10
115.7875922019559
 20
-140.9602158935794
 10
115.7786349536942
 20
-140.9834702881048
 10
115.7531412471034
 20
-141.0490993570988
 10
115.7372938078712
 20
-141.0935410888586
 10
115.7372938078712
 20
-141.0935410888586
 10
115.968115205383
 20
-141.0935410888586
 10
115.968115205383
 20
-141.0935410888586
 10
116.0452853442526
 20
-141.0935410888586
 10
116.2134060039328
 20
-141.089234719502
 10
116.3339843459165
 20
-141.0807942355631
 10
116.3339843459165
 20
-141.0807942355631
 10
116.3339843459165
 20
-141.258561162602
 10
116.3339843459165
 20
-141.258561162602
 10
116.2637043980174
 20
-141.2542547932455
 10
116.2457899014941
 20
-141.2542547932455
 10
116.0924831524005
 20
-141.2501206786632
 10
116.065266898067
 20
-141.4044609564024
 10
116.0273708477293
 20
-141.4849039359829
 10
115.9894747973915
 20
-141.5546671195593
 10
116.0924831524005
 20
-141.6139227619055
 10
116.1824001445655
 20
-141.6816188881907
 10
116.2709390985364
 20
-141.7641289250624
 10
116.2709390985364
 20
-141.7641289250624
 10
116.1699978008186
 20
-141.9312160560971
 10
116.1699978008186
 20
-141.9312160560971
 10
116.1500162470042
 20
-141.9122680309282
 10
116.1393364509999
 20
-141.9038275469893
 10
116.0439073060585
 20
-141.8192504528265
 10
116.0022216506869
 20
-141.7810098929402
 10
115.9515787470538
 20
-141.7451808998936
 10
115.8833658564458
 20
-141.7007391681339
 10
115.7028428530187
 20
-141.8867743243374
 10
115.527832002368
 20
-141.910200973637
 10
115.2811631656242
 20
-141.9398287948102
 10
115.2811631656242
 20
-141.9398287948102
 10
115.1926242116532
 20
-141.7599948104802
 10
115.1926242116532
 20
-141.7599948104802
 10
115.4630642072454
 20
-141.7556884411236
 10
115.6125813513052
 20
-141.730366989307
 10
115.7428059606476
 20
-141.6202961885533
 10
115.6415201533813
 20
-141.5694810301458
 10
115.5657280527058
 20
-141.5420925210381
 10
115.5354112124356
 20
-141.5293456677427
 10
115.5188747541064
 20
-141.5569064316247
 10
115.5064724103595
 20
-141.5758544567935
 10
115.4830457610598
 20
-141.6097886473233
 10
115.4830457610598
 20
-141.6097886473233
 10
115.3149251013796
 20
-141.5272786104515
 10
115.3149251013796
 20
-141.5272786104515
 10
115.3855495588272
 20
-141.4468356308709
 10
115.4375705006545
 20
-141.3515787407038
 10
115.486490856545
 20
-141.2501206786632
 10
115.3242268591898
 20
-141.2542547932455
 10
115.305967853118
 20
-141.2542547932455
 10
115.2356879052189
 20
-141.258561162602
 10
115.2356879052189
 20
-141.258561162602
 10
115.2356879052189
 20
-141.0807942355631
 10
115.2356879052189
 20
-141.0807942355631
 10
115.3548882090085
 20
-141.0871676622108
 10
115.5333441551444
 20
-141.0914740315674
 10
115.5550482567015
 20
-141.0914740315674
 10
115.5695176577396
 20
-141.0575398410377
 10
115.616370956339
 20
-140.936961499054
 10
115.6325629051196
 20
-140.8628919461211
 10
115.616370956339
 20
-140.8628919461211
 10
115.464786754988
 20
-140.8692653727688
 10
115.2990776621475
 20
-140.8820122260642
 10
115.2990776621475
 20
-140.8820122260642
 10
115.2990776621475
 20
-141.0153374213434
 10
115.2990776621475
 20
-141.0153374213434
 10
115.2573920067759
 20
-141.04065887316
 10
115.2067491031428
 20
-141.0723537516243
 10
115.093405461678
 20
-141.1379828206183
 10
115.093405461678
 20
-141.1379828206183
 10
115.093405461678
 20
-141.2838826144186
 10
115.093405461678
 20
-141.2838826144186
 10
115.093405461678
 20
-141.2838826144186
 10
115.093405461678
 20
-141.751382071767
 10
115.093405461678
 20
-141.751382071767
 10
115.093405461678
 20
-141.8783338403985
 10
115.0627441118593
 20
-141.9375894827448
 10
114.8208984087948
 20
-141.9291489988059
 10
114.8208984087948
 20
-141.9291489988059
 10
114.7327039643724
 20
-141.7219265053681
 10
114.7327039643724
 20
-141.7219265053681
 10
114.7867919634908
 20
-141.7345011038893
 10
114.8284776188623
 20
-141.7388074732459
 10
114.8625840641663
 20
-141.7388074732459
 10
114.9276963688375
 20
-141.7388074732459
 10
114.9366536170992
 20
-141.7155530787204
 10
114.9366536170992
 20
-141.6499240097264
 10
114.9366536170992
 20
-141.6499240097264
 10
114.9366536170992
 20
-141.22049285749
 10
114.9366536170992
 20
-141.22049285749
 10
114.8532823063561
 20
-141.2606282198932
 10
114.8391574148666
 20
-141.2670016465409
 10
114.7995388167862
 20
-141.286121926484
 10
114.7957492117525
 20
-141.3071370089441
 10
114.7923041162672
 20
-141.3367648301172
 10
114.7761121674865
 20
-141.3367648301172
 10
114.768532957419
 20
-141.3367648301172
 10
114.7595757091573
 20
-141.3326307155349
 10
114.7544080659295
 20
-141.3093763210095
 10
114.7544080659295
 20
-141.3093763210095
 10
114.7092773150727
 20
-141.116795483384
 10
114.7092773150727
 20
-141.116795483384
 10
114.8336452620902
 20
-141.0702866943331
 10
114.8898003184998
 20
-141.0470322998077
 10
114.9366536170992
 20
-141.0258449625734
 10
114.9366536170992
 20
-141.0258449625734
 10
114.9366536170992
 20
-140.6132947782147
 10
114.9366536170992
 20
-140.6132947782147
 10
114.9366536170992
 20
-140.6132947782147
 10
114.8911783566939
 20
-140.6132947782147
 10
114.8911783566939
 20
-140.6132947782147
 10
114.8911783566939
 20
-140.6132947782147
 10
114.8246880138285
 20
-140.6132947782147
 10
114.8246880138285
 20
-140.6132947782147
 10
114.7671549192249
 20
-140.6132947782147
 10
114.7595757091573
 20
-140.6132947782147
 10
114.7292588688871
 20
-140.6196682048624
 10
114.7292588688871
 20
-140.6196682048624
 10
114.7292588688871
 20
-140.4250203099458
 10
114.7292588688871
 20
-140.4250203099458
 10
114.7526855181868
 20
-140.4313937365935
 10
114.7595757091573
 20
-140.4313937365935
 10
114.8195203706007
 20
-140.4313937365935
 10
114.8195203706007
 20
-140.4313937365935
 10
114.9328640120654
 20
-140.4313937365935
 10
114.9328640120654
 20
-140.4313937365935
 10
114.9328640120654
 20
-140.3616305530172
 10
114.9328640120654
 20
-140.2791205161455
 10
114.9311414643228
 20
-140.2748141467889
 10
114.9239067638038
 20
-140.0949801624589
 10
114.9239067638038
 20
-140.07603213729
 10
114.9221842160611
 20
-140.0295233482392
 10
114.9221842160611
 20
-140.0295233482392
 10
115.1061523149735
 20
-140.037963832178
 10
115.1061523149735
 20
-140.037963832178
 10
115.1151095632351
 20
-140.037963832178
 10
115.1330240597584
 20
-140.0400308894692
 10
115.1330240597584
 20
-140.0569118573469
 10
115.1330240597584
 20
-140.07603213729
 10
115.1206217160115
 20
-140.08653967852
 10
115.0985731049059
 20
-140.1056599584632
 10
115.0985731049059
 20
-140.1563028620963
 10
115.093405461678
 20
-140.3848849475427
 10
115.0951280094207
 20
-140.4313937365935
 10
115.2053710649487
 20
-140.4313937365935
 10
115.2160508609529
 20
-140.4313937365935
 10
115.2990776621475
 20
-140.4229532526547
 10
115.2990776621475
 20
-140.4229532526547
 10
115.2990776621475
 20
-140.6176011475713
 10
115.2990776621475
 20
-140.6176011475713
 10
115.2666937645861
 20
-140.6153618355059
 10
115.2088161604339
 20
-140.6112277209236
 10
115.093405461678
 20
-140.6132947782147
 10
115.093405461678
 20
-140.6132947782147
 10
115.093405461678
 20
-140.9517754096405
 10
115.093405461678
 20
-140.9517754096405
 10
115.1402587602774
 20
-140.9285210151151
 10
115.196413816687
 20
-140.9009602512331
 10
115.23775496251
 20
-140.8777058567076
 10
115.23775496251
 20
-140.8777058567076
 10
115.23775496251
 20
-140.700111184443
 10
115.23775496251
 20
-140.700111184443
 10
115.3349066551941
 20
-140.7126857829642
 10
115.4361924624604
 20
-140.7126857829642
 10
115.5354112124356
 20
-140.7126857829642
 10
115.5154296586211
 20
-140.6176011475713
 10
115.4920030093215
 20
-140.5350911106996
 10
115.4375705006545
 20
-140.4017659154204
 10
115.4000189598653
 20
-140.4038329727115
 10
115.3293945024177
 20
-140.4081393420681
 10
115.2970106048563
 20
-140.4102063993593
 10
115.2970106048563
 20
-140.4102063993593
 10
115.2970106048563
 20
-140.2303724150292
 10
115.2970106048563
 20
-140.2303724150292
 10
115.4034640553505
 20
-140.2388128989681
 10
115.5512586516678
 20
-140.2431192683246
 10
115.6215385995668
 20
-140.2431192683246
 10
115.6215385995668
 20
-140.2431192683246
 10
115.6918185474659
 20
-140.2431192683246
 10
115.6918185474659
 20
-140.2431192683246
 10
115.6918185474659
 20
-140.0801662518723
 10
115.6918185474659
 20
-140.0696587106423
 10
115.6904405092718
 20
-140.0147094376526
 10
115.6904405092718
 20
-140.0147094376526
 10
115.8812987991547
 20
-140.0400308894692
 10
115.8812987991547
 20
-140.0400308894692
 10
115.8850884041885
 20
-140.0400308894692
 10
115.9030029007118
 20
-140.0420979467603
 10
115.9030029007118
 20
-140.0591511694123
 10
115.9030029007118
 20
-140.0737928252246
 10
115.8940456524501
 20
-140.0824055639377
 10
115.8706190031504
 20
-140.0972194745243
 10
115.865106850374
 20
-140.1626762887441
 10
115.8633843026314
 20
-140.1838636259783
 10
115.8633843026314
 20
-140.2431192683246
 10
115.8633843026314
 20
-140.2431192683246
 10
115.9446885560833
 20
-140.2431192683246
 10
115.9446885560833
 20
-140.2431192683246
 10
116.0149685039824
 20
-140.2431192683246
 10
116.1627631002996
 20
-140.2388128989681
 10
116.2692165507938
 20
-140.2303724150292
 10
116.2692165507938
 20
-140.2303724150292
 10
116.2692165507938
 20
-140.4102063993593
 10
116.2692165507938
 20
-140.4102063993593
 10
116.243722844203
 20
-140.4081393420681
 10
116.1431260560337
 20
-140.4038329727115
 10
116.1086751011812
 20
-140.4017659154204
 10
116.0959282478858
 20
-140.4525810738278
 10
116.0673339553582
 20
-140.5647189318727
 10
116.0111788989486
 20
-140.7042452990253
 10
116.0473524015437
 20
-140.7042452990253
 10
116.2836859518319
 20
-140.6852972738565
 10
116.3360514032077
 20
-140.683057961791
 10
116.3360514032077
 20
-140.683057961791
 10
116.3360514032077
 20
-140.8671983154777
 10
116.3360514032077
 20
-140.8671983154777
 10
116.3105576966168
 20
-140.8671983154777
 10
116.2960882955788
 20
-140.8628919461211
 10
116.1572509475232
 20
-140.8628919461211
 97
        0
 97
        0
 92
        1
 93
        1
 72
     4
 94
        3
 73
     0
 74
     1
 95
       20
 96
       16
 40
0.0
 40
0.0
 40
0.0
 40
0.0
 40
1.0
 40
1.0
 40
1.0
 40
2.0
 40
2.0
 40
2.0
 40
3.0
 40
3.0
 40
3.0
 40
4.0
 40
4.0
 40
4.0
 40
5.0
 40
5.0
 40
5.0
 40
5.0
 10
115.6215385995668
 20
-140.3974595460638
 10
115.6215385995668
 20
-140.3974595460638
 10
115.5946668547819
 20
-140.3974595460638
 10
115.5946668547819
 20
-140.3974595460638
 10
115.6342854528623
 20
-140.4970228055876
 10
115.6615017071957
 20
-140.5772935303939
 10
115.6904405092718
 20
-140.7042452990253
 10
115.6904405092718
 20
-140.7042452990253
 10
115.8668293981166
 20
-140.7042452990253
 10
115.8668293981166
 20
-140.7042452990253
 10
115.8940456524501
 20
-140.6112277209236
 10
115.913682696716
 20
-140.5266506267607
 10
115.9336642505305
 20
-140.3974595460638
 10
115.9336642505305
 20
-140.3974595460638
 10
115.6215385995668
 20
-140.3974595460638
 10
115.6215385995668
 20
-140.3974595460638
 97
        0
 97
        0
 92
        1
 93
        1
 72
     4
 94
        3
 73
     0
 74
     1
 95
       17
 96
       13
 40
0.0
 40
0.0
 40
0.0
 40
0.0
 40
1.0
 40
1.0
 40
1.0
 40
2.0
 40
2.0
 40
2.0
 40
3.0
 40
3.0
 40
3.0
 40
4.0
 40
4.0
 40
4.0
 40
4.0
 10
115.6759711082338
 20
-141.248053621372
 10
115.6615017071957
 20
-141.2776814425452
 10
115.6180935040816
 20
-141.3706990206469
 10
115.6091362558199
 20
-141.3896470458158
 10
115.7714002531752
 20
-141.4489026881621
 10
115.789659259247
 20
-141.4552761148098
 10
115.8509819588845
 20
-141.4828368786918
 10
115.8978352574839
 20
-141.3960204724635
 10
115.9174723017498
 20
-141.3219509195306
 10
115.9302191550452
 20
-141.248053621372
 10
115.9302191550452
 20
-141.248053621372
 10
115.6759711082338
 20
-141.248053621372
 10
115.6759711082338
 20
-141.248053621372
 97
        0
 97
        0
 75
     2
 76
     1
 98
        0
  0
SPLINE
  5
101
330
F9
100
AcDbEntity
  8
_U+30EC_U+30A4_U+30E4_U+30FC 1
370
     0
100
AcDbSpline
210
0.0
220
0.0
230
1.0
 70
    11
 71
     3
 72
   203
 73
   199
 74
     0
 42
0.0000000001
 43
0.0000000001
 12
1.0
 22
0.0
 32
0.0
 13
1.0
 23
0.0
 33
0.0
 40
0.0
 40
0.0
 40
0.0
 40
0.0
 40
1.0
 40
1.0
 40
1.0
 40
2.0
 40
2.0
 40
2.0
 40
3.0
 40
3.0
 40
3.0
 40
4.0
 40
4.0
 40
4.0
 40
5.0
 40
5.0
 40
5.0
 40
6.0
 40
6.0
 40
6.0
 40
7.0
 40
7.0
 40
7.0
 40
8.0
 40
8.0
 40
8.0
 40
9.0
 40
9.0
 40
9.0
 40
10.0
 40
10.0
 40
10.0
 40
11.0
 40
11.0
 40
11.0
 40
12.0
 40
12.0
 40
12.0
 40
13.0
 40
13.0
 40
13.0
 40
14.0
 40
14.0
 40
14.0
 40
15.0
 40
15.0
 40
15.0
 40
16.0
 40
16.0
 40
16.0
 40
17.0
 40
17.0
 40
17.0
 40
18.0
 40
18.0
 40
18.0
 40
19.0
 40
19.0
 40
19.0
 40
20.0
 40
20.0
 40
20.0
 40
21.0
 40
21.0
 40
21.0
 40
22.0
 40
22.0
 40
22.0
 40
23.0
 40
23.0
 40
23.0
 40
24.0
 40
24.0
 40
24.0
 40
25.0
 40
25.0
 40
25.0
 40
26.0
 40
26.0
 40
26.0
 40
27.0
 40
27.0
 40
27.0
 40
28.0
 40
28.0
 40
28.0
 40
29.0
 40
29.0
 40
29.0
 40
30.0
 40
30.0
 40
30.0
 40
31.0
 40
31.0
 40
31.0
 40
32.0
 40
32.0
 40
32.0
 40
33.0
 40
33.0
 40
33.0
 40
34.0
 40
34.0
 40
34.0
 40
35.0
 40
35.0
 40
35.0
 40
36.0
 40
36.0
 40
36.0
 40
37.0
 40
37.0
 40
37.0
 40
38.0
 40
38.0
 40
38.0
 40
39.0
 40
39.0
 40
39.0
 40
40.0
 40
40.0
 40
40.0
 40
41.0
 40
41.0
 40
41.0
 40
42.0
 40
42.0
 40
42.0
 40
43.0
 40
43.0
 40
43.0
 40
44.0
 40
44.0
 40
44.0
 40
45.0
 40
45.0
 40
45.0
 40
46.0
 40
46.0
 40
46.0
 40
47.0
 40
47.0
 40
47.0
 40
48.0
 40
48.0
 40
48.0
 40
49.0
 40
49.0
 40
49.0
 40
50.0
 40
50.0
 40
50.0
 40
51.0
 40
51.0
 40
51.0
 40
52.0
 40
52.0
 40
52.0
 40
53.0
 40
53.0
 40
53.0
 40
54.0
 40
54.0
 40
54.0
 40
55.0
 40
55.0
 40
55.0
 40
56.0
 40
56.0
 40
56.0
 40
57.0
 40
57.0
 40
57.0
 40
58.0
 40
58.0
 40
58.0
 40
59.0
 40
59.0
 40
59.0
 40
60.0
 40
60.0
 40
60.0
 40
61.0
 40
61.0
 40
61.0
 40
62.0
 40
62.0
 40
62.0
 40
63.0
 40
63.0
 40
63.0
 40
64.0
 40
64.0
 40
64.0
 40
65.0
 40
65.0
 40
65.0
 40
66.0
 40
66.0
 40
66.0
 40
66.0
 10
117.5966118412606
 20
-140.9305880724062
 30
0.0
 10
117.5966118412606
 20
-140.9305880724062
 30
0.0
 10
117.120499645199
 20
-140.9305880724062
 30
0.0
 10
117.120499645199
 20
-140.9305880724062
 30
0.0
 10
117.1115423969374
 20
-140.975029804166
 30
0.0
 10
117.1043076964184
 20
-141.0068969374045
 30
0.0
 10
117.0932833908656
 20
-141.0449652425166
 30
0.0
 10
117.1153320019712
 20
-141.0449652425166
 30
0.0
 10
117.1277343457181
 20
-141.0470322998077
 30
0.0
 10
117.1332464984945
 20
-141.0470322998077
 30
0.0
 10
117.1332464984945
 20
-141.0470322998077
 30
0.0
 10
117.2937879481071
 20
-141.0470322998077
 30
0.0
 10
117.2937879481071
 20
-141.0470322998077
 30
0.0
 10
117.2937879481071
 20
-141.0470322998077
 30
0.0
 10
117.6128037900413
 20
-141.0470322998077
 30
0.0
 10
117.6128037900413
 20
-141.0470322998077
 30
0.0
 10
117.6562119931554
 20
-141.0470322998077
 30
0.0
 10
117.8977131866714
 20
-141.0342854465123
 30
0.0
 10
117.9249294410049
 20
-141.0342854465123
 30
0.0
 10
117.9228623837137
 20
-141.0618462103943
 30
0.0
 10
117.9214843455196
 20
-141.0807942355631
 30
0.0
 10
117.9214843455196
 20
-141.1104220567363
 30
0.0
 10
117.9194172882285
 20
-141.1422891899749
 30
0.0
 10
117.9194172882285
 20
-141.2776814425452
 30
0.0
 10
117.9194172882285
 20
-141.3050699516529
 30
0.0
 10
117.9194172882285
 20
-141.3050699516529
 30
0.0
 10
117.9194172882285
 20
-141.550533004977
 30
0.0
 10
117.9194172882285
 20
-141.550533004977
 30
0.0
 10
117.9194172882285
 20
-141.5949747367367
 30
0.0
 10
117.9228623837137
 20
-141.7916896889444
 30
0.0
 10
117.9266519887475
 20
-141.9439629093925
 30
0.0
 10
117.9266519887475
 20
-141.9439629093925
 30
0.0
 10
117.7337266415735
 20
-141.9439629093925
 30
0.0
 10
117.7337266415735
 20
-141.9439629093925
 30
0.0
 10
117.7337266415735
 20
-141.9439629093925
 30
0.0
 10
117.7354491893161
 20
-141.910200973637
 30
0.0
 10
117.7354491893161
 20
-141.910200973637
 30
0.0
 10
117.7354491893161
 20
-141.910200973637
 30
0.0
 10
117.1366915939797
 20
-141.910200973637
 30
0.0
 10
117.1366915939797
 20
-141.910200973637
 30
0.0
 10
117.1366915939797
 20
-141.910200973637
 30
0.0
 10
117.1387586512709
 20
-141.9439629093925
 30
0.0
 10
117.1387586512709
 20
-141.9439629093925
 30
0.0
 10
117.1387586512709
 20
-141.9439629093925
 30
0.0
 10
116.9527234950674
 20
-141.9439629093925
 30
0.0
 10
116.9527234950674
 20
-141.9439629093925
 30
0.0
 10
116.9565131001011
 20
-141.8890136364028
 30
0.0
 10
116.9565131001011
 20
-141.8762667831073
 30
0.0
 10
116.961680743329
 20
-141.7620618677713
 30
0.0
 10
116.9637478006202
 20
-141.7345011038893
 30
0.0
 10
116.9654703483628
 20
-141.6013481633844
 30
0.0
 10
116.9654703483628
 20
-141.5822278834412
 30
0.0
 10
116.9654703483628
 20
-141.5822278834412
 30
0.0
 10
116.9654703483628
 20
-141.3791395045858
 30
0.0
 10
116.9654703483628
 20
-141.3791395045858
 30
0.0
 10
116.8466145541217
 20
-141.6287366724921
 30
0.0
 10
116.7022650532897
 20
-141.7599948104802
 30
0.0
 10
116.6120035515762
 20
-141.8254516246999
 30
0.0
 10
116.6120035515762
 20
-141.8254516246999
 30
0.0
 10
116.464208955259
 20
-141.6859252575473
 30
0.0
 10
116.464208955259
 20
-141.6859252575473
 30
0.0
 10
116.5400010559345
 20
-141.6351100991398
 30
0.0
 10
116.6626464552093
 20
-141.5484659476858
 30
0.0
 10
116.7797797017078
 20
-141.3538180527692
 30
0.0
 10
116.857294350126
 20
-141.2268662841377
 30
0.0
 10
116.913104896987
 20
-141.0830335476286
 30
0.0
 10
116.9420436990631
 20
-140.9305880724062
 30
0.0
 10
116.7473958041465
 20
-140.9328273844717
 30
0.0
 10
116.5940890550529
 20
-140.9390285563451
 30
0.0
 10
116.512784801601
 20
-140.9412678684105
 30
0.0
 10
116.512784801601
 20
-140.9412678684105
 30
0.0
 10
116.512784801601
 20
-140.7635009413716
 30
0.0
 10
116.512784801601
 20
-140.7635009413716
 30
0.0
 10
116.6805609517326
 20
-140.7698743680193
 30
0.0
 10
116.9224066547972
 20
-140.7741807373759
 30
0.0
 10
117.0502196973
 20
-140.7741807373759
 30
0.0
 10
117.0502196973
 20
-140.7741807373759
 30
0.0
 10
117.2324652484697
 20
-140.7741807373759
 30
0.0
 10
117.2324652484697
 20
-140.7741807373759
 30
0.0
 10
117.2324652484697
 20
-140.7741807373759
 30
0.0
 10
117.2324652484697
 20
-140.6661769939133
 30
0.0
 10
117.2324652484697
 20
-140.6661769939133
 30
0.0
 10
117.2324652484697
 20
-140.6661769939133
 30
0.0
 10
117.1077527919036
 20
-140.6661769939133
 30
0.0
 10
117.1077527919036
 20
-140.6661769939133
 30
0.0
 10
116.9637478006202
 20
-140.6661769939133
 30
0.0
 10
116.8193982997882
 20
-140.6704833632699
 30
0.0
 10
116.6771158562474
 20
-140.6768567899176
 30
0.0
 10
116.6771158562474
 20
-140.6768567899176
 30
0.0
 10
116.6771158562474
 20
-140.5054632895264
 30
0.0
 10
116.6771158562474
 20
-140.5054632895264
 30
0.0
 10
116.8087185037839
 20
-140.5159708307564
 30
0.0
 10
116.9671928961054
 20
-140.5159708307564
 30
0.0
 10
117.1077527919036
 20
-140.5159708307564
 30
0.0
 10
117.1077527919036
 20
-140.5159708307564
 30
0.0
 10
117.2324652484697
 20
-140.5159708307564
 30
0.0
 10
117.2324652484697
 20
-140.5159708307564
 30
0.0
 10
117.2324652484697
 20
-140.5159708307564
 30
0.0
 10
117.2324652484697
 20
-140.3974595460638
 30
0.0
 10
117.2324652484697
 20
-140.3974595460638
 30
0.0
 10
117.2324652484697
 20
-140.3974595460638
 30
0.0
 10
117.120499645199
 20
-140.3974595460638
 30
0.0
 10
117.120499645199
 20
-140.3974595460638
 30
0.0
 10
117.0808810471187
 20
-140.3974595460638
 30
0.0
 10
116.9079372537591
 20
-140.406072284777
 30
0.0
 10
116.871763751164
 20
-140.406072284777
 30
0.0
 10
116.6984754482559
 20
-140.4102063993593
 30
0.0
 10
116.6337076531332
 20
-140.4122734566504
 30
0.0
 10
116.5668728007194
 20
-140.4145127687158
 30
0.0
 10
116.5668728007194
 20
-140.4145127687158
 30
0.0
 10
116.5668728007194
 20
-140.2303724150292
 30
0.0
 10
116.5668728007194
 20
-140.2303724150292
 30
0.0
 10
116.664369002952
 20
-140.2388128989681
 30
0.0
 10
116.7022650532897
 20
-140.2388128989681
 30
0.0
 10
117.0285155957429
 20
-140.2474256376812
 30
0.0
 10
116.9744275966245
 20
-140.1521687475141
 30
0.0
 10
116.9510009473248
 20
-140.124607983632
 30
0.0
 10
116.920339597506
 20
-140.0886067358112
 30
0.0
 10
116.920339597506
 20
-140.0886067358112
 30
0.0
 10
117.0698567415659
 20
-140.0060966989394
 30
0.0
 10
117.0698567415659
 20
-140.0060966989394
 30
0.0
 10
117.1043076964184
 20
-140.0420979467603
 30
0.0
 10
117.1422037467561
 20
-140.0844726212289
 30
0.0
 10
117.2052489941362
 20
-140.1945434219826
 30
0.0
 10
117.2052489941362
 20
-140.1945434219826
 30
0.0
 10
117.1077527919036
 20
-140.2494926949724
 30
0.0
 10
117.1077527919036
 20
-140.2494926949724
 30
0.0
 10
117.1077527919036
 20
-140.2494926949724
 30
0.0
 10
117.1167100401653
 20
-140.2494926949724
 30
0.0
 10
117.1167100401653
 20
-140.2494926949724
 30
0.0
 10
117.1167100401653
 20
-140.2494926949724
 30
0.0
 10
117.5625053959566
 20
-140.2494926949724
 30
0.0
 10
117.5625053959566
 20
-140.2494926949724
 30
0.0
 10
117.5625053959566
 20
-140.2494926949724
 30
0.0
 10
117.4812011425047
 20
-140.2050509632126
 30
0.0
 10
117.4812011425047
 20
-140.2050509632126
 30
0.0
 10
117.5046277918044
 20
-140.1669826581006
 30
0.0
 10
117.553548147695
 20
-140.08653967852
 30
0.0
 10
117.5659504914419
 20
-140.0124701255872
 30
0.0
 10
117.5659504914419
 20
-140.0124701255872
 30
0.0
 10
117.7481960426116
 20
-140.07603213729
 30
0.0
 10
117.7481960426116
 20
-140.07603213729
 30
0.0
 10
117.7554307431306
 20
-140.0780991945812
 30
0.0
 10
117.7733452396539
 20
-140.0886067358112
 30
0.0
 10
117.7733452396539
 20
-140.1097940730455
 30
0.0
 10
117.7733452396539
 20
-140.1478623781575
 30
0.0
 10
117.7175346927928
 20
-140.1478623781575
 30
0.0
 10
117.7009982344636
 20
-140.1478623781575
 30
0.0
 10
117.692040986202
 20
-140.1669826581006
 30
0.0
 10
117.6724039419361
 20
-140.2071180205038
 30
0.0
 10
117.6472547448937
 20
-140.2474256376812
 30
0.0
 10
117.987974688385
 20
-140.2410522110335
 30
0.0
 10
118.0131238854273
 20
-140.2388128989681
 30
0.0
 10
118.07789168055
 20
-140.2326117270946
 30
0.0
 10
118.07789168055
 20
-140.2326117270946
 30
0.0
 10
118.07789168055
 20
-140.4145127687158
 30
0.0
 10
118.07789168055
 20
-140.4145127687158
 30
0.0
 10
118.0620442413178
 20
-140.4145127687158
 30
0.0
 10
118.0399956302122
 20
-140.4122734566504
 30
0.0
 10
117.8525824358146
 20
-140.4038329727115
 30
0.0
 10
117.8091742327005
 20
-140.4017659154204
 30
0.0
 10
117.6217610383029
 20
-140.3974595460638
 30
0.0
 10
117.5838649879652
 20
-140.3974595460638
 30
0.0
 10
117.5838649879652
 20
-140.3974595460638
 30
0.0
 10
117.3998968890528
 20
-140.3974595460638
 30
0.0
 10
117.3998968890528
 20
-140.3974595460638
 30
0.0
 10
117.3998968890528
 20
-140.3974595460638
 30
0.0
 10
117.3998968890528
 20
-140.5159708307564
 30
0.0
 10
117.3998968890528
 20
-140.5159708307564
 30
0.0
 10
117.3998968890528
 20
-140.5159708307564
 30
0.0
 10
117.5480359949185
 20
-140.5159708307564
 30
0.0
 10
117.5480359949185
 20
-140.5159708307564
 30
0.0
 10
117.6868733429741
 20
-140.5159708307564
 30
0.0
 10
117.8491373403294
 20
-140.5159708307564
 30
0.0
 10
117.9824625356086
 20
-140.5054632895264
 30
0.0
 10
117.9824625356086
 20
-140.5054632895264
 30
0.0
 10
117.9824625356086
 20
-140.6768567899176
 30
0.0
 10
117.9824625356086
 20
-140.6768567899176
 30
0.0
 10
117.8040065894726
 20
-140.6682440512045
 30
0.0
 10
117.6362304393409
 20
-140.6661769939133
 30
0.0
 10
117.5480359949185
 20
-140.6661769939133
 30
0.0
 10
117.5480359949185
 20
-140.6661769939133
 30
0.0
 10
117.3998968890528
 20
-140.6661769939133
 30
0.0
 10
117.3998968890528
 20
-140.6661769939133
 30
0.0
 10
117.3998968890528
 20
-140.6661769939133
 30
0.0
 10
117.3998968890528
 20
-140.7741807373759
 30
0.0
 10
117.3998968890528
 20
-140.7741807373759
 30
0.0
 10
117.3998968890528
 20
-140.7741807373759
 30
0.0
 10
117.5966118412606
 20
-140.7741807373759
 30
0.0
 10
117.5966118412606
 20
-140.7741807373759
 30
0.0
 10
117.7102999922738
 20
-140.7741807373759
 30
0.0
 10
117.9552462812751
 20
-140.7698743680193
 30
0.0
 10
118.1340467369595
 20
-140.7635009413716
 30
0.0
 10
118.1340467369595
 20
-140.7635009413716
 30
0.0
 10
118.1340467369595
 20
-140.9412678684105
 30
0.0
 10
118.1340467369595
 20
-140.9412678684105
 30
0.0
 10
117.9697156823131
 20
-140.9348944417628
 30
0.0
 10
117.7030652917548
 20
-140.9305880724062
 30
0.0
 10
117.5966118412606
 20
-140.9305880724062
 30
0.0
  0
POLYLINE
  5
102
330
F9
100
AcDbEntity
  8
_U+30EC_U+30A4_U+30E4_U+30FC 1
370
     0
100
AcDb2dPolyline
 66
     1
 10
0.0
 20
0.0
 30
0.0
  0
VERTEX
  5
103
330
102
100
AcDbEntity
  8
_U+30EC_U+30A4_U+30E4_U+30FC 1
370
     0
100
AcDbVertex
100
AcDb2dVertex
 10
117.7375162466073
 20
-141.1865586669603
 30
0.0
  0
VERTEX
  5
104
330
102
100
AcDbEntity
  8
_U+30EC_U+30A4_U+30E4_U+30FC 1
370
     0
100
AcDbVertex
100
AcDb2dVertex
 10
117.1349690462371
 20
-141.1865586669603
 30
0.0
  0
VERTEX
  5
105
330
102
100
AcDbEntity
  8
_U+30EC_U+30A4_U+30E4_U+30FC 1
370
     0
100
AcDbVertex
100
AcDb2dVertex
 10
117.1349690462371
 20
-141.2945624104229
 30
0.0
  0
VERTEX
  5
106
330
102
100
AcDbEntity
  8
_U+30EC_U+30A4_U+30E4_U+30FC 1
370
     0
100
AcDbVertex
100
AcDb2dVertex
 10
117.7375162466073
 20
-141.2945624104229
 30
0.0
  0
VERTEX
  5
107
330
102
100
AcDbEntity
  8
_U+30EC_U+30A4_U+30E4_U+30FC 1
370
     0
100
AcDbVertex
100
AcDb2dVertex
 10
117.7375162466073
 20
-141.1865586669603
 30
0.0
  0
SEQEND
  5
108
330
102
100
AcDbEntity
  8
_U+30EC_U+30A4_U+30E4_U+30FC 1
370
     0
  0
POLYLINE
  5
109
330
F9
100
AcDbEntity
  8
_U+30EC_U+30A4_U+30E4_U+30FC 1
370
     0
100
AcDb2dPolyline
 66
     1
 10
0.0
 20
0.0
 30
0.0
  0
VERTEX
  5
10A
330
109
100
AcDbEntity
  8
_U+30EC_U+30A4_U+30E4_U+30FC 1
370
     0
100
AcDbVertex
100
AcDb2dVertex
 10
117.7375162466073
 20
-141.4192748669889
 30
0.0
  0
VERTEX
  5
10B
330
109
100
AcDbEntity
  8
_U+30EC_U+30A4_U+30E4_U+30FC 1
370
     0
100
AcDbVertex
100
AcDb2dVertex
 10
117.1349690462371
 20
-141.4192748669889
 30
0.0
  0
VERTEX
  5
10C
330
109
100
AcDbEntity
  8
_U+30EC_U+30A4_U+30E4_U+30FC 1
370
     0
100
AcDbVertex
100
AcDb2dVertex
 10
117.1349690462371
 20
-141.5336520370992
 30
0.0
  0
VERTEX
  5
10D
330
109
100
AcDbEntity
  8
_U+30EC_U+30A4_U+30E4_U+30FC 1
370
     0
100
AcDbVertex
100
AcDb2dVertex
 10
117.7375162466073
 20
-141.5336520370992
 30
0.0
  0
VERTEX
  5
10E
330
109
100
AcDbEntity
  8
_U+30EC_U+30A4_U+30E4_U+30FC 1
370
     0
100
AcDbVertex
100
AcDb2dVertex
 10
117.7375162466073
 20
-141.4192748669889
 30
0.0
  0
SEQEND
  5
10F
330
109
100
AcDbEntity
  8
_U+30EC_U+30A4_U+30E4_U+30FC 1
370
     0
  0
POLYLINE
  5
110
330
F9
100
AcDbEntity
  8
_U+30EC_U+30A4_U+30E4_U+30FC 1
370
     0
100
AcDb2dPolyline
 66
     1
 10
0.0
 20
0.0
 30
0.0
  0
VERTEX
  5
111
330
110
100
AcDbEntity
  8
_U+30EC_U+30A4_U+30E4_U+30FC 1
370
     0
100
AcDbVertex
100
AcDb2dVertex
 10
117.7375162466073
 20
-141.6626708630218
 30
0.0
  0
VERTEX
  5
112
330
110
100
AcDbEntity
  8
_U+30EC_U+30A4_U+30E4_U+30FC 1
370
     0
100
AcDbVertex
100
AcDb2dVertex
 10
117.1349690462371
 20
-141.6626708630218
 30
0.0
  0
VERTEX
  5
113
330
110
100
AcDbEntity
  8
_U+30EC_U+30A4_U+30E4_U+30FC 1
370
     0
100
AcDbVertex
100
AcDb2dVertex
 10
117.1349690462371
 20
-141.7768757783579
 30
0.0
  0
VERTEX
  5
114
330
110
100
AcDbEntity
  8
_U+30EC_U+30A4_U+30E4_U+30FC 1
370
     0
100
AcDbVertex
100
AcDb2dVertex
 10
117.7375162466073
 20
-141.7768757783579
 30
0.0
  0
VERTEX
  5
115
330
110
100
AcDbEntity
  8
_U+30EC_U+30A4_U+30E4_U+30FC 1
370
     0
100
AcDbVertex
100
AcDb2dVertex
 10
117.7375162466073
 20
-141.6626708630218
 30
0.0
  0
SEQEND
  5
116
330
110
100
AcDbEntity
  8
_U+30EC_U+30A4_U+30E4_U+30FC 1
370
     0
  0
HATCH
  5
117
330
F9
100
AcDbEntity
  8
_U+30EC_U+30A4_U+30E4_U+30FC 1
 62
   179
420
  2234388
100
AcDbHatch
 10
0.0
 20
0.0
 30
0.0
210
0.0
220
0.0
230
1.0
  2
SOLID
 70
     1
 71
     0
 91
        4
 92
        1
 93
        1
 72
     4
 94
        3
 73
     0
 74
     1
 95
      203
 96
      199
 40
0.0
 40
0.0
 40
0.0
 40
0.0
 40
1.0
 40
1.0
 40
1.0
 40
2.0
 40
2.0
 40
2.0
 40
3.0
 40
3.0
 40
3.0
 40
4.0
 40
4.0
 40
4.0
 40
5.0
 40
5.0
 40
5.0
 40
6.0
 40
6.0
 40
6.0
 40
7.0
 40
7.0
 40
7.0
 40
8.0
 40
8.0
 40
8.0
 40
9.0
 40
9.0
 40
9.0
 40
10.0
 40
10.0
 40
10.0
 40
11.0
 40
11.0
 40
11.0
 40
12.0
 40
12.0
 40
12.0
 40
13.0
 40
13.0
 40
13.0
 40
14.0
 40
14.0
 40
14.0
 40
15.0
 40
15.0
 40
15.0
 40
16.0
 40
16.0
 40
16.0
 40
17.0
 40
17.0
 40
17.0
 40
18.0
 40
18.0
 40
18.0
 40
19.0
 40
19.0
 40
19.0
 40
20.0
 40
20.0
 40
20.0
 40
21.0
 40
21.0
 40
21.0
 40
22.0
 40
22.0
 40
22.0
 40
23.0
 40
23.0
 40
23.0
 40
24.0
 40
24.0
 40
24.0
 40
25.0
 40
25.0
 40
25.0
 40
26.0
 40
26.0
 40
26.0
 40
27.0
 40
27.0
 40
27.0
 40
28.0
 40
28.0
 40
28.0
 40
29.0
 40
29.0
 40
29.0
 40
30.0
 40
30.0
 40
30.0
 40
31.0
 40
31.0
 40
31.0
 40
32.0
 40
32.0
 40
32.0
 40
33.0
 40
33.0
 40
33.0
 40
34.0
 40
34.0
 40
34.0
 40
35.0
 40
35.0
 40
35.0
 40
36.0
 40
36.0
 40
36.0
 40
37.0
 40
37.0
 40
37.0
 40
38.0
 40
38.0
 40
38.0
 40
39.0
 40
39.0
 40
39.0
 40
40.0
 40
40.0
 40
40.0
 40
41.0
 40
41.0
 40
41.0
 40
42.0
 40
42.0
 40
42.0
 40
43.0
 40
43.0
 40
43.0
 40
44.0
 40
44.0
 40
44.0
 40
45.0
 40
45.0
 40
45.0
 40
46.0
 40
46.0
 40
46.0
 40
47.0
 40
47.0
 40
47.0
 40
48.0
 40
48.0
 40
48.0
 40
49.0
 40
49.0
 40
49.0
 40
50.0
 40
50.0
 40
50.0
 40
51.0
 40
51.0
 40
51.0
 40
52.0
 40
52.0
 40
52.0
 40
53.0
 40
53.0
 40
53.0
 40
54.0
 40
54.0
 40
54.0
 40
55.0
 40
55.0
 40
55.0
 40
56.0
 40
56.0
 40
56.0
 40
57.0
 40
57.0
 40
57.0
 40
58.0
 40
58.0
 40
58.0
 40
59.0
 40
59.0
 40
59.0
 40
60.0
 40
60.0
 40
60.0
 40
61.0
 40
61.0
 40
61.0
 40
62.0
 40
62.0
 40
62.0
 40
63.0
 40
63.0
 40
63.0
 40
64.0
 40
64.0
 40
64.0
 40
65.0
 40
65.0
 40
65.0
 40
66.0
 40
66.0
 40
66.0
 40
66.0
 10
117.5966118412606
 20
-140.9305880724062
 10
117.5966118412606
 20
-140.9305880724062
 10
117.120499645199
 20
-140.9305880724062
 10
117.120499645199
 20
-140.9305880724062
 10
117.1115423969374
 20
-140.975029804166
 10
117.1043076964184
 20
-141.0068969374045
 10
117.0932833908656
 20
-141.0449652425166
 10
117.1153320019712
 20
-141.0449652425166
 10
117.1277343457181
 20
-141.0470322998077
 10
117.1332464984945
 20
-141.0470322998077
 10
117.1332464984945
 20
-141.0470322998077
 10
117.2937879481071
 20
-141.0470322998077
 10
117.2937879481071
 20
-141.0470322998077
 10
117.2937879481071
 20
-141.0470322998077
 10
117.6128037900413
 20
-141.0470322998077
 10
117.6128037900413
 20
-141.0470322998077
 10
117.6562119931554
 20
-141.0470322998077
 10
117.8977131866714
 20
-141.0342854465123
 10
117.9249294410049
 20
-141.0342854465123
 10
117.9228623837137
 20
-141.0618462103943
 10
117.9214843455196
 20
-141.0807942355631
 10
117.9214843455196
 20
-141.1104220567363
 10
117.9194172882285
 20
-141.1422891899749
 10
117.9194172882285
 20
-141.2776814425452
 10
117.9194172882285
 20
-141.3050699516529
 10
117.9194172882285
 20
-141.3050699516529
 10
117.9194172882285
 20
-141.550533004977
 10
117.9194172882285
 20
-141.550533004977
 10
117.9194172882285
 20
-141.5949747367367
 10
117.9228623837137
 20
-141.7916896889444
 10
117.9266519887475
 20
-141.9439629093925
 10
117.9266519887475
 20
-141.9439629093925
 10
117.7337266415735
 20
-141.9439629093925
 10
117.7337266415735
 20
-141.9439629093925
 10
117.7337266415735
 20
-141.9439629093925
 10
117.7354491893161
 20
-141.910200973637
 10
117.7354491893161
 20
-141.910200973637
 10
117.7354491893161
 20
-141.910200973637
 10
117.1366915939797
 20
-141.910200973637
 10
117.1366915939797
 20
-141.910200973637
 10
117.1366915939797
 20
-141.910200973637
 10
117.1387586512709
 20
-141.9439629093925
 10
117.1387586512709
 20
-141.9439629093925
 10
117.1387586512709
 20
-141.9439629093925
 10
116.9527234950674
 20
-141.9439629093925
 10
116.9527234950674
 20
-141.9439629093925
 10
116.9565131001011
 20
-141.8890136364028
 10
116.9565131001011
 20
-141.8762667831073
 10
116.961680743329
 20
-141.7620618677713
 10
116.9637478006202
 20
-141.7345011038893
 10
116.9654703483628
 20
-141.6013481633844
 10
116.9654703483628
 20
-141.5822278834412
 10
116.9654703483628
 20
-141.5822278834412
 10
116.9654703483628
 20
-141.3791395045858
 10
116.9654703483628
 20
-141.3791395045858
 10
116.8466145541217
 20
-141.6287366724921
 10
116.7022650532897
 20
-141.7599948104802
 10
116.6120035515762
 20
-141.8254516246999
 10
116.6120035515762
 20
-141.8254516246999
 10
116.464208955259
 20
-141.6859252575473
 10
116.464208955259
 20
-141.6859252575473
 10
116.5400010559345
 20
-141.6351100991398
 10
116.6626464552093
 20
-141.5484659476858
 10
116.7797797017078
 20
-141.3538180527692
 10
116.857294350126
 20
-141.2268662841377
 10
116.913104896987
 20
-141.0830335476286
 10
116.9420436990631
 20
-140.9305880724062
 10
116.7473958041465
 20
-140.9328273844717
 10
116.5940890550529
 20
-140.9390285563451
 10
116.512784801601
 20
-140.9412678684105
 10
116.512784801601
 20
-140.9412678684105
 10
116.512784801601
 20
-140.7635009413716
 10
116.512784801601
 20
-140.7635009413716
 10
116.6805609517326
 20
-140.7698743680193
 10
116.9224066547972
 20
-140.7741807373759
 10
117.0502196973
 20
-140.7741807373759
 10
117.0502196973
 20
-140.7741807373759
 10
117.2324652484697
 20
-140.7741807373759
 10
117.2324652484697
 20
-140.7741807373759
 10
117.2324652484697
 20
-140.7741807373759
 10
117.2324652484697
 20
-140.6661769939133
 10
117.2324652484697
 20
-140.6661769939133
 10
117.2324652484697
 20
-140.6661769939133
 10
117.1077527919036
 20
-140.6661769939133
 10
117.1077527919036
 20
-140.6661769939133
 10
116.9637478006202
 20
-140.6661769939133
 10
116.8193982997882
 20
-140.6704833632699
 10
116.6771158562474
 20
-140.6768567899176
 10
116.6771158562474
 20
-140.6768567899176
 10
116.6771158562474
 20
-140.5054632895264
 10
116.6771158562474
 20
-140.5054632895264
 10
116.8087185037839
 20
-140.5159708307564
 10
116.9671928961054
 20
-140.5159708307564
 10
117.1077527919036
 20
-140.5159708307564
 10
117.1077527919036
 20
-140.5159708307564
 10
117.2324652484697
 20
-140.5159708307564
 10
117.2324652484697
 20
-140.5159708307564
 10
117.2324652484697
 20
-140.5159708307564
 10
117.2324652484697
 20
-140.3974595460638
 10
117.2324652484697
 20
-140.3974595460638
 10
117.2324652484697
 20
-140.3974595460638
 10
117.120499645199
 20
-140.3974595460638
 10
117.120499645199
 20
-140.3974595460638
 10
117.0808810471187
 20
-140.3974595460638
 10
116.9079372537591
 20
-140.406072284777
 10
116.871763751164
 20
-140.406072284777
 10
116.6984754482559
 20
-140.4102063993593
 10
116.6337076531332
 20
-140.4122734566504
 10
116.5668728007194
 20
-140.4145127687158
 10
116.5668728007194
 20
-140.4145127687158
 10
116.5668728007194
 20
-140.2303724150292
 10
116.5668728007194
 20
-140.2303724150292
 10
116.664369002952
 20
-140.2388128989681
 10
116.7022650532897
 20
-140.2388128989681
 10
117.0285155957429
 20
-140.2474256376812
 10
116.9744275966245
 20
-140.1521687475141
 10
116.9510009473248
 20
-140.124607983632
 10
116.920339597506
 20
-140.0886067358112
 10
116.920339597506
 20
-140.0886067358112
 10
117.0698567415659
 20
-140.0060966989394
 10
117.0698567415659
 20
-140.0060966989394
 10
117.1043076964184
 20
-140.0420979467603
 10
117.1422037467561
 20
-140.0844726212289
 10
117.2052489941362
 20
-140.1945434219826
 10
117.2052489941362
 20
-140.1945434219826
 10
117.1077527919036
 20
-140.2494926949724
 10
117.1077527919036
 20
-140.2494926949724
 10
117.1077527919036
 20
-140.2494926949724
 10
117.1167100401653
 20
-140.2494926949724
 10
117.1167100401653
 20
-140.2494926949724
 10
117.1167100401653
 20
-140.2494926949724
 10
117.5625053959566
 20
-140.2494926949724
 10
117.5625053959566
 20
-140.2494926949724
 10
117.5625053959566
 20
-140.2494926949724
 10
117.4812011425047
 20
-140.2050509632126
 10
117.4812011425047
 20
-140.2050509632126
 10
117.5046277918044
 20
-140.1669826581006
 10
117.553548147695
 20
-140.08653967852
 10
117.5659504914419
 20
-140.0124701255872
 10
117.5659504914419
 20
-140.0124701255872
 10
117.7481960426116
 20
-140.07603213729
 10
117.7481960426116
 20
-140.07603213729
 10
117.7554307431306
 20
-140.0780991945812
 10
117.7733452396539
 20
-140.0886067358112
 10
117.7733452396539
 20
-140.1097940730455
 10
117.7733452396539
 20
-140.1478623781575
 10
117.7175346927928
 20
-140.1478623781575
 10
117.7009982344636
 20
-140.1478623781575
 10
117.692040986202
 20
-140.1669826581006
 10
117.6724039419361
 20
-140.2071180205038
 10
117.6472547448937
 20
-140.2474256376812
 10
117.987974688385
 20
-140.2410522110335
 10
118.0131238854273
 20
-140.2388128989681
 10
118.07789168055
 20
-140.2326117270946
 10
118.07789168055
 20
-140.2326117270946
 10
118.07789168055
 20
-140.4145127687158
 10
118.07789168055
 20
-140.4145127687158
 10
118.0620442413178
 20
-140.4145127687158
 10
118.0399956302122
 20
-140.4122734566504
 10
117.8525824358146
 20
-140.4038329727115
 10
117.8091742327005
 20
-140.4017659154204
 10
117.6217610383029
 20
-140.3974595460638
 10
117.5838649879652
 20
-140.3974595460638
 10
117.5838649879652
 20
-140.3974595460638
 10
117.3998968890528
 20
-140.3974595460638
 10
117.3998968890528
 20
-140.3974595460638
 10
117.3998968890528
 20
-140.3974595460638
 10
117.3998968890528
 20
-140.5159708307564
 10
117.3998968890528
 20
-140.5159708307564
 10
117.3998968890528
 20
-140.5159708307564
 10
117.5480359949185
 20
-140.5159708307564
 10
117.5480359949185
 20
-140.5159708307564
 10
117.6868733429741
 20
-140.5159708307564
 10
117.8491373403294
 20
-140.5159708307564
 10
117.9824625356086
 20
-140.5054632895264
 10
117.9824625356086
 20
-140.5054632895264
 10
117.9824625356086
 20
-140.6768567899176
 10
117.9824625356086
 20
-140.6768567899176
 10
117.8040065894726
 20
-140.6682440512045
 10
117.6362304393409
 20
-140.6661769939133
 10
117.5480359949185
 20
-140.6661769939133
 10
117.5480359949185
 20
-140.6661769939133
 10
117.3998968890528
 20
-140.6661769939133
 10
117.3998968890528
 20
-140.6661769939133
 10
117.3998968890528
 20
-140.6661769939133
 10
117.3998968890528
 20
-140.7741807373759
 10
117.3998968890528
 20
-140.7741807373759
 10
117.3998968890528
 20
-140.7741807373759
 10
117.5966118412606
 20
-140.7741807373759
 10
117.5966118412606
 20
-140.7741807373759
 10
117.7102999922738
 20
-140.7741807373759
 10
117.9552462812751
 20
-140.7698743680193
 10
118.1340467369595
 20
-140.7635009413716
 10
118.1340467369595
 20
-140.7635009413716
 10
118.1340467369595
 20
-140.9412678684105
 10
118.1340467369595
 20
-140.9412678684105
 10
117.9697156823131
 20
-140.9348944417628
 10
117.7030652917548
 20
-140.9305880724062
 10
117.5966118412606
 20
-140.9305880724062
 97
        0
 97
        0
 92
        1
 93
        4
 72
     1
 10
117.7375162466073
 20
-141.1865586669603
 11
117.1349690462371
 21
-141.1865586669603
 72
     1
 10
117.1349690462371
 20
-141.1865586669603
 11
117.1349690462371
 21
-141.2945624104229
 72
     1
 10
117.1349690462371
 20
-141.2945624104229
 11
117.7375162466073
 21
-141.2945624104229
 72
     1
 10
117.7375162466073
 20
-141.2945624104229
 11
117.7375162466073
 21
-141.1865586669603
 97
        0
 92
        1
 93
        4
 72
     1
 10
117.7375162466073
 20
-141.4192748669889
 11
117.1349690462371
 21
-141.4192748669889
 72
     1
 10
117.1349690462371
 20
-141.4192748669889
 11
117.1349690462371
 21
-141.5336520370992
 72
     1
 10
117.1349690462371
 20
-141.5336520370992
 11
117.7375162466073
 21
-141.5336520370992
 72
     1
 10
117.7375162466073
 20
-141.5336520370992
 11
117.7375162466073
 21
-141.4192748669889
 97
        0
 92
        1
 93
        4
 72
     1
 10
117.7375162466073
 20
-141.6626708630218
 11
117.1349690462371
 21
-141.6626708630218
 72
     1
 10
117.1349690462371
 20
-141.6626708630218
 11
117.1349690462371
 21
-141.7768757783579
 72
     1
 10
117.1349690462371
 20
-141.7768757783579
 11
117.7375162466073
 21
-141.7768757783579
 72
     1
 10
117.7375162466073
 20
-141.7768757783579
 11
117.7375162466073
 21
-141.6626708630218
 97
        0
 75
     2
 76
     1
 98
        0
  0
SPLINE
  5
118
330
F9
100
AcDbEntity
  8
_U+30EC_U+30A4_U+30E4_U+30FC 1
370
     0
100
AcDbSpline
210
0.0
220
0.0
230
1.0
 70
    11
 71
     3
 72
    47
 73
    43
 74
     0
 42
0.0000000001
 43
0.0000000001
 12
1.0
 22
0.0
 32
0.0
 13
1.0
 23
0.0
 33
0.0
 40
0.0
 40
0.0
 40
0.0
 40
0.0
 40
1.0
 40
1.0
 40
1.0
 40
2.0
 40
2.0
 40
2.0
 40
3.0
 40
3.0
 40
3.0
 40
4.0
 40
4.0
 40
4.0
 40
5.0
 40
5.0
 40
5.0
 40
6.0
 40
6.0
 40
6.0
 40
7.0
 40
7.0
 40
7.0
 40
8.0
 40
8.0
 40
8.0
 40
9.0
 40
9.0
 40
9.0
 40
10.0
 40
10.0
 40
10.0
 40
11.0
 40
11.0
 40
11.0
 40
12.0
 40
12.0
 40
12.0
 40
13.0
 40
13.0
 40
13.0
 40
14.0
 40
14.0
 40
14.0
 40
14.0
 10
119.2795409858051
 20
-140.9073336778808
 30
0.0
 10
119.2795409858051
 20
-140.9073336778808
 30
0.0
 10
119.1930690891253
 20
-140.9073336778808
 30
0.0
 10
119.1930690891253
 20
-140.9073336778808
 30
0.0
 10
119.1930690891253
 20
-140.9941500841091
 30
0.0
 10
119.1751545926021
 20
-141.3834458739423
 30
0.0
 10
119.0073784424704
 20
-141.6034152206755
 30
0.0
 10
118.8774983426765
 20
-141.7725694090013
 30
0.0
 10
118.7007649442832
 20
-141.8425048473519
 30
0.0
 10
118.6287624486414
 20
-141.8698933564596
 30
0.0
 10
118.6287624486414
 20
-141.8698933564596
 30
0.0
 10
118.4627088462524
 20
-141.702806225425
 30
0.0
 10
118.4627088462524
 20
-141.702806225425
 30
0.0
 10
118.5457356474469
 20
-141.6900593721296
 30
0.0
 10
118.6952527915067
 20
-141.6668049776041
 30
0.0
 10
118.8557942411194
 20
-141.4785305093352
 30
0.0
 10
118.919183998048
 20
-141.4067002684678
 30
0.0
 10
119.0073784424704
 20
-141.2670016465409
 30
0.0
 10
119.0073784424704
 20
-140.9073336778808
 30
0.0
 10
119.0073784424704
 20
-140.9073336778808
 30
0.0
 10
118.8110079998111
 20
-140.9073336778808
 30
0.0
 10
118.8110079998111
 20
-140.9073336778808
 30
0.0
 10
118.6521890979411
 20
-140.9073336778808
 30
0.0
 10
118.4933701960711
 20
-140.9116400472374
 30
0.0
 10
118.3348958037496
 20
-140.926453957824
 30
0.0
 10
118.3348958037496
 20
-140.926453957824
 30
0.0
 10
118.3348958037496
 20
-140.7064846110908
 30
0.0
 10
118.3348958037496
 20
-140.7064846110908
 30
0.0
 10
118.4954372533623
 20
-140.7212985216773
 30
0.0
 10
118.7386609946209
 20
-140.7254326362596
 30
0.0
 10
118.8110079998111
 20
-140.7254326362596
 30
0.0
 10
118.8110079998111
 20
-140.7254326362596
 30
0.0
 10
119.2795409858051
 20
-140.7254326362596
 30
0.0
 10
119.2795409858051
 20
-140.7254326362596
 30
0.0
 10
119.2960774441343
 20
-140.7254326362596
 30
0.0
 10
119.5661729301779
 20
-140.7254326362596
 30
0.0
 10
119.7611653346431
 20
-140.7064846110908
 30
0.0
 10
119.7611653346431
 20
-140.7064846110908
 30
0.0
 10
119.7611653346431
 20
-140.926453957824
 30
0.0
 10
119.7611653346431
 20
-140.926453957824
 30
0.0
 10
119.6006238850304
 20
-140.9116400472374
 30
0.0
 10
119.4400824354178
 20
-140.9073336778808
 30
0.0
 10
119.2795409858051
 20
-140.9073336778808
 30
0.0
  0
SPLINE
  5
119
330
F9
100
AcDbEntity
  8
_U+30EC_U+30A4_U+30E4_U+30FC 1
370
     0
100
AcDbSpline
210
0.0
220
0.0
230
1.0
 70
    11
 71
     3
 72
    29
 73
    25
 74
     0
 42
0.0000000001
 43
0.0000000001
 12
1.0
 22
0.0
 32
0.0
 13
1.0
 23
0.0
 33
0.0
 40
0.0
 40
0.0
 40
0.0
 40
0.0
 40
1.0
 40
1.0
 40
1.0
 40
2.0
 40
2.0
 40
2.0
 40
3.0
 40
3.0
 40
3.0
 40
4.0
 40
4.0
 40
4.0
 40
5.0
 40
5.0
 40
5.0
 40
6.0
 40
6.0
 40
6.0
 40
7.0
 40
7.0
 40
7.0
 40
8.0
 40
8.0
 40
8.0
 40
8.0
 10
119.1930690891253
 20
-140.378511520895
 30
0.0
 10
119.1930690891253
 20
-140.378511520895
 30
0.0
 10
118.8919677437145
 20
-140.378511520895
 30
0.0
 10
118.8919677437145
 20
-140.378511520895
 30
0.0
 10
118.7965385987731
 20
-140.378511520895
 30
0.0
 10
118.6773382949834
 20
-140.3848849475427
 30
0.0
 10
118.5853542455273
 20
-140.3974595460638
 30
0.0
 10
118.5853542455273
 20
-140.3974595460638
 30
0.0
 10
118.5853542455273
 20
-140.1626762887441
 30
0.0
 10
118.5853542455273
 20
-140.1626762887441
 30
0.0
 10
118.6862955432451
 20
-140.1774901993306
 30
0.0
 10
118.8433918973725
 20
-140.1817965686872
 30
0.0
 10
118.8919677437145
 20
-140.1817965686872
 30
0.0
 10
118.8919677437145
 20
-140.1817965686872
 30
0.0
 10
119.1930690891253
 20
-140.1817965686872
 30
0.0
 10
119.1930690891253
 20
-140.1817965686872
 30
0.0
 10
119.209261037906
 20
-140.1817965686872
 30
0.0
 10
119.3825493408141
 20
-140.1817965686872
 30
0.0
 10
119.5034721923464
 20
-140.1626762887441
 30
0.0
 10
119.5034721923464
 20
-140.1626762887441
 30
0.0
 10
119.5034721923464
 20
-140.3974595460638
 30
0.0
 10
119.5034721923464
 20
-140.3974595460638
 30
0.0
 10
119.3698024875187
 20
-140.378511520895
 30
0.0
 10
119.2075384901634
 20
-140.378511520895
 30
0.0
 10
119.1930690891253
 20
-140.378511520895
 30
0.0
  0
HATCH
  5
11A
330
F9
100
AcDbEntity
  8
_U+30EC_U+30A4_U+30E4_U+30FC 1
 62
   179
420
  2234388
100
AcDbHatch
 10
0.0
 20
0.0
 30
0.0
210
0.0
220
0.0
230
1.0
  2
SOLID
 70
     1
 71
     0
 91
        2
 92
        1
 93
        1
 72
     4
 94
        3
 73
     0
 74
     1
 95
       47
 96
       43
 40
0.0
 40
0.0
 40
0.0
 40
0.0
 40
1.0
 40
1.0
 40
1.0
 40
2.0
 40
2.0
 40
2.0
 40
3.0
 40
3.0
 40
3.0
 40
4.0
 40
4.0
 40
4.0
 40
5.0
 40
5.0
 40
5.0
 40
6.0
 40
6.0
 40
6.0
 40
7.0
 40
7.0
 40
7.0
 40
8.0
 40
8.0
 40
8.0
 40
9.0
 40
9.0
 40
9.0
 40
10.0
 40
10.0
 40
10.0
 40
11.0
 40
11.0
 40
11.0
 40
12.0
 40
12.0
 40
12.0
 40
13.0
 40
13.0
 40
13.0
 40
14.0
 40
14.0
 40
14.0
 40
14.0
 10
119.2795409858051
 20
-140.9073336778808
 10
119.2795409858051
 20
-140.9073336778808
 10
119.1930690891253
 20
-140.9073336778808
 10
119.1930690891253
 20
-140.9073336778808
 10
119.1930690891253
 20
-140.9941500841091
 10
119.1751545926021
 20
-141.3834458739423
 10
119.0073784424704
 20
-141.6034152206755
 10
118.8774983426765
 20
-141.7725694090013
 10
118.7007649442832
 20
-141.8425048473519
 10
118.6287624486414
 20
-141.8698933564596
 10
118.6287624486414
 20
-141.8698933564596
 10
118.4627088462524
 20
-141.702806225425
 10
118.4627088462524
 20
-141.702806225425
 10
118.5457356474469
 20
-141.6900593721296
 10
118.6952527915067
 20
-141.6668049776041
 10
118.8557942411194
 20
-141.4785305093352
 10
118.919183998048
 20
-141.4067002684678
 10
119.0073784424704
 20
-141.2670016465409
 10
119.0073784424704
 20
-140.9073336778808
 10
119.0073784424704
 20
-140.9073336778808
 10
118.8110079998111
 20
-140.9073336778808
 10
118.8110079998111
 20
-140.9073336778808
 10
118.6521890979411
 20
-140.9073336778808
 10
118.4933701960711
 20
-140.9116400472374
 10
118.3348958037496
 20
-140.926453957824
 10
118.3348958037496
 20
-140.926453957824
 10
118.3348958037496
 20
-140.7064846110908
 10
118.3348958037496
 20
-140.7064846110908
 10
118.4954372533623
 20
-140.7212985216773
 10
118.7386609946209
 20
-140.7254326362596
 10
118.8110079998111
 20
-140.7254326362596
 10
118.8110079998111
 20
-140.7254326362596
 10
119.2795409858051
 20
-140.7254326362596
 10
119.2795409858051
 20
-140.7254326362596
 10
119.2960774441343
 20
-140.7254326362596
 10
119.5661729301779
 20
-140.7254326362596
 10
119.7611653346431
 20
-140.7064846110908
 10
119.7611653346431
 20
-140.7064846110908
 10
119.7611653346431
 20
-140.926453957824
 10
119.7611653346431
 20
-140.926453957824
 10
119.6006238850304
 20
-140.9116400472374
 10
119.4400824354178
 20
-140.9073336778808
 10
119.2795409858051
 20
-140.9073336778808
 97
        0
 97
        0
 92
        1
 93
        1
 72
     4
 94
        3
 73
     0
 74
     1
 95
       29
 96
       25
 40
0.0
 40
0.0
 40
0.0
 40
0.0
 40
1.0
 40
1.0
 40
1.0
 40
2.0
 40
2.0
 40
2.0
 40
3.0
 40
3.0
 40
3.0
 40
4.0
 40
4.0
 40
4.0
 40
5.0
 40
5.0
 40
5.0
 40
6.0
 40
6.0
 40
6.0
 40
7.0
 40
7.0
 40
7.0
 40
8.0
 40
8.0
 40
8.0
 40
8.0
 10
119.1930690891253
 20
-140.378511520895
 10
119.1930690891253
 20
-140.378511520895
 10
118.8919677437145
 20
-140.378511520895
 10
118.8919677437145
 20
-140.378511520895
 10
118.7965385987731
 20
-140.378511520895
 10
118.6773382949834
 20
-140.3848849475427
 10
118.5853542455273
 20
-140.3974595460638
 10
118.5853542455273
 20
-140.3974595460638
 10
118.5853542455273
 20
-140.1626762887441
 10
118.5853542455273
 20
-140.1626762887441
 10
118.6862955432451
 20
-140.1774901993306
 10
118.8433918973725
 20
-140.1817965686872
 10
118.8919677437145
 20
-140.1817965686872
 10
118.8919677437145
 20
-140.1817965686872
 10
119.1930690891253
 20
-140.1817965686872
 10
119.1930690891253
 20
-140.1817965686872
 10
119.209261037906
 20
-140.1817965686872
 10
119.3825493408141
 20
-140.1817965686872
 10
119.5034721923464
 20
-140.1626762887441
 10
119.5034721923464
 20
-140.1626762887441
 10
119.5034721923464
 20
-140.3974595460638
 10
119.5034721923464
 20
-140.3974595460638
 10
119.3698024875187
 20
-140.378511520895
 10
119.2075384901634
 20
-140.378511520895
 10
119.1930690891253
 20
-140.378511520895
 97
        0
 97
        0
 75
     2
 76
     1
 98
        0
  0
SPLINE
  5
11B
330
F9
100
AcDbEntity
  8
_U+30EC_U+30A4_U+30E4_U+30FC 1
370
     0
100
AcDbSpline
210
0.0
220
0.0
230
1.0
 70
    11
 71
     3
 72
    29
 73
    25
 74
     0
 42
0.0000000001
 43
0.0000000001
 12
1.0
 22
0.0
 32
0.0
 13
1.0
 23
0.0
 33
0.0
 40
0.0
 40
0.0
 40
0.0
 40
0.0
 40
1.0
 40
1.0
 40
1.0
 40
2.0
 40
2.0
 40
2.0
 40
3.0
 40
3.0
 40
3.0
 40
4.0
 40
4.0
 40
4.0
 40
5.0
 40
5.0
 40
5.0
 40
6.0
 40
6.0
 40
6.0
 40
7.0
 40
7.0
 40
7.0
 40
8.0
 40
8.0
 40
8.0
 40
8.0
 10
120.8525715843702
 20
-141.0702866943331
 30
0.0
 10
120.8525715843702
 20
-141.0702866943331
 30
0.0
 10
120.4398491452373
 20
-141.0702866943331
 30
0.0
 10
120.4398491452373
 20
-141.0702866943331
 30
0.0
 10
120.416077986389
 20
-141.0702866943331
 30
0.0
 10
120.1456379907969
 20
-141.0702866943331
 30
0.0
 10
119.9651149873698
 20
-141.0956081461497
 30
0.0
 10
119.9651149873698
 20
-141.0956081461497
 30
0.0
 10
119.9651149873698
 20
-140.8651312581865
 30
0.0
 10
119.9651149873698
 20
-140.8651312581865
 30
0.0
 10
120.1005072399402
 20
-140.8883856527119
 30
0.0
 10
120.2627712372954
 20
-140.8904527100031
 30
0.0
 10
120.4398491452373
 20
-140.8904527100031
 30
0.0
 10
120.4398491452373
 20
-140.8904527100031
 30
0.0
 10
120.8525715843702
 20
-140.8904527100031
 30
0.0
 10
120.8525715843702
 20
-140.8904527100031
 30
0.0
 10
121.0110459766917
 20
-140.8904527100031
 30
0.0
 10
121.1698648785617
 20
-140.8883856527119
 30
0.0
 10
121.3266167231406
 20
-140.8651312581865
 30
0.0
 10
121.3266167231406
 20
-140.8651312581865
 30
0.0
 10
121.3266167231406
 20
-141.0956081461497
 30
0.0
 10
121.3266167231406
 20
-141.0956081461497
 30
0.0
 10
121.1698648785617
 20
-141.0723537516243
 30
0.0
 10
120.9590250348644
 20
-141.0702866943331
 30
0.0
 10
120.8525715843702
 20
-141.0702866943331
 30
0.0
  0
HATCH
  5
11C
330
F9
100
AcDbEntity
  8
_U+30EC_U+30A4_U+30E4_U+30FC 1
 62
   179
420
  2234388
100
AcDbHatch
 10
0.0
 20
0.0
 30
0.0
210
0.0
220
0.0
230
1.0
  2
SOLID
 70
     1
 71
     0
 91
        1
 92
        1
 93
        1
 72
     4
 94
        3
 73
     0
 74
     1
 95
       29
 96
       25
 40
0.0
 40
0.0
 40
0.0
 40
0.0
 40
1.0
 40
1.0
 40
1.0
 40
2.0
 40
2.0
 40
2.0
 40
3.0
 40
3.0
 40
3.0
 40
4.0
 40
4.0
 40
4.0
 40
5.0
 40
5.0
 40
5.0
 40
6.0
 40
6.0
 40
6.0
 40
7.0
 40
7.0
 40
7.0
 40
8.0
 40
8.0
 40
8.0
 40
8.0
 10
120.8525715843702
 20
-141.0702866943331
 10
120.8525715843702
 20
-141.0702866943331
 10
120.4398491452373
 20
-141.0702866943331
 10
120.4398491452373
 20
-141.0702866943331
 10
120.416077986389
 20
-141.0702866943331
 10
120.1456379907969
 20
-141.0702866943331
 10
119.9651149873698
 20
-141.0956081461497
 10
119.9651149873698
 20
-141.0956081461497
 10
119.9651149873698
 20
-140.8651312581865
 10
119.9651149873698
 20
-140.8651312581865
 10
120.1005072399402
 20
-140.8883856527119
 10
120.2627712372954
 20
-140.8904527100031
 10
120.4398491452373
 20
-140.8904527100031
 10
120.4398491452373
 20
-140.8904527100031
 10
120.8525715843702
 20
-140.8904527100031
 10
120.8525715843702
 20
-140.8904527100031
 10
121.0110459766917
 20
-140.8904527100031
 10
121.1698648785617
 20
-140.8883856527119
 10
121.3266167231406
 20
-140.8651312581865
 10
121.3266167231406
 20
-140.8651312581865
 10
121.3266167231406
 20
-141.0956081461497
 10
121.3266167231406
 20
-141.0956081461497
 10
121.1698648785617
 20
-141.0723537516243
 10
120.9590250348644
 20
-141.0702866943331
 10
120.8525715843702
 20
-141.0702866943331
 97
        0
 97
        0
 75
     2
 76
     1
 98
        0
  0
SPLINE
  5
11D
330
F9
100
AcDbEntity
  8
_U+30EC_U+30A4_U+30E4_U+30FC 1
370
     0
100
AcDbSpline
210
0.0
220
0.0
230
1.0
 70
    11
 71
     3
 72
    44
 73
    40
 74
     0
 42
0.0000000001
 43
0.0000000001
 12
1.0
 22
0.0
 32
0.0
 13
1.0
 23
0.0
 33
0.0
 40
0.0
 40
0.0
 40
0.0
 40
0.0
 40
1.0
 40
1.0
 40
1.0
 40
2.0
 40
2.0
 40
2.0
 40
3.0
 40
3.0
 40
3.0
 40
4.0
 40
4.0
 40
4.0
 40
5.0
 40
5.0
 40
5.0
 40
6.0
 40
6.0
 40
6.0
 40
7.0
 40
7.0
 40
7.0
 40
8.0
 40
8.0
 40
8.0
 40
9.0
 40
9.0
 40
9.0
 40
10.0
 40
10.0
 40
10.0
 40
11.0
 40
11.0
 40
11.0
 40
12.0
 40
12.0
 40
12.0
 40
13.0
 40
13.0
 40
13.0
 40
13.0
 10
122.7377278338989
 20
-140.6324150581579
 30
0.0
 10
122.641954179409
 20
-141.0005235107568
 30
0.0
 10
122.5985459762948
 20
-141.1591701578526
 30
0.0
 10
122.4311143357117
 20
-141.4087673257589
 30
0.0
 10
122.2740179815843
 20
-141.6394164684964
 30
0.0
 10
122.0721353861486
 20
-141.8254516246999
 30
0.0
 10
121.8344237976664
 20
-141.9186414575759
 30
0.0
 10
121.8344237976664
 20
-141.9186414575759
 30
0.0
 10
121.67009274302
 20
-141.7388074732459
 30
0.0
 10
121.67009274302
 20
-141.7388074732459
 30
0.0
 10
122.2164848869806
 20
-141.5865342527978
 30
0.0
 10
122.4979491881255
 20
-141.03015133193
 30
0.0
 10
122.5516926776954
 20
-140.5900403836893
 30
0.0
 10
122.5516926776954
 20
-140.5900403836893
 30
0.0
 10
121.8991915927891
 20
-140.5900403836893
 30
0.0
 10
121.8991915927891
 20
-140.5900403836893
 30
0.0
 10
121.8199543966283
 20
-140.5900403836893
 30
0.0
 10
121.662858042501
 20
-140.5943467530459
 30
0.0
 10
121.5291883376733
 20
-140.6132947782147
 30
0.0
 10
121.5291883376733
 20
-140.6132947782147
 30
0.0
 10
121.5291883376733
 20
-140.3933254314815
 30
0.0
 10
121.5291883376733
 20
-140.3933254314815
 30
0.0
 10
121.6036024001547
 20
-140.4145127687158
 30
0.0
 10
121.8178873393372
 20
-140.4145127687158
 30
0.0
 10
121.9026366882743
 20
-140.4145127687158
 30
0.0
 10
121.9026366882743
 20
-140.4145127687158
 30
0.0
 10
122.270572886099
 20
-140.4145127687158
 30
0.0
 10
122.270572886099
 20
-140.4145127687158
 30
0.0
 10
122.3064018791456
 20
-140.4145127687158
 30
0.0
 10
122.5069064363872
 20
-140.4122734566504
 30
0.0
 10
122.5392903339485
 20
-140.406072284777
 30
0.0
 10
122.5751193269951
 20
-140.3996988581293
 30
0.0
 10
122.5771863842863
 20
-140.3974595460638
 30
0.0
 10
122.6295518356621
 20
-140.3573241836607
 30
0.0
 10
122.6295518356621
 20
-140.3573241836607
 30
0.0
 10
122.7900932852747
 20
-140.5118367161741
 30
0.0
 10
122.7900932852747
 20
-140.5118367161741
 30
0.0
 10
122.7645995786839
 20
-140.5414645373473
 30
0.0
 10
122.752197234937
 20
-140.5731594158116
 30
0.0
 10
122.7377278338989
 20
-140.6324150581579
 30
0.0
  0
SPLINE
  5
11E
330
F9
100
AcDbEntity
  8
_U+30EC_U+30A4_U+30E4_U+30FC 1
370
     0
100
AcDbSpline
210
0.0
220
0.0
230
1.0
 70
    11
 71
     3
 72
    17
 73
    13
 74
     0
 42
0.0000000001
 43
0.0000000001
 12
1.0
 22
0.0
 32
0.0
 13
1.0
 23
0.0
 33
0.0
 40
0.0
 40
0.0
 40
0.0
 40
0.0
 40
1.0
 40
1.0
 40
1.0
 40
2.0
 40
2.0
 40
2.0
 40
3.0
 40
3.0
 40
3.0
 40
4.0
 40
4.0
 40
4.0
 40
4.0
 10
122.9161837800348
 20
-140.4334607938847
 30
0.0
 10
122.808007781798
 20
-140.4334607938847
 30
0.0
 10
122.7211913755697
 20
-140.3320027318441
 30
0.0
 10
122.7211913755697
 20
-140.2050509632126
 30
0.0
 10
122.7211913755697
 20
-140.0780991945812
 30
0.0
 10
122.808007781798
 20
-139.9744018204752
 30
0.0
 10
122.9161837800348
 20
-139.9744018204752
 30
0.0
 10
123.0243597782717
 20
-139.9744018204752
 30
0.0
 10
123.1125542226941
 20
-140.0780991945812
 30
0.0
 10
123.1125542226941
 20
-140.2050509632126
 30
0.0
 10
123.1125542226941
 20
-140.3320027318441
 30
0.0
 10
123.0243597782717
 20
-140.4334607938847
 30
0.0
 10
122.9161837800348
 20
-140.4334607938847
 30
0.0
  0
SPLINE
  5
11F
330
F9
100
AcDbEntity
  8
_U+30EC_U+30A4_U+30E4_U+30FC 1
370
     0
100
AcDbSpline
210
0.0
220
0.0
230
1.0
 70
    11
 71
     3
 72
    17
 73
    13
 74
     0
 42
0.0000000001
 43
0.0000000001
 12
1.0
 22
0.0
 32
0.0
 13
1.0
 23
0.0
 33
0.0
 40
0.0
 40
0.0
 40
0.0
 40
0.0
 40
1.0
 40
1.0
 40
1.0
 40
2.0
 40
2.0
 40
2.0
 40
3.0
 40
3.0
 40
3.0
 40
4.0
 40
4.0
 40
4.0
 40
4.0
 10
122.9141167227437
 20
-140.1034206463978
 30
0.0
 10
122.8672634241443
 20
-140.1034206463978
 30
0.0
 10
122.8293673738065
 20
-140.1478623781575
 30
0.0
 10
122.8293673738065
 20
-140.2029839059215
 30
0.0
 10
122.8293673738065
 20
-140.2600002362024
 30
0.0
 10
122.8672634241443
 20
-140.3087483373187
 30
0.0
 10
122.9179063277775
 20
-140.3087483373187
 30
0.0
 10
122.9685492314106
 20
-140.3087483373187
 30
0.0
 10
123.0026556767146
 20
-140.2579331789112
 30
0.0
 10
123.0026556767146
 20
-140.2050509632126
 30
0.0
 10
123.0026556767146
 20
-140.1478623781575
 30
0.0
 10
122.9630370786342
 20
-140.1034206463978
 30
0.0
 10
122.9141167227437
 20
-140.1034206463978
 30
0.0
  0
HATCH
  5
120
330
F9
100
AcDbEntity
  8
_U+30EC_U+30A4_U+30E4_U+30FC 1
 62
   179
420
  2234388
100
AcDbHatch
 10
0.0
 20
0.0
 30
0.0
210
0.0
220
0.0
230
1.0
  2
SOLID
 70
     1
 71
     0
 91
        3
 92
        1
 93
        1
 72
     4
 94
        3
 73
     0
 74
     1
 95
       44
 96
       40
 40
0.0
 40
0.0
 40
0.0
 40
0.0
 40
1.0
 40
1.0
 40
1.0
 40
2.0
 40
2.0
 40
2.0
 40
3.0
 40
3.0
 40
3.0
 40
4.0
 40
4.0
 40
4.0
 40
5.0
 40
5.0
 40
5.0
 40
6.0
 40
6.0
 40
6.0
 40
7.0
 40
7.0
 40
7.0
 40
8.0
 40
8.0
 40
8.0
 40
9.0
 40
9.0
 40
9.0
 40
10.0
 40
10.0
 40
10.0
 40
11.0
 40
11.0
 40
11.0
 40
12.0
 40
12.0
 40
12.0
 40
13.0
 40
13.0
 40
13.0
 40
13.0
 10
122.7377278338989
 20
-140.6324150581579
 10
122.641954179409
 20
-141.0005235107568
 10
122.5985459762948
 20
-141.1591701578526
 10
122.4311143357117
 20
-141.4087673257589
 10
122.2740179815843
 20
-141.6394164684964
 10
122.0721353861486
 20
-141.8254516246999
 10
121.8344237976664
 20
-141.9186414575759
 10
121.8344237976664
 20
-141.9186414575759
 10
121.67009274302
 20
-141.7388074732459
 10
121.67009274302
 20
-141.7388074732459
 10
122.2164848869806
 20
-141.5865342527978
 10
122.4979491881255
 20
-141.03015133193
 10
122.5516926776954
 20
-140.5900403836893
 10
122.5516926776954
 20
-140.5900403836893
 10
121.8991915927891
 20
-140.5900403836893
 10
121.8991915927891
 20
-140.5900403836893
 10
121.8199543966283
 20
-140.5900403836893
 10
121.662858042501
 20
-140.5943467530459
 10
121.5291883376733
 20
-140.6132947782147
 10
121.5291883376733
 20
-140.6132947782147
 10
121.5291883376733
 20
-140.3933254314815
 10
121.5291883376733
 20
-140.3933254314815
 10
121.6036024001547
 20
-140.4145127687158
 10
121.8178873393372
 20
-140.4145127687158
 10
121.9026366882743
 20
-140.4145127687158
 10
121.9026366882743
 20
-140.4145127687158
 10
122.270572886099
 20
-140.4145127687158
 10
122.270572886099
 20
-140.4145127687158
 10
122.3064018791456
 20
-140.4145127687158
 10
122.5069064363872
 20
-140.4122734566504
 10
122.5392903339485
 20
-140.406072284777
 10
122.5751193269951
 20
-140.3996988581293
 10
122.5771863842863
 20
-140.3974595460638
 10
122.6295518356621
 20
-140.3573241836607
 10
122.6295518356621
 20
-140.3573241836607
 10
122.7900932852747
 20
-140.5118367161741
 10
122.7900932852747
 20
-140.5118367161741
 10
122.7645995786839
 20
-140.5414645373473
 10
122.752197234937
 20
-140.5731594158116
 10
122.7377278338989
 20
-140.6324150581579
 97
        0
 97
        0
 92
        1
 93
        1
 72
     4
 94
        3
 73
     0
 74
     1
 95
       17
 96
       13
 40
0.0
 40
0.0
 40
0.0
 40
0.0
 40
1.0
 40
1.0
 40
1.0
 40
2.0
 40
2.0
 40
2.0
 40
3.0
 40
3.0
 40
3.0
 40
4.0
 40
4.0
 40
4.0
 40
4.0
 10
122.9161837800348
 20
-140.4334607938847
 10
122.808007781798
 20
-140.4334607938847
 10
122.7211913755697
 20
-140.3320027318441
 10
122.7211913755697
 20
-140.2050509632126
 10
122.7211913755697
 20
-140.0780991945812
 10
122.808007781798
 20
-139.9744018204752
 10
122.9161837800348
 20
-139.9744018204752
 10
123.0243597782717
 20
-139.9744018204752
 10
123.1125542226941
 20
-140.0780991945812
 10
123.1125542226941
 20
-140.2050509632126
 10
123.1125542226941
 20
-140.3320027318441
 10
123.0243597782717
 20
-140.4334607938847
 10
122.9161837800348
 20
-140.4334607938847
 97
        0
 97
        0
 92
        1
 93
        1
 72
     4
 94
        3
 73
     0
 74
     1
 95
       17
 96
       13
 40
0.0
 40
0.0
 40
0.0
 40
0.0
 40
1.0
 40
1.0
 40
1.0
 40
2.0
 40
2.0
 40
2.0
 40
3.0
 40
3.0
 40
3.0
 40
4.0
 40
4.0
 40
4.0
 40
4.0
 10
122.9141167227437
 20
-140.1034206463978
 10
122.8672634241443
 20
-140.1034206463978
 10
122.8293673738065
 20
-140.1478623781575
 10
122.8293673738065
 20
-140.2029839059215
 10
122.8293673738065
 20
-140.2600002362024
 10
122.8672634241443
 20
-140.3087483373187
 10
122.9179063277775
 20
-140.3087483373187
 10
122.9685492314106
 20
-140.3087483373187
 10
123.0026556767146
 20
-140.2579331789112
 10
123.0026556767146
 20
-140.2050509632126
 10
123.0026556767146
 20
-140.1478623781575
 10
122.9630370786342
 20
-140.1034206463978
 10
122.9141167227437
 20
-140.1034206463978
 97
        0
 97
        0
 75
     2
 76
     1
 98
        0
  0
ENDBLK
  5
FC
330
F9
100
AcDbEntity
  8
0
100
AcDbBlockEnd
  0
ENDSEC
  0
SECTION
  2
ENTITIES
  0
POLYLINE
  5
41
330
1F
100
AcDbEntity
  8
_U+30EC_U+30A4_U+30E4_U+30FC 1
 62
   179
420
  2234388
370
     9
100
AcDb2dPolyline
 66
     1
 10
0.0
 20
0.0
 30
0.0
  0
VERTEX
  5
42
330
41
100
AcDbEntity
  8
_U+30EC_U+30A4_U+30E4_U+30FC 1
 62
   179
420
  2234388
370
     9
100
AcDbVertex
100
AcDb2dVertex
 10
91.82893672342813
 20
-144.4603252473593
 30
0.0
  0
VERTEX
  5
43
330
41
100
AcDbEntity
  8
_U+30EC_U+30A4_U+30E4_U+30FC 1
 62
   179
420
  2234388
370
     9
100
AcDbVertex
100
AcDb2dVertex
 10
91.82893672342813
 20
-140.4033808039291
 30
0.0
  0
VERTEX
  5
44
330
41
100
AcDbEntity
  8
_U+30EC_U+30A4_U+30E4_U+30FC 1
 62
   179
420
  2234388
370
     9
100
AcDbVertex
100
AcDb2dVertex
 10
92.56588840289749
 20
-140.4033808039291
 30
0.0
  0
SEQEND
  5
45
330
41
100
AcDbEntity
  8
_U+30EC_U+30A4_U+30E4_U+30FC 1
 62
   179
420
  2234388
370
     9
  0
POLYLINE
  5
46
330
1F
100
AcDbEntity
  8
_U+30EC_U+30A4_U+30E4_U+30FC 1
 62
   179
420
  2234388
370
     9
100
AcDb2dPolyline
 66
     1
 10
0.0
 20
0.0
 30
0.0
  0
VERTEX
  5
47
330
46
100
AcDbEntity
  8
_U+30EC_U+30A4_U+30E4_U+30FC 1
 62
   179
420
  2234388
370
     9
100
AcDbVertex
100
AcDb2dVertex
 10
94.20277976753954
 20
-140.3590036677101
 30
0.0
  0
VERTEX
  5
48
330
46
100
AcDbEntity
  8
_U+30EC_U+30A4_U+30E4_U+30FC 1
 62
   179
420
  2234388
370
     9
100
AcDbVertex
100
AcDb2dVertex
 10
100.4303631425492
 20
-140.3590036677101
 30
0.0
  0
SEQEND
  5
49
330
46
100
AcDbEntity
  8
_U+30EC_U+30A4_U+30E4_U+30FC 1
 62
   179
420
  2234388
370
     9
  0
POLYLINE
  5
4A
330
1F
100
AcDbEntity
  8
_U+30EC_U+30A4_U+30E4_U+30FC 1
 62
   179
420
  2234388
370
     9
100
AcDb2dPolyline
 66
     1
 10
0.0
 20
0.0
 30
0.0
  0
VERTEX
  5
4B
330
4A
100
AcDbEntity
  8
_U+30EC_U+30A4_U+30E4_U+30FC 1
 62
   179
420
  2234388
370
     9
100
AcDbVertex
100
AcDb2dVertex
 10
94.83477984282777
 20
-140.3590036677101
 30
0.0
  0
VERTEX
  5
4C
330
4A
100
AcDbEntity
  8
_U+30EC_U+30A4_U+30E4_U+30FC 1
 62
   179
420
  2234388
370
     9
100
AcDbVertex
100
AcDb2dVertex
 10
94.83477984282777
 20
-144.3281197081129
 30
0.0
  0
SEQEND
  5
4D
330
4A
100
AcDbEntity
  8
_U+30EC_U+30A4_U+30E4_U+30FC 1
 62
   179
420
  2234388
370
     9
  0
POLYLINE
  5
4E
330
1F
100
AcDbEntity
  8
_U+30EC_U+30A4_U+30E4_U+30FC 1
 62
   179
420
  2234388
370
     9
100
AcDb2dPolyline
 66
     1
 10
0.0
 20
0.0
 30
0.0
  0
VERTEX
  5
4F
330
4E
100
AcDbEntity
  8
_U+30EC_U+30A4_U+30E4_U+30FC 1
 62
   179
420
  2234388
370
     9
100
AcDbVertex
100
AcDb2dVertex
 10
103.5580953551055
 20
-140.2708092232877
 30
0.0
  0
VERTEX
  5
50
330
4E
100
AcDbEntity
  8
_U+30EC_U+30A4_U+30E4_U+30FC 1
 62
   179
420
  2234388
370
     9
100
AcDbVertex
100
AcDb2dVertex
 10
108.834942726901
 20
-140.2708092232877
 30
0.0
  0
VERTEX
  5
51
330
4E
100
AcDbEntity
  8
_U+30EC_U+30A4_U+30E4_U+30FC 1
 62
   179
420
  2234388
370
     9
100
AcDbVertex
100
AcDb2dVertex
 10
108.834942726901
 20
-147.0180502629959
 30
0.0
  0
SEQEND
  5
52
330
4E
100
AcDbEntity
  8
_U+30EC_U+30A4_U+30E4_U+30FC 1
 62
   179
420
  2234388
370
     9
  0
POLYLINE
  5
53
330
1F
100
AcDbEntity
  8
_U+30EC_U+30A4_U+30E4_U+30FC 1
 62
   179
420
  2234388
370
     9
100
AcDb2dPolyline
 66
     1
 10
0.0
 20
0.0
 30
0.0
  0
VERTEX
  5
54
330
53
100
AcDbEntity
  8
_U+30EC_U+30A4_U+30E4_U+30FC 1
 62
   179
420
  2234388
370
     9
100
AcDbVertex
100
AcDb2dVertex
 10
97.31575997356875
 20
-145.5080433799645
 30
0.0
  0
VERTEX
  5
55
330
53
100
AcDbEntity
  8
_U+30EC_U+30A4_U+30E4_U+30FC 1
 62
   179
420
  2234388
370
     9
100
AcDbVertex
100
AcDb2dVertex
 10
112.1624097331763
 20
-145.5080433799645
 30
0.0
  0
VERTEX
  5
56
330
53
100
AcDbEntity
  8
_U+30EC_U+30A4_U+30E4_U+30FC 1
 62
   179
420
  2234388
370
     9
100
AcDbVertex
100
AcDb2dVertex
 10
112.1624097331763
 20
-153.4995237178643
 30
0.0
  0
VERTEX
  5
57
330
53
100
AcDbEntity
  8
_U+30EC_U+30A4_U+30E4_U+30FC 1
 62
   179
420
  2234388
370
     9
100
AcDbVertex
100
AcDb2dVertex
 10
110.7072014002068
 20
-153.4995237178643
 30
0.0
  0
SEQEND
  5
58
330
53
100
AcDbEntity
  8
_U+30EC_U+30A4_U+30E4_U+30FC 1
 62
   179
420
  2234388
370
     9
  0
POLYLINE
  5
59
330
1F
100
AcDbEntity
  8
_U+30EC_U+30A4_U+30E4_U+30FC 1
 62
   179
420
  2234388
370
     9
100
AcDb2dPolyline
 66
     1
 10
0.0
 20
0.0
 30
0.0
  0
VERTEX
  5
5A
330
59
100
AcDbEntity
  8
_U+30EC_U+30A4_U+30E4_U+30FC 1
 62
   179
420
  2234388
370
     9
100
AcDbVertex
100
AcDb2dVertex
 10
110.6632495179614
 20
-149.0027267083548
 30
0.0
  0
VERTEX
  5
5B
330
59
100
AcDbEntity
  8
_U+30EC_U+30A4_U+30E4_U+30FC 1
 62
   179
420
  2234388
370
     9
100
AcDbVertex
100
AcDb2dVertex
 10
112.1625550731421
 20
-149.0027267083548
 30
0.0
  0
SEQEND
  5
5C
330
59
100
AcDbEntity
  8
_U+30EC_U+30A4_U+30E4_U+30FC 1
 62
   179
420
  2234388
370
     9
  0
POLYLINE
  5
5D
330
1F
100
AcDbEntity
  8
_U+30EC_U+30A4_U+30E4_U+30FC 1
 62
   179
420
  2234388
370
     9
100
AcDb2dPolyline
 66
     1
 10
0.0
 20
0.0
 30
0.0
  0
VERTEX
  5
5E
330
5D
100
AcDbEntity
  8
_U+30EC_U+30A4_U+30E4_U+30FC 1
 62
   179
420
  2234388
370
     9
100
AcDbVertex
100
AcDb2dVertex
 10
93.84566332272321
 20
-154.7426002963296
 30
0.0
  0
VERTEX
  5
5F
330
5D
100
AcDbEntity
  8
_U+30EC_U+30A4_U+30E4_U+30FC 1
 62
   179
420
  2234388
370
     9
100
AcDbVertex
100
AcDb2dVertex
 10
93.84566332272321
 20
-156.2419058515103
 30
0.0
  0
VERTEX
  5
60
330
5D
100
AcDbEntity
  8
_U+30EC_U+30A4_U+30E4_U+30FC 1
 62
   179
420
  2234388
370
     9
100
AcDbVertex
100
AcDb2dVertex
 10
108.8083778109327
 20
-156.2419058515103
 30
0.0
  0
VERTEX
  5
61
330
5D
100
AcDbEntity
  8
_U+30EC_U+30A4_U+30E4_U+30FC 1
 62
   179
420
  2234388
370
     9
100
AcDbVertex
100
AcDb2dVertex
 10
108.8083778109327
 20
-154.6544058519071
 30
0.0
  0
SEQEND
  5
62
330
5D
100
AcDbEntity
  8
_U+30EC_U+30A4_U+30E4_U+30FC 1
 62
   179
420
  2234388
370
     9
  0
POLYLINE
  5
63
330
1F
100
AcDbEntity
  8
_U+30EC_U+30A4_U+30E4_U+30FC 1
 62
   179
420
  2234388
370
     9
100
AcDb2dPolyline
 66
     1
 10
0.0
 20
0.0
 30
0.0
  0
VERTEX
  5
64
330
63
100
AcDbEntity
  8
_U+30EC_U+30A4_U+30E4_U+30FC 1
 62
   179
420
  2234388
370
     9
100
AcDbVertex
100
AcDb2dVertex
 10
90.70117664188905
 20
-145.5080433799645
 30
0.0
  0
VERTEX
  5
65
330
63
100
AcDbEntity
  8
_U+30EC_U+30A4_U+30E4_U+30FC 1
 62
   179
420
  2234388
370
     9
100
AcDbVertex
100
AcDb2dVertex
 10
86.73242664288124
 20
-145.5080433799645
 30
0.0
  0
VERTEX
  5
66
330
63
100
AcDbEntity
  8
_U+30EC_U+30A4_U+30E4_U+30FC 1
 62
   179
420
  2234388
370
     9
100
AcDbVertex
100
AcDb2dVertex
 10
86.73242664288124
 20
-148.5504072029886
 30
0.0
  0
SEQEND
  5
67
330
63
100
AcDbEntity
  8
_U+30EC_U+30A4_U+30E4_U+30FC 1
 62
   179
420
  2234388
370
     9
  0
POLYLINE
  5
68
330
1F
100
AcDbEntity
  8
_U+30EC_U+30A4_U+30E4_U+30FC 1
 62
   179
420
  2234388
370
     9
100
AcDb2dPolyline
 66
     1
 10
0.0
 20
0.0
 30
0.0
  0
VERTEX
  5
69
330
68
100
AcDbEntity
  8
_U+30EC_U+30A4_U+30E4_U+30FC 1
 62
   179
420
  2234388
370
     9
100
AcDbVertex
100
AcDb2dVertex
 10
86.77652386509244
 20
-150.5040777889799
 30
0.0
  0
VERTEX
  5
6A
330
68
100
AcDbEntity
  8
_U+30EC_U+30A4_U+30E4_U+30FC 1
 62
   179
420
  2234388
370
     9
100
AcDbVertex
100
AcDb2dVertex
 10
86.77652386509244
 20
-153.5111724469738
 30
0.0
  0
VERTEX
  5
6B
330
68
100
AcDbEntity
  8
_U+30EC_U+30A4_U+30E4_U+30FC 1
 62
   179
420
  2234388
370
     9
100
AcDbVertex
100
AcDb2dVertex
 10
90.65707941967786
 20
-153.5111724469738
 30
0.0
  0
SEQEND
  5
6C
330
68
100
AcDbEntity
  8
_U+30EC_U+30A4_U+30E4_U+30FC 1
 62
   179
420
  2234388
370
     9
  0
POLYLINE
  5
6D
330
1F
100
AcDbEntity
  8
_U+30EC_U+30A4_U+30E4_U+30FC 1
  6
AI-Linetype-1
 62
   154
420
    23468
370
    25
100
AcDb2dPolyline
 66
     1
 10
0.0
 20
0.0
 30
0.0
  0
VERTEX
  5
6E
330
6D
100
AcDbEntity
  8
_U+30EC_U+30A4_U+30E4_U+30FC 1
  6
AI-Linetype-1
 62
   154
420
    23468
370
    25
100
AcDbVertex
100
AcDb2dVertex
 10
93.84583826897833
 20
-153.948850296528
 30
0.0
  0
VERTEX
  5
6F
330
6D
100
AcDbEntity
  8
_U+30EC_U+30A4_U+30E4_U+30FC 1
  6
AI-Linetype-1
 62
   154
420
    23468
370
    25
100
AcDbVertex
100
AcDb2dVertex
 10
108.845945500607
 20
-153.948850296528
 30
0.0
  0
SEQEND
  5
71
330
6D
100
AcDbEntity
  8
_U+30EC_U+30A4_U+30E4_U+30FC 1
  6
AI-Linetype-1
 62
   154
420
    23468
370
    25
  0
POLYLINE
  5
72
330
1F
100
AcDbEntity
  8
_U+30EC_U+30A4_U+30E4_U+30FC 1
 62
   179
420
  2234388
370
     9
100
AcDb2dPolyline
 66
     1
 10
0.0
 20
0.0
 30
0.0
  0
VERTEX
  5
73
330
72
100
AcDbEntity
  8
_U+30EC_U+30A4_U+30E4_U+30FC 1
 62
   179
420
  2234388
370
     9
100
AcDbVertex
100
AcDb2dVertex
 10
123.2445767412429
 20
-142.4318530256442
 30
0.0
  0
VERTEX
  5
74
330
72
100
AcDbEntity
  8
_U+30EC_U+30A4_U+30E4_U+30FC 1
 62
   179
420
  2234388
370
     9
100
AcDbVertex
100
AcDb2dVertex
 10
110.0595073000947
 20
-142.4318530256442
 30
0.0
  0
VERTEX
  5
75
330
72
100
AcDbEntity
  8
_U+30EC_U+30A4_U+30E4_U+30FC 1
 62
   179
420
  2234388
370
     9
100
AcDbVertex
100
AcDb2dVertex
 10
103.7973464706327
 20
-153.7722676210622
 30
0.0
  0
SEQEND
  5
76
330
72
100
AcDbEntity
  8
_U+30EC_U+30A4_U+30E4_U+30FC 1
 62
   179
420
  2234388
370
     9
  0
SPLINE
  5
77
330
1F
100
AcDbEntity
  8
_U+30EC_U+30A4_U+30E4_U+30FC 1
370
     0
100
AcDbSpline
210
0.0
220
0.0
230
1.0
 70
    11
 71
     3
 72
    17
 73
    13
 74
     0
 42
0.0000000001
 43
0.0000000001
 12
1.0
 22
0.0
 32
0.0
 13
1.0
 23
0.0
 33
0.0
 40
0.0
 40
0.0
 40
0.0
 40
0.0
 40
1.0
 40
1.0
 40
1.0
 40
2.0
 40
2.0
 40
2.0
 40
3.0
 40
3.0
 40
3.0
 40
4.0
 40
4.0
 40
4.0
 40
4.0
 10
86.82062108730364
 20
-145.5080433799645
 30
0.0
 10
86.82062108730364
 20
-145.5570929269354
 30
0.0
 10
86.78110745697633
 20
-145.5962378243869
 30
0.0
 10
86.73242664288124
 20
-145.5962378243869
 30
0.0
 10
86.6837431373053
 20
-145.5962378243869
 30
0.0
 10
86.64423219845885
 20
-145.5570929269354
 30
0.0
 10
86.64423219845885
 20
-145.5080433799645
 30
0.0
 10
86.64423219845885
 20
-145.4590153648397
 30
0.0
 10
86.6837431373053
 20
-145.4198489355421
 30
0.0
 10
86.73242664288124
 20
-145.4198489355421
 30
0.0
 10
86.78110745697633
 20
-145.4198489355421
 30
0.0
 10
86.82062108730364
 20
-145.4590153648397
 30
0.0
 10
86.82062108730364
 20
-145.5080433799645
 30
0.0
  0
HATCH
  5
78
330
1F
100
AcDbEntity
  8
_U+30EC_U+30A4_U+30E4_U+30FC 1
 62
   179
420
  2234388
100
AcDbHatch
 10
0.0
 20
0.0
 30
0.0
210
0.0
220
0.0
230
1.0
  2
SOLID
 70
     1
 71
     0
 91
        1
 92
        1
 93
        2
 72
     4
 94
        3
 73
     0
 74
     0
 95
       17
 96
       13
 40
0.0
 40
0.0
 40
0.0
 40
0.0
 40
0.3527777776895833
 40
0.3527777776895833
 40
0.3527777776895833
 40
0.7055555553791667
 40
0.7055555553791667
 40
0.7055555553791667
 40
1.05833333306875
 40
1.05833333306875
 40
1.05833333306875
 40
1.411111110758333
 40
1.411111110758333
 40
1.411111110758333
 40
1.411111110758333
 10
86.82062108730364
 20
-145.5080433799645
 10
86.82062108730364
 20
-145.5570929269354
 10
86.78110745697633
 20
-145.5962378243869
 10
86.73242664288124
 20
-145.5962378243869
 10
86.6837431373053
 20
-145.5962378243869
 10
86.64423219845885
 20
-145.5570929269354
 10
86.64423219845885
 20
-145.5080433799645
 10
86.64423219845885
 20
-145.4590153648397
 10
86.6837431373053
 20
-145.4198489355421
 10
86.73242664288124
 20
-145.4198489355421
 10
86.78110745697633
 20
-145.4198489355421
 10
86.82062108730364
 20
-145.4590153648397
 10
86.82062108730364
 20
-145.5080433799645
 97
        0
 72
     1
 10
86.82062108730364
 20
-145.5080433799645
 11
86.82062108730364
 21
-145.5080433799645
 97
        0
 75
     2
 76
     1
 98
        0
  0
SPLINE
  5
79
330
1F
100
AcDbEntity
  8
_U+30EC_U+30A4_U+30E4_U+30FC 1
 62
   179
420
  2234388
370
     9
100
AcDbSpline
210
0.0
220
0.0
230
1.0
 70
    11
 71
     3
 72
    17
 73
    13
 74
     0
 42
0.0000000001
 43
0.0000000001
 12
1.0
 22
0.0
 32
0.0
 13
1.0
 23
0.0
 33
0.0
 40
0.0
 40
0.0
 40
0.0
 40
0.0
 40
1.0
 40
1.0
 40
1.0
 40
2.0
 40
2.0
 40
2.0
 40
3.0
 40
3.0
 40
3.0
 40
4.0
 40
4.0
 40
4.0
 40
4.0
 10
86.82062108730364
 20
-145.5080433799645
 30
0.0
 10
86.82062108730364
 20
-145.5570929269354
 30
0.0
 10
86.78110745697633
 20
-145.5962378243869
 30
0.0
 10
86.73242664288124
 20
-145.5962378243869
 30
0.0
 10
86.6837431373053
 20
-145.5962378243869
 30
0.0
 10
86.64423219845885
 20
-145.5570929269354
 30
0.0
 10
86.64423219845885
 20
-145.5080433799645
 30
0.0
 10
86.64423219845885
 20
-145.4590153648397
 30
0.0
 10
86.6837431373053
 20
-145.4198489355421
 30
0.0
 10
86.73242664288124
 20
-145.4198489355421
 30
0.0
 10
86.78110745697633
 20
-145.4198489355421
 30
0.0
 10
86.82062108730364
 20
-145.4590153648397
 30
0.0
 10
86.82062108730364
 20
-145.5080433799645
 30
0.0
  0
SPLINE
  5
7A
330
1F
100
AcDbEntity
  8
_U+30EC_U+30A4_U+30E4_U+30FC 1
370
     0
100
AcDbSpline
210
0.0
220
0.0
230
1.0
 70
    11
 71
     3
 72
    17
 73
    13
 74
     0
 42
0.0000000001
 43
0.0000000001
 12
1.0
 22
0.0
 32
0.0
 13
1.0
 23
0.0
 33
0.0
 40
0.0
 40
0.0
 40
0.0
 40
0.0
 40
1.0
 40
1.0
 40
1.0
 40
2.0
 40
2.0
 40
2.0
 40
3.0
 40
3.0
 40
3.0
 40
4.0
 40
4.0
 40
4.0
 40
4.0
 10
91.91713116785053
 20
-140.4033808039291
 30
0.0
 10
91.91713116785053
 20
-140.4524303509004
 30
0.0
 10
91.87761753752322
 20
-140.4915752483515
 30
0.0
 10
91.82893672342813
 20
-140.4915752483515
 30
0.0
 10
91.78025321785219
 20
-140.4915752483515
 30
0.0
 10
91.74074227900573
 20
-140.4524303509004
 30
0.0
 10
91.74074227900573
 20
-140.4033808039291
 30
0.0
 10
91.74074227900573
 20
-140.354352788805
 30
0.0
 10
91.78025321785219
 20
-140.3148418499582
 30
0.0
 10
91.82893672342813
 20
-140.3148418499582
 30
0.0
 10
91.87761753752322
 20
-140.3148418499582
 30
0.0
 10
91.91713116785053
 20
-140.354352788805
 30
0.0
 10
91.91713116785053
 20
-140.4033808039291
 30
0.0
  0
HATCH
  5
7B
330
1F
100
AcDbEntity
  8
_U+30EC_U+30A4_U+30E4_U+30FC 1
 62
   179
420
  2234388
100
AcDbHatch
 10
0.0
 20
0.0
 30
0.0
210
0.0
220
0.0
230
1.0
  2
SOLID
 70
     1
 71
     0
 91
        1
 92
        1
 93
        2
 72
     4
 94
        3
 73
     0
 74
     0
 95
       17
 96
       13
 40
0.0
 40
0.0
 40
0.0
 40
0.0
 40
0.3527777776895833
 40
0.3527777776895833
 40
0.3527777776895833
 40
0.7055555553791667
 40
0.7055555553791667
 40
0.7055555553791667
 40
1.05833333306875
 40
1.05833333306875
 40
1.05833333306875
 40
1.411111110758333
 40
1.411111110758333
 40
1.411111110758333
 40
1.411111110758333
 10
91.91713116785053
 20
-140.4033808039291
 10
91.91713116785053
 20
-140.4524303509004
 10
91.87761753752322
 20
-140.4915752483515
 10
91.82893672342813
 20
-140.4915752483515
 10
91.78025321785219
 20
-140.4915752483515
 10
91.74074227900573
 20
-140.4524303509004
 10
91.74074227900573
 20
-140.4033808039291
 10
91.74074227900573
 20
-140.354352788805
 10
91.78025321785219
 20
-140.3148418499582
 10
91.82893672342813
 20
-140.3148418499582
 10
91.87761753752322
 20
-140.3148418499582
 10
91.91713116785053
 20
-140.354352788805
 10
91.91713116785053
 20
-140.4033808039291
 97
        0
 72
     1
 10
91.91713116785053
 20
-140.4033808039291
 11
91.91713116785053
 21
-140.4033808039291
 97
        0
 75
     2
 76
     1
 98
        0
  0
SPLINE
  5
7C
330
1F
100
AcDbEntity
  8
_U+30EC_U+30A4_U+30E4_U+30FC 1
 62
   179
420
  2234388
370
     9
100
AcDbSpline
210
0.0
220
0.0
230
1.0
 70
    11
 71
     3
 72
    17
 73
    13
 74
     0
 42
0.0000000001
 43
0.0000000001
 12
1.0
 22
0.0
 32
0.0
 13
1.0
 23
0.0
 33
0.0
 40
0.0
 40
0.0
 40
0.0
 40
0.0
 40
1.0
 40
1.0
 40
1.0
 40
2.0
 40
2.0
 40
2.0
 40
3.0
 40
3.0
 40
3.0
 40
4.0
 40
4.0
 40
4.0
 40
4.0
 10
91.91713116785053
 20
-140.4033808039291
 30
0.0
 10
91.91713116785053
 20
-140.4524303509004
 30
0.0
 10
91.87761753752322
 20
-140.4915752483515
 30
0.0
 10
91.82893672342813
 20
-140.4915752483515
 30
0.0
 10
91.78025321785219
 20
-140.4915752483515
 30
0.0
 10
91.74074227900573
 20
-140.4524303509004
 30
0.0
 10
91.74074227900573
 20
-140.4033808039291
 30
0.0
 10
91.74074227900573
 20
-140.354352788805
 30
0.0
 10
91.78025321785219
 20
-140.3148418499582
 30
0.0
 10
91.82893672342813
 20
-140.3148418499582
 30
0.0
 10
91.87761753752322
 20
-140.3148418499582
 30
0.0
 10
91.91713116785053
 20
-140.354352788805
 30
0.0
 10
91.91713116785053
 20
-140.4033808039291
 30
0.0
  0
SPLINE
  5
7D
330
1F
100
AcDbEntity
  8
_U+30EC_U+30A4_U+30E4_U+30FC 1
370
     0
100
AcDbSpline
210
0.0
220
0.0
230
1.0
 70
    11
 71
     3
 72
    17
 73
    13
 74
     0
 42
0.0000000001
 43
0.0000000001
 12
1.0
 22
0.0
 32
0.0
 13
1.0
 23
0.0
 33
0.0
 40
0.0
 40
0.0
 40
0.0
 40
0.0
 40
1.0
 40
1.0
 40
1.0
 40
2.0
 40
2.0
 40
2.0
 40
3.0
 40
3.0
 40
3.0
 40
4.0
 40
4.0
 40
4.0
 40
4.0
 10
94.92297428725017
 20
-140.3586160944676
 30
0.0
 10
94.92297428725017
 20
-140.4080101509877
 30
0.0
 10
94.88346065692285
 20
-140.4471765802853
 30
0.0
 10
94.83477984282777
 20
-140.4471765802853
 30
0.0
 10
94.78609633725183
 20
-140.4471765802853
 30
0.0
 10
94.74658539840537
 20
-140.4080101509877
 30
0.0
 10
94.74658539840537
 20
-140.3586160944676
 30
0.0
 10
94.74658539840537
 20
-140.3095880793432
 30
0.0
 10
94.78609633725183
 20
-140.2704216500453
 30
0.0
 10
94.83477984282777
 20
-140.2704216500453
 30
0.0
 10
94.88346065692285
 20
-140.2704216500453
 30
0.0
 10
94.92297428725017
 20
-140.3095880793432
 30
0.0
 10
94.92297428725017
 20
-140.3586160944676
 30
0.0
  0
HATCH
  5
7E
330
1F
100
AcDbEntity
  8
_U+30EC_U+30A4_U+30E4_U+30FC 1
 62
   179
420
  2234388
100
AcDbHatch
 10
0.0
 20
0.0
 30
0.0
210
0.0
220
0.0
230
1.0
  2
SOLID
 70
     1
 71
     0
 91
        1
 92
        1
 93
        2
 72
     4
 94
        3
 73
     0
 74
     0
 95
       17
 96
       13
 40
0.0
 40
0.0
 40
0.0
 40
0.0
 40
0.3527777776895833
 40
0.3527777776895833
 40
0.3527777776895833
 40
0.7055555553791667
 40
0.7055555553791667
 40
0.7055555553791667
 40
1.05833333306875
 40
1.05833333306875
 40
1.05833333306875
 40
1.411111110758333
 40
1.411111110758333
 40
1.411111110758333
 40
1.411111110758333
 10
94.92297428725017
 20
-140.3586160944676
 10
94.92297428725017
 20
-140.4080101509877
 10
94.88346065692285
 20
-140.4471765802853
 10
94.83477984282777
 20
-140.4471765802853
 10
94.78609633725183
 20
-140.4471765802853
 10
94.74658539840537
 20
-140.4080101509877
 10
94.74658539840537
 20
-140.3586160944676
 10
94.74658539840537
 20
-140.3095880793432
 10
94.78609633725183
 20
-140.2704216500453
 10
94.83477984282777
 20
-140.2704216500453
 10
94.88346065692285
 20
-140.2704216500453
 10
94.92297428725017
 20
-140.3095880793432
 10
94.92297428725017
 20
-140.3586160944676
 97
        0
 72
     1
 10
94.92297428725017
 20
-140.3586160944676
 11
94.92297428725017
 21
-140.3586160944676
 97
        0
 75
     2
 76
     1
 98
        0
  0
SPLINE
  5
7F
330
1F
100
AcDbEntity
  8
_U+30EC_U+30A4_U+30E4_U+30FC 1
 62
   179
420
  2234388
370
     9
100
AcDbSpline
210
0.0
220
0.0
230
1.0
 70
    11
 71
     3
 72
    17
 73
    13
 74
     0
 42
0.0000000001
 43
0.0000000001
 12
1.0
 22
0.0
 32
0.0
 13
1.0
 23
0.0
 33
0.0
 40
0.0
 40
0.0
 40
0.0
 40
0.0
 40
1.0
 40
1.0
 40
1.0
 40
2.0
 40
2.0
 40
2.0
 40
3.0
 40
3.0
 40
3.0
 40
4.0
 40
4.0
 40
4.0
 40
4.0
 10
94.92297428725017
 20
-140.3586160944676
 30
0.0
 10
94.92297428725017
 20
-140.4080101509877
 30
0.0
 10
94.88346065692285
 20
-140.4471765802853
 30
0.0
 10
94.83477984282777
 20
-140.4471765802853
 30
0.0
 10
94.78609633725183
 20
-140.4471765802853
 30
0.0
 10
94.74658539840537
 20
-140.4080101509877
 30
0.0
 10
94.74658539840537
 20
-140.3586160944676
 30
0.0
 10
94.74658539840537
 20
-140.3095880793432
 30
0.0
 10
94.78609633725183
 20
-140.2704216500453
 30
0.0
 10
94.83477984282777
 20
-140.2704216500453
 30
0.0
 10
94.88346065692285
 20
-140.2704216500453
 30
0.0
 10
94.92297428725017
 20
-140.3095880793432
 30
0.0
 10
94.92297428725017
 20
-140.3586160944676
 30
0.0
  0
SPLINE
  5
80
330
1F
100
AcDbEntity
  8
_U+30EC_U+30A4_U+30E4_U+30FC 1
370
     0
100
AcDbSpline
210
0.0
220
0.0
230
1.0
 70
    11
 71
     3
 72
    17
 73
    13
 74
     0
 42
0.0000000001
 43
0.0000000001
 12
1.0
 22
0.0
 32
0.0
 13
1.0
 23
0.0
 33
0.0
 40
0.0
 40
0.0
 40
0.0
 40
0.0
 40
1.0
 40
1.0
 40
1.0
 40
2.0
 40
2.0
 40
2.0
 40
3.0
 40
3.0
 40
3.0
 40
4.0
 40
4.0
 40
4.0
 40
4.0
 10
112.2507495175645
 20
-145.5080433799645
 30
0.0
 10
112.2507495175645
 20
-145.5570929269354
 30
0.0
 10
112.2112331957563
 20
-145.5962378243869
 30
0.0
 10
112.1625550731421
 20
-145.5962378243869
 30
0.0
 10
112.1138715675662
 20
-145.5962378243869
 30
0.0
 10
112.0743606287197
 20
-145.5570929269354
 30
0.0
 10
112.0743606287197
 20
-145.5080433799645
 30
0.0
 10
112.0743606287197
 20
-145.4590153648397
 30
0.0
 10
112.1138715675662
 20
-145.4198489355421
 30
0.0
 10
112.1625550731421
 20
-145.4198489355421
 30
0.0
 10
112.2112331957563
 20
-145.4198489355421
 30
0.0
 10
112.2507495175645
 20
-145.4590153648397
 30
0.0
 10
112.2507495175645
 20
-145.5080433799645
 30
0.0
  0
HATCH
  5
81
330
1F
100
AcDbEntity
  8
_U+30EC_U+30A4_U+30E4_U+30FC 1
 62
   179
420
  2234388
100
AcDbHatch
 10
0.0
 20
0.0
 30
0.0
210
0.0
220
0.0
230
1.0
  2
SOLID
 70
     1
 71
     0
 91
        1
 92
        1
 93
        2
 72
     4
 94
        3
 73
     0
 74
     0
 95
       17
 96
       13
 40
0.0
 40
0.0
 40
0.0
 40
0.0
 40
0.3527777776895833
 40
0.3527777776895833
 40
0.3527777776895833
 40
0.7055555553791667
 40
0.7055555553791667
 40
0.7055555553791667
 40
1.05833333306875
 40
1.05833333306875
 40
1.05833333306875
 40
1.411111110758333
 40
1.411111110758333
 40
1.411111110758333
 40
1.411111110758333
 10
112.2507495175645
 20
-145.5080433799645
 10
112.2507495175645
 20
-145.5570929269354
 10
112.2112331957563
 20
-145.5962378243869
 10
112.1625550731421
 20
-145.5962378243869
 10
112.1138715675662
 20
-145.5962378243869
 10
112.0743606287197
 20
-145.5570929269354
 10
112.0743606287197
 20
-145.5080433799645
 10
112.0743606287197
 20
-145.4590153648397
 10
112.1138715675662
 20
-145.4198489355421
 10
112.1625550731421
 20
-145.4198489355421
 10
112.2112331957563
 20
-145.4198489355421
 10
112.2507495175645
 20
-145.4590153648397
 10
112.2507495175645
 20
-145.5080433799645
 97
        0
 72
     1
 10
112.2507495175645
 20
-145.5080433799645
 11
112.2507495175645
 21
-145.5080433799645
 97
        0
 75
     2
 76
     1
 98
        0
  0
SPLINE
  5
82
330
1F
100
AcDbEntity
  8
_U+30EC_U+30A4_U+30E4_U+30FC 1
 62
   179
420
  2234388
370
     9
100
AcDbSpline
210
0.0
220
0.0
230
1.0
 70
    11
 71
     3
 72
    17
 73
    13
 74
     0
 42
0.0000000001
 43
0.0000000001
 12
1.0
 22
0.0
 32
0.0
 13
1.0
 23
0.0
 33
0.0
 40
0.0
 40
0.0
 40
0.0
 40
0.0
 40
1.0
 40
1.0
 40
1.0
 40
2.0
 40
2.0
 40
2.0
 40
3.0
 40
3.0
 40
3.0
 40
4.0
 40
4.0
 40
4.0
 40
4.0
 10
112.2507495175645
 20
-145.5080433799645
 30
0.0
 10
112.2507495175645
 20
-145.5570929269354
 30
0.0
 10
112.2112331957563
 20
-145.5962378243869
 30
0.0
 10
112.1625550731421
 20
-145.5962378243869
 30
0.0
 10
112.1138715675662
 20
-145.5962378243869
 30
0.0
 10
112.0743606287197
 20
-145.5570929269354
 30
0.0
 10
112.0743606287197
 20
-145.5080433799645
 30
0.0
 10
112.0743606287197
 20
-145.4590153648397
 30
0.0
 10
112.1138715675662
 20
-145.4198489355421
 30
0.0
 10
112.1625550731421
 20
-145.4198489355421
 30
0.0
 10
112.2112331957563
 20
-145.4198489355421
 30
0.0
 10
112.2507495175645
 20
-145.4590153648397
 30
0.0
 10
112.2507495175645
 20
-145.5080433799645
 30
0.0
  0
SPLINE
  5
83
330
1F
100
AcDbEntity
  8
_U+30EC_U+30A4_U+30E4_U+30FC 1
370
     0
100
AcDbSpline
210
0.0
220
0.0
230
1.0
 70
    11
 71
     3
 72
    17
 73
    13
 74
     0
 42
0.0000000001
 43
0.0000000001
 12
1.0
 22
0.0
 32
0.0
 13
1.0
 23
0.0
 33
0.0
 40
0.0
 40
0.0
 40
0.0
 40
0.0
 40
1.0
 40
1.0
 40
1.0
 40
2.0
 40
2.0
 40
2.0
 40
3.0
 40
3.0
 40
3.0
 40
4.0
 40
4.0
 40
4.0
 40
4.0
 10
112.2507495175645
 20
-149.0027267083548
 30
0.0
 10
112.2507495175645
 20
-149.051776255326
 30
0.0
 10
112.2112331957563
 20
-149.0909211527772
 30
0.0
 10
112.1625550731421
 20
-149.0909211527772
 30
0.0
 10
112.1138715675662
 20
-149.0909211527772
 30
0.0
 10
112.0743606287197
 20
-149.051776255326
 30
0.0
 10
112.0743606287197
 20
-149.0027267083548
 30
0.0
 10
112.0743606287197
 20
-148.9536986932303
 30
0.0
 10
112.1138715675662
 20
-148.9145322639324
 30
0.0
 10
112.1625550731421
 20
-148.9145322639324
 30
0.0
 10
112.2112331957563
 20
-148.9145322639324
 30
0.0
 10
112.2507495175645
 20
-148.9536986932303
 30
0.0
 10
112.2507495175645
 20
-149.0027267083548
 30
0.0
  0
HATCH
  5
84
330
1F
100
AcDbEntity
  8
_U+30EC_U+30A4_U+30E4_U+30FC 1
 62
   179
420
  2234388
100
AcDbHatch
 10
0.0
 20
0.0
 30
0.0
210
0.0
220
0.0
230
1.0
  2
SOLID
 70
     1
 71
     0
 91
        1
 92
        1
 93
        2
 72
     4
 94
        3
 73
     0
 74
     0
 95
       17
 96
       13
 40
0.0
 40
0.0
 40
0.0
 40
0.0
 40
0.3527777776895833
 40
0.3527777776895833
 40
0.3527777776895833
 40
0.7055555553791667
 40
0.7055555553791667
 40
0.7055555553791667
 40
1.05833333306875
 40
1.05833333306875
 40
1.05833333306875
 40
1.411111110758333
 40
1.411111110758333
 40
1.411111110758333
 40
1.411111110758333
 10
112.2507495175645
 20
-149.0027267083548
 10
112.2507495175645
 20
-149.051776255326
 10
112.2112331957563
 20
-149.0909211527772
 10
112.1625550731421
 20
-149.0909211527772
 10
112.1138715675662
 20
-149.0909211527772
 10
112.0743606287197
 20
-149.051776255326
 10
112.0743606287197
 20
-149.0027267083548
 10
112.0743606287197
 20
-148.9536986932303
 10
112.1138715675662
 20
-148.9145322639324
 10
112.1625550731421
 20
-148.9145322639324
 10
112.2112331957563
 20
-148.9145322639324
 10
112.2507495175645
 20
-148.9536986932303
 10
112.2507495175645
 20
-149.0027267083548
 97
        0
 72
     1
 10
112.2507495175645
 20
-149.0027267083548
 11
112.2507495175645
 21
-149.0027267083548
 97
        0
 75
     2
 76
     1
 98
        0
  0
SPLINE
  5
85
330
1F
100
AcDbEntity
  8
_U+30EC_U+30A4_U+30E4_U+30FC 1
 62
   179
420
  2234388
370
     9
100
AcDbSpline
210
0.0
220
0.0
230
1.0
 70
    11
 71
     3
 72
    17
 73
    13
 74
     0
 42
0.0000000001
 43
0.0000000001
 12
1.0
 22
0.0
 32
0.0
 13
1.0
 23
0.0
 33
0.0
 40
0.0
 40
0.0
 40
0.0
 40
0.0
 40
1.0
 40
1.0
 40
1.0
 40
2.0
 40
2.0
 40
2.0
 40
3.0
 40
3.0
 40
3.0
 40
4.0
 40
4.0
 40
4.0
 40
4.0
 10
112.2507495175645
 20
-149.0027267083548
 30
0.0
 10
112.2507495175645
 20
-149.051776255326
 30
0.0
 10
112.2112331957563
 20
-149.0909211527772
 30
0.0
 10
112.1625550731421
 20
-149.0909211527772
 30
0.0
 10
112.1138715675662
 20
-149.0909211527772
 30
0.0
 10
112.0743606287197
 20
-149.051776255326
 30
0.0
 10
112.0743606287197
 20
-149.0027267083548
 30
0.0
 10
112.0743606287197
 20
-148.9536986932303
 30
0.0
 10
112.1138715675662
 20
-148.9145322639324
 30
0.0
 10
112.1625550731421
 20
-148.9145322639324
 30
0.0
 10
112.2112331957563
 20
-148.9145322639324
 30
0.0
 10
112.2507495175645
 20
-148.9536986932303
 30
0.0
 10
112.2507495175645
 20
-149.0027267083548
 30
0.0
  0
SPLINE
  5
86
330
1F
100
AcDbEntity
  8
_U+30EC_U+30A4_U+30E4_U+30FC 1
370
     0
100
AcDbSpline
210
0.0
220
0.0
230
1.0
 70
    11
 71
     3
 72
    17
 73
    13
 74
     0
 42
0.0000000001
 43
0.0000000001
 12
1.0
 22
0.0
 32
0.0
 13
1.0
 23
0.0
 33
0.0
 40
0.0
 40
0.0
 40
0.0
 40
0.0
 40
1.0
 40
1.0
 40
1.0
 40
2.0
 40
2.0
 40
2.0
 40
3.0
 40
3.0
 40
3.0
 40
4.0
 40
4.0
 40
4.0
 40
4.0
 10
108.8966099360869
 20
-156.2419058515103
 30
0.0
 10
108.8966099360869
 20
-156.2909553984815
 30
0.0
 10
108.8570936142788
 20
-156.3301002959327
 30
0.0
 10
108.8084154916645
 20
-156.3301002959327
 30
0.0
 10
108.7597319860886
 20
-156.3301002959327
 30
0.0
 10
108.7202210472421
 20
-156.2909553984815
 30
0.0
 10
108.7202210472421
 20
-156.2419058515103
 30
0.0
 10
108.7202210472421
 20
-156.1928778363858
 30
0.0
 10
108.7597319860886
 20
-156.1537114070879
 30
0.0
 10
108.8084154916645
 20
-156.1537114070879
 30
0.0
 10
108.8570936142788
 20
-156.1537114070879
 30
0.0
 10
108.8966099360869
 20
-156.1928778363858
 30
0.0
 10
108.8966099360869
 20
-156.2419058515103
 30
0.0
  0
HATCH
  5
87
330
1F
100
AcDbEntity
  8
_U+30EC_U+30A4_U+30E4_U+30FC 1
 62
   179
420
  2234388
100
AcDbHatch
 10
0.0
 20
0.0
 30
0.0
210
0.0
220
0.0
230
1.0
  2
SOLID
 70
     1
 71
     0
 91
        1
 92
        1
 93
        2
 72
     4
 94
        3
 73
     0
 74
     0
 95
       17
 96
       13
 40
0.0
 40
0.0
 40
0.0
 40
0.0
 40
0.3527777776895833
 40
0.3527777776895833
 40
0.3527777776895833
 40
0.7055555553791667
 40
0.7055555553791667
 40
0.7055555553791667
 40
1.05833333306875
 40
1.05833333306875
 40
1.05833333306875
 40
1.411111110758333
 40
1.411111110758333
 40
1.411111110758333
 40
1.411111110758333
 10
108.8966099360869
 20
-156.2419058515103
 10
108.8966099360869
 20
-156.2909553984815
 10
108.8570936142788
 20
-156.3301002959327
 10
108.8084154916645
 20
-156.3301002959327
 10
108.7597319860886
 20
-156.3301002959327
 10
108.7202210472421
 20
-156.2909553984815
 10
108.7202210472421
 20
-156.2419058515103
 10
108.7202210472421
 20
-156.1928778363858
 10
108.7597319860886
 20
-156.1537114070879
 10
108.8084154916645
 20
-156.1537114070879
 10
108.8570936142788
 20
-156.1537114070879
 10
108.8966099360869
 20
-156.1928778363858
 10
108.8966099360869
 20
-156.2419058515103
 97
        0
 72
     1
 10
108.8966099360869
 20
-156.2419058515103
 11
108.8966099360869
 21
-156.2419058515103
 97
        0
 75
     2
 76
     1
 98
        0
  0
SPLINE
  5
88
330
1F
100
AcDbEntity
  8
_U+30EC_U+30A4_U+30E4_U+30FC 1
 62
   179
420
  2234388
370
     9
100
AcDbSpline
210
0.0
220
0.0
230
1.0
 70
    11
 71
     3
 72
    17
 73
    13
 74
     0
 42
0.0000000001
 43
0.0000000001
 12
1.0
 22
0.0
 32
0.0
 13
1.0
 23
0.0
 33
0.0
 40
0.0
 40
0.0
 40
0.0
 40
0.0
 40
1.0
 40
1.0
 40
1.0
 40
2.0
 40
2.0
 40
2.0
 40
3.0
 40
3.0
 40
3.0
 40
4.0
 40
4.0
 40
4.0
 40
4.0
 10
108.8966099360869
 20
-156.2419058515103
 30
0.0
 10
108.8966099360869
 20
-156.2909553984815
 30
0.0
 10
108.8570936142788
 20
-156.3301002959327
 30
0.0
 10
108.8084154916645
 20
-156.3301002959327
 30
0.0
 10
108.7597319860886
 20
-156.3301002959327
 30
0.0
 10
108.7202210472421
 20
-156.2909553984815
 30
0.0
 10
108.7202210472421
 20
-156.2419058515103
 30
0.0
 10
108.7202210472421
 20
-156.1928778363858
 30
0.0
 10
108.7597319860886
 20
-156.1537114070879
 30
0.0
 10
108.8084154916645
 20
-156.1537114070879
 30
0.0
 10
108.8570936142788
 20
-156.1537114070879
 30
0.0
 10
108.8966099360869
 20
-156.1928778363858
 30
0.0
 10
108.8966099360869
 20
-156.2419058515103
 30
0.0
  0
SPLINE
  5
89
330
1F
100
AcDbEntity
  8
_U+30EC_U+30A4_U+30E4_U+30FC 1
370
     0
100
AcDbSpline
210
0.0
220
0.0
230
1.0
 70
    11
 71
     3
 72
    17
 73
    13
 74
     0
 42
0.0000000001
 43
0.0000000001
 12
1.0
 22
0.0
 32
0.0
 13
1.0
 23
0.0
 33
0.0
 40
0.0
 40
0.0
 40
0.0
 40
0.0
 40
1.0
 40
1.0
 40
1.0
 40
2.0
 40
2.0
 40
2.0
 40
3.0
 40
3.0
 40
3.0
 40
4.0
 40
4.0
 40
4.0
 40
4.0
 10
93.93385776714561
 20
-156.1978086292991
 30
0.0
 10
93.93385776714561
 20
-156.2468581762703
 30
0.0
 10
93.8943441368183
 20
-156.2860030737215
 30
0.0
 10
93.84566332272321
 20
-156.2860030737215
 30
0.0
 10
93.79697981714727
 20
-156.2860030737215
 30
0.0
 10
93.75746887830081
 20
-156.2468581762703
 30
0.0
 10
93.75746887830081
 20
-156.1978086292991
 30
0.0
 10
93.75746887830081
 20
-156.1487806141746
 30
0.0
 10
93.79697981714727
 20
-156.1096141848767
 30
0.0
 10
93.84566332272321
 20
-156.1096141848767
 30
0.0
 10
93.8943441368183
 20
-156.1096141848767
 30
0.0
 10
93.93385776714561
 20
-156.1487806141746
 30
0.0
 10
93.93385776714561
 20
-156.1978086292991
 30
0.0
  0
HATCH
  5
8A
330
1F
100
AcDbEntity
  8
_U+30EC_U+30A4_U+30E4_U+30FC 1
 62
   179
420
  2234388
100
AcDbHatch
 10
0.0
 20
0.0
 30
0.0
210
0.0
220
0.0
230
1.0
  2
SOLID
 70
     1
 71
     0
 91
        1
 92
        1
 93
        2
 72
     4
 94
        3
 73
     0
 74
     0
 95
       17
 96
       13
 40
0.0
 40
0.0
 40
0.0
 40
0.0
 40
0.3527777776895833
 40
0.3527777776895833
 40
0.3527777776895833
 40
0.7055555553791667
 40
0.7055555553791667
 40
0.7055555553791667
 40
1.05833333306875
 40
1.05833333306875
 40
1.05833333306875
 40
1.411111110758333
 40
1.411111110758333
 40
1.411111110758333
 40
1.411111110758333
 10
93.93385776714561
 20
-156.1978086292991
 10
93.93385776714561
 20
-156.2468581762703
 10
93.8943441368183
 20
-156.2860030737215
 10
93.84566332272321
 20
-156.2860030737215
 10
93.79697981714727
 20
-156.2860030737215
 10
93.75746887830081
 20
-156.2468581762703
 10
93.75746887830081
 20
-156.1978086292991
 10
93.75746887830081
 20
-156.1487806141746
 10
93.79697981714727
 20
-156.1096141848767
 10
93.84566332272321
 20
-156.1096141848767
 10
93.8943441368183
 20
-156.1096141848767
 10
93.93385776714561
 20
-156.1487806141746
 10
93.93385776714561
 20
-156.1978086292991
 97
        0
 72
     1
 10
93.93385776714561
 20
-156.1978086292991
 11
93.93385776714561
 21
-156.1978086292991
 97
        0
 75
     2
 76
     1
 98
        0
  0
SPLINE
  5
8B
330
1F
100
AcDbEntity
  8
_U+30EC_U+30A4_U+30E4_U+30FC 1
 62
   179
420
  2234388
370
     9
100
AcDbSpline
210
0.0
220
0.0
230
1.0
 70
    11
 71
     3
 72
    17
 73
    13
 74
     0
 42
0.0000000001
 43
0.0000000001
 12
1.0
 22
0.0
 32
0.0
 13
1.0
 23
0.0
 33
0.0
 40
0.0
 40
0.0
 40
0.0
 40
0.0
 40
1.0
 40
1.0
 40
1.0
 40
2.0
 40
2.0
 40
2.0
 40
3.0
 40
3.0
 40
3.0
 40
4.0
 40
4.0
 40
4.0
 40
4.0
 10
93.93385776714561
 20
-156.1978086292991
 30
0.0
 10
93.93385776714561
 20
-156.2468581762703
 30
0.0
 10
93.8943441368183
 20
-156.2860030737215
 30
0.0
 10
93.84566332272321
 20
-156.2860030737215
 30
0.0
 10
93.79697981714727
 20
-156.2860030737215
 30
0.0
 10
93.75746887830081
 20
-156.2468581762703
 30
0.0
 10
93.75746887830081
 20
-156.1978086292991
 30
0.0
 10
93.75746887830081
 20
-156.1487806141746
 30
0.0
 10
93.79697981714727
 20
-156.1096141848767
 30
0.0
 10
93.84566332272321
 20
-156.1096141848767
 30
0.0
 10
93.8943441368183
 20
-156.1096141848767
 30
0.0
 10
93.93385776714561
 20
-156.1487806141746
 30
0.0
 10
93.93385776714561
 20
-156.1978086292991
 30
0.0
  0
SPLINE
  5
8C
330
1F
100
AcDbEntity
  8
_U+30EC_U+30A4_U+30E4_U+30FC 1
370
     0
100
AcDbSpline
210
0.0
220
0.0
230
1.0
 70
    11
 71
     3
 72
    17
 73
    13
 74
     0
 42
0.0000000001
 43
0.0000000001
 12
1.0
 22
0.0
 32
0.0
 13
1.0
 23
0.0
 33
0.0
 40
0.0
 40
0.0
 40
0.0
 40
0.0
 40
1.0
 40
1.0
 40
1.0
 40
2.0
 40
2.0
 40
2.0
 40
3.0
 40
3.0
 40
3.0
 40
4.0
 40
4.0
 40
4.0
 40
4.0
 10
112.2507495175645
 20
-153.4995883134046
 30
0.0
 10
112.2507495175645
 20
-153.5486378603759
 30
0.0
 10
112.2112331957563
 20
-153.587782757827
 30
0.0
 10
112.1625550731421
 20
-153.587782757827
 30
0.0
 10
112.1138715675662
 20
-153.587782757827
 30
0.0
 10
112.0743606287197
 20
-153.5486378603759
 30
0.0
 10
112.0743606287197
 20
-153.4995883134046
 30
0.0
 10
112.0743606287197
 20
-153.4505602982802
 30
0.0
 10
112.1138715675662
 20
-153.4113938689822
 30
0.0
 10
112.1625550731421
 20
-153.4113938689822
 30
0.0
 10
112.2112331957563
 20
-153.4113938689822
 30
0.0
 10
112.2507495175645
 20
-153.4505602982802
 30
0.0
 10
112.2507495175645
 20
-153.4995883134046
 30
0.0
  0
HATCH
  5
8D
330
1F
100
AcDbEntity
  8
_U+30EC_U+30A4_U+30E4_U+30FC 1
 62
   179
420
  2234388
100
AcDbHatch
 10
0.0
 20
0.0
 30
0.0
210
0.0
220
0.0
230
1.0
  2
SOLID
 70
     1
 71
     0
 91
        1
 92
        1
 93
        2
 72
     4
 94
        3
 73
     0
 74
     0
 95
       17
 96
       13
 40
0.0
 40
0.0
 40
0.0
 40
0.0
 40
0.3527777776895833
 40
0.3527777776895833
 40
0.3527777776895833
 40
0.7055555553791667
 40
0.7055555553791667
 40
0.7055555553791667
 40
1.05833333306875
 40
1.05833333306875
 40
1.05833333306875
 40
1.411111110758333
 40
1.411111110758333
 40
1.411111110758333
 40
1.411111110758333
 10
112.2507495175645
 20
-153.4995883134046
 10
112.2507495175645
 20
-153.5486378603759
 10
112.2112331957563
 20
-153.587782757827
 10
112.1625550731421
 20
-153.587782757827
 10
112.1138715675662
 20
-153.587782757827
 10
112.0743606287197
 20
-153.5486378603759
 10
112.0743606287197
 20
-153.4995883134046
 10
112.0743606287197
 20
-153.4505602982802
 10
112.1138715675662
 20
-153.4113938689822
 10
112.1625550731421
 20
-153.4113938689822
 10
112.2112331957563
 20
-153.4113938689822
 10
112.2507495175645
 20
-153.4505602982802
 10
112.2507495175645
 20
-153.4995883134046
 97
        0
 72
     1
 10
112.2507495175645
 20
-153.4995883134046
 11
112.2507495175645
 21
-153.4995883134046
 97
        0
 75
     2
 76
     1
 98
        0
  0
SPLINE
  5
8E
330
1F
100
AcDbEntity
  8
_U+30EC_U+30A4_U+30E4_U+30FC 1
 62
   179
420
  2234388
370
     9
100
AcDbSpline
210
0.0
220
0.0
230
1.0
 70
    11
 71
     3
 72
    17
 73
    13
 74
     0
 42
0.0000000001
 43
0.0000000001
 12
1.0
 22
0.0
 32
0.0
 13
1.0
 23
0.0
 33
0.0
 40
0.0
 40
0.0
 40
0.0
 40
0.0
 40
1.0
 40
1.0
 40
1.0
 40
2.0
 40
2.0
 40
2.0
 40
3.0
 40
3.0
 40
3.0
 40
4.0
 40
4.0
 40
4.0
 40
4.0
 10
112.2507495175645
 20
-153.4995883134046
 30
0.0
 10
112.2507495175645
 20
-153.5486378603759
 30
0.0
 10
112.2112331957563
 20
-153.587782757827
 30
0.0
 10
112.1625550731421
 20
-153.587782757827
 30
0.0
 10
112.1138715675662
 20
-153.587782757827
 30
0.0
 10
112.0743606287197
 20
-153.5486378603759
 30
0.0
 10
112.0743606287197
 20
-153.4995883134046
 30
0.0
 10
112.0743606287197
 20
-153.4505602982802
 30
0.0
 10
112.1138715675662
 20
-153.4113938689822
 30
0.0
 10
112.1625550731421
 20
-153.4113938689822
 30
0.0
 10
112.2112331957563
 20
-153.4113938689822
 30
0.0
 10
112.2507495175645
 20
-153.4505602982802
 30
0.0
 10
112.2507495175645
 20
-153.4995883134046
 30
0.0
  0
SPLINE
  5
8F
330
1F
100
AcDbEntity
  8
_U+30EC_U+30A4_U+30E4_U+30FC 1
370
     0
100
AcDbSpline
210
0.0
220
0.0
230
1.0
 70
    11
 71
     3
 72
    17
 73
    13
 74
     0
 42
0.0000000001
 43
0.0000000001
 12
1.0
 22
0.0
 32
0.0
 13
1.0
 23
0.0
 33
0.0
 40
0.0
 40
0.0
 40
0.0
 40
0.0
 40
1.0
 40
1.0
 40
1.0
 40
2.0
 40
2.0
 40
2.0
 40
3.0
 40
3.0
 40
3.0
 40
4.0
 40
4.0
 40
4.0
 40
4.0
 10
108.9233148090593
 20
-140.2704216500453
 30
0.0
 10
108.9233148090593
 20
-140.3198157065654
 30
0.0
 10
108.8837984872512
 20
-140.358982135863
 30
0.0
 10
108.8351203646369
 20
-140.358982135863
 30
0.0
 10
108.786436859061
 20
-140.358982135863
 30
0.0
 10
108.7469259202145
 20
-140.3198157065654
 30
0.0
 10
108.7469259202145
 20
-140.2704216500453
 30
0.0
 10
108.7469259202145
 20
-140.2213936349208
 30
0.0
 10
108.786436859061
 20
-140.1822272056229
 30
0.0
 10
108.8351203646369
 20
-140.1822272056229
 30
0.0
 10
108.8837984872512
 20
-140.1822272056229
 30
0.0
 10
108.9233148090593
 20
-140.2213936349208
 30
0.0
 10
108.9233148090593
 20
-140.2704216500453
 30
0.0
  0
HATCH
  5
90
330
1F
100
AcDbEntity
  8
_U+30EC_U+30A4_U+30E4_U+30FC 1
 62
   179
420
  2234388
100
AcDbHatch
 10
0.0
 20
0.0
 30
0.0
210
0.0
220
0.0
230
1.0
  2
SOLID
 70
     1
 71
     0
 91
        1
 92
        1
 93
        2
 72
     4
 94
        3
 73
     0
 74
     0
 95
       17
 96
       13
 40
0.0
 40
0.0
 40
0.0
 40
0.0
 40
0.3527777776895833
 40
0.3527777776895833
 40
0.3527777776895833
 40
0.7055555553791667
 40
0.7055555553791667
 40
0.7055555553791667
 40
1.05833333306875
 40
1.05833333306875
 40
1.05833333306875
 40
1.411111110758333
 40
1.411111110758333
 40
1.411111110758333
 40
1.411111110758333
 10
108.9233148090593
 20
-140.2704216500453
 10
108.9233148090593
 20
-140.3198157065654
 10
108.8837984872512
 20
-140.358982135863
 10
108.8351203646369
 20
-140.358982135863
 10
108.786436859061
 20
-140.358982135863
 10
108.7469259202145
 20
-140.3198157065654
 10
108.7469259202145
 20
-140.2704216500453
 10
108.7469259202145
 20
-140.2213936349208
 10
108.786436859061
 20
-140.1822272056229
 10
108.8351203646369
 20
-140.1822272056229
 10
108.8837984872512
 20
-140.1822272056229
 10
108.9233148090593
 20
-140.2213936349208
 10
108.9233148090593
 20
-140.2704216500453
 97
        0
 72
     1
 10
108.9233148090593
 20
-140.2704216500453
 11
108.9233148090593
 21
-140.2704216500453
 97
        0
 75
     2
 76
     1
 98
        0
  0
SPLINE
  5
91
330
1F
100
AcDbEntity
  8
_U+30EC_U+30A4_U+30E4_U+30FC 1
 62
   179
420
  2234388
370
     9
100
AcDbSpline
210
0.0
220
0.0
230
1.0
 70
    11
 71
     3
 72
    17
 73
    13
 74
     0
 42
0.0000000001
 43
0.0000000001
 12
1.0
 22
0.0
 32
0.0
 13
1.0
 23
0.0
 33
0.0
 40
0.0
 40
0.0
 40
0.0
 40
0.0
 40
1.0
 40
1.0
 40
1.0
 40
2.0
 40
2.0
 40
2.0
 40
3.0
 40
3.0
 40
3.0
 40
4.0
 40
4.0
 40
4.0
 40
4.0
 10
108.9233148090593
 20
-140.2704216500453
 30
0.0
 10
108.9233148090593
 20
-140.3198157065654
 30
0.0
 10
108.8837984872512
 20
-140.358982135863
 30
0.0
 10
108.8351203646369
 20
-140.358982135863
 30
0.0
 10
108.786436859061
 20
-140.358982135863
 30
0.0
 10
108.7469259202145
 20
-140.3198157065654
 30
0.0
 10
108.7469259202145
 20
-140.2704216500453
 30
0.0
 10
108.7469259202145
 20
-140.2213936349208
 30
0.0
 10
108.786436859061
 20
-140.1822272056229
 30
0.0
 10
108.8351203646369
 20
-140.1822272056229
 30
0.0
 10
108.8837984872512
 20
-140.1822272056229
 30
0.0
 10
108.9233148090593
 20
-140.2213936349208
 30
0.0
 10
108.9233148090593
 20
-140.2704216500453
 30
0.0
  0
SPLINE
  5
92
330
1F
100
AcDbEntity
  8
_U+30EC_U+30A4_U+30E4_U+30FC 1
370
     0
100
AcDbSpline
210
0.0
220
0.0
230
1.0
 70
    11
 71
     3
 72
    17
 73
    13
 74
     0
 42
0.0000000001
 43
0.0000000001
 12
1.0
 22
0.0
 32
0.0
 13
1.0
 23
0.0
 33
0.0
 40
0.0
 40
0.0
 40
0.0
 40
0.0
 40
1.0
 40
1.0
 40
1.0
 40
2.0
 40
2.0
 40
2.0
 40
3.0
 40
3.0
 40
3.0
 40
4.0
 40
4.0
 40
4.0
 40
4.0
 10
86.86471830951484
 20
-153.5113016380545
 30
0.0
 10
86.86471830951484
 20
-153.5603511850257
 30
0.0
 10
86.82520467918754
 20
-153.5994960824769
 30
0.0
 10
86.77652386509244
 20
-153.5994960824769
 30
0.0
 10
86.7278403595165
 20
-153.5994960824769
 30
0.0
 10
86.68832942067004
 20
-153.5603511850257
 30
0.0
 10
86.68832942067004
 20
-153.5113016380545
 30
0.0
 10
86.68832942067004
 20
-153.46227362293
 30
0.0
 10
86.7278403595165
 20
-153.4231071936321
 30
0.0
 10
86.77652386509244
 20
-153.4231071936321
 30
0.0
 10
86.82520467918754
 20
-153.4231071936321
 30
0.0
 10
86.86471830951484
 20
-153.46227362293
 30
0.0
 10
86.86471830951484
 20
-153.5113016380545
 30
0.0
  0
HATCH
  5
93
330
1F
100
AcDbEntity
  8
_U+30EC_U+30A4_U+30E4_U+30FC 1
 62
   179
420
  2234388
100
AcDbHatch
 10
0.0
 20
0.0
 30
0.0
210
0.0
220
0.0
230
1.0
  2
SOLID
 70
     1
 71
     0
 91
        1
 92
        1
 93
        2
 72
     4
 94
        3
 73
     0
 74
     0
 95
       17
 96
       13
 40
0.0
 40
0.0
 40
0.0
 40
0.0
 40
0.3527777776895833
 40
0.3527777776895833
 40
0.3527777776895833
 40
0.7055555553791667
 40
0.7055555553791667
 40
0.7055555553791667
 40
1.05833333306875
 40
1.05833333306875
 40
1.05833333306875
 40
1.411111110758333
 40
1.411111110758333
 40
1.411111110758333
 40
1.411111110758333
 10
86.86471830951484
 20
-153.5113016380545
 10
86.86471830951484
 20
-153.5603511850257
 10
86.82520467918754
 20
-153.5994960824769
 10
86.77652386509244
 20
-153.5994960824769
 10
86.7278403595165
 20
-153.5994960824769
 10
86.68832942067004
 20
-153.5603511850257
 10
86.68832942067004
 20
-153.5113016380545
 10
86.68832942067004
 20
-153.46227362293
 10
86.7278403595165
 20
-153.4231071936321
 10
86.77652386509244
 20
-153.4231071936321
 10
86.82520467918754
 20
-153.4231071936321
 10
86.86471830951484
 20
-153.46227362293
 10
86.86471830951484
 20
-153.5113016380545
 97
        0
 72
     1
 10
86.86471830951484
 20
-153.5113016380545
 11
86.86471830951484
 21
-153.5113016380545
 97
        0
 75
     2
 76
     1
 98
        0
  0
SPLINE
  5
94
330
1F
100
AcDbEntity
  8
_U+30EC_U+30A4_U+30E4_U+30FC 1
 62
   179
420
  2234388
370
     9
100
AcDbSpline
210
0.0
220
0.0
230
1.0
 70
    11
 71
     3
 72
    17
 73
    13
 74
     0
 42
0.0000000001
 43
0.0000000001
 12
1.0
 22
0.0
 32
0.0
 13
1.0
 23
0.0
 33
0.0
 40
0.0
 40
0.0
 40
0.0
 40
0.0
 40
1.0
 40
1.0
 40
1.0
 40
2.0
 40
2.0
 40
2.0
 40
3.0
 40
3.0
 40
3.0
 40
4.0
 40
4.0
 40
4.0
 40
4.0
 10
86.86471830951484
 20
-153.5113016380545
 30
0.0
 10
86.86471830951484
 20
-153.5603511850257
 30
0.0
 10
86.82520467918754
 20
-153.5994960824769
 30
0.0
 10
86.77652386509244
 20
-153.5994960824769
 30
0.0
 10
86.7278403595165
 20
-153.5994960824769
 30
0.0
 10
86.68832942067004
 20
-153.5603511850257
 30
0.0
 10
86.68832942067004
 20
-153.5113016380545
 30
0.0
 10
86.68832942067004
 20
-153.46227362293
 30
0.0
 10
86.7278403595165
 20
-153.4231071936321
 30
0.0
 10
86.77652386509244
 20
-153.4231071936321
 30
0.0
 10
86.82520467918754
 20
-153.4231071936321
 30
0.0
 10
86.86471830951484
 20
-153.46227362293
 30
0.0
 10
86.86471830951484
 20
-153.5113016380545
 30
0.0
  0
INSERT
  5
96
330
1F
100
AcDbEntity
  8
_U+30EC_U+30A4_U+30E4_U+30FC 1
100
AcDbBlockReference
  2
block 2
 10
0.0
 20
0.0
 30
0.0
  0
INSERT
  5
9C
330
1F
100
AcDbEntity
  8
_U+30EC_U+30A4_U+30E4_U+30FC 1
100
AcDbBlockReference
  2
block 3
 10
0.0
 20
0.0
 30
0.0
  0
INSERT
  5
B7
330
1F
100
AcDbEntity
  8
_U+30EC_U+30A4_U+30E4_U+30FC 1
100
AcDbBlockReference
  2
block 4
 10
0.0
 20
0.0
 30
0.0
  0
INSERT
  5
BF
330
1F
100
AcDbEntity
  8
_U+30EC_U+30A4_U+30E4_U+30FC 1
100
AcDbBlockReference
  2
block 5
 10
0.0
 20
0.0
 30
0.0
  0
INSERT
  5
C7
330
1F
100
AcDbEntity
  8
_U+30EC_U+30A4_U+30E4_U+30FC 1
100
AcDbBlockReference
  2
block 6
 10
0.0
 20
0.0
 30
0.0
  0
INSERT
  5
EA
330
1F
100
AcDbEntity
  8
_U+30EC_U+30A4_U+30E4_U+30FC 1
100
AcDbBlockReference
  2
block 7
 10
0.0
 20
0.0
 30
0.0
  0
INSERT
  5
FA
330
1F
100
AcDbEntity
  8
_U+30EC_U+30A4_U+30E4_U+30FC 1
100
AcDbBlockReference
  2
block 8
 10
0.0
 20
0.0
 30
0.0
  0
SPLINE
  5
121
330
1F
100
AcDbEntity
  8
_U+30EC_U+30A4_U+30E4_U+30FC 1
 62
   179
420
  2234388
370
     9
100
AcDbSpline
210
0.0
220
0.0
230
1.0
 70
    11
 71
     3
 72
    41
 73
    37
 74
     0
 42
0.0000000001
 43
0.0000000001
 12
1.0
 22
0.0
 32
0.0
 13
1.0
 23
0.0
 33
0.0
 40
0.0
 40
0.0
 40
0.0
 40
0.0
 40
1.0
 40
1.0
 40
1.0
 40
2.0
 40
2.0
 40
2.0
 40
3.0
 40
3.0
 40
3.0
 40
4.0
 40
4.0
 40
4.0
 40
5.0
 40
5.0
 40
5.0
 40
6.0
 40
6.0
 40
6.0
 40
7.0
 40
7.0
 40
7.0
 40
8.0
 40
8.0
 40
8.0
 40
9.0
 40
9.0
 40
9.0
 40
10.0
 40
10.0
 40
10.0
 40
11.0
 40
11.0
 40
11.0
 40
12.0
 40
12.0
 40
12.0
 40
12.0
 10
108.8452780133567
 20
-149.5079068975731
 30
0.0
 10
108.8452780133567
 20
-149.2316963670432
 30
0.0
 10
108.6212606794283
 20
-149.0076790331148
 30
0.0
 10
108.3453892754853
 20
-149.0076790331148
 30
0.0
 10
108.3453892754853
 20
-149.0076790331148
 30
0.0
 10
108.158767376457
 20
-149.0076790331148
 30
0.0
 10
108.158767376457
 20
-149.0076790331148
 30
0.0
 10
108.158767376457
 20
-149.0076790331148
 30
0.0
 10
94.83470717284487
 20
-149.0076790331148
 30
0.0
 10
94.83470717284487
 20
-149.0080235426634
 30
0.0
 10
94.83470717284487
 20
-149.0080235426634
 30
0.0
 10
94.83470717284487
 20
-145.5081295073516
 30
0.0
 10
94.83470717284487
 20
-145.5081295073516
 30
0.0
 10
94.83470717284487
 20
-145.5081295073516
 30
0.0
 10
92.73744339213954
 20
-145.5081295073516
 30
0.0
 10
92.73744339213954
 20
-145.5081295073516
 30
0.0
 10
92.73744339213954
 20
-145.5081295073516
 30
0.0
 10
92.34762545502183
 20
-145.5081295073516
 30
0.0
 10
92.34762545502183
 20
-145.5081295073516
 30
0.0
 10
92.0717513595979
 20
-145.5081295073516
 30
0.0
 10
91.84773940863123
 20
-145.7317807998843
 30
0.0
 10
91.84773940863123
 20
-146.0083573718099
 30
0.0
 10
91.84773940863123
 20
-146.0083573718099
 30
0.0
 10
91.84773940863123
 20
-146.1713534519554
 30
0.0
 10
91.84773940863123
 20
-146.1713534519554
 30
0.0
 10
91.84773940863123
 20
-146.1713534519554
 30
0.0
 10
91.84773940863123
 20
-153.5077058196418
 30
0.0
 10
91.84773940863123
 20
-153.5077058196418
 30
0.0
 10
91.84773940863123
 20
-153.5077058196418
 30
0.0
 10
108.8456279058669
 20
-153.5077058196418
 30
0.0
 10
108.8456279058669
 20
-153.5077058196418
 30
0.0
 10
108.8456279058669
 20
-153.5077058196418
 30
0.0
 10
108.8456279058669
 20
-149.6084606220489
 30
0.0
 10
108.8456279058669
 20
-149.6084606220489
 30
0.0
 10
108.8456279058669
 20
-149.6084606220489
 30
0.0
 10
108.8452780133567
 20
-149.5079068975731
 30
0.0
 10
108.8452780133567
 20
-149.5079068975731
 30
0.0
  0
ENDSEC
  0
SECTION
  2
OBJECTS
  0
DICTIONARY
  5
C
330
0
100
AcDbDictionary
281
     1
  3
ACAD_GROUP
350
D
  3
ACAD_LAYOUT
350
1A
  3
ACAD_MATERIAL
350
3B
  3
ACAD_MLEADERSTYLE
350
123
  3
ACAD_MLINESTYLE
350
17
  3
ACAD_PLOTSETTINGS
350
19
  3
ACAD_PLOTSTYLENAME
350
E
  3
ACAD_TABLESTYLE
350
122
  3
ACAD_VISUALSTYLE
350
2A
  0
SUN
  5
3F
330
29
100
AcDbSun
 90
        1
290
     0
 63
     7
421
 16777215
 40
1.0
291
     1
 91
  2455826
 92
 54000000
292
     0
 70
     2
 71
   256
280
     1
  0
DICTIONARY
  5
D
102
{ACAD_REACTORS
330
C
102
}
330
C
100
AcDbDictionary
281
     1
  0
DICTIONARY
  5
1A
102
{ACAD_REACTORS
330
C
102
}
330
C
100
AcDbDictionary
281
     1
  3
Layout1
350
1E
  3
Layout2
350
26
  3
Model
350
22
  0
DICTIONARY
  5
3B
102
{ACAD_REACTORS
330
C
102
}
330
C
100
AcDbDictionary
281
     1
  3
ByBlock
350
3D
  3
ByLayer
350
3C
  3
Global
350
3E
  0
DICTIONARY
  5
123
102
{ACAD_REACTORS
330
C
102
}
330
C
100
AcDbDictionary
281
     1
  0
DICTIONARY
  5
17
102
{ACAD_REACTORS
330
C
102
}
330
C
100
AcDbDictionary
281
     1
  3
Standard
350
18
  0
DICTIONARY
  5
19
102
{ACAD_REACTORS
330
C
102
}
330
C
100
AcDbDictionary
281
     1
  0
ACDBDICTIONARYWDFLT
  5
E
102
{ACAD_REACTORS
330
C
102
}
330
C
100
AcDbDictionary
281
     1
  3
Normal
350
F
100
AcDbDictionaryWithDefault
340
F
  0
DICTIONARY
  5
122
102
{ACAD_REACTORS
330
C
102
}
330
C
100
AcDbDictionary
281
     1
  0
DICTIONARY
  5
2A
102
{ACAD_REACTORS
330
C
102
}
330
C
100
AcDbDictionary
281
     1
  3
2dWireframe
350
2F
  3
3D Hidden
350
31
  3
3dWireframe
350
30
  3
Basic
350
32
  3
Brighten
350
36
  3
ColorChange
350
3A
  3
Conceptual
350
34
  3
Dim
350
35
  3
Facepattern
350
39
  3
Flat
350
2B
  3
FlatWithEdges
350
2C
  3
Gouraud
350
2D
  3
GouraudWithEdges
350
2E
  3
Linepattern
350
38
  3
Realistic
350
33
  3
Thicken
350
37
  0
LAYOUT
  5
1E
102
{ACAD_REACTORS
330
1A
102
}
330
1A
100
AcDbPlotSettings
  1

  2
none_device
  4

  6

 40
0.0
 41
0.0
 42
0.0
 43
0.0
 44
0.0
 45
0.0
 46
0.0
 47
0.0
 48
0.0
 49
0.0
140
0.0
141
0.0
142
1.0
143
1.0
 70
   688
 72
     0
 73
     0
 74
     5
  7

 75
    16
 76
     0
 77
     2
 78
   300
147
1.0
148
0.0
149
0.0
100
AcDbLayout
  1
Layout1
 70
     1
 71
     1
 10
0.0
 20
0.0
 11
12.0
 21
9.0
 12
0.0
 22
0.0
 32
0.0
 14
1.000000000000000E+20
 24
1.000000000000000E+20
 34
1.000000000000000E+20
 15
-1.000000000000000E+20
 25
-1.000000000000000E+20
 35
-1.000000000000000E+20
146
0.0
 13
0.0
 23
0.0
 33
0.0
 16
1.0
 26
0.0
 36
0.0
 17
0.0
 27
1.0
 37
0.0
 76
     0
330
1B
  0
LAYOUT
  5
26
102
{ACAD_REACTORS
330
1A
102
}
330
1A
100
AcDbPlotSettings
  1

  2
none_device
  4

  6

 40
0.0
 41
0.0
 42
0.0
 43
0.0
 44
0.0
 45
0.0
 46
0.0
 47
0.0
 48
0.0
 49
0.0
140
0.0
141
0.0
142
1.0
143
1.0
 70
   688
 72
     0
 73
     0
 74
     5
  7

 75
    16
 76
     0
 77
     2
 78
   300
147
1.0
148
0.0
149
0.0
100
AcDbLayout
  1
Layout2
 70
     1
 71
     2
 10
0.0
 20
0.0
 11
0.0
 21
0.0
 12
0.0
 22
0.0
 32
0.0
 14
0.0
 24
0.0
 34
0.0
 15
0.0
 25
0.0
 35
0.0
146
0.0
 13
0.0
 23
0.0
 33
0.0
 16
1.0
 26
0.0
 36
0.0
 17
0.0
 27
1.0
 37
0.0
 76
     0
330
23
  0
LAYOUT
  5
22
102
{ACAD_REACTORS
330
1A
102
}
330
1A
100
AcDbPlotSettings
  1

  2
none_device
  4

  6

 40
0.0
 41
0.0
 42
0.0
 43
0.0
 44
0.0
 45
0.0
 46
0.0
 47
0.0
 48
0.0
 49
0.0
140
0.0
141
0.0
142
1.0
143
1.0
 70
  1712
 72
     0
 73
     0
 74
     0
  7

 75
     0
 76
     0
 77
     2
 78
   300
147
1.0
148
0.0
149
0.0
100
AcDbLayout
  1
Model
 70
     1
 71
     0
 10
0.0
 20
0.0
 11
12.0
 21
9.0
 12
0.0
 22
0.0
 32
0.0
 14
1.000000000000000E+20
 24
1.000000000000000E+20
 34
1.000000000000000E+20
 15
-1.000000000000000E+20
 25
-1.000000000000000E+20
 35
-1.000000000000000E+20
146
0.0
 13
0.0
 23
0.0
 33
0.0
 16
1.0
 26
0.0
 36
0.0
 17
0.0
 27
1.0
 37
0.0
 76
     0
330
1F
331
29
  0
MATERIAL
  5
3D
102
{ACAD_REACTORS
330
3B
102
}
330
3B
100
AcDbMaterial
  1
ByBlock
 72
     1
 94
      127
  0
MATERIAL
  5
3C
102
{ACAD_REACTORS
330
3B
102
}
330
3B
100
AcDbMaterial
  1
ByLayer
 72
     1
 94
      127
  0
MATERIAL
  5
3E
102
{ACAD_REACTORS
330
3B
102
}
330
3B
100
AcDbMaterial
  1
Global
 72
     1
 94
      127
  0
MLINESTYLE
  5
18
102
{ACAD_REACTORS
330
17
102
}
330
17
100
AcDbMlineStyle
  2
Standard
 70
     0
  3

 62
   256
 51
90.0
 52
90.0
 71
     2
 49
0.5
 62
   256
  6
BYLAYER
 49
-0.5
 62
   256
  6
BYLAYER
  0
ACDBPLACEHOLDER
  5
F
102
{ACAD_REACTORS
330
E
102
}
330
E
  0
VISUALSTYLE
  5
2F
102
{ACAD_REACTORS
330
2A
102
}
330
2A
100
AcDbVisualStyle
  2
2dWireframe
 70
     4
177
     2
291
     0
 71
     0
176
     1
 72
     2
176
     1
 73
     0
176
     1
 90
        0
176
     1
 40
-0.6
176
     1
 41
-30.0
176
     1
 62
     5
 63
     7
421
 16777215
176
     1
 74
     1
176
     1
 91
        4
176
     1
 64
     7
176
     1
 65
   257
176
     1
 75
     1
176
     1
175
     1
176
     1
 42
1.0
176
     1
 92
        0
176
     1
 66
   257
176
     1
 43
1.0
176
     1
 76
     1
176
     1
 77
     6
176
     1
 78
     2
176
     1
 67
     7
176
     1
 79
     5
176
     1
170
     0
176
     1
171
     0
176
     1
290
     0
176
     1
 93
        1
176
     1
 44
0.0
176
     1
173
     0
176
     1
  0
VISUALSTYLE
  5
31
102
{ACAD_REACTORS
330
2A
102
}
330
2A
100
AcDbVisualStyle
  2
3D Hidden
 70
     6
177
     2
291
     0
 71
     1
176
     1
 72
     2
176
     1
 73
     2
176
     1
 90
        0
176
     1
 40
-0.6
176
     1
 41
-30.0
176
     1
 62
     5
 63
     7
421
 16777215
176
     1
 74
     2
176
     1
 91
        2
176
     1
 64
     7
176
     1
 65
   257
176
     1
 75
     2
176
     1
175
     1
176
     1
 42
40.0
176
     1
 92
        0
176
     1
 66
   257
176
     1
 43
1.0
176
     1
 76
     1
176
     1
 77
     6
176
     1
 78
     2
176
     1
 67
     7
176
     1
 79
     3
176
     1
170
     0
176
     1
171
     0
176
     1
290
     0
176
     1
 93
        1
176
     1
 44
0.0
176
     1
173
     0
176
     1
  0
VISUALSTYLE
  5
30
102
{ACAD_REACTORS
330
2A
102
}
330
2A
100
AcDbVisualStyle
  2
3dWireframe
 70
     5
177
     2
291
     0
 71
     0
176
     1
 72
     2
176
     1
 73
     0
176
     1
 90
        0
176
     1
 40
-0.6
176
     1
 41
-30.0
176
     1
 62
     5
 63
     7
421
 16777215
176
     1
 74
     1
176
     1
 91
        4
176
     1
 64
     7
176
     1
 65
   257
176
     1
 75
     1
176
     1
175
     1
176
     1
 42
1.0
176
     1
 92
        0
176
     1
 66
   257
176
     1
 43
1.0
176
     1
 76
     1
176
     1
 77
     6
176
     1
 78
     2
176
     1
 67
     7
176
     1
 79
     5
176
     1
170
     0
176
     1
171
     0
176
     1
290
     0
176
     1
 93
        1
176
     1
 44
0.0
176
     1
173
     0
176
     1
  0
VISUALSTYLE
  5
32
102
{ACAD_REACTORS
330
2A
102
}
330
2A
100
AcDbVisualStyle
  2
Basic
 70
     7
177
     2
291
     1
 71
     1
176
     1
 72
     0
176
     1
 73
     1
176
     1
 90
        0
176
     1
 40
-0.6
176
     1
 41
-30.0
176
     1
 62
     5
 63
     7
421
 16777215
176
     1
 74
     0
176
     1
 91
        4
176
     1
 64
     7
176
     1
 65
   257
176
     1
 75
     1
176
     1
175
     1
176
     1
 42
1.0
176
     1
 92
        8
176
     1
 66
     7
176
     1
 43
1.0
176
     1
 76
     1
176
     1
 77
     6
176
     1
 78
     2
176
     1
 67
     7
176
     1
 79
     5
176
     1
170
     0
176
     1
171
     0
176
     1
290
     0
176
     1
 93
        1
176
     1
 44
0.0
176
     1
173
     0
176
     1
  0
VISUALSTYLE
  5
36
102
{ACAD_REACTORS
330
2A
102
}
330
2A
100
AcDbVisualStyle
  2
Brighten
 70
    12
177
     2
291
     1
 71
     2
176
     1
 72
     2
176
     1
 73
     0
176
     1
 90
        0
176
     1
 40
-0.6
176
     1
 41
-30.0
176
     1
 62
     5
 63
     7
421
 16777215
176
     1
 74
     1
176
     1
 91
        4
176
     1
 64
     7
176
     1
 65
   257
176
     1
 75
     1
176
     1
175
     1
176
     1
 42
1.0
176
     1
 92
        8
176
     1
 66
     7
176
     1
 43
1.0
176
     1
 76
     1
176
     1
 77
     6
176
     1
 78
     2
176
     1
 67
     7
176
     1
 79
     5
176
     1
170
     0
176
     1
171
     0
176
     1
290
     0
176
     1
 93
        1
176
     1
 44
50.0
176
     1
173
     0
176
     1
  0
VISUALSTYLE
  5
3A
102
{ACAD_REACTORS
330
2A
102
}
330
2A
100
AcDbVisualStyle
  2
ColorChange
 70
    16
177
     2
291
     1
 71
     2
176
     1
 72
     2
176
     1
 73
     3
176
     1
 90
        0
176
     1
 40
-0.6
176
     1
 41
-30.0
176
     1
 62
     5
 63
     8
421
  8421504
176
     1
 74
     1
176
     1
 91
        4
176
     1
 64
     7
176
     1
 65
   257
176
     1
 75
     1
176
     1
175
     1
176
     1
 42
1.0
176
     1
 92
        8
176
     1
 66
     8
424
  8421504
176
     1
 43
1.0
176
     1
 76
     1
176
     1
 77
     6
176
     1
 78
     2
176
     1
 67
     7
176
     1
 79
     5
176
     1
170
     0
176
     1
171
     0
176
     1
290
     0
176
     1
 93
        1
176
     1
 44
0.0
176
     1
173
     0
176
     1
  0
VISUALSTYLE
  5
34
102
{ACAD_REACTORS
330
2A
102
}
330
2A
100
AcDbVisualStyle
  2
Conceptual
 70
     9
177
     2
291
     0
 71
     3
176
     1
 72
     2
176
     1
 73
     0
176
     1
 90
        0
176
     1
 40
-0.6
176
     1
 41
-30.0
176
     1
 62
     5
 63
     7
421
 16777215
176
     1
 74
     2
176
     1
 91
        2
176
     1
 64
     7
176
     1
 65
   257
176
     1
 75
     1
176
     1
175
     1
176
     1
 42
40.0
176
     1
 92
        8
176
     1
 66
     7
176
     1
 43
1.0
176
     1
 76
     1
176
     1
 77
     6
176
     1
 78
     2
176
     1
 67
     7
176
     1
 79
     3
176
     1
170
     0
176
     1
171
     0
176
     1
290
     0
176
     1
 93
        1
176
     1
 44
0.0
176
     1
173
     0
176
     1
  0
VISUALSTYLE
  5
35
102
{ACAD_REACTORS
330
2A
102
}
330
2A
100
AcDbVisualStyle
  2
Dim
 70
    11
177
     2
291
     1
 71
     2
176
     1
 72
     2
176
     1
 73
     0
176
     1
 90
        0
176
     1
 40
-0.6
176
     1
 41
-30.0
176
     1
 62
     5
 63
     7
421
 16777215
176
     1
 74
     1
176
     1
 91
        4
176
     1
 64
     7
176
     1
 65
   257
176
     1
 75
     1
176
     1
175
     1
176
     1
 42
1.0
176
     1
 92
        8
176
     1
 66
     7
176
     1
 43
1.0
176
     1
 76
     1
176
     1
 77
     6
176
     1
 78
     2
176
     1
 67
     7
176
     1
 79
     5
176
     1
170
     0
176
     1
171
     0
176
     1
290
     0
176
     1
 93
        1
176
     1
 44
-50.0
176
     1
173
     0
176
     1
  0
VISUALSTYLE
  5
39
102
{ACAD_REACTORS
330
2A
102
}
330
2A
100
AcDbVisualStyle
  2
Facepattern
 70
    15
177
     2
291
     1
 71
     2
176
     1
 72
     2
176
     1
 73
     0
176
     1
 90
        0
176
     1
 40
-0.6
176
     1
 41
-30.0
176
     1
 62
     5
 63
     7
421
 16777215
176
     1
 74
     1
176
     1
 91
        4
176
     1
 64
     7
176
     1
 65
   257
176
     1
 75
     1
176
     1
175
     1
176
     1
 42
1.0
176
     1
 92
        8
176
     1
 66
     7
176
     1
 43
1.0
176
     1
 76
     1
176
     1
 77
     6
176
     1
 78
     2
176
     1
 67
     7
176
     1
 79
     5
176
     1
170
     0
176
     1
171
     0
176
     1
290
     0
176
     1
 93
        1
176
     1
 44
0.0
176
     1
173
     0
176
     1
  0
VISUALSTYLE
  5
2B
102
{ACAD_REACTORS
330
2A
102
}
330
2A
100
AcDbVisualStyle
  2
Flat
 70
     0
177
     2
291
     1
 71
     2
176
     1
 72
     1
176
     1
 73
     1
176
     1
 90
        2
176
     1
 40
-0.6
176
     1
 41
30.0
176
     1
 62
     5
 63
     7
421
 16777215
176
     1
 74
     0
176
     1
 91
        4
176
     1
 64
     7
176
     1
 65
   257
176
     1
 75
     1
176
     1
175
     1
176
     1
 42
1.0
176
     1
 92
        8
176
     1
 66
     7
176
     1
 43
1.0
176
     1
 76
     1
176
     1
 77
     6
176
     1
 78
     2
176
     1
 67
     7
176
     1
 79
     5
176
     1
170
     0
176
     1
171
     0
176
     1
290
     0
176
     1
 93
       13
176
     1
 44
0.0
176
     1
173
     0
176
     1
  0
VISUALSTYLE
  5
2C
102
{ACAD_REACTORS
330
2A
102
}
330
2A
100
AcDbVisualStyle
  2
FlatWithEdges
 70
     1
177
     2
291
     1
 71
     2
176
     1
 72
     1
176
     1
 73
     1
176
     1
 90
        2
176
     1
 40
-0.6
176
     1
 41
30.0
176
     1
 62
     5
 63
     7
421
 16777215
176
     1
 74
     1
176
     1
 91
        4
176
     1
 64
     7
176
     1
 65
   257
176
     1
 75
     1
176
     1
175
     1
176
     1
 42
1.0
176
     1
 92
        0
176
     1
 66
   257
176
     1
 43
1.0
176
     1
 76
     1
176
     1
 77
     6
176
     1
 78
     2
176
     1
 67
     7
176
     1
 79
     5
176
     1
170
     0
176
     1
171
     0
176
     1
290
     0
176
     1
 93
       13
176
     1
 44
0.0
176
     1
173
     0
176
     1
  0
VISUALSTYLE
  5
2D
102
{ACAD_REACTORS
330
2A
102
}
330
2A
100
AcDbVisualStyle
  2
Gouraud
 70
     2
177
     2
291
     1
 71
     2
176
     1
 72
     2
176
     1
 73
     1
176
     1
 90
        2
176
     1
 40
-0.6
176
     1
 41
30.0
176
     1
 62
     5
 63
     7
421
 16777215
176
     1
 74
     0
176
     1
 91
        4
176
     1
 64
     7
176
     1
 65
   257
176
     1
 75
     1
176
     1
175
     1
176
     1
 42
1.0
176
     1
 92
        0
176
     1
 66
     7
176
     1
 43
1.0
176
     1
 76
     1
176
     1
 77
     6
176
     1
 78
     2
176
     1
 67
     7
176
     1
 79
     5
176
     1
170
     0
176
     1
171
     0
176
     1
290
     0
176
     1
 93
       13
176
     1
 44
0.0
176
     1
173
     0
176
     1
  0
VISUALSTYLE
  5
2E
102
{ACAD_REACTORS
330
2A
102
}
330
2A
100
AcDbVisualStyle
  2
GouraudWithEdges
 70
     3
177
     2
291
     1
 71
     2
176
     1
 72
     2
176
     1
 73
     1
176
     1
 90
        2
176
     1
 40
-0.6
176
     1
 41
30.0
176
     1
 62
     5
 63
     7
421
 16777215
176
     1
 74
     1
176
     1
 91
        4
176
     1
 64
     7
176
     1
 65
   257
176
     1
 75
     1
176
     1
175
     1
176
     1
 42
1.0
176
     1
 92
        0
176
     1
 66
   257
176
     1
 43
1.0
176
     1
 76
     1
176
     1
 77
     6
176
     1
 78
     2
176
     1
 67
     7
176
     1
 79
     5
176
     1
170
     0
176
     1
171
     0
176
     1
290
     0
176
     1
 93
       13
176
     1
 44
0.0
176
     1
173
     0
176
     1
  0
VISUALSTYLE
  5
38
102
{ACAD_REACTORS
330
2A
102
}
330
2A
100
AcDbVisualStyle
  2
Linepattern
 70
    14
177
     2
291
     1
 71
     2
176
     1
 72
     2
176
     1
 73
     0
176
     1
 90
        0
176
     1
 40
-0.6
176
     1
 41
-30.0
176
     1
 62
     5
 63
     7
421
 16777215
176
     1
 74
     1
176
     1
 91
        4
176
     1
 64
     7
176
     1
 65
   257
176
     1
 75
     7
176
     1
175
     7
176
     1
 42
1.0
176
     1
 92
        8
176
     1
 66
     7
176
     1
 43
1.0
176
     1
 76
     1
176
     1
 77
     6
176
     1
 78
     2
176
     1
 67
     7
176
     1
 79
     5
176
     1
170
     0
176
     1
171
     0
176
     1
290
     0
176
     1
 93
        1
176
     1
 44
0.0
176
     1
173
     0
176
     1
  0
VISUALSTYLE
  5
33
102
{ACAD_REACTORS
330
2A
102
}
330
2A
100
AcDbVisualStyle
  2
Realistic
 70
     8
177
     2
291
     0
 71
     2
176
     1
 72
     2
176
     1
 73
     0
176
     1
 90
        0
176
     1
 40
-0.6
176
     1
 41
-30.0
176
     1
 62
     5
 63
     7
421
 16777215
176
     1
 74
     1
176
     1
 91
        0
176
     1
 64
     7
176
     1
 65
   257
176
     1
 75
     1
176
     1
175
     1
176
     1
 42
1.0
176
     1
 92
        8
176
     1
 66
     8
424
  7895160
176
     1
 43
1.0
176
     1
 76
     1
176
     1
 77
     6
176
     1
 78
     2
176
     1
 67
     7
176
     1
 79
     5
176
     1
170
     0
176
     1
171
     0
176
     1
290
     0
176
     1
 93
       13
176
     1
 44
0.0
176
     1
173
     0
176
     1
  0
VISUALSTYLE
  5
37
102
{ACAD_REACTORS
330
2A
102
}
330
2A
100
AcDbVisualStyle
  2
Thicken
 70
    13
177
     2
291
     1
 71
     2
176
     1
 72
     2
176
     1
 73
     0
176
     1
 90
        0
176
     1
 40
-0.6
176
     1
 41
-30.0
176
     1
 62
     5
 63
     7
421
 16777215
176
     1
 74
     1
176
     1
 91
        4
176
     1
 64
     7
176
     1
 65
   257
176
     1
 75
     1
176
     1
175
     1
176
     1
 42
1.0
176
     1
 92
       12
176
     1
 66
     7
176
     1
 43
1.0
176
     1
 76
     1
176
     1
 77
     6
176
     1
 78
     2
176
     1
 67
     7
176
     1
 79
     5
176
     1
170
     0
176
     1
171
     0
176
     1
290
     0
176
     1
 93
        1
176
     1
 44
0.0
176
     1
173
     0
176
     1
  0
ENDSEC
  0
EOF
