  0
SECTION
  2
HEADER
  9
$ACADVER
  1
AC1024
  9
$ACADMAINTVER
 70
     6
  9
$DWGCODEPAGE
  3
UNDEFINED
  9
$INSBASE
 10
0.0
 20
0.0
 30
0.0
  9
$EXTMIN
 10
1.000000000000000E+20
 20
1.000000000000000E+20
 30
1.000000000000000E+20
  9
$EXTMAX
 10
-1.000000000000000E+20
 20
-1.000000000000000E+20
 30
-1.000000000000000E+20
  9
$LIMMIN
 10
0.0
 20
0.0
  9
$LIMMAX
 10
12.0
 20
9.0
  9
$ORTHOMODE
 70
     0
  9
$REGENMODE
 70
     1
  9
$FILLMODE
 70
     1
  9
$QTEXTMODE
 70
     0
  9
$MIRRTEXT
 70
     1
  9
$LTSCALE
 40
1.0
  9
$ATTMODE
 70
     1
  9
$TEXTSIZE
 40
0.2
  9
$TRACEWID
 40
0.05
  9
$TEXTSTYLE
  7
Standard
  9
$CLAYER
  8
0
  9
$CELTYPE
  6
ByLayer
  9
$CECOLOR
 62
   256
  9
$CELTSCALE
 40
1.0
  9
$DISPSILH
 70
     0
  9
$DIMSCALE
 40
1.0
  9
$DIMASZ
 40
0.18
  9
$DIMEXO
 40
0.0625
  9
$DIMDLI
 40
0.38
  9
$DIMRND
 40
0.0
  9
$DIMDLE
 40
0.0
  9
$DIMEXE
 40
0.18
  9
$DIMTP
 40
0.0
  9
$DIMTM
 40
0.0
  9
$DIMTXT
 40
0.18
  9
$DIMCEN
 40
0.09
  9
$DIMTSZ
 40
0.0
  9
$DIMTOL
 70
     0
  9
$DIMLIM
 70
     0
  9
$DIMTIH
 70
     1
  9
$DIMTOH
 70
     1
  9
$DIMSE1
 70
     0
  9
$DIMSE2
 70
     0
  9
$DIMTAD
 70
     0
  9
$DIMZIN
 70
     0
  9
$DIMBLK
  1

  9
$DIMASO
 70
     1
  9
$DIMSHO
 70
     1
  9
$DIMPOST
  1

  9
$DIMAPOST
  1

  9
$DIMALT
 70
     0
  9
$DIMALTD
 70
     2
  9
$DIMALTF
 40
25.4
  9
$DIMLFAC
 40
1.0
  9
$DIMTOFL
 70
     0
  9
$DIMTVP
 40
0.0
  9
$DIMTIX
 70
     0
  9
$DIMSOXD
 70
     0
  9
$DIMSAH
 70
     0
  9
$DIMBLK1
  1

  9
$DIMBLK2
  1

  9
$DIMSTYLE
  2
Standard
  9
$DIMCLRD
 70
     0
  9
$DIMCLRE
 70
     0
  9
$DIMCLRT
 70
     0
  9
$DIMTFAC
 40
1.0
  9
$DIMGAP
 40
0.09
  9
$DIMJUST
 70
     0
  9
$DIMSD1
 70
     0
  9
$DIMSD2
 70
     0
  9
$DIMTOLJ
 70
     1
  9
$DIMTZIN
 70
     0
  9
$DIMALTZ
 70
     0
  9
$DIMALTTZ
 70
     0
  9
$DIMUPT
 70
     0
  9
$DIMDEC
 70
     4
  9
$DIMTDEC
 70
     4
  9
$DIMALTU
 70
     2
  9
$DIMALTTD
 70
     2
  9
$DIMTXSTY
  7
Standard
  9
$DIMAUNIT
 70
     0
  9
$DIMADEC
 70
     0
  9
$DIMALTRND
 40
0.0
  9
$DIMAZIN
 70
     0
  9
$DIMDSEP
 70
    46
  9
$DIMATFIT
 70
     3
  9
$DIMFRAC
 70
     0
  9
$DIMLDRBLK
  1

  9
$DIMLUNIT
 70
     2
  9
$DIMLWD
 70
    -2
  9
$DIMLWE
 70
    -2
  9
$DIMTMOVE
 70
     0
  9
$DIMFXL
 40
1.0
  9
$DIMFXLON
 70
     0
  9
$DIMJOGANG
 40
0.7853981633974483
  9
$DIMTFILL
 70
     0
  9
$DIMTFILLCLR
 70
     0
  9
$DIMARCSYM
 70
     0
  9
$DIMLTYPE
  6

  9
$DIMLTEX1
  6

  9
$DIMLTEX2
  6

  9
$DIMTXTDIRECTION
 70
     0
  9
$LUNITS
 70
     2
  9
$LUPREC
 70
     4
  9
$SKETCHINC
 40
0.1
  9
$FILLETRAD
 40
0.5
  9
$AUNITS
 70
     0
  9
$AUPREC
 70
     0
  9
$MENU
  1
.
  9
$ELEVATION
 40
0.0
  9
$PELEVATION
 40
0.0
  9
$THICKNESS
 40
0.0
  9
$LIMCHECK
 70
     0
  9
$CHAMFERA
 40
0.5
  9
$CHAMFERB
 40
0.5
  9
$CHAMFERC
 40
1.0
  9
$CHAMFERD
 40
0.0
  9
$SKPOLY
 70
     0
  9
$TDCREATE
 40
2457917.59310184
  9
$TDUCREATE
 40
2457917.218101852
  9
$TDUPDATE
 40
2457917.59310184
  9
$TDUUPDATE
 40
2457917.218101852
  9
$TDINDWG
 40
0.0000000116
  9
$TDUSRTIMER
 40
0.0000000116
  9
$USRTIMER
 70
     1
  9
$ANGBASE
 50
0.0
  9
$ANGDIR
 70
     0
  9
$PDMODE
 70
     0
  9
$PDSIZE
 40
0.0
  9
$PLINEWID
 40
0.0
  9
$SPLFRAME
 70
     0
  9
$SPLINETYPE
 70
     6
  9
$SPLINESEGS
 70
     8
  9
$HANDSEED
  5
165
  9
$SURFTAB1
 70
     6
  9
$SURFTAB2
 70
     6
  9
$SURFTYPE
 70
     6
  9
$SURFU
 70
     6
  9
$SURFV
 70
     6
  9
$UCSBASE
  2

  9
$UCSNAME
  2

  9
$UCSORG
 10
0.0
 20
0.0
 30
0.0
  9
$UCSXDIR
 10
1.0
 20
0.0
 30
0.0
  9
$UCSYDIR
 10
0.0
 20
1.0
 30
0.0
  9
$UCSORTHOREF
  2

  9
$UCSORTHOVIEW
 70
     0
  9
$UCSORGTOP
 10
0.0
 20
0.0
 30
0.0
  9
$UCSORGBOTTOM
 10
0.0
 20
0.0
 30
0.0
  9
$UCSORGLEFT
 10
0.0
 20
0.0
 30
0.0
  9
$UCSORGRIGHT
 10
0.0
 20
0.0
 30
0.0
  9
$UCSORGFRONT
 10
0.0
 20
0.0
 30
0.0
  9
$UCSORGBACK
 10
0.0
 20
0.0
 30
0.0
  9
$PUCSBASE
  2

  9
$PUCSNAME
  2

  9
$PUCSORG
 10
0.0
 20
0.0
 30
0.0
  9
$PUCSXDIR
 10
1.0
 20
0.0
 30
0.0
  9
$PUCSYDIR
 10
0.0
 20
1.0
 30
0.0
  9
$PUCSORTHOREF
  2

  9
$PUCSORTHOVIEW
 70
     0
  9
$PUCSORGTOP
 10
0.0
 20
0.0
 30
0.0
  9
$PUCSORGBOTTOM
 10
0.0
 20
0.0
 30
0.0
  9
$PUCSORGLEFT
 10
0.0
 20
0.0
 30
0.0
  9
$PUCSORGRIGHT
 10
0.0
 20
0.0
 30
0.0
  9
$PUCSORGFRONT
 10
0.0
 20
0.0
 30
0.0
  9
$PUCSORGBACK
 10
0.0
 20
0.0
 30
0.0
  9
$USERI1
 70
     0
  9
$USERI2
 70
     0
  9
$USERI3
 70
     0
  9
$USERI4
 70
     0
  9
$USERI5
 70
     0
  9
$USERR1
 40
0.0
  9
$USERR2
 40
0.0
  9
$USERR3
 40
0.0
  9
$USERR4
 40
0.0
  9
$USERR5
 40
0.0
  9
$WORLDVIEW
 70
     1
  9
$SHADEDGE
 70
     3
  9
$SHADEDIF
 70
    70
  9
$TILEMODE
 70
     1
  9
$MAXACTVP
 70
    64
  9
$PINSBASE
 10
0.0
 20
0.0
 30
0.0
  9
$PLIMCHECK
 70
     0
  9
$PEXTMIN
 10
1.000000000000000E+20
 20
1.000000000000000E+20
 30
1.000000000000000E+20
  9
$PEXTMAX
 10
-1.000000000000000E+20
 20
-1.000000000000000E+20
 30
-1.000000000000000E+20
  9
$PLIMMIN
 10
0.0
 20
0.0
  9
$PLIMMAX
 10
12.0
 20
9.0
  9
$UNITMODE
 70
     0
  9
$VISRETAIN
 70
     1
  9
$PLINEGEN
 70
     0
  9
$PSLTSCALE
 70
     1
  9
$TREEDEPTH
 70
  3020
  9
$CMLSTYLE
  2
Standard
  9
$CMLJUST
 70
     0
  9
$CMLSCALE
 40
1.0
  9
$PROXYGRAPHICS
 70
     1
  9
$MEASUREMENT
 70
     0
  9
$CELWEIGHT
370
    -1
  9
$ENDCAPS
280
     0
  9
$JOINSTYLE
280
     0
  9
$LWDISPLAY
290
     1
  9
$INSUNITS
 70
     1
  9
$HYPERLINKBASE
  1

  9
$STYLESHEET
  1

  9
$XEDIT
290
     1
  9
$CEPSNTYPE
380
     0
  9
$PSTYLEMODE
290
     1
  9
$FINGERPRINTGUID
  2
{D0B49655-AEAB-5C5B-8C55-75F2232D72B2}
  9
$VERSIONGUID
  2
{FAEB1C32-E019-11D5-929B-00C0DF256EC4}
  9
$EXTNAMES
290
     1
  9
$PSVPSCALE
 40
0.0
  9
$OLESTARTUP
290
     0
  9
$SORTENTS
280
   127
  9
$INDEXCTL
280
     0
  9
$HIDETEXT
280
     1
  9
$XCLIPFRAME
280
     2
  9
$HALOGAP
280
     0
  9
$OBSCOLOR
 70
   257
  9
$OBSLTYPE
280
     0
  9
$INTERSECTIONDISPLAY
280
     0
  9
$INTERSECTIONCOLOR
 70
   257
  9
$DIMASSOC
280
     2
  9
$PROJECTNAME
  1

  9
$CAMERADISPLAY
290
     0
  9
$LENSLENGTH
 40
50.0
  9
$CAMERAHEIGHT
 40
0.0
  9
$STEPSPERSEC
 40
2.0
  9
$STEPSIZE
 40
6.0
  9
$3DDWFPREC
 40
2.0
  9
$PSOLWIDTH
 40
0.25
  9
$PSOLHEIGHT
 40
4.0
  9
$LOFTANG1
 40
1.570796326794897
  9
$LOFTANG2
 40
1.570796326794897
  9
$LOFTMAG1
 40
0.0
  9
$LOFTMAG2
 40
0.0
  9
$LOFTPARAM
 70
     7
  9
$LOFTNORMALS
280
     1
  9
$LATITUDE
 40
37.795
  9
$LONGITUDE
 40
-122.394
  9
$NORTHDIRECTION
 40
0.0
  9
$TIMEZONE
 70
 -8000
  9
$LIGHTGLYPHDISPLAY
280
     1
  9
$TILEMODELIGHTSYNCH
280
     1
  9
$CMATERIAL
347
3C
  9
$SOLIDHIST
280
     1
  9
$SHOWHIST
280
     1
  9
$DWFFRAME
280
     2
  9
$DGNFRAME
280
     2
  9
$REALWORLDSCALE
290
     1
  9
$INTERFERECOLOR
 62
   256
  9
$CSHADOW
280
     0
  9
$SHADOWPLANELOCATION
 40
0.0
  0
ENDSEC
  0
SECTION
  2
CLASSES
  0
CLASS
  1
ACDBDICTIONARYWDFLT
  2
AcDbDictionaryWithDefault
  3
ObjectDBX Classes
 90
        0
 91
        4
280
     0
281
     0
  0
CLASS
  1
VISUALSTYLE
  2
AcDbVisualStyle
  3
ObjectDBX Classes
 90
     4095
 91
        4
280
     0
281
     0
  0
CLASS
  1
MATERIAL
  2
AcDbMaterial
  3
ObjectDBX Classes
 90
     1153
 91
        4
280
     0
281
     0
  0
CLASS
  1
SUN
  2
AcDbSun
  3
SCENEOE
 90
     1024
 91
        4
280
     0
281
     0
  0
ENDSEC
  0
SECTION
  2
TABLES
  0
TABLE
  2
VPORT
  5
8
330
0
100
AcDbSymbolTable
 70
     1
  0
VPORT
  5
29
330
8
100
AcDbSymbolTableRecord
100
AcDbViewportTableRecord
  2
*Active
 70
     0
 10
0.0
 20
0.0
 11
1.0
 21
1.0
 12
0.0
 22
0.0
 13
0.0
 23
0.0
 14
0.5
 24
0.5
 15
0.5
 25
0.5
 16
0.0
 26
0.0
 36
1.0
 17
91.00082462281999
 27
-128.4993055234307
 37
0.0
 40
256.9986110468615
 41
0.7081814508812795
 42
50.0
 43
0.0
 44
0.0
 50
0.0
 51
0.0
 71
     0
 72
   100
 73
     1
 74
     3
 75
     0
 76
     0
 77
     0
 78
     0
281
     0
 65
     1
110
0.0
120
0.0
130
0.0
111
1.0
121
0.0
131
0.0
112
0.0
122
1.0
132
0.0
 79
     0
146
0.0
 60
     3
 61
     5
292
     1
282
     1
141
0.0
142
0.0
 63
   250
361
3F
  0
ENDTAB
  0
TABLE
  2
LTYPE
  5
5
330
0
100
AcDbSymbolTable
 70
     1
  0
LTYPE
  5
14
330
5
100
AcDbSymbolTableRecord
100
AcDbLinetypeTableRecord
  2
ByBlock
 70
     0
  3

 72
    65
 73
     0
 40
0.0
  0
LTYPE
  5
15
330
5
100
AcDbSymbolTableRecord
100
AcDbLinetypeTableRecord
  2
ByLayer
 70
     0
  3

 72
    65
 73
     0
 40
0.0
  0
LTYPE
  5
16
330
5
100
AcDbSymbolTableRecord
100
AcDbLinetypeTableRecord
  2
Continuous
 70
     0
  3
Solid line
 72
    65
 73
     0
 40
0.0
  0
ENDTAB
  0
TABLE
  2
LAYER
  5
2
330
0
100
AcDbSymbolTable
 70
     2
  0
LAYER
  5
10
330
2
100
AcDbSymbolTableRecord
100
AcDbLayerTableRecord
  2
0
 70
     0
 62
     7
  6
Continuous
370
    -3
390
F
347
3E
  0
LAYER
  5
40
330
2
100
AcDbSymbolTableRecord
100
AcDbLayerTableRecord
  2
_U+30EC_U+30A4_U+30E4_U+30FC 1
 70
     0
 62
     7
  6
Continuous
370
    -3
390
F
347
3E
  0
ENDTAB
  0
TABLE
  2
STYLE
  5
3
330
0
100
AcDbSymbolTable
 70
     1
  0
STYLE
  5
11
330
3
100
AcDbSymbolTableRecord
100
AcDbTextStyleTableRecord
  2
Standard
 70
     0
 40
0.0
 41
1.0
 50
0.0
 71
     0
 42
0.2
  3
txt
  4

  0
ENDTAB
  0
TABLE
  2
VIEW
  5
6
330
0
100
AcDbSymbolTable
 70
     0
  0
ENDTAB
  0
TABLE
  2
UCS
  5
7
330
0
100
AcDbSymbolTable
 70
     0
  0
ENDTAB
  0
TABLE
  2
APPID
  5
9
330
0
100
AcDbSymbolTable
 70
     1
  0
APPID
  5
12
330
9
100
AcDbSymbolTableRecord
100
AcDbRegAppTableRecord
  2
ACAD
 70
     0
  0
ENDTAB
  0
TABLE
  2
DIMSTYLE
  5
A
330
0
100
AcDbSymbolTable
 70
     1
100
AcDbDimStyleTable
  0
DIMSTYLE
105
27
330
A
100
AcDbSymbolTableRecord
100
AcDbDimStyleTableRecord
  2
Standard
 70
     0
178
     0
340
11
  0
ENDTAB
  0
TABLE
  2
BLOCK_RECORD
  5
1
330
0
100
AcDbSymbolTable
 70
     5
  0
BLOCK_RECORD
  5
1F
330
1
100
AcDbSymbolTableRecord
100
AcDbBlockTableRecord
  2
*Model_Space
340
22
 70
     0
280
     1
281
     0
  0
BLOCK_RECORD
  5
1B
330
1
100
AcDbSymbolTableRecord
100
AcDbBlockTableRecord
  2
*Paper_Space
340
1E
 70
     0
280
     1
281
     0
  0
BLOCK_RECORD
  5
23
330
1
100
AcDbSymbolTableRecord
100
AcDbBlockTableRecord
  2
*Paper_Space0
340
26
 70
     0
280
     1
281
     0
  0
BLOCK_RECORD
  5
43
330
1
100
AcDbSymbolTableRecord
100
AcDbBlockTableRecord
  2
block 2
340
0
102
{BLKREFS
331
44
102
}
 70
     0
280
     1
281
     0
  0
BLOCK_RECORD
  5
10C
330
1
100
AcDbSymbolTableRecord
100
AcDbBlockTableRecord
  2
block 3
340
0
102
{BLKREFS
331
10D
102
}
 70
     0
280
     1
281
     0
  0
BLOCK_RECORD
  5
136
330
1
100
AcDbSymbolTableRecord
100
AcDbBlockTableRecord
  2
block 4
340
0
102
{BLKREFS
331
137
102
}
 70
     0
280
     1
281
     0
  0
BLOCK_RECORD
  5
15B
330
1
100
AcDbSymbolTableRecord
100
AcDbBlockTableRecord
  2
block 5
340
0
102
{BLKREFS
331
15C
102
}
 70
     0
280
     1
281
     0
  0
ENDTAB
  0
ENDSEC
  0
SECTION
  2
BLOCKS
  0
BLOCK
  5
20
330
1F
100
AcDbEntity
  8
0
100
AcDbBlockBegin
  2
*Model_Space
 70
     0
 10
0.0
 20
0.0
 30
0.0
  3
*Model_Space
  1

  0
ENDBLK
  5
21
330
1F
100
AcDbEntity
  8
0
100
AcDbBlockEnd
  0
BLOCK
  5
1C
330
1B
100
AcDbEntity
 67
     1
  8
0
100
AcDbBlockBegin
  2
*Paper_Space
 70
     0
 10
0.0
 20
0.0
 30
0.0
  3
*Paper_Space
  1

  0
ENDBLK
  5
1D
330
1B
100
AcDbEntity
 67
     1
  8
0
100
AcDbBlockEnd
  0
BLOCK
  5
24
330
23
100
AcDbEntity
  8
0
100
AcDbBlockBegin
  2
*Paper_Space0
 70
     0
 10
0.0
 20
0.0
 30
0.0
  3
*Paper_Space0
  1

  0
ENDBLK
  5
25
330
23
100
AcDbEntity
  8
0
100
AcDbBlockEnd
  0
BLOCK
  5
45
330
43
100
AcDbEntity
  8
0
100
AcDbBlockBegin
  2
block 2
 70
     0
 10
0.0
 20
0.0
 30
0.0
  3
block 2
  1

  0
POLYLINE
  5
47
330
43
100
AcDbEntity
  8
_U+30EC_U+30A4_U+30E4_U+30FC 1
 62
   179
420
  2234388
370
    25
100
AcDb2dPolyline
 66
     1
 10
0.0
 20
0.0
 30
0.0
  0
VERTEX
  5
48
330
47
100
AcDbEntity
  8
_U+30EC_U+30A4_U+30E4_U+30FC 1
 62
   179
420
  2234388
370
    25
100
AcDbVertex
100
AcDb2dVertex
 10
108.6131841734913
 20
-119.2047752479766
 30
0.0
  0
VERTEX
  5
49
330
47
100
AcDbEntity
  8
_U+30EC_U+30A4_U+30E4_U+30FC 1
 62
   179
420
  2234388
370
    25
100
AcDbVertex
100
AcDb2dVertex
 10
108.6131841734913
 20
-123.2048871914209
 30
0.0
  0
SEQEND
  5
4A
330
47
100
AcDbEntity
  8
_U+30EC_U+30A4_U+30E4_U+30FC 1
 62
   179
420
  2234388
370
    25
  0
POLYLINE
  5
4B
330
43
100
AcDbEntity
  8
_U+30EC_U+30A4_U+30E4_U+30FC 1
 62
   179
420
  2234388
370
    25
100
AcDb2dPolyline
 66
     1
 10
0.0
 20
0.0
 30
0.0
  0
VERTEX
  5
4C
330
4B
100
AcDbEntity
  8
_U+30EC_U+30A4_U+30E4_U+30FC 1
 62
   179
420
  2234388
370
    25
100
AcDbVertex
100
AcDb2dVertex
 10
85.01288060891851
 20
-119.2047752479766
 30
0.0
  0
VERTEX
  5
4D
330
4B
100
AcDbEntity
  8
_U+30EC_U+30A4_U+30E4_U+30FC 1
 62
   179
420
  2234388
370
    25
100
AcDbVertex
100
AcDb2dVertex
 10
108.6131841734913
 20
-119.2047752479766
 30
0.0
  0
SEQEND
  5
4E
330
4B
100
AcDbEntity
  8
_U+30EC_U+30A4_U+30E4_U+30FC 1
 62
   179
420
  2234388
370
    25
  0
POLYLINE
  5
4F
330
43
100
AcDbEntity
  8
_U+30EC_U+30A4_U+30E4_U+30FC 1
 62
   179
420
  2234388
370
    25
100
AcDb2dPolyline
 66
     1
 10
0.0
 20
0.0
 30
0.0
  0
VERTEX
  5
50
330
4F
100
AcDbEntity
  8
_U+30EC_U+30A4_U+30E4_U+30FC 1
 62
   179
420
  2234388
370
    25
100
AcDbVertex
100
AcDb2dVertex
 10
109.4630963740304
 20
-118.3548630259668
 30
0.0
  0
VERTEX
  5
51
330
4F
100
AcDbEntity
  8
_U+30EC_U+30A4_U+30E4_U+30FC 1
 62
   179
420
  2234388
370
    25
100
AcDbVertex
100
AcDb2dVertex
 10
109.4630963740304
 20
-123.2048871914209
 30
0.0
  0
SEQEND
  5
52
330
4F
100
AcDbEntity
  8
_U+30EC_U+30A4_U+30E4_U+30FC 1
 62
   179
420
  2234388
370
    25
  0
POLYLINE
  5
53
330
43
100
AcDbEntity
  8
_U+30EC_U+30A4_U+30E4_U+30FC 1
 62
   179
420
  2234388
370
    25
100
AcDb2dPolyline
 66
     1
 10
0.0
 20
0.0
 30
0.0
  0
VERTEX
  5
54
330
53
100
AcDbEntity
  8
_U+30EC_U+30A4_U+30E4_U+30FC 1
 62
   179
420
  2234388
370
    25
100
AcDbVertex
100
AcDb2dVertex
 10
84.01314368997947
 20
-118.3548630259668
 30
0.0
  0
VERTEX
  5
55
330
53
100
AcDbEntity
  8
_U+30EC_U+30A4_U+30E4_U+30FC 1
 62
   179
420
  2234388
370
    25
100
AcDbVertex
100
AcDb2dVertex
 10
109.4630963740304
 20
-118.3548630259668
 30
0.0
  0
SEQEND
  5
56
330
53
100
AcDbEntity
  8
_U+30EC_U+30A4_U+30E4_U+30FC 1
 62
   179
420
  2234388
370
    25
  0
POLYLINE
  5
57
330
43
100
AcDbEntity
  8
_U+30EC_U+30A4_U+30E4_U+30FC 1
 62
   179
420
  2234388
370
    25
100
AcDb2dPolyline
 66
     1
 10
0.0
 20
0.0
 30
0.0
  0
VERTEX
  5
58
330
57
100
AcDbEntity
  8
_U+30EC_U+30A4_U+30E4_U+30FC 1
 62
   179
420
  2234388
370
    25
100
AcDbVertex
100
AcDb2dVertex
 10
106.2291825676456
 20
-123.2048871914209
 30
0.0
  0
VERTEX
  5
59
330
57
100
AcDbEntity
  8
_U+30EC_U+30A4_U+30E4_U+30FC 1
 62
   179
420
  2234388
370
    25
100
AcDbVertex
100
AcDb2dVertex
 10
108.6131841734913
 20
-123.2048871914209
 30
0.0
  0
SEQEND
  5
5A
330
57
100
AcDbEntity
  8
_U+30EC_U+30A4_U+30E4_U+30FC 1
 62
   179
420
  2234388
370
    25
  0
POLYLINE
  5
5B
330
43
100
AcDbEntity
  8
_U+30EC_U+30A4_U+30E4_U+30FC 1
 62
   179
420
  2234388
370
    25
100
AcDb2dPolyline
 66
     1
 10
0.0
 20
0.0
 30
0.0
  0
VERTEX
  5
5C
330
5B
100
AcDbEntity
  8
_U+30EC_U+30A4_U+30E4_U+30FC 1
 62
   179
420
  2234388
370
    25
100
AcDbVertex
100
AcDb2dVertex
 10
105.3630805292146
 20
-122.329821913862
 30
0.0
  0
VERTEX
  5
5D
330
5B
100
AcDbEntity
  8
_U+30EC_U+30A4_U+30E4_U+30FC 1
 62
   179
420
  2234388
370
    25
100
AcDbVertex
100
AcDb2dVertex
 10
105.3630805292146
 20
-123.3295941358342
 30
0.0
  0
SEQEND
  5
5E
330
5B
100
AcDbEntity
  8
_U+30EC_U+30A4_U+30E4_U+30FC 1
 62
   179
420
  2234388
370
    25
  0
POLYLINE
  5
5F
330
43
100
AcDbEntity
  8
_U+30EC_U+30A4_U+30E4_U+30FC 1
 62
   179
420
  2234388
370
    25
100
AcDb2dPolyline
 66
     1
 10
0.0
 20
0.0
 30
0.0
  0
VERTEX
  5
60
330
5F
100
AcDbEntity
  8
_U+30EC_U+30A4_U+30E4_U+30FC 1
 62
   179
420
  2234388
370
    25
100
AcDbVertex
100
AcDb2dVertex
 10
106.9130069946442
 20
-122.5799413582439
 30
0.0
  0
VERTEX
  5
61
330
5F
100
AcDbEntity
  8
_U+30EC_U+30A4_U+30E4_U+30FC 1
 62
   179
420
  2234388
370
    25
100
AcDbVertex
100
AcDb2dVertex
 10
107.9630853011878
 20
-122.5799413582439
 30
0.0
  0
SEQEND
  5
62
330
5F
100
AcDbEntity
  8
_U+30EC_U+30A4_U+30E4_U+30FC 1
 62
   179
420
  2234388
370
    25
  0
POLYLINE
  5
63
330
43
100
AcDbEntity
  8
_U+30EC_U+30A4_U+30E4_U+30FC 1
 62
   179
420
  2234388
370
    25
100
AcDb2dPolyline
 66
     1
 10
0.0
 20
0.0
 30
0.0
  0
VERTEX
  5
64
330
63
100
AcDbEntity
  8
_U+30EC_U+30A4_U+30E4_U+30FC 1
 62
   179
420
  2234388
370
    25
100
AcDbVertex
100
AcDb2dVertex
 10
106.6629228343577
 20
-122.329821913862
 30
0.0
  0
VERTEX
  5
65
330
63
100
AcDbEntity
  8
_U+30EC_U+30A4_U+30E4_U+30FC 1
 62
   179
420
  2234388
370
    25
100
AcDbVertex
100
AcDb2dVertex
 10
106.9130069946442
 20
-122.5799413582439
 30
0.0
  0
SEQEND
  5
66
330
63
100
AcDbEntity
  8
_U+30EC_U+30A4_U+30E4_U+30FC 1
 62
   179
420
  2234388
370
    25
  0
POLYLINE
  5
67
330
43
100
AcDbEntity
  8
_U+30EC_U+30A4_U+30E4_U+30FC 1
 62
   179
420
  2234388
370
    25
100
AcDb2dPolyline
 66
     1
 10
0.0
 20
0.0
 30
0.0
  0
VERTEX
  5
68
330
67
100
AcDbEntity
  8
_U+30EC_U+30A4_U+30E4_U+30FC 1
 62
   179
420
  2234388
370
    25
100
AcDbVertex
100
AcDb2dVertex
 10
105.3630805292146
 20
-122.329821913862
 30
0.0
  0
VERTEX
  5
69
330
67
100
AcDbEntity
  8
_U+30EC_U+30A4_U+30E4_U+30FC 1
 62
   179
420
  2234388
370
    25
100
AcDbVertex
100
AcDb2dVertex
 10
106.6629228343577
 20
-122.329821913862
 30
0.0
  0
SEQEND
  5
6A
330
67
100
AcDbEntity
  8
_U+30EC_U+30A4_U+30E4_U+30FC 1
 62
   179
420
  2234388
370
    25
  0
POLYLINE
  5
6B
330
43
100
AcDbEntity
  8
_U+30EC_U+30A4_U+30E4_U+30FC 1
 62
   179
420
  2234388
370
    25
100
AcDb2dPolyline
 66
     1
 10
0.0
 20
0.0
 30
0.0
  0
VERTEX
  5
6C
330
6B
100
AcDbEntity
  8
_U+30EC_U+30A4_U+30E4_U+30FC 1
 62
   179
420
  2234388
370
    25
100
AcDbVertex
100
AcDb2dVertex
 10
87.73798303939535
 20
-123.3295941358342
 30
0.0
  0
VERTEX
  5
6D
330
6B
100
AcDbEntity
  8
_U+30EC_U+30A4_U+30E4_U+30FC 1
 62
   179
420
  2234388
370
    25
100
AcDbVertex
100
AcDb2dVertex
 10
105.3630805292146
 20
-123.3295941358342
 30
0.0
  0
SEQEND
  5
6E
330
6B
100
AcDbEntity
  8
_U+30EC_U+30A4_U+30E4_U+30FC 1
 62
   179
420
  2234388
370
    25
  0
POLYLINE
  5
6F
330
43
100
AcDbEntity
  8
_U+30EC_U+30A4_U+30E4_U+30FC 1
 62
   179
420
  2234388
370
    25
100
AcDb2dPolyline
 66
     1
 10
0.0
 20
0.0
 30
0.0
  0
VERTEX
  5
70
330
6F
100
AcDbEntity
  8
_U+30EC_U+30A4_U+30E4_U+30FC 1
 62
   179
420
  2234388
370
    25
100
AcDbVertex
100
AcDb2dVertex
 10
106.8630536625853
 20
-121.279778858569
 30
0.0
  0
VERTEX
  5
71
330
6F
100
AcDbEntity
  8
_U+30EC_U+30A4_U+30E4_U+30FC 1
 62
   179
420
  2234388
370
    25
100
AcDbVertex
100
AcDb2dVertex
 10
106.8630536625853
 20
-122.1300085805787
 30
0.0
  0
SEQEND
  5
72
330
6F
100
AcDbEntity
  8
_U+30EC_U+30A4_U+30E4_U+30FC 1
 62
   179
420
  2234388
370
    25
  0
POLYLINE
  5
73
330
43
100
AcDbEntity
  8
_U+30EC_U+30A4_U+30E4_U+30FC 1
 62
   179
420
  2234388
370
    25
100
AcDb2dPolyline
 66
     1
 10
0.0
 20
0.0
 30
0.0
  0
VERTEX
  5
74
330
73
100
AcDbEntity
  8
_U+30EC_U+30A4_U+30E4_U+30FC 1
 62
   179
420
  2234388
370
    25
100
AcDbVertex
100
AcDb2dVertex
 10
104.5131656669803
 20
-121.3796855252107
 30
0.0
  0
VERTEX
  5
75
330
73
100
AcDbEntity
  8
_U+30EC_U+30A4_U+30E4_U+30FC 1
 62
   179
420
  2234388
370
    25
100
AcDbVertex
100
AcDb2dVertex
 10
104.5131656669803
 20
-122.0797024694801
 30
0.0
  0
SEQEND
  5
76
330
73
100
AcDbEntity
  8
_U+30EC_U+30A4_U+30E4_U+30FC 1
 62
   179
420
  2234388
370
    25
  0
POLYLINE
  5
77
330
43
100
AcDbEntity
  8
_U+30EC_U+30A4_U+30E4_U+30FC 1
 62
   179
420
  2234388
370
    25
100
AcDb2dPolyline
 66
     1
 10
0.0
 20
0.0
 30
0.0
  0
VERTEX
  5
78
330
77
100
AcDbEntity
  8
_U+30EC_U+30A4_U+30E4_U+30FC 1
 62
   179
420
  2234388
370
    25
100
AcDbVertex
100
AcDb2dVertex
 10
105.3630805292146
 20
-122.7046483026572
 30
0.0
  0
VERTEX
  5
79
330
77
100
AcDbEntity
  8
_U+30EC_U+30A4_U+30E4_U+30FC 1
 62
   179
420
  2234388
370
    25
100
AcDbVertex
100
AcDb2dVertex
 10
106.2291825676456
 20
-123.2048871914209
 30
0.0
  0
SEQEND
  5
7A
330
77
100
AcDbEntity
  8
_U+30EC_U+30A4_U+30E4_U+30FC 1
 62
   179
420
  2234388
370
    25
  0
POLYLINE
  5
7B
330
43
100
AcDbEntity
  8
_U+30EC_U+30A4_U+30E4_U+30FC 1
 62
   179
420
  2234388
370
    25
100
AcDb2dPolyline
 66
     1
 10
0.0
 20
0.0
 30
0.0
  0
VERTEX
  5
7C
330
7B
100
AcDbEntity
  8
_U+30EC_U+30A4_U+30E4_U+30FC 1
 62
   179
420
  2234388
370
    25
100
AcDbVertex
100
AcDb2dVertex
 10
96.7630966980344
 20
-119.973372192229
 30
0.0
  0
VERTEX
  5
7D
330
7B
100
AcDbEntity
  8
_U+30EC_U+30A4_U+30E4_U+30FC 1
 62
   179
420
  2234388
370
    25
100
AcDbVertex
100
AcDb2dVertex
 10
96.7630966980344
 20
-122.0797024694801
 30
0.0
  0
SEQEND
  5
7E
330
7B
100
AcDbEntity
  8
_U+30EC_U+30A4_U+30E4_U+30FC 1
 62
   179
420
  2234388
370
    25
  0
POLYLINE
  5
7F
330
43
100
AcDbEntity
  8
_U+30EC_U+30A4_U+30E4_U+30FC 1
 62
   179
420
  2234388
370
    25
100
AcDb2dPolyline
 66
     1
 10
0.0
 20
0.0
 30
0.0
  0
VERTEX
  5
80
330
7F
100
AcDbEntity
  8
_U+30EC_U+30A4_U+30E4_U+30FC 1
 62
   179
420
  2234388
370
    25
100
AcDbVertex
100
AcDb2dVertex
 10
96.7630966980344
 20
-122.0797024694801
 30
0.0
  0
VERTEX
  5
81
330
7F
100
AcDbEntity
  8
_U+30EC_U+30A4_U+30E4_U+30FC 1
 62
   179
420
  2234388
370
    25
100
AcDbVertex
100
AcDb2dVertex
 10
104.5131656669803
 20
-122.0797024694801
 30
0.0
  0
SEQEND
  5
82
330
7F
100
AcDbEntity
  8
_U+30EC_U+30A4_U+30E4_U+30FC 1
 62
   179
420
  2234388
370
    25
  0
POLYLINE
  5
83
330
43
100
AcDbEntity
  8
_U+30EC_U+30A4_U+30E4_U+30FC 1
 62
   179
420
  2234388
370
    25
100
AcDb2dPolyline
 66
     1
 10
0.0
 20
0.0
 30
0.0
  0
VERTEX
  5
84
330
83
100
AcDbEntity
  8
_U+30EC_U+30A4_U+30E4_U+30FC 1
 62
   179
420
  2234388
370
    25
100
AcDbVertex
100
AcDb2dVertex
 10
86.48809140461607
 20
-122.0797024694801
 30
0.0
  0
VERTEX
  5
85
330
83
100
AcDbEntity
  8
_U+30EC_U+30A4_U+30E4_U+30FC 1
 62
   179
420
  2234388
370
    25
100
AcDbVertex
100
AcDb2dVertex
 10
95.51285228548636
 20
-122.0797024694801
 30
0.0
  0
SEQEND
  5
86
330
83
100
AcDbEntity
  8
_U+30EC_U+30A4_U+30E4_U+30FC 1
 62
   179
420
  2234388
370
    25
  0
POLYLINE
  5
87
330
43
100
AcDbEntity
  8
_U+30EC_U+30A4_U+30E4_U+30FC 1
 62
   179
420
  2234388
370
    25
100
AcDb2dPolyline
 66
     1
 10
0.0
 20
0.0
 30
0.0
  0
VERTEX
  5
88
330
87
100
AcDbEntity
  8
_U+30EC_U+30A4_U+30E4_U+30FC 1
 62
   179
420
  2234388
370
    25
100
AcDbVertex
100
AcDb2dVertex
 10
95.51285228548636
 20
-119.973372192229
 30
0.0
  0
VERTEX
  5
89
330
87
100
AcDbEntity
  8
_U+30EC_U+30A4_U+30E4_U+30FC 1
 62
   179
420
  2234388
370
    25
100
AcDbVertex
100
AcDb2dVertex
 10
95.51285228548636
 20
-122.0797024694801
 30
0.0
  0
SEQEND
  5
8A
330
87
100
AcDbEntity
  8
_U+30EC_U+30A4_U+30E4_U+30FC 1
 62
   179
420
  2234388
370
    25
  0
POLYLINE
  5
8B
330
43
100
AcDbEntity
  8
_U+30EC_U+30A4_U+30E4_U+30FC 1
 62
   179
420
  2234388
370
    25
100
AcDb2dPolyline
 66
     1
 10
0.0
 20
0.0
 30
0.0
  0
VERTEX
  5
8C
330
8B
100
AcDbEntity
  8
_U+30EC_U+30A4_U+30E4_U+30FC 1
 62
   179
420
  2234388
370
    25
100
AcDbVertex
100
AcDb2dVertex
 10
104.8128856593338
 20
-121.0799655252854
 30
0.0
  0
VERTEX
  5
8D
330
8B
100
AcDbEntity
  8
_U+30EC_U+30A4_U+30E4_U+30FC 1
 62
   179
420
  2234388
370
    25
100
AcDbVertex
100
AcDb2dVertex
 10
106.6629228343577
 20
-121.0799655252854
 30
0.0
  0
SEQEND
  5
8E
330
8B
100
AcDbEntity
  8
_U+30EC_U+30A4_U+30E4_U+30FC 1
 62
   179
420
  2234388
370
    25
  0
POLYLINE
  5
8F
330
43
100
AcDbEntity
  8
_U+30EC_U+30A4_U+30E4_U+30FC 1
 62
   179
420
  2234388
370
    25
100
AcDb2dPolyline
 66
     1
 10
0.0
 20
0.0
 30
0.0
  0
VERTEX
  5
90
330
8F
100
AcDbEntity
  8
_U+30EC_U+30A4_U+30E4_U+30FC 1
 62
   179
420
  2234388
370
    25
100
AcDbVertex
100
AcDb2dVertex
 10
107.9630853011878
 20
-119.8548741367031
 30
0.0
  0
VERTEX
  5
91
330
8F
100
AcDbEntity
  8
_U+30EC_U+30A4_U+30E4_U+30FC 1
 62
   179
420
  2234388
370
    25
100
AcDbVertex
100
AcDb2dVertex
 10
107.9630853011878
 20
-122.5799413582439
 30
0.0
  0
SEQEND
  5
92
330
8F
100
AcDbEntity
  8
_U+30EC_U+30A4_U+30E4_U+30FC 1
 62
   179
420
  2234388
370
    25
  0
POLYLINE
  5
93
330
43
100
AcDbEntity
  8
_U+30EC_U+30A4_U+30E4_U+30FC 1
 62
   179
420
  2234388
370
    25
100
AcDb2dPolyline
 66
     1
 10
0.0
 20
0.0
 30
0.0
  0
VERTEX
  5
94
330
93
100
AcDbEntity
  8
_U+30EC_U+30A4_U+30E4_U+30FC 1
 62
   179
420
  2234388
370
    25
100
AcDbVertex
100
AcDb2dVertex
 10
85.01288060891851
 20
-119.8548741367031
 30
0.0
  0
VERTEX
  5
95
330
93
100
AcDbEntity
  8
_U+30EC_U+30A4_U+30E4_U+30FC 1
 62
   179
420
  2234388
370
    25
100
AcDbVertex
100
AcDb2dVertex
 10
107.9630853011878
 20
-119.8548741367031
 30
0.0
  0
SEQEND
  5
96
330
93
100
AcDbEntity
  8
_U+30EC_U+30A4_U+30E4_U+30FC 1
 62
   179
420
  2234388
370
    25
  0
POLYLINE
  5
97
330
43
100
AcDbEntity
  8
_U+30EC_U+30A4_U+30E4_U+30FC 1
 62
   179
420
  2234388
370
    25
100
AcDb2dPolyline
 66
     1
 10
0.0
 20
0.0
 30
0.0
  0
VERTEX
  5
98
330
97
100
AcDbEntity
  8
_U+30EC_U+30A4_U+30E4_U+30FC 1
 62
   179
420
  2234388
370
    25
100
AcDbVertex
100
AcDb2dVertex
 10
95.51285228548636
 20
-119.973372192229
 30
0.0
  0
VERTEX
  5
99
330
97
100
AcDbEntity
  8
_U+30EC_U+30A4_U+30E4_U+30FC 1
 62
   179
420
  2234388
370
    25
100
AcDbVertex
100
AcDb2dVertex
 10
96.7630966980344
 20
-119.973372192229
 30
0.0
  0
SEQEND
  5
9A
330
97
100
AcDbEntity
  8
_U+30EC_U+30A4_U+30E4_U+30FC 1
 62
   179
420
  2234388
370
    25
  0
POLYLINE
  5
9B
330
43
100
AcDbEntity
  8
_U+30EC_U+30A4_U+30E4_U+30FC 1
 62
   179
420
  2234388
370
     9
100
AcDb2dPolyline
 66
     1
 10
0.0
 20
0.0
 30
0.0
  0
VERTEX
  5
9C
330
9B
100
AcDbEntity
  8
_U+30EC_U+30A4_U+30E4_U+30FC 1
 62
   179
420
  2234388
370
     9
100
AcDbVertex
100
AcDb2dVertex
 10
80.0228390695584
 20
-136.5825380214098
 30
0.0
  0
VERTEX
  5
9D
330
9B
100
AcDbEntity
  8
_U+30EC_U+30A4_U+30E4_U+30FC 1
 62
   179
420
  2234388
370
     9
100
AcDbVertex
100
AcDb2dVertex
 10
82.7632520552002
 20
-133.8426541332063
 30
0.0
  0
SEQEND
  5
9E
330
9B
100
AcDbEntity
  8
_U+30EC_U+30A4_U+30E4_U+30FC 1
 62
   179
420
  2234388
370
     9
  0
POLYLINE
  5
9F
330
43
100
AcDbEntity
  8
_U+30EC_U+30A4_U+30E4_U+30FC 1
 62
   179
420
  2234388
370
     9
100
AcDb2dPolyline
 66
     1
 10
0.0
 20
0.0
 30
0.0
  0
VERTEX
  5
A0
330
9F
100
AcDbEntity
  8
_U+30EC_U+30A4_U+30E4_U+30FC 1
 62
   179
420
  2234388
370
     9
100
AcDbVertex
100
AcDb2dVertex
 10
82.26301317907347
 20
-134.7087588552117
 30
0.0
  0
VERTEX
  5
A1
330
9F
100
AcDbEntity
  8
_U+30EC_U+30A4_U+30E4_U+30FC 1
 62
   179
420
  2234388
370
     9
100
AcDbVertex
100
AcDb2dVertex
 10
82.7632520552002
 20
-133.8426541332063
 30
0.0
  0
SEQEND
  5
A2
330
9F
100
AcDbEntity
  8
_U+30EC_U+30A4_U+30E4_U+30FC 1
 62
   179
420
  2234388
370
     9
  0
POLYLINE
  5
A3
330
43
100
AcDbEntity
  8
_U+30EC_U+30A4_U+30E4_U+30FC 1
 62
   179
420
  2234388
370
     9
100
AcDb2dPolyline
 66
     1
 10
0.0
 20
0.0
 30
0.0
  0
VERTEX
  5
A4
330
A3
100
AcDbEntity
  8
_U+30EC_U+30A4_U+30E4_U+30FC 1
 62
   179
420
  2234388
370
     9
100
AcDbVertex
100
AcDb2dVertex
 10
81.89714735507415
 20
-134.3425402441922
 30
0.0
  0
VERTEX
  5
A5
330
A3
100
AcDbEntity
  8
_U+30EC_U+30A4_U+30E4_U+30FC 1
 62
   179
420
  2234388
370
     9
100
AcDbVertex
100
AcDb2dVertex
 10
82.7632520552002
 20
-133.8426541332063
 30
0.0
  0
SEQEND
  5
A6
330
A3
100
AcDbEntity
  8
_U+30EC_U+30A4_U+30E4_U+30FC 1
 62
   179
420
  2234388
370
     9
  0
POLYLINE
  5
A7
330
43
100
AcDbEntity
  8
_U+30EC_U+30A4_U+30E4_U+30FC 1
 62
   179
420
  2234388
370
     9
100
AcDb2dPolyline
 66
     1
 10
0.0
 20
0.0
 30
0.0
  0
VERTEX
  5
A8
330
A7
100
AcDbEntity
  8
_U+30EC_U+30A4_U+30E4_U+30FC 1
 62
   179
420
  2234388
370
     9
100
AcDbVertex
100
AcDb2dVertex
 10
67.27980050577152
 20
-136.5825380214098
 30
0.0
  0
VERTEX
  5
A9
330
A7
100
AcDbEntity
  8
_U+30EC_U+30A4_U+30E4_U+30FC 1
 62
   179
420
  2234388
370
     9
100
AcDbVertex
100
AcDb2dVertex
 10
80.0228390695584
 20
-136.5825380214098
 30
0.0
  0
SEQEND
  5
AA
330
A7
100
AcDbEntity
  8
_U+30EC_U+30A4_U+30E4_U+30FC 1
 62
   179
420
  2234388
370
     9
  0
POLYLINE
  5
AB
330
43
100
AcDbEntity
  8
_U+30EC_U+30A4_U+30E4_U+30FC 1
 62
   179
420
  2234388
370
    25
100
AcDb2dPolyline
 66
     1
 10
0.0
 20
0.0
 30
0.0
  0
VERTEX
  5
AC
330
AB
100
AcDbEntity
  8
_U+30EC_U+30A4_U+30E4_U+30FC 1
 62
   179
420
  2234388
370
    25
100
AcDbVertex
100
AcDb2dVertex
 10
84.26322785026596
 20
-120.6048796920709
 30
0.0
  0
VERTEX
  5
AD
330
AB
100
AcDbEntity
  8
_U+30EC_U+30A4_U+30E4_U+30FC 1
 62
   179
420
  2234388
370
    25
100
AcDbVertex
100
AcDb2dVertex
 10
84.26322785026596
 20
-143.5547321863333
 30
0.0
  0
SEQEND
  5
AE
330
AB
100
AcDbEntity
  8
_U+30EC_U+30A4_U+30E4_U+30FC 1
 62
   179
420
  2234388
370
    25
  0
POLYLINE
  5
AF
330
43
100
AcDbEntity
  8
_U+30EC_U+30A4_U+30E4_U+30FC 1
 62
   179
420
  2234388
370
    25
100
AcDb2dPolyline
 66
     1
 10
0.0
 20
0.0
 30
0.0
  0
VERTEX
  5
B0
330
AF
100
AcDbEntity
  8
_U+30EC_U+30A4_U+30E4_U+30FC 1
 62
   179
420
  2234388
370
    25
100
AcDbVertex
100
AcDb2dVertex
 10
83.61281147797058
 20
-120.6048796920709
 30
0.0
  0
VERTEX
  5
B1
330
AF
100
AcDbEntity
  8
_U+30EC_U+30A4_U+30E4_U+30FC 1
 62
   179
420
  2234388
370
    25
100
AcDbVertex
100
AcDb2dVertex
 10
83.61281147797058
 20
-144.2047957972823
 30
0.0
  0
SEQEND
  5
B2
330
AF
100
AcDbEntity
  8
_U+30EC_U+30A4_U+30E4_U+30FC 1
 62
   179
420
  2234388
370
    25
  0
POLYLINE
  5
B3
330
43
100
AcDbEntity
  8
_U+30EC_U+30A4_U+30E4_U+30FC 1
 62
   179
420
  2234388
370
    25
100
AcDb2dPolyline
 66
     1
 10
0.0
 20
0.0
 30
0.0
  0
VERTEX
  5
B4
330
B3
100
AcDbEntity
  8
_U+30EC_U+30A4_U+30E4_U+30FC 1
 62
   179
420
  2234388
370
    25
100
AcDbVertex
100
AcDb2dVertex
 10
82.7632520552002
 20
-119.6047546923209
 30
0.0
  0
VERTEX
  5
B5
330
B3
100
AcDbEntity
  8
_U+30EC_U+30A4_U+30E4_U+30FC 1
 62
   179
420
  2234388
370
    25
100
AcDbVertex
100
AcDb2dVertex
 10
82.7632520552002
 20
-145.054708019292
 30
0.0
  0
SEQEND
  5
B6
330
B3
100
AcDbEntity
  8
_U+30EC_U+30A4_U+30E4_U+30FC 1
 62
   179
420
  2234388
370
    25
  0
POLYLINE
  5
B7
330
43
100
AcDbEntity
  8
_U+30EC_U+30A4_U+30E4_U+30FC 1
 62
   179
420
  2234388
370
    25
100
AcDb2dPolyline
 66
     1
 10
0.0
 20
0.0
 30
0.0
  0
VERTEX
  5
B8
330
B7
100
AcDbEntity
  8
_U+30EC_U+30A4_U+30E4_U+30FC 1
 62
   179
420
  2234388
370
    25
100
AcDbVertex
100
AcDb2dVertex
 10
86.73821084267944
 20
-142.2548871866587
 30
0.0
  0
VERTEX
  5
B9
330
B7
100
AcDbEntity
  8
_U+30EC_U+30A4_U+30E4_U+30FC 1
 62
   179
420
  2234388
370
    25
100
AcDbVertex
100
AcDb2dVertex
 10
86.98797750297403
 20
-142.5046538532625
 30
0.0
  0
SEQEND
  5
BA
330
B7
100
AcDbEntity
  8
_U+30EC_U+30A4_U+30E4_U+30FC 1
 62
   179
420
  2234388
370
    25
  0
POLYLINE
  5
BB
330
43
100
AcDbEntity
  8
_U+30EC_U+30A4_U+30E4_U+30FC 1
 62
   179
420
  2234388
370
    25
100
AcDb2dPolyline
 66
     1
 10
0.0
 20
0.0
 30
0.0
  0
VERTEX
  5
BC
330
BB
100
AcDbEntity
  8
_U+30EC_U+30A4_U+30E4_U+30FC 1
 62
   179
420
  2234388
370
    25
100
AcDbVertex
100
AcDb2dVertex
 10
86.98797750297403
 20
-142.5046538532625
 30
0.0
  0
VERTEX
  5
BD
330
BB
100
AcDbEntity
  8
_U+30EC_U+30A4_U+30E4_U+30FC 1
 62
   179
420
  2234388
370
    25
100
AcDbVertex
100
AcDb2dVertex
 10
86.98797750297403
 20
-143.5547321863333
 30
0.0
  0
SEQEND
  5
BE
330
BB
100
AcDbEntity
  8
_U+30EC_U+30A4_U+30E4_U+30FC 1
 62
   179
420
  2234388
370
    25
  0
POLYLINE
  5
BF
330
43
100
AcDbEntity
  8
_U+30EC_U+30A4_U+30E4_U+30FC 1
 62
   179
420
  2234388
370
    25
100
AcDb2dPolyline
 66
     1
 10
0.0
 20
0.0
 30
0.0
  0
VERTEX
  5
C0
330
BF
100
AcDbEntity
  8
_U+30EC_U+30A4_U+30E4_U+30FC 1
 62
   179
420
  2234388
370
    25
100
AcDbVertex
100
AcDb2dVertex
 10
84.38176118057525
 20
-131.1048163561129
 30
0.0
  0
VERTEX
  5
C1
330
BF
100
AcDbEntity
  8
_U+30EC_U+30A4_U+30E4_U+30FC 1
 62
   179
420
  2234388
370
    25
100
AcDbVertex
100
AcDb2dVertex
 10
84.38176118057525
 20
-132.354708022467
 30
0.0
  0
SEQEND
  5
C2
330
BF
100
AcDbEntity
  8
_U+30EC_U+30A4_U+30E4_U+30FC 1
 62
   179
420
  2234388
370
    25
  0
POLYLINE
  5
C3
330
43
100
AcDbEntity
  8
_U+30EC_U+30A4_U+30E4_U+30FC 1
 62
   179
420
  2234388
370
    25
100
AcDb2dPolyline
 66
     1
 10
0.0
 20
0.0
 30
0.0
  0
VERTEX
  5
C4
330
C3
100
AcDbEntity
  8
_U+30EC_U+30A4_U+30E4_U+30FC 1
 62
   179
420
  2234388
370
    25
100
AcDbVertex
100
AcDb2dVertex
 10
86.48809140461607
 20
-122.0797024694801
 30
0.0
  0
VERTEX
  5
C5
330
C3
100
AcDbEntity
  8
_U+30EC_U+30A4_U+30E4_U+30FC 1
 62
   179
420
  2234388
370
    25
100
AcDbVertex
100
AcDb2dVertex
 10
86.48809140461607
 20
-131.1048163561129
 30
0.0
  0
SEQEND
  5
C6
330
C3
100
AcDbEntity
  8
_U+30EC_U+30A4_U+30E4_U+30FC 1
 62
   179
420
  2234388
370
    25
  0
POLYLINE
  5
C7
330
43
100
AcDbEntity
  8
_U+30EC_U+30A4_U+30E4_U+30FC 1
 62
   179
420
  2234388
370
    25
100
AcDb2dPolyline
 66
     1
 10
0.0
 20
0.0
 30
0.0
  0
VERTEX
  5
C8
330
C7
100
AcDbEntity
  8
_U+30EC_U+30A4_U+30E4_U+30FC 1
 62
   179
420
  2234388
370
    25
100
AcDbVertex
100
AcDb2dVertex
 10
84.38176118057525
 20
-132.354708022467
 30
0.0
  0
VERTEX
  5
C9
330
C7
100
AcDbEntity
  8
_U+30EC_U+30A4_U+30E4_U+30FC 1
 62
   179
420
  2234388
370
    25
100
AcDbVertex
100
AcDb2dVertex
 10
86.48809140461607
 20
-132.354708022467
 30
0.0
  0
SEQEND
  5
CA
330
C7
100
AcDbEntity
  8
_U+30EC_U+30A4_U+30E4_U+30FC 1
 62
   179
420
  2234388
370
    25
  0
POLYLINE
  5
CB
330
43
100
AcDbEntity
  8
_U+30EC_U+30A4_U+30E4_U+30FC 1
 62
   179
420
  2234388
370
    25
100
AcDb2dPolyline
 66
     1
 10
0.0
 20
0.0
 30
0.0
  0
VERTEX
  5
CC
330
CB
100
AcDbEntity
  8
_U+30EC_U+30A4_U+30E4_U+30FC 1
 62
   179
420
  2234388
370
    25
100
AcDbVertex
100
AcDb2dVertex
 10
85.68813253613584
 20
-142.454700519942
 30
0.0
  0
VERTEX
  5
CD
330
CB
100
AcDbEntity
  8
_U+30EC_U+30A4_U+30E4_U+30FC 1
 62
   179
420
  2234388
370
    25
100
AcDbVertex
100
AcDb2dVertex
 10
86.53804473667499
 20
-142.454700519942
 30
0.0
  0
SEQEND
  5
CE
330
CB
100
AcDbEntity
  8
_U+30EC_U+30A4_U+30E4_U+30FC 1
 62
   179
420
  2234388
370
    25
  0
POLYLINE
  5
CF
330
43
100
AcDbEntity
  8
_U+30EC_U+30A4_U+30E4_U+30FC 1
 62
   179
420
  2234388
370
    25
100
AcDb2dPolyline
 66
     1
 10
0.0
 20
0.0
 30
0.0
  0
VERTEX
  5
D0
330
CF
100
AcDbEntity
  8
_U+30EC_U+30A4_U+30E4_U+30FC 1
 62
   179
420
  2234388
370
    25
100
AcDbVertex
100
AcDb2dVertex
 10
84.38176118057525
 20
-131.1048163561129
 30
0.0
  0
VERTEX
  5
D1
330
CF
100
AcDbEntity
  8
_U+30EC_U+30A4_U+30E4_U+30FC 1
 62
   179
420
  2234388
370
    25
100
AcDbVertex
100
AcDb2dVertex
 10
86.48809140461607
 20
-131.1048163561129
 30
0.0
  0
SEQEND
  5
D2
330
CF
100
AcDbEntity
  8
_U+30EC_U+30A4_U+30E4_U+30FC 1
 62
   179
420
  2234388
370
    25
  0
POLYLINE
  5
D3
330
43
100
AcDbEntity
  8
_U+30EC_U+30A4_U+30E4_U+30FC 1
 62
   179
420
  2234388
370
    25
100
AcDb2dPolyline
 66
     1
 10
0.0
 20
0.0
 30
0.0
  0
VERTEX
  5
D4
330
D3
100
AcDbEntity
  8
_U+30EC_U+30A4_U+30E4_U+30FC 1
 62
   179
420
  2234388
370
    25
100
AcDbVertex
100
AcDb2dVertex
 10
85.4879664301314
 20
-140.4048499648987
 30
0.0
  0
VERTEX
  5
D5
330
D3
100
AcDbEntity
  8
_U+30EC_U+30A4_U+30E4_U+30FC 1
 62
   179
420
  2234388
370
    25
100
AcDbVertex
100
AcDb2dVertex
 10
85.4879664301314
 20
-142.2548871866587
 30
0.0
  0
SEQEND
  5
D6
330
D3
100
AcDbEntity
  8
_U+30EC_U+30A4_U+30E4_U+30FC 1
 62
   179
420
  2234388
370
    25
  0
POLYLINE
  5
D7
330
43
100
AcDbEntity
  8
_U+30EC_U+30A4_U+30E4_U+30FC 1
 62
   179
420
  2234388
370
    25
100
AcDb2dPolyline
 66
     1
 10
0.0
 20
0.0
 30
0.0
  0
VERTEX
  5
D8
330
D7
100
AcDbEntity
  8
_U+30EC_U+30A4_U+30E4_U+30FC 1
 62
   179
420
  2234388
370
    25
100
AcDbVertex
100
AcDb2dVertex
 10
87.11303722200572
 20
-140.9546894092057
 30
0.0
  0
VERTEX
  5
D9
330
D7
100
AcDbEntity
  8
_U+30EC_U+30A4_U+30E4_U+30FC 1
 62
   179
420
  2234388
370
    25
100
AcDbVertex
100
AcDb2dVertex
 10
87.61324082035557
 20
-141.8207941312112
 30
0.0
  0
SEQEND
  5
DA
330
D7
100
AcDbEntity
  8
_U+30EC_U+30A4_U+30E4_U+30FC 1
 62
   179
420
  2234388
370
    25
  0
POLYLINE
  5
DB
330
43
100
AcDbEntity
  8
_U+30EC_U+30A4_U+30E4_U+30FC 1
 62
   179
420
  2234388
370
    25
100
AcDb2dPolyline
 66
     1
 10
0.0
 20
0.0
 30
0.0
  0
VERTEX
  5
DC
330
DB
100
AcDbEntity
  8
_U+30EC_U+30A4_U+30E4_U+30FC 1
 62
   179
420
  2234388
370
    25
100
AcDbVertex
100
AcDb2dVertex
 10
86.48809140461607
 20
-132.354708022467
 30
0.0
  0
VERTEX
  5
DD
330
DB
100
AcDbEntity
  8
_U+30EC_U+30A4_U+30E4_U+30FC 1
 62
   179
420
  2234388
370
    25
100
AcDbVertex
100
AcDb2dVertex
 10
86.48809140461607
 20
-140.1048124649735
 30
0.0
  0
SEQEND
  5
DE
330
DB
100
AcDbEntity
  8
_U+30EC_U+30A4_U+30E4_U+30FC 1
 62
   179
420
  2234388
370
    25
  0
POLYLINE
  5
DF
330
43
100
AcDbEntity
  8
_U+30EC_U+30A4_U+30E4_U+30FC 1
 62
   179
420
  2234388
370
    25
100
AcDb2dPolyline
 66
     1
 10
0.0
 20
0.0
 30
0.0
  0
VERTEX
  5
E0
330
DF
100
AcDbEntity
  8
_U+30EC_U+30A4_U+30E4_U+30FC 1
 62
   179
420
  2234388
370
    25
100
AcDbVertex
100
AcDb2dVertex
 10
84.26322785026596
 20
-143.5547321863333
 30
0.0
  0
VERTEX
  5
E1
330
DF
100
AcDbEntity
  8
_U+30EC_U+30A4_U+30E4_U+30FC 1
 62
   179
420
  2234388
370
    25
100
AcDbVertex
100
AcDb2dVertex
 10
86.98797750297403
 20
-143.5547321863333
 30
0.0
  0
SEQEND
  5
E2
330
DF
100
AcDbEntity
  8
_U+30EC_U+30A4_U+30E4_U+30FC 1
 62
   179
420
  2234388
370
    25
  0
POLYLINE
  5
E3
330
43
100
AcDbEntity
  8
_U+30EC_U+30A4_U+30E4_U+30FC 1
 62
   179
420
  2234388
370
    25
100
AcDb2dPolyline
 66
     1
 10
0.0
 20
0.0
 30
0.0
  0
VERTEX
  5
E4
330
E3
100
AcDbEntity
  8
_U+30EC_U+30A4_U+30E4_U+30FC 1
 62
   179
420
  2234388
370
    25
100
AcDbVertex
100
AcDb2dVertex
 10
86.73821084267944
 20
-140.9546894092057
 30
0.0
  0
VERTEX
  5
E5
330
E3
100
AcDbEntity
  8
_U+30EC_U+30A4_U+30E4_U+30FC 1
 62
   179
420
  2234388
370
    25
100
AcDbVertex
100
AcDb2dVertex
 10
86.73821084267944
 20
-142.2548871866587
 30
0.0
  0
SEQEND
  5
E6
330
E3
100
AcDbEntity
  8
_U+30EC_U+30A4_U+30E4_U+30FC 1
 62
   179
420
  2234388
370
    25
  0
POLYLINE
  5
E7
330
43
100
AcDbEntity
  8
_U+30EC_U+30A4_U+30E4_U+30FC 1
 62
   179
420
  2234388
370
    25
100
AcDb2dPolyline
 66
     1
 10
0.0
 20
0.0
 30
0.0
  0
VERTEX
  5
E8
330
E7
100
AcDbEntity
  8
_U+30EC_U+30A4_U+30E4_U+30FC 1
 62
   179
420
  2234388
370
    25
100
AcDbVertex
100
AcDb2dVertex
 10
85.78803920025368
 20
-140.1048124649735
 30
0.0
  0
VERTEX
  5
E9
330
E7
100
AcDbEntity
  8
_U+30EC_U+30A4_U+30E4_U+30FC 1
 62
   179
420
  2234388
370
    25
100
AcDbVertex
100
AcDb2dVertex
 10
86.48809140461607
 20
-140.1048124649735
 30
0.0
  0
SEQEND
  5
EA
330
E7
100
AcDbEntity
  8
_U+30EC_U+30A4_U+30E4_U+30FC 1
 62
   179
420
  2234388
370
    25
  0
POLYLINE
  5
EB
330
43
100
AcDbEntity
  8
_U+30EC_U+30A4_U+30E4_U+30FC 1
 62
   179
420
  2234388
370
    25
100
AcDb2dPolyline
 66
     1
 10
0.0
 20
0.0
 30
0.0
  0
VERTEX
  5
EC
330
EB
100
AcDbEntity
  8
_U+30EC_U+30A4_U+30E4_U+30FC 1
 62
   179
420
  2234388
370
    25
100
AcDbVertex
100
AcDb2dVertex
 10
87.61324082035557
 20
-141.8207941312112
 30
0.0
  0
VERTEX
  5
ED
330
EB
100
AcDbEntity
  8
_U+30EC_U+30A4_U+30E4_U+30FC 1
 62
   179
420
  2234388
370
    25
100
AcDbVertex
100
AcDb2dVertex
 10
87.61324082035557
 20
-144.2047957972823
 30
0.0
  0
SEQEND
  5
EE
330
EB
100
AcDbEntity
  8
_U+30EC_U+30A4_U+30E4_U+30FC 1
 62
   179
420
  2234388
370
    25
  0
POLYLINE
  5
EF
330
43
100
AcDbEntity
  8
_U+30EC_U+30A4_U+30E4_U+30FC 1
 62
   179
420
  2234388
370
    25
100
AcDb2dPolyline
 66
     1
 10
0.0
 20
0.0
 30
0.0
  0
VERTEX
  5
F0
330
EF
100
AcDbEntity
  8
_U+30EC_U+30A4_U+30E4_U+30FC 1
 62
   179
420
  2234388
370
    25
100
AcDbVertex
100
AcDb2dVertex
 10
87.73798303939535
 20
-123.3295941358342
 30
0.0
  0
VERTEX
  5
F1
330
EF
100
AcDbEntity
  8
_U+30EC_U+30A4_U+30E4_U+30FC 1
 62
   179
420
  2234388
370
    25
100
AcDbVertex
100
AcDb2dVertex
 10
87.73798303939535
 20
-140.9546894092057
 30
0.0
  0
SEQEND
  5
F2
330
EF
100
AcDbEntity
  8
_U+30EC_U+30A4_U+30E4_U+30FC 1
 62
   179
420
  2234388
370
    25
  0
POLYLINE
  5
F3
330
43
100
AcDbEntity
  8
_U+30EC_U+30A4_U+30E4_U+30FC 1
 62
   179
420
  2234388
370
    25
100
AcDb2dPolyline
 66
     1
 10
0.0
 20
0.0
 30
0.0
  0
VERTEX
  5
F4
330
F3
100
AcDbEntity
  8
_U+30EC_U+30A4_U+30E4_U+30FC 1
 62
   179
420
  2234388
370
    25
100
AcDbVertex
100
AcDb2dVertex
 10
83.61281147797058
 20
-144.2047957972823
 30
0.0
  0
VERTEX
  5
F5
330
F3
100
AcDbEntity
  8
_U+30EC_U+30A4_U+30E4_U+30FC 1
 62
   179
420
  2234388
370
    25
100
AcDbVertex
100
AcDb2dVertex
 10
87.61324082035557
 20
-144.2047957972823
 30
0.0
  0
SEQEND
  5
F6
330
F3
100
AcDbEntity
  8
_U+30EC_U+30A4_U+30E4_U+30FC 1
 62
   179
420
  2234388
370
    25
  0
POLYLINE
  5
F7
330
43
100
AcDbEntity
  8
_U+30EC_U+30A4_U+30E4_U+30FC 1
 62
   179
420
  2234388
370
    25
100
AcDb2dPolyline
 66
     1
 10
0.0
 20
0.0
 30
0.0
  0
VERTEX
  5
F8
330
F7
100
AcDbEntity
  8
_U+30EC_U+30A4_U+30E4_U+30FC 1
 62
   179
420
  2234388
370
    25
100
AcDbVertex
100
AcDb2dVertex
 10
86.73821084267944
 20
-140.9546894092057
 30
0.0
  0
VERTEX
  5
F9
330
F7
100
AcDbEntity
  8
_U+30EC_U+30A4_U+30E4_U+30FC 1
 62
   179
420
  2234388
370
    25
100
AcDbVertex
100
AcDb2dVertex
 10
87.73798303939535
 20
-140.9546894092057
 30
0.0
  0
SEQEND
  5
FA
330
F7
100
AcDbEntity
  8
_U+30EC_U+30A4_U+30E4_U+30FC 1
 62
   179
420
  2234388
370
    25
  0
POLYLINE
  5
FB
330
43
100
AcDbEntity
  8
_U+30EC_U+30A4_U+30E4_U+30FC 1
 62
   179
420
  2234388
370
    25
100
AcDb2dPolyline
 66
     1
 10
0.0
 20
0.0
 30
0.0
  0
VERTEX
  5
FC
330
FB
100
AcDbEntity
  8
_U+30EC_U+30A4_U+30E4_U+30FC 1
 62
   179
420
  2234388
370
    25
100
AcDbVertex
100
AcDb2dVertex
 10
82.7632520552002
 20
-145.054708019292
 30
0.0
  0
VERTEX
  5
FD
330
FB
100
AcDbEntity
  8
_U+30EC_U+30A4_U+30E4_U+30FC 1
 62
   179
420
  2234388
370
    25
100
AcDbVertex
100
AcDb2dVertex
 10
87.61324082035557
 20
-145.054708019292
 30
0.0
  0
SEQEND
  5
FE
330
FB
100
AcDbEntity
  8
_U+30EC_U+30A4_U+30E4_U+30FC 1
 62
   179
420
  2234388
370
    25
  0
SPLINE
  5
FF
330
43
100
AcDbEntity
  8
_U+30EC_U+30A4_U+30E4_U+30FC 1
 62
   179
420
  2234388
370
    25
100
AcDbSpline
210
0.0
220
0.0
230
1.0
 70
     8
 71
     3
 72
     8
 73
     4
 74
     0
 42
0.0000000001
 43
0.0000000001
 12
1.0
 22
0.0
 32
0.0
 13
1.0
 23
0.0
 33
0.0
 40
0.0
 40
0.0
 40
0.0
 40
0.0
 40
1.0
 40
1.0
 40
1.0
 40
1.0
 10
106.6629228343577
 20
-122.329821913862
 30
0.0
 10
106.7734860844181
 20
-122.329821913862
 30
0.0
 10
106.8630536625853
 20
-122.2402516361067
 30
0.0
 10
106.8630536625853
 20
-122.1300085805787
 30
0.0
  0
SPLINE
  5
100
330
43
100
AcDbEntity
  8
_U+30EC_U+30A4_U+30E4_U+30FC 1
 62
   179
420
  2234388
370
    25
100
AcDbSpline
210
0.0
220
0.0
230
1.0
 70
     8
 71
     3
 72
     8
 73
     4
 74
     0
 42
0.0000000001
 43
0.0000000001
 12
1.0
 22
0.0
 32
0.0
 13
1.0
 23
0.0
 33
0.0
 40
0.0
 40
0.0
 40
0.0
 40
0.0
 40
1.0
 40
1.0
 40
1.0
 40
1.0
 10
104.8128856593338
 20
-121.0799655252854
 30
0.0
 10
104.647185941339
 20
-121.0799655252854
 30
0.0
 10
104.5131656669803
 20
-121.2143033030296
 30
0.0
 10
104.5131656669803
 20
-121.3796855252107
 30
0.0
  0
SPLINE
  5
101
330
43
100
AcDbEntity
  8
_U+30EC_U+30A4_U+30E4_U+30FC 1
 62
   179
420
  2234388
370
    25
100
AcDbSpline
210
0.0
220
0.0
230
1.0
 70
     8
 71
     3
 72
     8
 73
     4
 74
     0
 42
0.0000000001
 43
0.0000000001
 12
1.0
 22
0.0
 32
0.0
 13
1.0
 23
0.0
 33
0.0
 40
0.0
 40
0.0
 40
0.0
 40
0.0
 40
1.0
 40
1.0
 40
1.0
 40
1.0
 10
106.8630536625853
 20
-121.279778858569
 30
0.0
 10
106.8630536625853
 20
-121.169535803041
 30
0.0
 10
106.7734860844181
 20
-121.0799655252854
 30
0.0
 10
106.6629228343577
 20
-121.0799655252854
 30
0.0
  0
SPLINE
  5
102
330
43
100
AcDbEntity
  8
_U+30EC_U+30A4_U+30E4_U+30FC 1
 62
   179
420
  2234388
370
     9
100
AcDbSpline
210
0.0
220
0.0
230
1.0
 70
    11
 71
     3
 72
    17
 73
    13
 74
     0
 42
0.0000000001
 43
0.0000000001
 12
1.0
 22
0.0
 32
0.0
 13
1.0
 23
0.0
 33
0.0
 40
0.0
 40
0.0
 40
0.0
 40
0.0
 40
1.0
 40
1.0
 40
1.0
 40
2.0
 40
2.0
 40
2.0
 40
3.0
 40
3.0
 40
3.0
 40
4.0
 40
4.0
 40
4.0
 40
4.0
 10
108.7130908376091
 20
-114.3547863603003
 30
0.0
 10
108.7130908376091
 20
-114.2992944158695
 30
0.0
 10
108.6682880609743
 20
-114.2548796936584
 30
0.0
 10
108.6131841734913
 20
-114.2548796936584
 30
0.0
 10
108.5577275082394
 20
-114.2548796936584
 30
0.0
 10
108.5129247316047
 20
-114.2992944158695
 30
0.0
 10
108.5129247316047
 20
-114.3547863603003
 30
0.0
 10
108.5129247316047
 20
-114.410243026953
 30
0.0
 10
108.5577275082394
 20
-114.4550458047197
 30
0.0
 10
108.6131841734913
 20
-114.4550458047197
 30
0.0
 10
108.6682880609743
 20
-114.4550458047197
 30
0.0
 10
108.7130908376091
 20
-114.410243026953
 30
0.0
 10
108.7130908376091
 20
-114.3547863603003
 30
0.0
  0
SPLINE
  5
103
330
43
100
AcDbEntity
  8
_U+30EC_U+30A4_U+30E4_U+30FC 1
 62
   179
420
  2234388
370
     9
100
AcDbSpline
210
0.0
220
0.0
230
1.0
 70
    11
 71
     3
 72
    17
 73
    13
 74
     0
 42
0.0000000001
 43
0.0000000001
 12
1.0
 22
0.0
 32
0.0
 13
1.0
 23
0.0
 33
0.0
 40
0.0
 40
0.0
 40
0.0
 40
0.0
 40
1.0
 40
1.0
 40
1.0
 40
2.0
 40
2.0
 40
2.0
 40
3.0
 40
3.0
 40
3.0
 40
4.0
 40
4.0
 40
4.0
 40
4.0
 10
113.5630796027645
 20
-119.2047752479766
 30
0.0
 10
113.5630796027645
 20
-119.1493185813239
 30
0.0
 10
113.5183121039066
 20
-119.1048685813349
 30
0.0
 10
113.4631729386466
 20
-119.1048685813349
 30
0.0
 10
113.4077162733948
 20
-119.1048685813349
 30
0.0
 10
113.3629487745369
 20
-119.1493185813239
 30
0.0
 10
113.3629487745369
 20
-119.2047752479766
 30
0.0
 10
113.3629487745369
 20
-119.2602319146292
 30
0.0
 10
113.4077162733948
 20
-119.305034692396
 30
0.0
 10
113.4631729386466
 20
-119.305034692396
 30
0.0
 10
113.5183121039066
 20
-119.305034692396
 30
0.0
 10
113.5630796027645
 20
-119.2602319146292
 30
0.0
 10
113.5630796027645
 20
-119.2047752479766
 30
0.0
  0
SPLINE
  5
104
330
43
100
AcDbEntity
  8
_U+30EC_U+30A4_U+30E4_U+30FC 1
 62
   179
420
  2234388
370
     9
100
AcDbSpline
210
0.0
220
0.0
230
1.0
 70
    11
 71
     3
 72
    17
 73
    13
 74
     0
 42
0.0000000001
 43
0.0000000001
 12
1.0
 22
0.0
 32
0.0
 13
1.0
 23
0.0
 33
0.0
 40
0.0
 40
0.0
 40
0.0
 40
0.0
 40
1.0
 40
1.0
 40
1.0
 40
2.0
 40
2.0
 40
2.0
 40
3.0
 40
3.0
 40
3.0
 40
4.0
 40
4.0
 40
4.0
 40
4.0
 10
113.5630796027645
 20
-123.2048871914209
 30
0.0
 10
113.5630796027645
 20
-123.1497480247681
 30
0.0
 10
113.5183121039066
 20
-123.1049805247793
 30
0.0
 10
113.4631729386466
 20
-123.1049805247793
 30
0.0
 10
113.4077162733948
 20
-123.1049805247793
 30
0.0
 10
113.3629487745369
 20
-123.1497480247681
 30
0.0
 10
113.3629487745369
 20
-123.2048871914209
 30
0.0
 10
113.3629487745369
 20
-123.2599910802961
 30
0.0
 10
113.4077162733948
 20
-123.3047938580629
 30
0.0
 10
113.4631729386466
 20
-123.3047938580629
 30
0.0
 10
113.5183121039066
 20
-123.3047938580629
 30
0.0
 10
113.5630796027645
 20
-123.2599910802961
 30
0.0
 10
113.5630796027645
 20
-123.2048871914209
 30
0.0
  0
SPLINE
  5
105
330
43
100
AcDbEntity
  8
_U+30EC_U+30A4_U+30E4_U+30FC 1
 62
   179
420
  2234388
370
    25
100
AcDbSpline
210
0.0
220
0.0
230
1.0
 70
     8
 71
     3
 72
     8
 73
     4
 74
     0
 42
0.0000000001
 43
0.0000000001
 12
1.0
 22
0.0
 32
0.0
 13
1.0
 23
0.0
 33
0.0
 40
0.0
 40
0.0
 40
0.0
 40
0.0
 40
1.0
 40
1.0
 40
1.0
 40
1.0
 10
85.01288060891851
 20
-119.2047752479766
 30
0.0
 10
84.2398055344956
 20
-119.2047752479766
 30
0.0
 10
83.61281147797058
 20
-119.8314496922643
 30
0.0
 10
83.61281147797058
 20
-120.6048796920709
 30
0.0
  0
SPLINE
  5
106
330
43
100
AcDbEntity
  8
_U+30EC_U+30A4_U+30E4_U+30FC 1
 62
   179
420
  2234388
370
    25
100
AcDbSpline
210
0.0
220
0.0
230
1.0
 70
     8
 71
     3
 72
     8
 73
     4
 74
     0
 42
0.0000000001
 43
0.0000000001
 12
1.0
 22
0.0
 32
0.0
 13
1.0
 23
0.0
 33
0.0
 40
0.0
 40
0.0
 40
0.0
 40
0.0
 40
1.0
 40
1.0
 40
1.0
 40
1.0
 10
85.01288060891851
 20
-119.8548741367031
 30
0.0
 10
84.59879006392728
 20
-119.8548741367031
 30
0.0
 10
84.26322785026596
 20
-120.1904363588412
 30
0.0
 10
84.26322785026596
 20
-120.6048796920709
 30
0.0
  0
SPLINE
  5
107
330
43
100
AcDbEntity
  8
_U+30EC_U+30A4_U+30E4_U+30FC 1
 62
   179
420
  2234388
370
    25
100
AcDbSpline
210
0.0
220
0.0
230
1.0
 70
     8
 71
     3
 72
     8
 73
     4
 74
     0
 42
0.0000000001
 43
0.0000000001
 12
1.0
 22
0.0
 32
0.0
 13
1.0
 23
0.0
 33
0.0
 40
0.0
 40
0.0
 40
0.0
 40
0.0
 40
1.0
 40
1.0
 40
1.0
 40
1.0
 10
84.01314368997947
 20
-118.3548630259668
 30
0.0
 10
83.3227223187047
 20
-118.3548630259668
 30
0.0
 10
82.7632520552002
 20
-118.9143685813826
 30
0.0
 10
82.7632520552002
 20
-119.6047546923209
 30
0.0
  0
SPLINE
  5
108
330
43
100
AcDbEntity
  8
_U+30EC_U+30A4_U+30E4_U+30FC 1
 62
   179
420
  2234388
370
    25
100
AcDbSpline
210
0.0
220
0.0
230
1.0
 70
     8
 71
     3
 72
     8
 73
     4
 74
     0
 42
0.0000000001
 43
0.0000000001
 12
1.0
 22
0.0
 32
0.0
 13
1.0
 23
0.0
 33
0.0
 40
0.0
 40
0.0
 40
0.0
 40
0.0
 40
1.0
 40
1.0
 40
1.0
 40
1.0
 10
85.4879664301314
 20
-142.2548871866587
 30
0.0
 10
85.4879664301314
 20
-142.3651302421867
 30
0.0
 10
85.57753886749462
 20
-142.454700519942
 30
0.0
 10
85.68813253613584
 20
-142.454700519942
 30
0.0
  0
SPLINE
  5
109
330
43
100
AcDbEntity
  8
_U+30EC_U+30A4_U+30E4_U+30FC 1
 62
   179
420
  2234388
370
    25
100
AcDbSpline
210
0.0
220
0.0
230
1.0
 70
     8
 71
     3
 72
     8
 73
     4
 74
     0
 42
0.0000000001
 43
0.0000000001
 12
1.0
 22
0.0
 32
0.0
 13
1.0
 23
0.0
 33
0.0
 40
0.0
 40
0.0
 40
0.0
 40
0.0
 40
1.0
 40
1.0
 40
1.0
 40
1.0
 10
86.53804473667499
 20
-142.454700519942
 30
0.0
 10
86.64864056718679
 20
-142.454700519942
 30
0.0
 10
86.73821084267944
 20
-142.3651302421867
 30
0.0
 10
86.73821084267944
 20
-142.2548871866587
 30
0.0
  0
SPLINE
  5
10A
330
43
100
AcDbEntity
  8
_U+30EC_U+30A4_U+30E4_U+30FC 1
 62
   179
420
  2234388
370
    25
100
AcDbSpline
210
0.0
220
0.0
230
1.0
 70
     8
 71
     3
 72
     8
 73
     4
 74
     0
 42
0.0000000001
 43
0.0000000001
 12
1.0
 22
0.0
 32
0.0
 13
1.0
 23
0.0
 33
0.0
 40
0.0
 40
0.0
 40
0.0
 40
0.0
 40
1.0
 40
1.0
 40
1.0
 40
1.0
 10
85.78803920025368
 20
-140.1048124649735
 30
0.0
 10
85.62234164526103
 20
-140.1048124649735
 30
0.0
 10
85.4879664301314
 20
-140.239150242718
 30
0.0
 10
85.4879664301314
 20
-140.4048499648987
 30
0.0
  0
SPLINE
  5
10B
330
43
100
AcDbEntity
  8
_U+30EC_U+30A4_U+30E4_U+30FC 1
 62
   179
420
  2234388
370
     9
100
AcDbSpline
210
0.0
220
0.0
230
1.0
 70
    11
 71
     3
 72
    17
 73
    13
 74
     0
 42
0.0000000001
 43
0.0000000001
 12
1.0
 22
0.0
 32
0.0
 13
1.0
 23
0.0
 33
0.0
 40
0.0
 40
0.0
 40
0.0
 40
0.0
 40
1.0
 40
1.0
 40
1.0
 40
2.0
 40
2.0
 40
2.0
 40
3.0
 40
3.0
 40
3.0
 40
4.0
 40
4.0
 40
4.0
 40
4.0
 10
83.71307091985719
 20
-114.3547863603003
 30
0.0
 10
83.71307091985719
 20
-114.2992944158695
 30
0.0
 10
83.66826814322242
 20
-114.2548796936584
 30
0.0
 10
83.61281147797058
 20
-114.2548796936584
 30
0.0
 10
83.55767231271062
 20
-114.2548796936584
 30
0.0
 10
83.51290481385274
 20
-114.2992944158695
 30
0.0
 10
83.51290481385274
 20
-114.3547863603003
 30
0.0
 10
83.51290481385274
 20
-114.410243026953
 30
0.0
 10
83.55767231271062
 20
-114.4550458047197
 30
0.0
 10
83.61281147797058
 20
-114.4550458047197
 30
0.0
 10
83.66826814322242
 20
-114.4550458047197
 30
0.0
 10
83.71307091985719
 20
-114.410243026953
 30
0.0
 10
83.71307091985719
 20
-114.3547863603003
 30
0.0
  0
INSERT
  5
10D
330
43
100
AcDbEntity
  8
_U+30EC_U+30A4_U+30E4_U+30FC 1
100
AcDbBlockReference
  2
block 3
 10
0.0
 20
0.0
 30
0.0
  0
POLYLINE
  5
12A
330
43
100
AcDbEntity
  8
_U+30EC_U+30A4_U+30E4_U+30FC 1
 62
   179
420
  2234388
370
     9
100
AcDb2dPolyline
 66
     1
 10
0.0
 20
0.0
 30
0.0
  0
VERTEX
  5
12B
330
12A
100
AcDbEntity
  8
_U+30EC_U+30A4_U+30E4_U+30FC 1
 62
   179
420
  2234388
370
     9
100
AcDbVertex
100
AcDb2dVertex
 10
113.4631729386466
 20
-119.2047752479766
 30
0.0
  0
VERTEX
  5
12C
330
12A
100
AcDbEntity
  8
_U+30EC_U+30A4_U+30E4_U+30FC 1
 62
   179
420
  2234388
370
     9
100
AcDbVertex
100
AcDb2dVertex
 10
113.4631729386466
 20
-123.2048871914209
 30
0.0
  0
SEQEND
  5
12D
330
12A
100
AcDbEntity
  8
_U+30EC_U+30A4_U+30E4_U+30FC 1
 62
   179
420
  2234388
370
     9
  0
POLYLINE
  5
12E
330
43
100
AcDbEntity
  8
_U+30EC_U+30A4_U+30E4_U+30FC 1
 62
   179
420
  2234388
370
     9
100
AcDb2dPolyline
 66
     1
 10
0.0
 20
0.0
 30
0.0
  0
VERTEX
  5
12F
330
12E
100
AcDbEntity
  8
_U+30EC_U+30A4_U+30E4_U+30FC 1
 62
   179
420
  2234388
370
     9
100
AcDbVertex
100
AcDb2dVertex
 10
111.1529018864754
 20
-119.2047752479766
 30
0.0
  0
VERTEX
  5
130
330
12E
100
AcDbEntity
  8
_U+30EC_U+30A4_U+30E4_U+30FC 1
 62
   179
420
  2234388
370
     9
100
AcDbVertex
100
AcDb2dVertex
 10
114.4629451353625
 20
-119.2047752479766
 30
0.0
  0
SEQEND
  5
131
330
12E
100
AcDbEntity
  8
_U+30EC_U+30A4_U+30E4_U+30FC 1
 62
   179
420
  2234388
370
     9
  0
POLYLINE
  5
132
330
43
100
AcDbEntity
  8
_U+30EC_U+30A4_U+30E4_U+30FC 1
 62
   179
420
  2234388
370
     9
100
AcDb2dPolyline
 66
     1
 10
0.0
 20
0.0
 30
0.0
  0
VERTEX
  5
133
330
132
100
AcDbEntity
  8
_U+30EC_U+30A4_U+30E4_U+30FC 1
 62
   179
420
  2234388
370
     9
100
AcDbVertex
100
AcDb2dVertex
 10
111.1529018864754
 20
-123.2048871914209
 30
0.0
  0
VERTEX
  5
134
330
132
100
AcDbEntity
  8
_U+30EC_U+30A4_U+30E4_U+30FC 1
 62
   179
420
  2234388
370
     9
100
AcDbVertex
100
AcDb2dVertex
 10
114.4629451353625
 20
-123.2048871914209
 30
0.0
  0
SEQEND
  5
135
330
132
100
AcDbEntity
  8
_U+30EC_U+30A4_U+30E4_U+30FC 1
 62
   179
420
  2234388
370
     9
  0
INSERT
  5
137
330
43
100
AcDbEntity
  8
_U+30EC_U+30A4_U+30E4_U+30FC 1
100
AcDbBlockReference
  2
block 4
 10
0.0
 20
0.0
 30
0.0
  0
POLYLINE
  5
14F
330
43
100
AcDbEntity
  8
_U+30EC_U+30A4_U+30E4_U+30FC 1
 62
   179
420
  2234388
370
     9
100
AcDb2dPolyline
 66
     1
 10
0.0
 20
0.0
 30
0.0
  0
VERTEX
  5
150
330
14F
100
AcDbEntity
  8
_U+30EC_U+30A4_U+30E4_U+30FC 1
 62
   179
420
  2234388
370
     9
100
AcDbVertex
100
AcDb2dVertex
 10
108.6131841734913
 20
-114.3547863603003
 30
0.0
  0
VERTEX
  5
151
330
14F
100
AcDbEntity
  8
_U+30EC_U+30A4_U+30E4_U+30FC 1
 62
   179
420
  2234388
370
     9
100
AcDbVertex
100
AcDb2dVertex
 10
83.61281147797058
 20
-114.3547863603003
 30
0.0
  0
SEQEND
  5
152
330
14F
100
AcDbEntity
  8
_U+30EC_U+30A4_U+30E4_U+30FC 1
 62
   179
420
  2234388
370
     9
  0
POLYLINE
  5
153
330
43
100
AcDbEntity
  8
_U+30EC_U+30A4_U+30E4_U+30FC 1
 62
   179
420
  2234388
370
     9
100
AcDb2dPolyline
 66
     1
 10
0.0
 20
0.0
 30
0.0
  0
VERTEX
  5
154
330
153
100
AcDbEntity
  8
_U+30EC_U+30A4_U+30E4_U+30FC 1
 62
   179
420
  2234388
370
     9
100
AcDbVertex
100
AcDb2dVertex
 10
108.6131841734913
 20
-116.664704693056
 30
0.0
  0
VERTEX
  5
155
330
153
100
AcDbEntity
  8
_U+30EC_U+30A4_U+30E4_U+30FC 1
 62
   179
420
  2234388
370
     9
100
AcDbVertex
100
AcDb2dVertex
 10
108.6131841734913
 20
-113.3546613605503
 30
0.0
  0
SEQEND
  5
156
330
153
100
AcDbEntity
  8
_U+30EC_U+30A4_U+30E4_U+30FC 1
 62
   179
420
  2234388
370
     9
  0
POLYLINE
  5
157
330
43
100
AcDbEntity
  8
_U+30EC_U+30A4_U+30E4_U+30FC 1
 62
   179
420
  2234388
370
     9
100
AcDb2dPolyline
 66
     1
 10
0.0
 20
0.0
 30
0.0
  0
VERTEX
  5
158
330
157
100
AcDbEntity
  8
_U+30EC_U+30A4_U+30E4_U+30FC 1
 62
   179
420
  2234388
370
     9
100
AcDbVertex
100
AcDb2dVertex
 10
83.61281147797058
 20
-118.0648091371506
 30
0.0
  0
VERTEX
  5
159
330
157
100
AcDbEntity
  8
_U+30EC_U+30A4_U+30E4_U+30FC 1
 62
   179
420
  2234388
370
     9
100
AcDbVertex
100
AcDb2dVertex
 10
83.61281147797058
 20
-113.3546613605503
 30
0.0
  0
SEQEND
  5
15A
330
157
100
AcDbEntity
  8
_U+30EC_U+30A4_U+30E4_U+30FC 1
 62
   179
420
  2234388
370
     9
  0
INSERT
  5
15C
330
43
100
AcDbEntity
  8
_U+30EC_U+30A4_U+30E4_U+30FC 1
100
AcDbBlockReference
  2
block 5
 10
0.0
 20
0.0
 30
0.0
  0
ENDBLK
  5
46
330
43
100
AcDbEntity
  8
0
100
AcDbBlockEnd
  0
BLOCK
  5
10E
330
10C
100
AcDbEntity
  8
0
100
AcDbBlockBegin
  2
block 3
 70
     0
 10
0.0
 20
0.0
 30
0.0
  3
block 3
  1

  0
SPLINE
  5
110
330
10C
100
AcDbEntity
  8
_U+30EC_U+30A4_U+30E4_U+30FC 1
370
     0
100
AcDbSpline
210
0.0
220
0.0
230
1.0
 70
    11
 71
     3
 72
    83
 73
    79
 74
     0
 42
0.0000000001
 43
0.0000000001
 12
1.0
 22
0.0
 32
0.0
 13
1.0
 23
0.0
 33
0.0
 40
0.0
 40
0.0
 40
0.0
 40
0.0
 40
1.0
 40
1.0
 40
1.0
 40
2.0
 40
2.0
 40
2.0
 40
3.0
 40
3.0
 40
3.0
 40
4.0
 40
4.0
 40
4.0
 40
5.0
 40
5.0
 40
5.0
 40
6.0
 40
6.0
 40
6.0
 40
7.0
 40
7.0
 40
7.0
 40
8.0
 40
8.0
 40
8.0
 40
9.0
 40
9.0
 40
9.0
 40
10.0
 40
10.0
 40
10.0
 40
11.0
 40
11.0
 40
11.0
 40
12.0
 40
12.0
 40
12.0
 40
13.0
 40
13.0
 40
13.0
 40
14.0
 40
14.0
 40
14.0
 40
15.0
 40
15.0
 40
15.0
 40
16.0
 40
16.0
 40
16.0
 40
17.0
 40
17.0
 40
17.0
 40
18.0
 40
18.0
 40
18.0
 40
19.0
 40
19.0
 40
19.0
 40
20.0
 40
20.0
 40
20.0
 40
21.0
 40
21.0
 40
21.0
 40
22.0
 40
22.0
 40
22.0
 40
23.0
 40
23.0
 40
23.0
 40
24.0
 40
24.0
 40
24.0
 40
25.0
 40
25.0
 40
25.0
 40
26.0
 40
26.0
 40
26.0
 40
26.0
 10
69.19560409511429
 20
-132.8966254008036
 30
0.0
 10
69.108787688886
 20
-133.15673010994
 30
0.0
 10
69.03471813595313
 20
-133.3069362730969
 30
0.0
 10
68.98183592025454
 20
-133.4023654180383
 30
0.0
 10
69.08983966371713
 20
-133.4805690855535
 30
0.0
 10
69.12997502612029
 20
-133.5143310213089
 30
0.0
 10
69.17011038852345
 20
-133.5460258997732
 30
0.0
 10
69.17011038852345
 20
-133.5460258997732
 30
0.0
 10
69.0178371680754
 20
-133.721725769521
 30
0.0
 10
69.0178371680754
 20
-133.721725769521
 30
0.0
 10
68.98407523231995
 20
-133.6814181523436
 30
0.0
 10
68.94807398449909
 20
-133.639043477875
 30
0.0
 10
68.86987031698392
 20
-133.5715196063641
 30
0.0
 10
68.60321992642558
 20
-133.9077609257245
 30
0.0
 10
68.25836586835207
 20
-134.0431531782948
 30
0.0
 10
68.05321043220545
 20
-134.0962076487676
 30
0.0
 10
68.05321043220545
 20
-134.0962076487676
 30
0.0
 10
67.89663084240084
 20
-133.9143066071464
 30
0.0
 10
67.89663084240084
 20
-133.9143066071464
 30
0.0
 10
67.98758136321145
 20
-133.9036268111421
 30
0.0
 10
68.20979002201005
 20
-133.8781331045513
 30
0.0
 10
68.46782767385527
 20
-133.6814181523436
 30
0.0
 10
68.55671113737472
 20
-133.6118272235415
 30
0.0
 10
68.6371541169553
 20
-133.5332790464778
 30
0.0
 10
68.70485024324046
 20
-133.4443955829584
 30
0.0
 10
68.53759085743158
 20
-133.3303629223966
 30
0.0
 10
68.4318264260344
 20
-133.2752413946326
 30
0.0
 10
68.29006074681638
 20
-133.2225314337083
 30
0.0
 10
68.29006074681638
 20
-133.2225314337083
 30
0.0
 10
68.40013154757011
 20
-133.0892062384291
 30
0.0
 10
68.40013154757011
 20
-133.0892062384291
 30
0.0
 10
68.62647432095102
 20
-133.184290873822
 30
0.0
 10
68.72173121111818
 20
-133.239412401586
 30
0.0
 10
68.81061467463763
 20
-133.2900553052192
 30
0.0
 10
68.93963350056023
 20
-133.0743923278425
 30
0.0
 10
68.97770180567224
 20
-132.8924912862213
 30
0.0
 10
68.99458277354996
 20
-132.8184217332885
 30
0.0
 10
68.99458277354996
 20
-132.8184217332885
 30
0.0
 10
68.39806449027895
 20
-132.8184217332885
 30
0.0
 10
68.39806449027895
 20
-132.8184217332885
 30
0.0
 10
68.29230005888179
 20
-132.9813747497408
 30
0.0
 10
68.12727998513832
 20
-133.1546630526488
 30
0.0
 10
67.97070039533372
 20
-133.2752413946326
 30
0.0
 10
67.97070039533372
 20
-133.2752413946326
 30
0.0
 10
67.77811955770825
 20
-133.1505289380665
 30
0.0
 10
67.77811955770825
 20
-133.1505289380665
 30
0.0
 10
67.90937769569626
 20
-133.087139181138
 30
0.0
 10
68.01927624167574
 20
-132.9665608391542
 30
0.0
 10
68.09127873731747
 20
-132.8880126620905
 30
0.0
 10
68.18222925812806
 20
-132.784659797533
 30
0.0
 10
68.37894421033582
 20
-132.5180094069747
 30
0.0
 10
68.42131888480439
 20
-132.3044134868892
 30
0.0
 10
68.42131888480439
 20
-132.3044134868892
 30
0.0
 10
68.66247556877188
 20
-132.4036322368644
 30
0.0
 10
68.66247556877188
 20
-132.4036322368644
 30
0.0
 10
68.6752224220673
 20
-132.4101779182863
 30
0.0
 10
68.68572996329732
 20
-132.4205132047421
 30
0.0
 10
68.68572996329732
 20
-132.4353271153287
 30
0.0
 10
68.68572996329732
 20
-132.4694335606326
 30
0.0
 10
68.66454262606304
 20
-132.473567675215
 30
0.0
 10
68.59684649977787
 20
-132.4883815858015
 30
0.0
 10
68.57996553190016
 20
-132.5159423496835
 30
0.0
 10
68.50796303625843
 20
-132.6365206916673
 30
0.0
 10
68.49314912567185
 20
-132.6616698887096
 30
0.0
 10
68.49314912567185
 20
-132.6616698887096
 30
0.0
 10
68.7661729428779
 20
-132.6616698887096
 30
0.0
 10
68.7661729428779
 20
-132.6616698887096
 30
0.0
 10
68.80200193592451
 20
-132.6616698887096
 30
0.0
 10
68.96082083779451
 20
-132.653401659545
 30
0.0
 10
68.99251571625882
 20
-132.6492675449627
 30
0.0
 10
69.09828014765598
 20
-132.6385877489584
 30
0.0
 10
69.12997502612029
 20
-132.6151610996587
 30
0.0
 10
69.16166990458458
 20
-132.5962130744898
 30
0.0
 10
69.16166990458458
 20
-132.5962130744898
 30
0.0
 10
69.31618243709804
 20
-132.7633002055244
 30
0.0
 10
69.31618243709804
 20
-132.7633002055244
 30
0.0
 10
69.22299260422203
 20
-132.8163546759973
 30
0.0
 10
69.20817869363546
 20
-132.8563177836262
 30
0.0
 10
69.19560409511429
 20
-132.8966254008036
 30
0.0
  0
SPLINE
  5
111
330
10C
100
AcDbEntity
  8
_U+30EC_U+30A4_U+30E4_U+30FC 1
370
     0
100
AcDbSpline
210
0.0
220
0.0
230
1.0
 70
    11
 71
     3
 72
    17
 73
    13
 74
     0
 42
0.0000000001
 43
0.0000000001
 12
1.0
 22
0.0
 32
0.0
 13
1.0
 23
0.0
 33
0.0
 40
0.0
 40
0.0
 40
0.0
 40
0.0
 40
1.0
 40
1.0
 40
1.0
 40
2.0
 40
2.0
 40
2.0
 40
3.0
 40
3.0
 40
3.0
 40
4.0
 40
4.0
 40
4.0
 40
4.0
 10
69.26743433598176
 20
-132.5645181960255
 30
0.0
 10
69.21248506299202
 20
-132.5073296109704
 30
0.0
 10
69.0770928104217
 20
-132.4036322368644
 30
0.0
 10
69.02421059472312
 20
-132.3719373584001
 30
0.0
 10
69.02421059472312
 20
-132.3719373584001
 30
0.0
 10
69.12360159947258
 20
-132.2641058697118
 30
0.0
 10
69.12360159947258
 20
-132.2641058697118
 30
0.0
 10
69.13841551005915
 20
-132.274785665716
 30
0.0
 10
69.2865546159249
 20
-132.3740044156912
 30
0.0
 10
69.36269122614891
 20
-132.4546196500461
 30
0.0
 10
69.36269122614891
 20
-132.4546196500461
 30
0.0
 10
69.26743433598176
 20
-132.5645181960255
 30
0.0
 10
69.26743433598176
 20
-132.5645181960255
 30
0.0
  0
SPLINE
  5
112
330
10C
100
AcDbEntity
  8
_U+30EC_U+30A4_U+30E4_U+30FC 1
370
     0
100
AcDbSpline
210
0.0
220
0.0
230
1.0
 70
    11
 71
     3
 72
    20
 73
    16
 74
     0
 42
0.0000000001
 43
0.0000000001
 12
1.0
 22
0.0
 32
0.0
 13
1.0
 23
0.0
 33
0.0
 40
0.0
 40
0.0
 40
0.0
 40
0.0
 40
1.0
 40
1.0
 40
1.0
 40
2.0
 40
2.0
 40
2.0
 40
3.0
 40
3.0
 40
3.0
 40
4.0
 40
4.0
 40
4.0
 40
5.0
 40
5.0
 40
5.0
 40
5.0
 10
69.4789631987761
 20
-132.4608208219195
 30
0.0
 10
69.4536417469595
 20
-132.4311930007464
 30
0.0
 10
69.43469372179064
 20
-132.4101779182863
 30
0.0
 10
69.37543807944434
 20
-132.3571234478135
 30
0.0
 10
69.27380776262947
 20
-132.2703070415852
 30
0.0
 10
69.26330022139946
 20
-132.2599717551295
 30
0.0
 10
69.24211288416517
 20
-132.2430907872517
 30
0.0
 10
69.24211288416517
 20
-132.2430907872517
 30
0.0
 10
69.34581025827119
 20
-132.143527527728
 30
0.0
 10
69.34581025827119
 20
-132.143527527728
 30
0.0
 10
69.5065239626581
 20
-132.2641058697118
 30
0.0
 10
69.5445922677701
 20
-132.3064805441803
 30
0.0
 10
69.58059351559096
 20
-132.3571234478135
 30
0.0
 10
69.58059351559096
 20
-132.3571234478135
 30
0.0
 10
69.4789631987761
 20
-132.4608208219195
 30
0.0
 10
69.4789631987761
 20
-132.4608208219195
 30
0.0
  0
HATCH
  5
113
330
10C
100
AcDbEntity
  8
_U+30EC_U+30A4_U+30E4_U+30FC 1
 62
   179
420
  2234388
100
AcDbHatch
 10
0.0
 20
0.0
 30
0.0
210
0.0
220
0.0
230
1.0
  2
SOLID
 70
     1
 71
     0
 91
        3
 92
        1
 93
        1
 72
     4
 94
        3
 73
     0
 74
     1
 95
       83
 96
       79
 40
0.0
 40
0.0
 40
0.0
 40
0.0
 40
1.0
 40
1.0
 40
1.0
 40
2.0
 40
2.0
 40
2.0
 40
3.0
 40
3.0
 40
3.0
 40
4.0
 40
4.0
 40
4.0
 40
5.0
 40
5.0
 40
5.0
 40
6.0
 40
6.0
 40
6.0
 40
7.0
 40
7.0
 40
7.0
 40
8.0
 40
8.0
 40
8.0
 40
9.0
 40
9.0
 40
9.0
 40
10.0
 40
10.0
 40
10.0
 40
11.0
 40
11.0
 40
11.0
 40
12.0
 40
12.0
 40
12.0
 40
13.0
 40
13.0
 40
13.0
 40
14.0
 40
14.0
 40
14.0
 40
15.0
 40
15.0
 40
15.0
 40
16.0
 40
16.0
 40
16.0
 40
17.0
 40
17.0
 40
17.0
 40
18.0
 40
18.0
 40
18.0
 40
19.0
 40
19.0
 40
19.0
 40
20.0
 40
20.0
 40
20.0
 40
21.0
 40
21.0
 40
21.0
 40
22.0
 40
22.0
 40
22.0
 40
23.0
 40
23.0
 40
23.0
 40
24.0
 40
24.0
 40
24.0
 40
25.0
 40
25.0
 40
25.0
 40
26.0
 40
26.0
 40
26.0
 40
26.0
 10
69.19560409511429
 20
-132.8966254008036
 10
69.108787688886
 20
-133.15673010994
 10
69.03471813595313
 20
-133.3069362730969
 10
68.98183592025454
 20
-133.4023654180383
 10
69.08983966371713
 20
-133.4805690855535
 10
69.12997502612029
 20
-133.5143310213089
 10
69.17011038852345
 20
-133.5460258997732
 10
69.17011038852345
 20
-133.5460258997732
 10
69.0178371680754
 20
-133.721725769521
 10
69.0178371680754
 20
-133.721725769521
 10
68.98407523231995
 20
-133.6814181523436
 10
68.94807398449909
 20
-133.639043477875
 10
68.86987031698392
 20
-133.5715196063641
 10
68.60321992642558
 20
-133.9077609257245
 10
68.25836586835207
 20
-134.0431531782948
 10
68.05321043220545
 20
-134.0962076487676
 10
68.05321043220545
 20
-134.0962076487676
 10
67.89663084240084
 20
-133.9143066071464
 10
67.89663084240084
 20
-133.9143066071464
 10
67.98758136321145
 20
-133.9036268111421
 10
68.20979002201005
 20
-133.8781331045513
 10
68.46782767385527
 20
-133.6814181523436
 10
68.55671113737472
 20
-133.6118272235415
 10
68.6371541169553
 20
-133.5332790464778
 10
68.70485024324046
 20
-133.4443955829584
 10
68.53759085743158
 20
-133.3303629223966
 10
68.4318264260344
 20
-133.2752413946326
 10
68.29006074681638
 20
-133.2225314337083
 10
68.29006074681638
 20
-133.2225314337083
 10
68.40013154757011
 20
-133.0892062384291
 10
68.40013154757011
 20
-133.0892062384291
 10
68.62647432095102
 20
-133.184290873822
 10
68.72173121111818
 20
-133.239412401586
 10
68.81061467463763
 20
-133.2900553052192
 10
68.93963350056023
 20
-133.0743923278425
 10
68.97770180567224
 20
-132.8924912862213
 10
68.99458277354996
 20
-132.8184217332885
 10
68.99458277354996
 20
-132.8184217332885
 10
68.39806449027895
 20
-132.8184217332885
 10
68.39806449027895
 20
-132.8184217332885
 10
68.29230005888179
 20
-132.9813747497408
 10
68.12727998513832
 20
-133.1546630526488
 10
67.97070039533372
 20
-133.2752413946326
 10
67.97070039533372
 20
-133.2752413946326
 10
67.77811955770825
 20
-133.1505289380665
 10
67.77811955770825
 20
-133.1505289380665
 10
67.90937769569626
 20
-133.087139181138
 10
68.01927624167574
 20
-132.9665608391542
 10
68.09127873731747
 20
-132.8880126620905
 10
68.18222925812806
 20
-132.784659797533
 10
68.37894421033582
 20
-132.5180094069747
 10
68.42131888480439
 20
-132.3044134868892
 10
68.42131888480439
 20
-132.3044134868892
 10
68.66247556877188
 20
-132.4036322368644
 10
68.66247556877188
 20
-132.4036322368644
 10
68.6752224220673
 20
-132.4101779182863
 10
68.68572996329732
 20
-132.4205132047421
 10
68.68572996329732
 20
-132.4353271153287
 10
68.68572996329732
 20
-132.4694335606326
 10
68.66454262606304
 20
-132.473567675215
 10
68.59684649977787
 20
-132.4883815858015
 10
68.57996553190016
 20
-132.5159423496835
 10
68.50796303625843
 20
-132.6365206916673
 10
68.49314912567185
 20
-132.6616698887096
 10
68.49314912567185
 20
-132.6616698887096
 10
68.7661729428779
 20
-132.6616698887096
 10
68.7661729428779
 20
-132.6616698887096
 10
68.80200193592451
 20
-132.6616698887096
 10
68.96082083779451
 20
-132.653401659545
 10
68.99251571625882
 20
-132.6492675449627
 10
69.09828014765598
 20
-132.6385877489584
 10
69.12997502612029
 20
-132.6151610996587
 10
69.16166990458458
 20
-132.5962130744898
 10
69.16166990458458
 20
-132.5962130744898
 10
69.31618243709804
 20
-132.7633002055244
 10
69.31618243709804
 20
-132.7633002055244
 10
69.22299260422203
 20
-132.8163546759973
 10
69.20817869363546
 20
-132.8563177836262
 10
69.19560409511429
 20
-132.8966254008036
 97
        0
 97
        0
 92
        1
 93
        1
 72
     4
 94
        3
 73
     0
 74
     1
 95
       17
 96
       13
 40
0.0
 40
0.0
 40
0.0
 40
0.0
 40
1.0
 40
1.0
 40
1.0
 40
2.0
 40
2.0
 40
2.0
 40
3.0
 40
3.0
 40
3.0
 40
4.0
 40
4.0
 40
4.0
 40
4.0
 10
69.26743433598176
 20
-132.5645181960255
 10
69.21248506299202
 20
-132.5073296109704
 10
69.0770928104217
 20
-132.4036322368644
 10
69.02421059472312
 20
-132.3719373584001
 10
69.02421059472312
 20
-132.3719373584001
 10
69.12360159947258
 20
-132.2641058697118
 10
69.12360159947258
 20
-132.2641058697118
 10
69.13841551005915
 20
-132.274785665716
 10
69.2865546159249
 20
-132.3740044156912
 10
69.36269122614891
 20
-132.4546196500461
 10
69.36269122614891
 20
-132.4546196500461
 10
69.26743433598176
 20
-132.5645181960255
 10
69.26743433598176
 20
-132.5645181960255
 97
        0
 97
        0
 92
        1
 93
        1
 72
     4
 94
        3
 73
     0
 74
     1
 95
       20
 96
       16
 40
0.0
 40
0.0
 40
0.0
 40
0.0
 40
1.0
 40
1.0
 40
1.0
 40
2.0
 40
2.0
 40
2.0
 40
3.0
 40
3.0
 40
3.0
 40
4.0
 40
4.0
 40
4.0
 40
5.0
 40
5.0
 40
5.0
 40
5.0
 10
69.4789631987761
 20
-132.4608208219195
 10
69.4536417469595
 20
-132.4311930007464
 10
69.43469372179064
 20
-132.4101779182863
 10
69.37543807944434
 20
-132.3571234478135
 10
69.27380776262947
 20
-132.2703070415852
 10
69.26330022139946
 20
-132.2599717551295
 10
69.24211288416517
 20
-132.2430907872517
 10
69.24211288416517
 20
-132.2430907872517
 10
69.34581025827119
 20
-132.143527527728
 10
69.34581025827119
 20
-132.143527527728
 10
69.5065239626581
 20
-132.2641058697118
 10
69.5445922677701
 20
-132.3064805441803
 10
69.58059351559096
 20
-132.3571234478135
 10
69.58059351559096
 20
-132.3571234478135
 10
69.4789631987761
 20
-132.4608208219195
 10
69.4789631987761
 20
-132.4608208219195
 97
        0
 97
        0
 75
     2
 76
     1
 98
        0
  0
SPLINE
  5
114
330
10C
100
AcDbEntity
  8
_U+30EC_U+30A4_U+30E4_U+30FC 1
370
     0
100
AcDbSpline
210
0.0
220
0.0
230
1.0
 70
    11
 71
     3
 72
    50
 73
    46
 74
     0
 42
0.0000000001
 43
0.0000000001
 12
1.0
 22
0.0
 32
0.0
 13
1.0
 23
0.0
 33
0.0
 40
0.0
 40
0.0
 40
0.0
 40
0.0
 40
1.0
 40
1.0
 40
1.0
 40
2.0
 40
2.0
 40
2.0
 40
3.0
 40
3.0
 40
3.0
 40
4.0
 40
4.0
 40
4.0
 40
5.0
 40
5.0
 40
5.0
 40
6.0
 40
6.0
 40
6.0
 40
7.0
 40
7.0
 40
7.0
 40
8.0
 40
8.0
 40
8.0
 40
9.0
 40
9.0
 40
9.0
 40
10.0
 40
10.0
 40
10.0
 40
11.0
 40
11.0
 40
11.0
 40
12.0
 40
12.0
 40
12.0
 40
13.0
 40
13.0
 40
13.0
 40
14.0
 40
14.0
 40
14.0
 40
15.0
 40
15.0
 40
15.0
 40
15.0
 10
71.12158472614321
 20
-132.7591660909422
 30
0.0
 10
71.01788735203719
 20
-133.1167670023111
 30
0.0
 10
70.92056340457889
 20
-133.4361273537938
 30
0.0
 10
70.6137776516174
 20
-133.7324055655252
 30
0.0
 10
70.45513100452163
 20
-133.8826117286821
 30
0.0
 10
70.2711629056093
 20
-134.0007785038262
 30
0.0
 10
70.06807452675382
 20
-134.0769151140502
 30
0.0
 10
70.06807452675382
 20
-134.0769151140502
 30
0.0
 10
69.89668102636264
 20
-133.8929470151379
 30
0.0
 10
69.89668102636264
 20
-133.8929470151379
 30
0.0
 10
70.20984020597184
 20
-133.7916612078715
 30
0.0
 10
70.38743487823648
 20
-133.6752169804701
 30
0.0
 10
70.56520180527536
 20
-133.4657551749669
 30
0.0
 10
70.79154457865629
 20
-133.1991047844086
 30
0.0
 10
70.85493433558489
 20
-132.9665608391542
 30
0.0
 10
70.8952419527623
 20
-132.7422851230644
 30
0.0
 10
70.8952419527623
 20
-132.7422851230644
 30
0.0
 10
70.1250908570347
 20
-132.7422851230644
 30
0.0
 10
70.1250908570347
 20
-132.7422851230644
 30
0.0
 10
70.05963404281495
 20
-132.7422851230644
 30
0.0
 10
69.82467853072092
 20
-132.7591660909422
 30
0.0
 10
69.73803437926688
 20
-132.7653672628156
 30
0.0
 10
69.72528752597145
 20
-132.7653672628156
 30
0.0
 10
69.70410018873717
 20
-132.7674343201068
 30
0.0
 10
69.69772676208946
 20
-132.7674343201068
 30
0.0
 10
69.69772676208946
 20
-132.7674343201068
 30
0.0
 10
69.69772676208946
 20
-132.5455701708567
 30
0.0
 10
69.69772676208946
 20
-132.5455701708567
 30
0.0
 10
69.80986462013435
 20
-132.5624511387344
 30
0.0
 10
70.01725936834639
 20
-132.5665852533167
 30
0.0
 10
70.12733016910012
 20
-132.5665852533167
 30
0.0
 10
70.12733016910012
 20
-132.5665852533167
 30
0.0
 10
70.56726886256652
 20
-132.5665852533167
 30
0.0
 10
70.56726886256652
 20
-132.5665852533167
 30
0.0
 10
70.67303329396368
 20
-132.5665852533167
 30
0.0
 10
70.88886852611459
 20
-132.5538384000213
 30
0.0
 10
70.90781655128346
 20
-132.549704285439
 30
0.0
 10
70.9310709458089
 20
-132.5455701708567
 30
0.0
 10
70.94175074181318
 20
-132.5390244894347
 30
0.0
 10
70.98825953086406
 20
-132.5073296109704
 30
0.0
 10
70.98825953086406
 20
-132.5073296109704
 30
0.0
 10
71.1744669418418
 20
-132.6513346022538
 30
0.0
 10
71.1744669418418
 20
-132.6513346022538
 30
0.0
 10
71.1427720633775
 20
-132.6999104485959
 30
0.0
 10
71.1363986367298
 20
-132.708523187309
 30
0.0
 10
71.12158472614321
 20
-132.7591660909422
 30
0.0
  0
SPLINE
  5
115
330
10C
100
AcDbEntity
  8
_U+30EC_U+30A4_U+30E4_U+30FC 1
370
     0
100
AcDbSpline
210
0.0
220
0.0
230
1.0
 70
    11
 71
     3
 72
    17
 73
    13
 74
     0
 42
0.0000000001
 43
0.0000000001
 12
1.0
 22
0.0
 32
0.0
 13
1.0
 23
0.0
 33
0.0
 40
0.0
 40
0.0
 40
0.0
 40
0.0
 40
1.0
 40
1.0
 40
1.0
 40
2.0
 40
2.0
 40
2.0
 40
3.0
 40
3.0
 40
3.0
 40
4.0
 40
4.0
 40
4.0
 40
4.0
 10
70.97981904692519
 20
-132.467021993793
 30
0.0
 10
70.90781655128346
 20
-132.3953640076998
 30
0.0
 10
70.85924070494144
 20
-132.3612575623958
 30
0.0
 10
70.75554333083542
 20
-132.2937336908849
 30
0.0
 10
70.75554333083542
 20
-132.2937336908849
 30
0.0
 10
70.85286727829373
 20
-132.1772894634835
 30
0.0
 10
70.85286727829373
 20
-132.1772894634835
 30
0.0
 10
70.93744437245661
 20
-132.2217311952432
 30
0.0
 10
71.01995440932835
 20
-132.2789197802983
 30
0.0
 10
71.08127710896579
 20
-132.3550563905223
 30
0.0
 10
71.08127710896579
 20
-132.3550563905223
 30
0.0
 10
70.97981904692519
 20
-132.467021993793
 30
0.0
 10
70.97981904692519
 20
-132.467021993793
 30
0.0
  0
SPLINE
  5
116
330
10C
100
AcDbEntity
  8
_U+30EC_U+30A4_U+30E4_U+30FC 1
370
     0
100
AcDbSpline
210
0.0
220
0.0
230
1.0
 70
    11
 71
     3
 72
    20
 73
    16
 74
     0
 42
0.0000000001
 43
0.0000000001
 12
1.0
 22
0.0
 32
0.0
 13
1.0
 23
0.0
 33
0.0
 40
0.0
 40
0.0
 40
0.0
 40
0.0
 40
1.0
 40
1.0
 40
1.0
 40
2.0
 40
2.0
 40
2.0
 40
3.0
 40
3.0
 40
3.0
 40
4.0
 40
4.0
 40
4.0
 40
5.0
 40
5.0
 40
5.0
 40
5.0
 10
71.32243379293328
 20
-132.4418727967507
 30
0.0
 10
71.2971123411167
 20
-132.4056992941555
 30
0.0
 10
71.22097573089268
 20
-132.3295626839315
 30
0.0
 10
71.16809351519409
 20
-132.274785665716
 30
0.0
 10
71.15534666189866
 20
-132.2620388124206
 30
0.0
 10
71.14483912066865
 20
-132.2534260737075
 30
0.0
 10
71.12571884072551
 20
-132.2430907872517
 30
0.0
 10
71.12571884072551
 20
-132.2430907872517
 30
0.0
 10
71.2337225841881
 20
-132.143527527728
 30
0.0
 10
71.2337225841881
 20
-132.143527527728
 30
0.0
 10
71.33518064622871
 20
-132.2089843419478
 30
0.0
 10
71.37755532069728
 20
-132.2579046978383
 30
0.0
 10
71.43043753639587
 20
-132.3423095372269
 30
0.0
 10
71.43043753639587
 20
-132.3423095372269
 30
0.0
 10
71.32243379293328
 20
-132.4418727967507
 30
0.0
 10
71.32243379293328
 20
-132.4418727967507
 30
0.0
  0
HATCH
  5
117
330
10C
100
AcDbEntity
  8
_U+30EC_U+30A4_U+30E4_U+30FC 1
 62
   179
420
  2234388
100
AcDbHatch
 10
0.0
 20
0.0
 30
0.0
210
0.0
220
0.0
230
1.0
  2
SOLID
 70
     1
 71
     0
 91
        3
 92
        1
 93
        1
 72
     4
 94
        3
 73
     0
 74
     1
 95
       50
 96
       46
 40
0.0
 40
0.0
 40
0.0
 40
0.0
 40
1.0
 40
1.0
 40
1.0
 40
2.0
 40
2.0
 40
2.0
 40
3.0
 40
3.0
 40
3.0
 40
4.0
 40
4.0
 40
4.0
 40
5.0
 40
5.0
 40
5.0
 40
6.0
 40
6.0
 40
6.0
 40
7.0
 40
7.0
 40
7.0
 40
8.0
 40
8.0
 40
8.0
 40
9.0
 40
9.0
 40
9.0
 40
10.0
 40
10.0
 40
10.0
 40
11.0
 40
11.0
 40
11.0
 40
12.0
 40
12.0
 40
12.0
 40
13.0
 40
13.0
 40
13.0
 40
14.0
 40
14.0
 40
14.0
 40
15.0
 40
15.0
 40
15.0
 40
15.0
 10
71.12158472614321
 20
-132.7591660909422
 10
71.01788735203719
 20
-133.1167670023111
 10
70.92056340457889
 20
-133.4361273537938
 10
70.6137776516174
 20
-133.7324055655252
 10
70.45513100452163
 20
-133.8826117286821
 10
70.2711629056093
 20
-134.0007785038262
 10
70.06807452675382
 20
-134.0769151140502
 10
70.06807452675382
 20
-134.0769151140502
 10
69.89668102636264
 20
-133.8929470151379
 10
69.89668102636264
 20
-133.8929470151379
 10
70.20984020597184
 20
-133.7916612078715
 10
70.38743487823648
 20
-133.6752169804701
 10
70.56520180527536
 20
-133.4657551749669
 10
70.79154457865629
 20
-133.1991047844086
 10
70.85493433558489
 20
-132.9665608391542
 10
70.8952419527623
 20
-132.7422851230644
 10
70.8952419527623
 20
-132.7422851230644
 10
70.1250908570347
 20
-132.7422851230644
 10
70.1250908570347
 20
-132.7422851230644
 10
70.05963404281495
 20
-132.7422851230644
 10
69.82467853072092
 20
-132.7591660909422
 10
69.73803437926688
 20
-132.7653672628156
 10
69.72528752597145
 20
-132.7653672628156
 10
69.70410018873717
 20
-132.7674343201068
 10
69.69772676208946
 20
-132.7674343201068
 10
69.69772676208946
 20
-132.7674343201068
 10
69.69772676208946
 20
-132.5455701708567
 10
69.69772676208946
 20
-132.5455701708567
 10
69.80986462013435
 20
-132.5624511387344
 10
70.01725936834639
 20
-132.5665852533167
 10
70.12733016910012
 20
-132.5665852533167
 10
70.12733016910012
 20
-132.5665852533167
 10
70.56726886256652
 20
-132.5665852533167
 10
70.56726886256652
 20
-132.5665852533167
 10
70.67303329396368
 20
-132.5665852533167
 10
70.88886852611459
 20
-132.5538384000213
 10
70.90781655128346
 20
-132.549704285439
 10
70.9310709458089
 20
-132.5455701708567
 10
70.94175074181318
 20
-132.5390244894347
 10
70.98825953086406
 20
-132.5073296109704
 10
70.98825953086406
 20
-132.5073296109704
 10
71.1744669418418
 20
-132.6513346022538
 10
71.1744669418418
 20
-132.6513346022538
 10
71.1427720633775
 20
-132.6999104485959
 10
71.1363986367298
 20
-132.708523187309
 10
71.12158472614321
 20
-132.7591660909422
 97
        0
 97
        0
 92
        1
 93
        1
 72
     4
 94
        3
 73
     0
 74
     1
 95
       17
 96
       13
 40
0.0
 40
0.0
 40
0.0
 40
0.0
 40
1.0
 40
1.0
 40
1.0
 40
2.0
 40
2.0
 40
2.0
 40
3.0
 40
3.0
 40
3.0
 40
4.0
 40
4.0
 40
4.0
 40
4.0
 10
70.97981904692519
 20
-132.467021993793
 10
70.90781655128346
 20
-132.3953640076998
 10
70.85924070494144
 20
-132.3612575623958
 10
70.75554333083542
 20
-132.2937336908849
 10
70.75554333083542
 20
-132.2937336908849
 10
70.85286727829373
 20
-132.1772894634835
 10
70.85286727829373
 20
-132.1772894634835
 10
70.93744437245661
 20
-132.2217311952432
 10
71.01995440932835
 20
-132.2789197802983
 10
71.08127710896579
 20
-132.3550563905223
 10
71.08127710896579
 20
-132.3550563905223
 10
70.97981904692519
 20
-132.467021993793
 10
70.97981904692519
 20
-132.467021993793
 97
        0
 97
        0
 92
        1
 93
        1
 72
     4
 94
        3
 73
     0
 74
     1
 95
       20
 96
       16
 40
0.0
 40
0.0
 40
0.0
 40
0.0
 40
1.0
 40
1.0
 40
1.0
 40
2.0
 40
2.0
 40
2.0
 40
3.0
 40
3.0
 40
3.0
 40
4.0
 40
4.0
 40
4.0
 40
5.0
 40
5.0
 40
5.0
 40
5.0
 10
71.32243379293328
 20
-132.4418727967507
 10
71.2971123411167
 20
-132.4056992941555
 10
71.22097573089268
 20
-132.3295626839315
 10
71.16809351519409
 20
-132.274785665716
 10
71.15534666189866
 20
-132.2620388124206
 10
71.14483912066865
 20
-132.2534260737075
 10
71.12571884072551
 20
-132.2430907872517
 10
71.12571884072551
 20
-132.2430907872517
 10
71.2337225841881
 20
-132.143527527728
 10
71.2337225841881
 20
-132.143527527728
 10
71.33518064622871
 20
-132.2089843419478
 10
71.37755532069728
 20
-132.2579046978383
 10
71.43043753639587
 20
-132.3423095372269
 10
71.43043753639587
 20
-132.3423095372269
 10
71.32243379293328
 20
-132.4418727967507
 10
71.32243379293328
 20
-132.4418727967507
 97
        0
 97
        0
 75
     2
 76
     1
 98
        0
  0
SPLINE
  5
118
330
10C
100
AcDbEntity
  8
_U+30EC_U+30A4_U+30E4_U+30FC 1
370
     0
100
AcDbSpline
210
0.0
220
0.0
230
1.0
 70
    11
 71
     3
 72
    35
 73
    31
 74
     0
 42
0.0000000001
 43
0.0000000001
 12
1.0
 22
0.0
 32
0.0
 13
1.0
 23
0.0
 33
0.0
 40
0.0
 40
0.0
 40
0.0
 40
0.0
 40
1.0
 40
1.0
 40
1.0
 40
2.0
 40
2.0
 40
2.0
 40
3.0
 40
3.0
 40
3.0
 40
4.0
 40
4.0
 40
4.0
 40
5.0
 40
5.0
 40
5.0
 40
6.0
 40
6.0
 40
6.0
 40
7.0
 40
7.0
 40
7.0
 40
8.0
 40
8.0
 40
8.0
 40
9.0
 40
9.0
 40
9.0
 40
10.0
 40
10.0
 40
10.0
 40
10.0
 10
71.82283391216582
 20
-132.473567675215
 30
0.0
 10
71.8205946001004
 20
-132.5369574321435
 30
0.0
 10
71.8205946001004
 20
-132.6723496847139
 30
0.0
 10
71.8205946001004
 20
-132.7378064989336
 30
0.0
 10
71.8205946001004
 20
-132.7378064989336
 30
0.0
 10
71.8205946001004
 20
-133.0447645066694
 30
0.0
 10
71.8205946001004
 20
-133.0447645066694
 30
0.0
 10
71.8205946001004
 20
-133.108154263598
 30
0.0
 10
71.83127439610469
 20
-133.3344970369789
 30
0.0
 10
71.83540851068699
 20
-133.3978867939075
 30
0.0
 10
71.83540851068699
 20
-133.3978867939075
 30
0.0
 10
71.59649113878491
 20
-133.3978867939075
 30
0.0
 10
71.59649113878491
 20
-133.3978867939075
 30
0.0
 10
71.61130504937148
 20
-133.3028021585146
 30
0.0
 10
71.61337210666264
 20
-133.1419161993534
 30
0.0
 10
71.61337210666264
 20
-133.0426974493782
 30
0.0
 10
71.61337210666264
 20
-133.0426974493782
 30
0.0
 10
71.61337210666264
 20
-132.6978433913047
 30
0.0
 10
71.61337210666264
 20
-132.6978433913047
 30
0.0
 10
71.61337210666264
 20
-132.6151610996587
 30
0.0
 10
71.61130504937148
 20
-132.4418727967507
 30
0.0
 10
71.60699868001493
 20
-132.3636691292355
 30
0.0
 10
71.60699868001493
 20
-132.3636691292355
 30
0.0
 10
71.81852754280926
 20
-132.3760714729824
 30
0.0
 10
71.81852754280926
 20
-132.3760714729824
 30
0.0
 10
71.86503633186014
 20
-132.378483039822
 30
0.0
 10
71.88208955451212
 20
-132.390885383569
 30
0.0
 10
71.88208955451212
 20
-132.4163790901598
 30
0.0
 10
71.88208955451212
 20
-132.4377386821683
 30
0.0
 10
71.85246173333897
 20
-132.4566867073372
 30
0.0
 10
71.82283391216582
 20
-132.473567675215
 30
0.0
  0
SPLINE
  5
119
330
10C
100
AcDbEntity
  8
_U+30EC_U+30A4_U+30E4_U+30FC 1
370
     0
100
AcDbSpline
210
0.0
220
0.0
230
1.0
 70
    11
 71
     3
 72
    38
 73
    34
 74
     0
 42
0.0000000001
 43
0.0000000001
 12
1.0
 22
0.0
 32
0.0
 13
1.0
 23
0.0
 33
0.0
 40
0.0
 40
0.0
 40
0.0
 40
0.0
 40
1.0
 40
1.0
 40
1.0
 40
2.0
 40
2.0
 40
2.0
 40
3.0
 40
3.0
 40
3.0
 40
4.0
 40
4.0
 40
4.0
 40
5.0
 40
5.0
 40
5.0
 40
6.0
 40
6.0
 40
6.0
 40
7.0
 40
7.0
 40
7.0
 40
8.0
 40
8.0
 40
8.0
 40
9.0
 40
9.0
 40
9.0
 40
10.0
 40
10.0
 40
10.0
 40
11.0
 40
11.0
 40
11.0
 40
11.0
 10
72.77264673744921
 20
-132.4163790901598
 30
0.0
 10
72.74939234292377
 20
-132.4332600580375
 30
0.0
 10
72.74732528563261
 20
-132.4332600580375
 30
0.0
 10
72.73457843233719
 20
-132.4480739686241
 30
0.0
 10
72.73027206298063
 20
-132.549704285439
 30
0.0
 10
72.72389863633292
 20
-132.9961886603273
 30
0.0
 10
72.71976452175062
 20
-133.0850721238468
 30
0.0
 10
72.71132403781175
 20
-133.2287326055817
 30
0.0
 10
72.69220375786863
 20
-133.5608398103598
 30
0.0
 10
72.43830022060571
 20
-133.7916612078715
 30
0.0
 10
72.40453828485026
 20
-133.8233560863358
 30
0.0
 10
72.19300942205592
 20
-134.0093912425393
 30
0.0
 10
72.00680201107816
 20
-134.081393738181
 30
0.0
 10
72.00680201107816
 20
-134.081393738181
 30
0.0
 10
71.82696802674812
 20
-133.8929470151379
 30
0.0
 10
71.82696802674812
 20
-133.8929470151379
 30
0.0
 10
71.90310463697215
 20
-133.8781331045513
 30
0.0
 10
72.07036402278102
 20
-133.846438226087
 30
0.0
 10
72.26707897498879
 20
-133.673149923179
 30
0.0
 10
72.5187432001863
 20
-133.4550753789626
 30
0.0
 10
72.5187432001863
 20
-133.190836555244
 30
0.0
 10
72.5187432001863
 20
-132.6788953661358
 30
0.0
 10
72.5187432001863
 20
-132.4377386821683
 30
0.0
 10
72.5187432001863
 20
-132.4249918288729
 30
0.0
 10
72.514609085604
 20
-132.3254285693492
 30
0.0
 10
72.514609085604
 20
-132.3254285693492
 30
0.0
 10
72.73251137504604
 20
-132.3402424799358
 30
0.0
 10
72.73251137504604
 20
-132.3402424799358
 30
0.0
 10
72.75576576957148
 20
-132.3423095372269
 30
0.0
 10
72.78952770532693
 20
-132.3443765945181
 30
0.0
 10
72.78952770532693
 20
-132.3826171544044
 30
0.0
 10
72.78952770532693
 20
-132.3932969504086
 30
0.0
 10
72.78746064803578
 20
-132.4056992941555
 30
0.0
 10
72.77264673744921
 20
-132.4163790901598
 30
0.0
  0
HATCH
  5
11A
330
10C
100
AcDbEntity
  8
_U+30EC_U+30A4_U+30E4_U+30FC 1
 62
   179
420
  2234388
100
AcDbHatch
 10
0.0
 20
0.0
 30
0.0
210
0.0
220
0.0
230
1.0
  2
SOLID
 70
     1
 71
     0
 91
        2
 92
        1
 93
        1
 72
     4
 94
        3
 73
     0
 74
     1
 95
       35
 96
       31
 40
0.0
 40
0.0
 40
0.0
 40
0.0
 40
1.0
 40
1.0
 40
1.0
 40
2.0
 40
2.0
 40
2.0
 40
3.0
 40
3.0
 40
3.0
 40
4.0
 40
4.0
 40
4.0
 40
5.0
 40
5.0
 40
5.0
 40
6.0
 40
6.0
 40
6.0
 40
7.0
 40
7.0
 40
7.0
 40
8.0
 40
8.0
 40
8.0
 40
9.0
 40
9.0
 40
9.0
 40
10.0
 40
10.0
 40
10.0
 40
10.0
 10
71.82283391216582
 20
-132.473567675215
 10
71.8205946001004
 20
-132.5369574321435
 10
71.8205946001004
 20
-132.6723496847139
 10
71.8205946001004
 20
-132.7378064989336
 10
71.8205946001004
 20
-132.7378064989336
 10
71.8205946001004
 20
-133.0447645066694
 10
71.8205946001004
 20
-133.0447645066694
 10
71.8205946001004
 20
-133.108154263598
 10
71.83127439610469
 20
-133.3344970369789
 10
71.83540851068699
 20
-133.3978867939075
 10
71.83540851068699
 20
-133.3978867939075
 10
71.59649113878491
 20
-133.3978867939075
 10
71.59649113878491
 20
-133.3978867939075
 10
71.61130504937148
 20
-133.3028021585146
 10
71.61337210666264
 20
-133.1419161993534
 10
71.61337210666264
 20
-133.0426974493782
 10
71.61337210666264
 20
-133.0426974493782
 10
71.61337210666264
 20
-132.6978433913047
 10
71.61337210666264
 20
-132.6978433913047
 10
71.61337210666264
 20
-132.6151610996587
 10
71.61130504937148
 20
-132.4418727967507
 10
71.60699868001493
 20
-132.3636691292355
 10
71.60699868001493
 20
-132.3636691292355
 10
71.81852754280926
 20
-132.3760714729824
 10
71.81852754280926
 20
-132.3760714729824
 10
71.86503633186014
 20
-132.378483039822
 10
71.88208955451212
 20
-132.390885383569
 10
71.88208955451212
 20
-132.4163790901598
 10
71.88208955451212
 20
-132.4377386821683
 10
71.85246173333897
 20
-132.4566867073372
 10
71.82283391216582
 20
-132.473567675215
 97
        0
 97
        0
 92
        1
 93
        1
 72
     4
 94
        3
 73
     0
 74
     1
 95
       38
 96
       34
 40
0.0
 40
0.0
 40
0.0
 40
0.0
 40
1.0
 40
1.0
 40
1.0
 40
2.0
 40
2.0
 40
2.0
 40
3.0
 40
3.0
 40
3.0
 40
4.0
 40
4.0
 40
4.0
 40
5.0
 40
5.0
 40
5.0
 40
6.0
 40
6.0
 40
6.0
 40
7.0
 40
7.0
 40
7.0
 40
8.0
 40
8.0
 40
8.0
 40
9.0
 40
9.0
 40
9.0
 40
10.0
 40
10.0
 40
10.0
 40
11.0
 40
11.0
 40
11.0
 40
11.0
 10
72.77264673744921
 20
-132.4163790901598
 10
72.74939234292377
 20
-132.4332600580375
 10
72.74732528563261
 20
-132.4332600580375
 10
72.73457843233719
 20
-132.4480739686241
 10
72.73027206298063
 20
-132.549704285439
 10
72.72389863633292
 20
-132.9961886603273
 10
72.71976452175062
 20
-133.0850721238468
 10
72.71132403781175
 20
-133.2287326055817
 10
72.69220375786863
 20
-133.5608398103598
 10
72.43830022060571
 20
-133.7916612078715
 10
72.40453828485026
 20
-133.8233560863358
 10
72.19300942205592
 20
-134.0093912425393
 10
72.00680201107816
 20
-134.081393738181
 10
72.00680201107816
 20
-134.081393738181
 10
71.82696802674812
 20
-133.8929470151379
 10
71.82696802674812
 20
-133.8929470151379
 10
71.90310463697215
 20
-133.8781331045513
 10
72.07036402278102
 20
-133.846438226087
 10
72.26707897498879
 20
-133.673149923179
 10
72.5187432001863
 20
-133.4550753789626
 10
72.5187432001863
 20
-133.190836555244
 10
72.5187432001863
 20
-132.6788953661358
 10
72.5187432001863
 20
-132.4377386821683
 10
72.5187432001863
 20
-132.4249918288729
 10
72.514609085604
 20
-132.3254285693492
 10
72.514609085604
 20
-132.3254285693492
 10
72.73251137504604
 20
-132.3402424799358
 10
72.73251137504604
 20
-132.3402424799358
 10
72.75576576957148
 20
-132.3423095372269
 10
72.78952770532693
 20
-132.3443765945181
 10
72.78952770532693
 20
-132.3826171544044
 10
72.78952770532693
 20
-132.3932969504086
 10
72.78746064803578
 20
-132.4056992941555
 10
72.77264673744921
 20
-132.4163790901598
 97
        0
 97
        0
 75
     2
 76
     1
 98
        0
  0
SPLINE
  5
11B
330
10C
100
AcDbEntity
  8
_U+30EC_U+30A4_U+30E4_U+30FC 1
370
     0
100
AcDbSpline
210
0.0
220
0.0
230
1.0
 70
    11
 71
     3
 72
    26
 73
    22
 74
     0
 42
0.0000000001
 43
0.0000000001
 12
1.0
 22
0.0
 32
0.0
 13
1.0
 23
0.0
 33
0.0
 40
0.0
 40
0.0
 40
0.0
 40
0.0
 40
1.0
 40
1.0
 40
1.0
 40
2.0
 40
2.0
 40
2.0
 40
3.0
 40
3.0
 40
3.0
 40
4.0
 40
4.0
 40
4.0
 40
5.0
 40
5.0
 40
5.0
 40
6.0
 40
6.0
 40
6.0
 40
7.0
 40
7.0
 40
7.0
 40
7.0
 10
73.27304685668174
 20
-133.9373887468976
 30
0.0
 10
73.26874048732518
 20
-133.9460014856107
 30
0.0
 10
73.25823294609516
 20
-133.9797634213662
 30
0.0
 10
73.2539265767386
 20
-133.9859645932396
 30
0.0
 10
73.24962020738204
 20
-133.9945773319527
 30
0.0
 10
73.24117972344318
 20
-133.9987114465351
 30
0.0
 10
73.23067218221317
 20
-133.9987114465351
 30
0.0
 10
73.2158582716266
 20
-133.9987114465351
 30
0.0
 10
73.20948484497889
 20
-133.9904432173705
 30
0.0
 10
73.18623045045345
 20
-133.9480685429019
 30
0.0
 10
73.18623045045345
 20
-133.9480685429019
 30
0.0
 10
73.07202553511742
 20
-133.7279269413944
 30
0.0
 10
73.07202553511742
 20
-133.7279269413944
 30
0.0
 10
73.39775931324779
 20
-133.6834852096347
 30
0.0
 10
74.15929767026226
 20
-133.3513780048566
 30
0.0
 10
74.56134031339091
 20
-132.833235643875
 30
0.0
 10
74.56134031339091
 20
-132.833235643875
 30
0.0
 10
74.6459174075538
 20
-133.0382188252474
 30
0.0
 10
74.6459174075538
 20
-133.0382188252474
 30
0.0
 10
74.23130016590399
 20
-133.5270778746043
 30
0.0
 10
73.56484644428241
 20
-133.8126762903316
 30
0.0
 10
73.27304685668174
 20
-133.9373887468976
 30
0.0
  0
SPLINE
  5
11C
330
10C
100
AcDbEntity
  8
_U+30EC_U+30A4_U+30E4_U+30FC 1
370
     0
100
AcDbSpline
210
0.0
220
0.0
230
1.0
 70
    11
 71
     3
 72
    17
 73
    13
 74
     0
 42
0.0000000001
 43
0.0000000001
 12
1.0
 22
0.0
 32
0.0
 13
1.0
 23
0.0
 33
0.0
 40
0.0
 40
0.0
 40
0.0
 40
0.0
 40
1.0
 40
1.0
 40
1.0
 40
2.0
 40
2.0
 40
2.0
 40
3.0
 40
3.0
 40
3.0
 40
4.0
 40
4.0
 40
4.0
 40
4.0
 10
73.56708575634782
 20
-132.8459824971705
 30
0.0
 10
73.42738713442094
 20
-132.7126573018913
 30
0.0
 10
73.20948484497889
 20
-132.598280131781
 30
0.0
 10
73.10578747087287
 20
-132.5538384000213
 30
0.0
 10
73.10578747087287
 20
-132.5538384000213
 30
0.0
 10
73.2222316982743
 20
-132.3636691292355
 30
0.0
 10
73.2222316982743
 20
-132.3636691292355
 30
0.0
 10
73.53745793517467
 20
-132.5138752923924
 30
0.0
 10
73.63254257056757
 20
-132.604825813203
 30
0.0
 10
73.68766409833155
 20
-132.6575357741273
 30
0.0
 10
73.68766409833155
 20
-132.6575357741273
 30
0.0
 10
73.56708575634782
 20
-132.8459824971705
 30
0.0
 10
73.56708575634782
 20
-132.8459824971705
 30
0.0
  0
HATCH
  5
11D
330
10C
100
AcDbEntity
  8
_U+30EC_U+30A4_U+30E4_U+30FC 1
 62
   179
420
  2234388
100
AcDbHatch
 10
0.0
 20
0.0
 30
0.0
210
0.0
220
0.0
230
1.0
  2
SOLID
 70
     1
 71
     0
 91
        2
 92
        1
 93
        1
 72
     4
 94
        3
 73
     0
 74
     1
 95
       26
 96
       22
 40
0.0
 40
0.0
 40
0.0
 40
0.0
 40
1.0
 40
1.0
 40
1.0
 40
2.0
 40
2.0
 40
2.0
 40
3.0
 40
3.0
 40
3.0
 40
4.0
 40
4.0
 40
4.0
 40
5.0
 40
5.0
 40
5.0
 40
6.0
 40
6.0
 40
6.0
 40
7.0
 40
7.0
 40
7.0
 40
7.0
 10
73.27304685668174
 20
-133.9373887468976
 10
73.26874048732518
 20
-133.9460014856107
 10
73.25823294609516
 20
-133.9797634213662
 10
73.2539265767386
 20
-133.9859645932396
 10
73.24962020738204
 20
-133.9945773319527
 10
73.24117972344318
 20
-133.9987114465351
 10
73.23067218221317
 20
-133.9987114465351
 10
73.2158582716266
 20
-133.9987114465351
 10
73.20948484497889
 20
-133.9904432173705
 10
73.18623045045345
 20
-133.9480685429019
 10
73.18623045045345
 20
-133.9480685429019
 10
73.07202553511742
 20
-133.7279269413944
 10
73.07202553511742
 20
-133.7279269413944
 10
73.39775931324779
 20
-133.6834852096347
 10
74.15929767026226
 20
-133.3513780048566
 10
74.56134031339091
 20
-132.833235643875
 10
74.56134031339091
 20
-132.833235643875
 10
74.6459174075538
 20
-133.0382188252474
 10
74.6459174075538
 20
-133.0382188252474
 10
74.23130016590399
 20
-133.5270778746043
 10
73.56484644428241
 20
-133.8126762903316
 10
73.27304685668174
 20
-133.9373887468976
 97
        0
 97
        0
 92
        1
 93
        1
 72
     4
 94
        3
 73
     0
 74
     1
 95
       17
 96
       13
 40
0.0
 40
0.0
 40
0.0
 40
0.0
 40
1.0
 40
1.0
 40
1.0
 40
2.0
 40
2.0
 40
2.0
 40
3.0
 40
3.0
 40
3.0
 40
4.0
 40
4.0
 40
4.0
 40
4.0
 10
73.56708575634782
 20
-132.8459824971705
 10
73.42738713442094
 20
-132.7126573018913
 10
73.20948484497889
 20
-132.598280131781
 10
73.10578747087287
 20
-132.5538384000213
 10
73.10578747087287
 20
-132.5538384000213
 10
73.2222316982743
 20
-132.3636691292355
 10
73.2222316982743
 20
-132.3636691292355
 10
73.53745793517467
 20
-132.5138752923924
 10
73.63254257056757
 20
-132.604825813203
 10
73.68766409833155
 20
-132.6575357741273
 10
73.68766409833155
 20
-132.6575357741273
 10
73.56708575634782
 20
-132.8459824971705
 10
73.56708575634782
 20
-132.8459824971705
 97
        0
 97
        0
 75
     2
 76
     1
 98
        0
  0
SPLINE
  5
11E
330
10C
100
AcDbEntity
  8
_U+30EC_U+30A4_U+30E4_U+30FC 1
370
     0
100
AcDbSpline
210
0.0
220
0.0
230
1.0
 70
    11
 71
     3
 72
    59
 73
    55
 74
     0
 42
0.0000000001
 43
0.0000000001
 12
1.0
 22
0.0
 32
0.0
 13
1.0
 23
0.0
 33
0.0
 40
0.0
 40
0.0
 40
0.0
 40
0.0
 40
1.0
 40
1.0
 40
1.0
 40
2.0
 40
2.0
 40
2.0
 40
3.0
 40
3.0
 40
3.0
 40
4.0
 40
4.0
 40
4.0
 40
5.0
 40
5.0
 40
5.0
 40
6.0
 40
6.0
 40
6.0
 40
7.0
 40
7.0
 40
7.0
 40
8.0
 40
8.0
 40
8.0
 40
9.0
 40
9.0
 40
9.0
 40
10.0
 40
10.0
 40
10.0
 40
11.0
 40
11.0
 40
11.0
 40
12.0
 40
12.0
 40
12.0
 40
13.0
 40
13.0
 40
13.0
 40
14.0
 40
14.0
 40
14.0
 40
15.0
 40
15.0
 40
15.0
 40
16.0
 40
16.0
 40
16.0
 40
17.0
 40
17.0
 40
17.0
 40
18.0
 40
18.0
 40
18.0
 40
18.0
 10
76.2101630126315
 20
-132.9324543938502
 30
0.0
 10
76.12351886117746
 20
-133.1929036125351
 30
0.0
 10
75.97744681260286
 20
-133.5312119891867
 30
0.0
 10
75.65378009176364
 20
-133.8233560863358
 30
0.0
 10
75.48876001802017
 20
-133.9690836253619
 30
0.0
 10
75.33011337092442
 20
-134.0410861210036
 30
0.0
 10
75.23278942346612
 20
-134.0875949100545
 30
0.0
 10
75.23278942346612
 20
-134.0875949100545
 30
0.0
 10
75.04244789790606
 20
-133.9439344283196
 30
0.0
 10
75.04244789790606
 20
-133.9439344283196
 30
0.0
 10
75.30685897639898
 20
-133.846438226087
 30
0.0
 10
75.5395751764276
 20
-133.6772840377612
 30
0.0
 10
75.71303573410994
 20
-133.4550753789626
 30
0.0
 10
75.81035968156824
 20
-133.3303629223966
 30
0.0
 10
75.96900632866401
 20
-133.0678466464205
 30
0.0
 10
76.04307588159688
 20
-132.7422851230644
 30
0.0
 10
76.04307588159688
 20
-132.7422851230644
 30
0.0
 10
75.40624998114843
 20
-132.7422851230644
 30
0.0
 10
75.40624998114843
 20
-132.7422851230644
 30
0.0
 10
75.33648679757214
 20
-132.8394368157485
 30
0.0
 10
75.15458575595095
 20
-133.0974744675937
 30
0.0
 10
74.97681882891204
 20
-133.2204643764171
 30
0.0
 10
74.97681882891204
 20
-133.2204643764171
 30
0.0
 10
74.80973169787744
 20
-133.0933403530114
 30
0.0
 10
74.80973169787744
 20
-133.0933403530114
 30
0.0
 10
75.11858450813008
 20
-132.8731987515039
 30
0.0
 10
75.33648679757214
 20
-132.4966498149661
 30
0.0
 10
75.40418292385729
 20
-132.2851209521718
 30
0.0
 10
75.40418292385729
 20
-132.2851209521718
 30
0.0
 10
75.6241522705905
 20
-132.3846842116955
 30
0.0
 10
75.6241522705905
 20
-132.3846842116955
 30
0.0
 10
75.62845863994706
 20
-132.3867512689866
 30
0.0
 10
75.66859400235022
 20
-132.4036322368644
 30
0.0
 10
75.66859400235022
 20
-132.4270588861641
 30
0.0
 10
75.66859400235022
 20
-132.4418727967507
 30
0.0
 10
75.66859400235022
 20
-132.4522080832064
 30
0.0
 10
75.57557642424847
 20
-132.4777017897972
 30
0.0
 10
75.53526880707105
 20
-132.5455701708567
 30
0.0
 10
75.53113469248875
 20
-132.5517713427301
 30
0.0
 10
75.51408146983677
 20
-132.577265049321
 30
0.0
 10
75.51408146983677
 20
-132.577265049321
 30
0.0
 10
75.83792044545025
 20
-132.577265049321
 30
0.0
 10
75.83792044545025
 20
-132.577265049321
 30
0.0
 10
76.02395560165374
 20
-132.577265049321
 30
0.0
 10
76.04720999617918
 20
-132.5751979920298
 30
0.0
 10
76.07477076006117
 20
-132.5727864251901
 30
0.0
 10
76.14453394363748
 20
-132.5686523106078
 30
0.0
 10
76.15934785422405
 20
-132.5603840814432
 30
0.0
 10
76.18053519145835
 20
-132.5455701708567
 30
0.0
 10
76.18053519145835
 20
-132.5455701708567
 30
0.0
 10
76.34348820791065
 20
-132.7126573018913
 30
0.0
 10
76.34348820791065
 20
-132.7126573018913
 30
0.0
 10
76.26511228562123
 20
-132.784659797533
 30
0.0
 10
76.25667180168236
 20
-132.7949950839888
 30
0.0
 10
76.2101630126315
 20
-132.9324543938502
 30
0.0
  0
SPLINE
  5
11F
330
10C
100
AcDbEntity
  8
_U+30EC_U+30A4_U+30E4_U+30FC 1
370
     0
100
AcDbSpline
210
0.0
220
0.0
230
1.0
 70
    11
 71
     3
 72
    17
 73
    13
 74
     0
 42
0.0000000001
 43
0.0000000001
 12
1.0
 22
0.0
 32
0.0
 13
1.0
 23
0.0
 33
0.0
 40
0.0
 40
0.0
 40
0.0
 40
0.0
 40
1.0
 40
1.0
 40
1.0
 40
2.0
 40
2.0
 40
2.0
 40
3.0
 40
3.0
 40
3.0
 40
4.0
 40
4.0
 40
4.0
 40
4.0
 10
76.12127954911205
 20
-132.467021993793
 30
0.0
 10
76.01551511771487
 20
-132.3740044156912
 30
0.0
 10
76.00276826441944
 20
-132.3636691292355
 30
0.0
 10
75.90131020237884
 20
-132.2851209521718
 30
0.0
 10
75.90131020237884
 20
-132.2851209521718
 30
0.0
 10
76.01344806042373
 20
-132.1879692594877
 30
0.0
 10
76.01344806042373
 20
-132.1879692594877
 30
0.0
 10
76.12351886117746
 20
-132.2641058697118
 30
0.0
 10
76.15521373964175
 20
-132.295800748176
 30
0.0
 10
76.23772377651349
 20
-132.3805500971132
 30
0.0
 10
76.23772377651349
 20
-132.3805500971132
 30
0.0
 10
76.12127954911205
 20
-132.467021993793
 30
0.0
 10
76.12127954911205
 20
-132.467021993793
 30
0.0
  0
SPLINE
  5
120
330
10C
100
AcDbEntity
  8
_U+30EC_U+30A4_U+30E4_U+30FC 1
370
     0
100
AcDbSpline
210
0.0
220
0.0
230
1.0
 70
    11
 71
     3
 72
    17
 73
    13
 74
     0
 42
0.0000000001
 43
0.0000000001
 12
1.0
 22
0.0
 32
0.0
 13
1.0
 23
0.0
 33
0.0
 40
0.0
 40
0.0
 40
0.0
 40
0.0
 40
1.0
 40
1.0
 40
1.0
 40
2.0
 40
2.0
 40
2.0
 40
3.0
 40
3.0
 40
3.0
 40
4.0
 40
4.0
 40
4.0
 40
4.0
 10
76.45562606595554
 20
-132.4756347325061
 30
0.0
 10
76.3943033663181
 20
-132.3994981222821
 30
0.0
 10
76.32867429732408
 20
-132.3274956266403
 30
0.0
 10
76.2482313177435
 20
-132.2682399842941
 30
0.0
 10
76.2482313177435
 20
-132.2682399842941
 30
0.0
 10
76.36880965972725
 20
-132.1752224061923
 30
0.0
 10
76.36880965972725
 20
-132.1752224061923
 30
0.0
 10
76.45769312324668
 20
-132.2324109912475
 30
0.0
 10
76.51057533894527
 20
-132.2851209521718
 30
0.0
 10
76.57620440793929
 20
-132.3740044156912
 30
0.0
 10
76.57620440793929
 20
-132.3740044156912
 30
0.0
 10
76.45562606595554
 20
-132.4756347325061
 30
0.0
 10
76.45562606595554
 20
-132.4756347325061
 30
0.0
  0
HATCH
  5
121
330
10C
100
AcDbEntity
  8
_U+30EC_U+30A4_U+30E4_U+30FC 1
 62
   179
420
  2234388
100
AcDbHatch
 10
0.0
 20
0.0
 30
0.0
210
0.0
220
0.0
230
1.0
  2
SOLID
 70
     1
 71
     0
 91
        3
 92
        1
 93
        1
 72
     4
 94
        3
 73
     0
 74
     1
 95
       59
 96
       55
 40
0.0
 40
0.0
 40
0.0
 40
0.0
 40
1.0
 40
1.0
 40
1.0
 40
2.0
 40
2.0
 40
2.0
 40
3.0
 40
3.0
 40
3.0
 40
4.0
 40
4.0
 40
4.0
 40
5.0
 40
5.0
 40
5.0
 40
6.0
 40
6.0
 40
6.0
 40
7.0
 40
7.0
 40
7.0
 40
8.0
 40
8.0
 40
8.0
 40
9.0
 40
9.0
 40
9.0
 40
10.0
 40
10.0
 40
10.0
 40
11.0
 40
11.0
 40
11.0
 40
12.0
 40
12.0
 40
12.0
 40
13.0
 40
13.0
 40
13.0
 40
14.0
 40
14.0
 40
14.0
 40
15.0
 40
15.0
 40
15.0
 40
16.0
 40
16.0
 40
16.0
 40
17.0
 40
17.0
 40
17.0
 40
18.0
 40
18.0
 40
18.0
 40
18.0
 10
76.2101630126315
 20
-132.9324543938502
 10
76.12351886117746
 20
-133.1929036125351
 10
75.97744681260286
 20
-133.5312119891867
 10
75.65378009176364
 20
-133.8233560863358
 10
75.48876001802017
 20
-133.9690836253619
 10
75.33011337092442
 20
-134.0410861210036
 10
75.23278942346612
 20
-134.0875949100545
 10
75.23278942346612
 20
-134.0875949100545
 10
75.04244789790606
 20
-133.9439344283196
 10
75.04244789790606
 20
-133.9439344283196
 10
75.30685897639898
 20
-133.846438226087
 10
75.5395751764276
 20
-133.6772840377612
 10
75.71303573410994
 20
-133.4550753789626
 10
75.81035968156824
 20
-133.3303629223966
 10
75.96900632866401
 20
-133.0678466464205
 10
76.04307588159688
 20
-132.7422851230644
 10
76.04307588159688
 20
-132.7422851230644
 10
75.40624998114843
 20
-132.7422851230644
 10
75.40624998114843
 20
-132.7422851230644
 10
75.33648679757214
 20
-132.8394368157485
 10
75.15458575595095
 20
-133.0974744675937
 10
74.97681882891204
 20
-133.2204643764171
 10
74.97681882891204
 20
-133.2204643764171
 10
74.80973169787744
 20
-133.0933403530114
 10
74.80973169787744
 20
-133.0933403530114
 10
75.11858450813008
 20
-132.8731987515039
 10
75.33648679757214
 20
-132.4966498149661
 10
75.40418292385729
 20
-132.2851209521718
 10
75.40418292385729
 20
-132.2851209521718
 10
75.6241522705905
 20
-132.3846842116955
 10
75.6241522705905
 20
-132.3846842116955
 10
75.62845863994706
 20
-132.3867512689866
 10
75.66859400235022
 20
-132.4036322368644
 10
75.66859400235022
 20
-132.4270588861641
 10
75.66859400235022
 20
-132.4418727967507
 10
75.66859400235022
 20
-132.4522080832064
 10
75.57557642424847
 20
-132.4777017897972
 10
75.53526880707105
 20
-132.5455701708567
 10
75.53113469248875
 20
-132.5517713427301
 10
75.51408146983677
 20
-132.577265049321
 10
75.51408146983677
 20
-132.577265049321
 10
75.83792044545025
 20
-132.577265049321
 10
75.83792044545025
 20
-132.577265049321
 10
76.02395560165374
 20
-132.577265049321
 10
76.04720999617918
 20
-132.5751979920298
 10
76.07477076006117
 20
-132.5727864251901
 10
76.14453394363748
 20
-132.5686523106078
 10
76.15934785422405
 20
-132.5603840814432
 10
76.18053519145835
 20
-132.5455701708567
 10
76.18053519145835
 20
-132.5455701708567
 10
76.34348820791065
 20
-132.7126573018913
 10
76.34348820791065
 20
-132.7126573018913
 10
76.26511228562123
 20
-132.784659797533
 10
76.25667180168236
 20
-132.7949950839888
 10
76.2101630126315
 20
-132.9324543938502
 97
        0
 97
        0
 92
        1
 93
        1
 72
     4
 94
        3
 73
     0
 74
     1
 95
       17
 96
       13
 40
0.0
 40
0.0
 40
0.0
 40
0.0
 40
1.0
 40
1.0
 40
1.0
 40
2.0
 40
2.0
 40
2.0
 40
3.0
 40
3.0
 40
3.0
 40
4.0
 40
4.0
 40
4.0
 40
4.0
 10
76.12127954911205
 20
-132.467021993793
 10
76.01551511771487
 20
-132.3740044156912
 10
76.00276826441944
 20
-132.3636691292355
 10
75.90131020237884
 20
-132.2851209521718
 10
75.90131020237884
 20
-132.2851209521718
 10
76.01344806042373
 20
-132.1879692594877
 10
76.01344806042373
 20
-132.1879692594877
 10
76.12351886117746
 20
-132.2641058697118
 10
76.15521373964175
 20
-132.295800748176
 10
76.23772377651349
 20
-132.3805500971132
 10
76.23772377651349
 20
-132.3805500971132
 10
76.12127954911205
 20
-132.467021993793
 10
76.12127954911205
 20
-132.467021993793
 97
        0
 97
        0
 92
        1
 93
        1
 72
     4
 94
        3
 73
     0
 74
     1
 95
       17
 96
       13
 40
0.0
 40
0.0
 40
0.0
 40
0.0
 40
1.0
 40
1.0
 40
1.0
 40
2.0
 40
2.0
 40
2.0
 40
3.0
 40
3.0
 40
3.0
 40
4.0
 40
4.0
 40
4.0
 40
4.0
 10
76.45562606595554
 20
-132.4756347325061
 10
76.3943033663181
 20
-132.3994981222821
 10
76.32867429732408
 20
-132.3274956266403
 10
76.2482313177435
 20
-132.2682399842941
 10
76.2482313177435
 20
-132.2682399842941
 10
76.36880965972725
 20
-132.1752224061923
 10
76.36880965972725
 20
-132.1752224061923
 10
76.45769312324668
 20
-132.2324109912475
 10
76.51057533894527
 20
-132.2851209521718
 10
76.57620440793929
 20
-132.3740044156912
 10
76.57620440793929
 20
-132.3740044156912
 10
76.45562606595554
 20
-132.4756347325061
 10
76.45562606595554
 20
-132.4756347325061
 97
        0
 97
        0
 75
     2
 76
     1
 98
        0
  0
SPLINE
  5
122
330
10C
100
AcDbEntity
  8
_U+30EC_U+30A4_U+30E4_U+30FC 1
370
     0
100
AcDbSpline
210
0.0
220
0.0
230
1.0
 70
    11
 71
     3
 72
    17
 73
    13
 74
     0
 42
0.0000000001
 43
0.0000000001
 12
1.0
 22
0.0
 32
0.0
 13
1.0
 23
0.0
 33
0.0
 40
0.0
 40
0.0
 40
0.0
 40
0.0
 40
1.0
 40
1.0
 40
1.0
 40
2.0
 40
2.0
 40
2.0
 40
3.0
 40
3.0
 40
3.0
 40
4.0
 40
4.0
 40
4.0
 40
4.0
 10
68.29212780410752
 20
-135.7136799790924
 30
0.0
 10
68.18222925812806
 20
-135.631342196995
 30
0.0
 10
67.93039277815629
 20
-135.5276448228889
 30
0.0
 10
67.81825492011141
 20
-135.4959499444246
 30
0.0
 10
67.81825492011141
 20
-135.4959499444246
 30
0.0
 10
67.90713838363085
 20
-135.3181830173857
 30
0.0
 10
67.90713838363085
 20
-135.3181830173857
 30
0.0
 10
68.10609264790403
 20
-135.3922525703186
 30
0.0
 10
68.22236462053122
 20
-135.4408284166606
 30
0.0
 10
68.38945175156583
 20
-135.5445257907666
 30
0.0
 10
68.38945175156583
 20
-135.5445257907666
 30
0.0
 10
68.29212780410752
 20
-135.7136799790924
 30
0.0
 10
68.29212780410752
 20
-135.7136799790924
 30
0.0
  0
SPLINE
  5
123
330
10C
100
AcDbEntity
  8
_U+30EC_U+30A4_U+30E4_U+30FC 1
370
     0
100
AcDbSpline
210
0.0
220
0.0
230
1.0
 70
    11
 71
     3
 72
    29
 73
    25
 74
     0
 42
0.0000000001
 43
0.0000000001
 12
1.0
 22
0.0
 32
0.0
 13
1.0
 23
0.0
 33
0.0
 40
0.0
 40
0.0
 40
0.0
 40
0.0
 40
1.0
 40
1.0
 40
1.0
 40
2.0
 40
2.0
 40
2.0
 40
3.0
 40
3.0
 40
3.0
 40
4.0
 40
4.0
 40
4.0
 40
5.0
 40
5.0
 40
5.0
 40
6.0
 40
6.0
 40
6.0
 40
7.0
 40
7.0
 40
7.0
 40
8.0
 40
8.0
 40
8.0
 40
8.0
 10
68.9627156403114
 20
-136.0313177828324
 30
0.0
 10
68.69830456181849
 20
-136.2807426959645
 30
0.0
 10
68.52708331620157
 20
-136.3803059554883
 30
0.0
 10
68.17378877418919
 20
-136.5832220795695
 30
0.0
 10
68.1462280103072
 20
-136.625596754038
 30
0.0
 10
68.13554821430291
 20
-136.6445447792069
 30
0.0
 10
68.1145331318429
 20
-136.6445447792069
 30
0.0
 10
68.10385333583862
 20
-136.6445447792069
 30
0.0
 10
68.09747990919091
 20
-136.6404106646246
 30
0.0
 10
68.07215845737433
 20
-136.6066487288692
 30
0.0
 10
68.07215845737433
 20
-136.6066487288692
 30
0.0
 10
67.92625866357399
 20
-136.4140678912437
 30
0.0
 10
67.92625866357399
 20
-136.4140678912437
 30
0.0
 10
68.14829506759834
 20
-136.3589463634797
 30
0.0
 10
68.34931638916268
 20
-136.2404350787871
 30
0.0
 10
68.53965791472272
 20
-136.1136555649299
 30
0.0
 10
68.81250947715452
 20
-135.9296874660176
 30
0.0
 10
69.10448131952944
 20
-135.6251410251215
 30
0.0
 10
69.26743433598176
 20
-135.3519449531412
 30
0.0
 10
69.26743433598176
 20
-135.3519449531412
 30
0.0
 10
69.39645316190436
 20
-135.536257561602
 30
0.0
 10
69.39645316190436
 20
-135.536257561602
 30
0.0
 10
69.27794187721177
 20
-135.7202256605144
 30
0.0
 10
69.12360159947258
 20
-135.8811116196756
 30
0.0
 10
68.9627156403114
 20
-136.0313177828324
 30
0.0
  0
SPLINE
  5
124
330
10C
100
AcDbEntity
  8
_U+30EC_U+30A4_U+30E4_U+30FC 1
370
     0
100
AcDbSpline
210
0.0
220
0.0
230
1.0
 70
    11
 71
     3
 72
    20
 73
    16
 74
     0
 42
0.0000000001
 43
0.0000000001
 12
1.0
 22
0.0
 32
0.0
 13
1.0
 23
0.0
 33
0.0
 40
0.0
 40
0.0
 40
0.0
 40
0.0
 40
1.0
 40
1.0
 40
1.0
 40
2.0
 40
2.0
 40
2.0
 40
3.0
 40
3.0
 40
3.0
 40
4.0
 40
4.0
 40
4.0
 40
5.0
 40
5.0
 40
5.0
 40
5.0
 10
68.53552380014042
 20
-135.2144856432797
 30
0.0
 10
68.42975936874326
 20
-135.142483147638
 30
0.0
 10
68.17154946212378
 20
-135.0177706910719
 30
0.0
 10
68.05303817743119
 20
-134.9753960166034
 30
0.0
 10
68.05303817743119
 20
-134.9753960166034
 30
0.0
 10
68.13985458365948
 20
-134.8041747709865
 30
0.0
 10
68.13985458365948
 20
-134.8041747709865
 30
0.0
 10
68.1884304300015
 20
-134.8251898534465
 30
0.0
 10
68.26249998293437
 20
-134.8548176746196
 30
0.0
 10
68.38101126762697
 20
-134.9140733169659
 30
0.0
 10
68.53328448807501
 20
-134.9881428698988
 30
0.0
 10
68.57565916254359
 20
-135.0198377483631
 30
0.0
 10
68.61803383701216
 20
-135.0515326268274
 30
0.0
 10
68.61803383701216
 20
-135.0515326268274
 30
0.0
 10
68.53552380014042
 20
-135.2144856432797
 30
0.0
 10
68.53552380014042
 20
-135.2144856432797
 30
0.0
  0
HATCH
  5
125
330
10C
100
AcDbEntity
  8
_U+30EC_U+30A4_U+30E4_U+30FC 1
 62
   179
420
  2234388
100
AcDbHatch
 10
0.0
 20
0.0
 30
0.0
210
0.0
220
0.0
230
1.0
  2
SOLID
 70
     1
 71
     0
 91
        3
 92
        1
 93
        1
 72
     4
 94
        3
 73
     0
 74
     1
 95
       17
 96
       13
 40
0.0
 40
0.0
 40
0.0
 40
0.0
 40
1.0
 40
1.0
 40
1.0
 40
2.0
 40
2.0
 40
2.0
 40
3.0
 40
3.0
 40
3.0
 40
4.0
 40
4.0
 40
4.0
 40
4.0
 10
68.29212780410752
 20
-135.7136799790924
 10
68.18222925812806
 20
-135.631342196995
 10
67.93039277815629
 20
-135.5276448228889
 10
67.81825492011141
 20
-135.4959499444246
 10
67.81825492011141
 20
-135.4959499444246
 10
67.90713838363085
 20
-135.3181830173857
 10
67.90713838363085
 20
-135.3181830173857
 10
68.10609264790403
 20
-135.3922525703186
 10
68.22236462053122
 20
-135.4408284166606
 10
68.38945175156583
 20
-135.5445257907666
 10
68.38945175156583
 20
-135.5445257907666
 10
68.29212780410752
 20
-135.7136799790924
 10
68.29212780410752
 20
-135.7136799790924
 97
        0
 97
        0
 92
        1
 93
        1
 72
     4
 94
        3
 73
     0
 74
     1
 95
       29
 96
       25
 40
0.0
 40
0.0
 40
0.0
 40
0.0
 40
1.0
 40
1.0
 40
1.0
 40
2.0
 40
2.0
 40
2.0
 40
3.0
 40
3.0
 40
3.0
 40
4.0
 40
4.0
 40
4.0
 40
5.0
 40
5.0
 40
5.0
 40
6.0
 40
6.0
 40
6.0
 40
7.0
 40
7.0
 40
7.0
 40
8.0
 40
8.0
 40
8.0
 40
8.0
 10
68.9627156403114
 20
-136.0313177828324
 10
68.69830456181849
 20
-136.2807426959645
 10
68.52708331620157
 20
-136.3803059554883
 10
68.17378877418919
 20
-136.5832220795695
 10
68.1462280103072
 20
-136.625596754038
 10
68.13554821430291
 20
-136.6445447792069
 10
68.1145331318429
 20
-136.6445447792069
 10
68.10385333583862
 20
-136.6445447792069
 10
68.09747990919091
 20
-136.6404106646246
 10
68.07215845737433
 20
-136.6066487288692
 10
68.07215845737433
 20
-136.6066487288692
 10
67.92625866357399
 20
-136.4140678912437
 10
67.92625866357399
 20
-136.4140678912437
 10
68.14829506759834
 20
-136.3589463634797
 10
68.34931638916268
 20
-136.2404350787871
 10
68.53965791472272
 20
-136.1136555649299
 10
68.81250947715452
 20
-135.9296874660176
 10
69.10448131952944
 20
-135.6251410251215
 10
69.26743433598176
 20
-135.3519449531412
 10
69.26743433598176
 20
-135.3519449531412
 10
69.39645316190436
 20
-135.536257561602
 10
69.39645316190436
 20
-135.536257561602
 10
69.27794187721177
 20
-135.7202256605144
 10
69.12360159947258
 20
-135.8811116196756
 10
68.9627156403114
 20
-136.0313177828324
 97
        0
 97
        0
 92
        1
 93
        1
 72
     4
 94
        3
 73
     0
 74
     1
 95
       20
 96
       16
 40
0.0
 40
0.0
 40
0.0
 40
0.0
 40
1.0
 40
1.0
 40
1.0
 40
2.0
 40
2.0
 40
2.0
 40
3.0
 40
3.0
 40
3.0
 40
4.0
 40
4.0
 40
4.0
 40
5.0
 40
5.0
 40
5.0
 40
5.0
 10
68.53552380014042
 20
-135.2144856432797
 10
68.42975936874326
 20
-135.142483147638
 10
68.17154946212378
 20
-135.0177706910719
 10
68.05303817743119
 20
-134.9753960166034
 10
68.05303817743119
 20
-134.9753960166034
 10
68.13985458365948
 20
-134.8041747709865
 10
68.13985458365948
 20
-134.8041747709865
 10
68.1884304300015
 20
-134.8251898534465
 10
68.26249998293437
 20
-134.8548176746196
 10
68.38101126762697
 20
-134.9140733169659
 10
68.53328448807501
 20
-134.9881428698988
 10
68.57565916254359
 20
-135.0198377483631
 10
68.61803383701216
 20
-135.0515326268274
 10
68.61803383701216
 20
-135.0515326268274
 10
68.53552380014042
 20
-135.2144856432797
 10
68.53552380014042
 20
-135.2144856432797
 97
        0
 97
        0
 75
     2
 76
     1
 98
        0
  0
SPLINE
  5
126
330
10C
100
AcDbEntity
  8
_U+30EC_U+30A4_U+30E4_U+30FC 1
370
     0
100
AcDbSpline
210
0.0
220
0.0
230
1.0
 70
    11
 71
     3
 72
    29
 73
    25
 74
     0
 42
0.0000000001
 43
0.0000000001
 12
1.0
 22
0.0
 32
0.0
 13
1.0
 23
0.0
 33
0.0
 40
0.0
 40
0.0
 40
0.0
 40
0.0
 40
1.0
 40
1.0
 40
1.0
 40
2.0
 40
2.0
 40
2.0
 40
3.0
 40
3.0
 40
3.0
 40
4.0
 40
4.0
 40
4.0
 40
5.0
 40
5.0
 40
5.0
 40
6.0
 40
6.0
 40
6.0
 40
7.0
 40
7.0
 40
7.0
 40
8.0
 40
8.0
 40
8.0
 40
8.0
 10
70.65821938337712
 20
-135.8194444104896
 30
0.0
 10
70.65821938337712
 20
-135.8194444104896
 30
0.0
 10
70.173838958151
 20
-135.8194444104896
 30
0.0
 10
70.173838958151
 20
-135.8194444104896
 30
0.0
 10
70.14627819426899
 20
-135.8194444104896
 30
0.0
 10
69.82898490007747
 20
-135.8194444104896
 30
0.0
 10
69.61745603728313
 20
-135.8449381170804
 30
0.0
 10
69.61745603728313
 20
-135.8449381170804
 30
0.0
 10
69.61745603728313
 20
-135.6144612291172
 30
0.0
 10
69.61745603728313
 20
-135.6144612291172
 30
0.0
 10
69.7761026843789
 20
-135.6375433688684
 30
0.0
 10
69.96644420993894
 20
-135.6399549357081
 30
0.0
 10
70.173838958151
 20
-135.6399549357081
 30
0.0
 10
70.173838958151
 20
-135.6399549357081
 30
0.0
 10
70.65821938337712
 20
-135.6399549357081
 30
0.0
 10
70.65821938337712
 20
-135.6399549357081
 30
0.0
 10
70.84442679435487
 20
-135.6399549357081
 30
0.0
 10
71.03063420533262
 20
-135.6375433688684
 30
0.0
 10
71.21460230424496
 20
-135.6144612291172
 30
0.0
 10
71.21460230424496
 20
-135.6144612291172
 30
0.0
 10
71.21460230424496
 20
-135.8449381170804
 30
0.0
 10
71.21460230424496
 20
-135.8449381170804
 30
0.0
 10
71.03063420533262
 20
-135.8218559773293
 30
0.0
 10
70.78310409471742
 20
-135.8194444104896
 30
0.0
 10
70.65821938337712
 20
-135.8194444104896
 30
0.0
  0
HATCH
  5
127
330
10C
100
AcDbEntity
  8
_U+30EC_U+30A4_U+30E4_U+30FC 1
 62
   179
420
  2234388
100
AcDbHatch
 10
0.0
 20
0.0
 30
0.0
210
0.0
220
0.0
230
1.0
  2
SOLID
 70
     1
 71
     0
 91
        1
 92
        1
 93
        1
 72
     4
 94
        3
 73
     0
 74
     1
 95
       29
 96
       25
 40
0.0
 40
0.0
 40
0.0
 40
0.0
 40
1.0
 40
1.0
 40
1.0
 40
2.0
 40
2.0
 40
2.0
 40
3.0
 40
3.0
 40
3.0
 40
4.0
 40
4.0
 40
4.0
 40
5.0
 40
5.0
 40
5.0
 40
6.0
 40
6.0
 40
6.0
 40
7.0
 40
7.0
 40
7.0
 40
8.0
 40
8.0
 40
8.0
 40
8.0
 10
70.65821938337712
 20
-135.8194444104896
 10
70.65821938337712
 20
-135.8194444104896
 10
70.173838958151
 20
-135.8194444104896
 10
70.173838958151
 20
-135.8194444104896
 10
70.14627819426899
 20
-135.8194444104896
 10
69.82898490007747
 20
-135.8194444104896
 10
69.61745603728313
 20
-135.8449381170804
 10
69.61745603728313
 20
-135.8449381170804
 10
69.61745603728313
 20
-135.6144612291172
 10
69.61745603728313
 20
-135.6144612291172
 10
69.7761026843789
 20
-135.6375433688684
 10
69.96644420993894
 20
-135.6399549357081
 10
70.173838958151
 20
-135.6399549357081
 10
70.173838958151
 20
-135.6399549357081
 10
70.65821938337712
 20
-135.6399549357081
 10
70.65821938337712
 20
-135.6399549357081
 10
70.84442679435487
 20
-135.6399549357081
 10
71.03063420533262
 20
-135.6375433688684
 10
71.21460230424496
 20
-135.6144612291172
 10
71.21460230424496
 20
-135.6144612291172
 10
71.21460230424496
 20
-135.8449381170804
 10
71.21460230424496
 20
-135.8449381170804
 10
71.03063420533262
 20
-135.8218559773293
 10
70.78310409471742
 20
-135.8194444104896
 10
70.65821938337712
 20
-135.8194444104896
 97
        0
 97
        0
 75
     2
 76
     1
 98
        0
  0
SPLINE
  5
128
330
10C
100
AcDbEntity
  8
_U+30EC_U+30A4_U+30E4_U+30FC 1
370
     0
100
AcDbSpline
210
0.0
220
0.0
230
1.0
 70
    11
 71
     3
 72
    56
 73
    52
 74
     0
 42
0.0000000001
 43
0.0000000001
 12
1.0
 22
0.0
 32
0.0
 13
1.0
 23
0.0
 33
0.0
 40
0.0
 40
0.0
 40
0.0
 40
0.0
 40
1.0
 40
1.0
 40
1.0
 40
2.0
 40
2.0
 40
2.0
 40
3.0
 40
3.0
 40
3.0
 40
4.0
 40
4.0
 40
4.0
 40
5.0
 40
5.0
 40
5.0
 40
6.0
 40
6.0
 40
6.0
 40
7.0
 40
7.0
 40
7.0
 40
8.0
 40
8.0
 40
8.0
 40
9.0
 40
9.0
 40
9.0
 40
10.0
 40
10.0
 40
10.0
 40
11.0
 40
11.0
 40
11.0
 40
12.0
 40
12.0
 40
12.0
 40
13.0
 40
13.0
 40
13.0
 40
14.0
 40
14.0
 40
14.0
 40
15.0
 40
15.0
 40
15.0
 40
16.0
 40
16.0
 40
16.0
 40
17.0
 40
17.0
 40
17.0
 40
17.0
 10
72.38335094761597
 20
-136.0733479477525
 30
0.0
 10
72.26897377750568
 20
-135.9593152871907
 30
0.0
 10
72.07863225194562
 20
-135.7688015068564
 30
0.0
 10
71.75703258839755
 20
-135.6354763115772
 30
0.0
 10
71.75703258839755
 20
-135.6354763115772
 30
0.0
 10
71.75703258839755
 20
-135.9868760510727
 30
0.0
 10
71.75703258839755
 20
-135.9868760510727
 30
0.0
 10
71.75703258839755
 20
-136.1115885076388
 30
0.0
 10
71.76547307233642
 20
-136.4815917627546
 30
0.0
 10
71.78028698292299
 20
-136.5897677609915
 30
0.0
 10
71.78028698292299
 20
-136.5897677609915
 30
0.0
 10
71.52431638836893
 20
-136.5897677609915
 30
0.0
 10
71.52431638836893
 20
-136.5897677609915
 30
0.0
 10
71.5391302989555
 20
-136.4840033295943
 30
0.0
 10
71.54136961102091
 20
-136.3231173704331
 30
0.0
 10
71.54136961102091
 20
-136.2786756386734
 30
0.0
 10
71.54343666831205
 20
-136.2300997923314
 30
0.0
 10
71.54981009495977
 20
-136.0165038722459
 30
0.0
 10
71.54981009495977
 20
-135.9720621404861
 30
0.0
 10
71.54981009495977
 20
-135.9720621404861
 30
0.0
 10
71.54981009495977
 20
-135.4198133342006
 30
0.0
 10
71.54981009495977
 20
-135.4198133342006
 30
0.0
 10
71.54981009495977
 20
-135.3371310425546
 30
0.0
 10
71.54343666831205
 20
-135.1107882691737
 30
0.0
 10
71.53706324166434
 20
-135.0325846016585
 30
0.0
 10
71.53292912708204
 20
-134.9774630738945
 30
0.0
 10
71.52655570043434
 20
-134.9395670235568
 30
0.0
 10
71.51587590443006
 20
-134.8930582345059
 30
0.0
 10
71.51587590443006
 20
-134.8930582345059
 30
0.0
 10
71.79734020557497
 20
-134.9120062596748
 30
0.0
 10
71.79734020557497
 20
-134.9120062596748
 30
0.0
 10
71.80991480409614
 20
-134.9120062596748
 30
0.0
 10
71.83747556797813
 20
-134.9161403742571
 30
0.0
 10
71.83747556797813
 20
-134.9437011381391
 30
0.0
 10
71.83747556797813
 20
-134.9650607301476
 30
0.0
 10
71.8142211734527
 20
-134.9798746407342
 30
0.0
 10
71.76771238440182
 20
-135.0070908950677
 30
0.0
 10
71.75927190046296
 20
-135.1383490330557
 30
0.0
 10
71.75703258839755
 20
-135.2696071710437
 30
0.0
 10
71.75703258839755
 20
-135.3984537421921
 30
0.0
 10
71.75703258839755
 20
-135.3984537421921
 30
0.0
 10
71.75703258839755
 20
-135.6334092542861
 30
0.0
 10
71.75703258839755
 20
-135.6334092542861
 30
0.0
 10
71.75703258839755
 20
-135.6334092542861
 30
0.0
 10
71.85659584792127
 20
-135.4453070407914
 30
0.0
 10
71.85659584792127
 20
-135.4453070407914
 30
0.0
 10
72.14839543552193
 20
-135.5782877265221
 30
0.0
 10
72.431926793958
 20
-135.7922281561561
 30
0.0
 10
72.52287731476859
 20
-135.9062608167179
 30
0.0
 10
72.52287731476859
 20
-135.9062608167179
 30
0.0
 10
72.38335094761597
 20
-136.0733479477525
 30
0.0
 10
72.38335094761597
 20
-136.0733479477525
 30
0.0
  0
HATCH
  5
129
330
10C
100
AcDbEntity
  8
_U+30EC_U+30A4_U+30E4_U+30FC 1
 62
   179
420
  2234388
100
AcDbHatch
 10
0.0
 20
0.0
 30
0.0
210
0.0
220
0.0
230
1.0
  2
SOLID
 70
     1
 71
     0
 91
        1
 92
        1
 93
        1
 72
     4
 94
        3
 73
     0
 74
     1
 95
       56
 96
       52
 40
0.0
 40
0.0
 40
0.0
 40
0.0
 40
1.0
 40
1.0
 40
1.0
 40
2.0
 40
2.0
 40
2.0
 40
3.0
 40
3.0
 40
3.0
 40
4.0
 40
4.0
 40
4.0
 40
5.0
 40
5.0
 40
5.0
 40
6.0
 40
6.0
 40
6.0
 40
7.0
 40
7.0
 40
7.0
 40
8.0
 40
8.0
 40
8.0
 40
9.0
 40
9.0
 40
9.0
 40
10.0
 40
10.0
 40
10.0
 40
11.0
 40
11.0
 40
11.0
 40
12.0
 40
12.0
 40
12.0
 40
13.0
 40
13.0
 40
13.0
 40
14.0
 40
14.0
 40
14.0
 40
15.0
 40
15.0
 40
15.0
 40
16.0
 40
16.0
 40
16.0
 40
17.0
 40
17.0
 40
17.0
 40
17.0
 10
72.38335094761597
 20
-136.0733479477525
 10
72.26897377750568
 20
-135.9593152871907
 10
72.07863225194562
 20
-135.7688015068564
 10
71.75703258839755
 20
-135.6354763115772
 10
71.75703258839755
 20
-135.6354763115772
 10
71.75703258839755
 20
-135.9868760510727
 10
71.75703258839755
 20
-135.9868760510727
 10
71.75703258839755
 20
-136.1115885076388
 10
71.76547307233642
 20
-136.4815917627546
 10
71.78028698292299
 20
-136.5897677609915
 10
71.78028698292299
 20
-136.5897677609915
 10
71.52431638836893
 20
-136.5897677609915
 10
71.52431638836893
 20
-136.5897677609915
 10
71.5391302989555
 20
-136.4840033295943
 10
71.54136961102091
 20
-136.3231173704331
 10
71.54136961102091
 20
-136.2786756386734
 10
71.54343666831205
 20
-136.2300997923314
 10
71.54981009495977
 20
-136.0165038722459
 10
71.54981009495977
 20
-135.9720621404861
 10
71.54981009495977
 20
-135.9720621404861
 10
71.54981009495977
 20
-135.4198133342006
 10
71.54981009495977
 20
-135.4198133342006
 10
71.54981009495977
 20
-135.3371310425546
 10
71.54343666831205
 20
-135.1107882691737
 10
71.53706324166434
 20
-135.0325846016585
 10
71.53292912708204
 20
-134.9774630738945
 10
71.52655570043434
 20
-134.9395670235568
 10
71.51587590443006
 20
-134.8930582345059
 10
71.51587590443006
 20
-134.8930582345059
 10
71.79734020557497
 20
-134.9120062596748
 10
71.79734020557497
 20
-134.9120062596748
 10
71.80991480409614
 20
-134.9120062596748
 10
71.83747556797813
 20
-134.9161403742571
 10
71.83747556797813
 20
-134.9437011381391
 10
71.83747556797813
 20
-134.9650607301476
 10
71.8142211734527
 20
-134.9798746407342
 10
71.76771238440182
 20
-135.0070908950677
 10
71.75927190046296
 20
-135.1383490330557
 10
71.75703258839755
 20
-135.2696071710437
 10
71.75703258839755
 20
-135.3984537421921
 10
71.75703258839755
 20
-135.3984537421921
 10
71.75703258839755
 20
-135.6334092542861
 10
71.75703258839755
 20
-135.6334092542861
 10
71.75703258839755
 20
-135.6334092542861
 10
71.85659584792127
 20
-135.4453070407914
 10
71.85659584792127
 20
-135.4453070407914
 10
72.14839543552193
 20
-135.5782877265221
 10
72.431926793958
 20
-135.7922281561561
 10
72.52287731476859
 20
-135.9062608167179
 10
72.52287731476859
 20
-135.9062608167179
 10
72.38335094761597
 20
-136.0733479477525
 10
72.38335094761597
 20
-136.0733479477525
 97
        0
 97
        0
 75
     2
 76
     1
 98
        0
  0
ENDBLK
  5
10F
330
10C
100
AcDbEntity
  8
0
100
AcDbBlockEnd
  0
BLOCK
  5
138
330
136
100
AcDbEntity
  8
0
100
AcDbBlockBegin
  2
block 4
 70
     0
 10
0.0
 20
0.0
 30
0.0
  3
block 4
  1

  0
POLYLINE
  5
13A
330
136
100
AcDbEntity
  8
_U+30EC_U+30A4_U+30E4_U+30FC 1
370
     0
100
AcDb2dPolyline
 66
     1
 10
0.0
 20
0.0
 30
0.0
  0
VERTEX
  5
13B
330
13A
100
AcDbEntity
  8
_U+30EC_U+30A4_U+30E4_U+30FC 1
370
     0
100
AcDbVertex
100
AcDb2dVertex
 10
112.5199191341964
 20
-120.870830590442
 30
0.0
  0
VERTEX
  5
13C
330
13A
100
AcDbEntity
  8
_U+30EC_U+30A4_U+30E4_U+30FC 1
370
     0
100
AcDbVertex
100
AcDb2dVertex
 10
112.8668402495611
 20
-120.870830590442
 30
0.0
  0
VERTEX
  5
13D
330
13A
100
AcDbEntity
  8
_U+30EC_U+30A4_U+30E4_U+30FC 1
370
     0
100
AcDbVertex
100
AcDb2dVertex
 10
112.8668402495611
 20
-121.0887328798841
 30
0.0
  0
VERTEX
  5
13E
330
13A
100
AcDbEntity
  8
_U+30EC_U+30A4_U+30E4_U+30FC 1
370
     0
100
AcDbVertex
100
AcDb2dVertex
 10
112.5199191341964
 20
-121.0887328798841
 30
0.0
  0
VERTEX
  5
13F
330
13A
100
AcDbEntity
  8
_U+30EC_U+30A4_U+30E4_U+30FC 1
370
     0
100
AcDbVertex
100
AcDb2dVertex
 10
112.5199191341964
 20
-121.7445068055014
 30
0.0
  0
VERTEX
  5
140
330
13A
100
AcDbEntity
  8
_U+30EC_U+30A4_U+30E4_U+30FC 1
370
     0
100
AcDbVertex
100
AcDb2dVertex
 10
112.2956434181066
 20
-121.7445068055014
 30
0.0
  0
VERTEX
  5
141
330
13A
100
AcDbEntity
  8
_U+30EC_U+30A4_U+30E4_U+30FC 1
370
     0
100
AcDbVertex
100
AcDb2dVertex
 10
111.3224039435236
 20
-121.0654784853586
 30
0.0
  0
VERTEX
  5
142
330
13A
100
AcDbEntity
  8
_U+30EC_U+30A4_U+30E4_U+30FC 1
370
     0
100
AcDbVertex
100
AcDb2dVertex
 10
111.3224039435236
 20
-120.870830590442
 30
0.0
  0
VERTEX
  5
143
330
13A
100
AcDbEntity
  8
_U+30EC_U+30A4_U+30E4_U+30FC 1
370
     0
100
AcDbVertex
100
AcDb2dVertex
 10
112.3211371246975
 20
-120.870830590442
 30
0.0
  0
VERTEX
  5
144
330
13A
100
AcDbEntity
  8
_U+30EC_U+30A4_U+30E4_U+30FC 1
370
     0
100
AcDbVertex
100
AcDb2dVertex
 10
112.3211371246975
 20
-120.66343584223
 30
0.0
  0
VERTEX
  5
145
330
13A
100
AcDbEntity
  8
_U+30EC_U+30A4_U+30E4_U+30FC 1
370
     0
100
AcDbVertex
100
AcDb2dVertex
 10
112.5199191341964
 20
-120.66343584223
 30
0.0
  0
VERTEX
  5
146
330
13A
100
AcDbEntity
  8
_U+30EC_U+30A4_U+30E4_U+30FC 1
370
     0
100
AcDbVertex
100
AcDb2dVertex
 10
112.5199191341964
 20
-120.870830590442
 30
0.0
  0
SEQEND
  5
147
330
13A
100
AcDbEntity
  8
_U+30EC_U+30A4_U+30E4_U+30FC 1
370
     0
  0
POLYLINE
  5
148
330
136
100
AcDbEntity
  8
_U+30EC_U+30A4_U+30E4_U+30FC 1
370
     0
100
AcDb2dPolyline
 66
     1
 10
0.0
 20
0.0
 30
0.0
  0
VERTEX
  5
149
330
148
100
AcDbEntity
  8
_U+30EC_U+30A4_U+30E4_U+30FC 1
370
     0
100
AcDbVertex
100
AcDb2dVertex
 10
111.6651909443059
 20
-121.0887328798841
 30
0.0
  0
VERTEX
  5
14A
330
148
100
AcDbEntity
  8
_U+30EC_U+30A4_U+30E4_U+30FC 1
370
     0
100
AcDbVertex
100
AcDb2dVertex
 10
112.3211371246975
 20
-121.5455525412282
 30
0.0
  0
VERTEX
  5
14B
330
148
100
AcDbEntity
  8
_U+30EC_U+30A4_U+30E4_U+30FC 1
370
     0
100
AcDbVertex
100
AcDb2dVertex
 10
112.3211371246975
 20
-121.0887328798841
 30
0.0
  0
VERTEX
  5
14C
330
148
100
AcDbEntity
  8
_U+30EC_U+30A4_U+30E4_U+30FC 1
370
     0
100
AcDbVertex
100
AcDb2dVertex
 10
111.6651909443059
 20
-121.0887328798841
 30
0.0
  0
SEQEND
  5
14D
330
148
100
AcDbEntity
  8
_U+30EC_U+30A4_U+30E4_U+30FC 1
370
     0
  0
HATCH
  5
14E
330
136
100
AcDbEntity
  8
_U+30EC_U+30A4_U+30E4_U+30FC 1
 62
   179
420
  2234388
100
AcDbHatch
 10
0.0
 20
0.0
 30
0.0
210
0.0
220
0.0
230
1.0
  2
SOLID
 70
     1
 71
     0
 91
        2
 92
        1
 93
       11
 72
     1
 10
112.5199191341964
 20
-120.870830590442
 11
112.8668402495611
 21
-120.870830590442
 72
     1
 10
112.8668402495611
 20
-120.870830590442
 11
112.8668402495611
 21
-121.0887328798841
 72
     1
 10
112.8668402495611
 20
-121.0887328798841
 11
112.5199191341964
 21
-121.0887328798841
 72
     1
 10
112.5199191341964
 20
-121.0887328798841
 11
112.5199191341964
 21
-121.7445068055014
 72
     1
 10
112.5199191341964
 20
-121.7445068055014
 11
112.2956434181066
 21
-121.7445068055014
 72
     1
 10
112.2956434181066
 20
-121.7445068055014
 11
111.3224039435236
 21
-121.0654784853586
 72
     1
 10
111.3224039435236
 20
-121.0654784853586
 11
111.3224039435236
 21
-120.870830590442
 72
     1
 10
111.3224039435236
 20
-120.870830590442
 11
112.3211371246975
 21
-120.870830590442
 72
     1
 10
112.3211371246975
 20
-120.870830590442
 11
112.3211371246975
 21
-120.66343584223
 72
     1
 10
112.3211371246975
 20
-120.66343584223
 11
112.5199191341964
 21
-120.66343584223
 72
     1
 10
112.5199191341964
 20
-120.66343584223
 11
112.5199191341964
 21
-120.870830590442
 97
        0
 92
        1
 93
        3
 72
     1
 10
111.6651909443059
 20
-121.0887328798841
 11
112.3211371246975
 21
-121.5455525412282
 72
     1
 10
112.3211371246975
 20
-121.5455525412282
 11
112.3211371246975
 21
-121.0887328798841
 72
     1
 10
112.3211371246975
 20
-121.0887328798841
 11
111.6651909443059
 21
-121.0887328798841
 97
        0
 75
     2
 76
     1
 98
        0
  0
ENDBLK
  5
139
330
136
100
AcDbEntity
  8
0
100
AcDbBlockEnd
  0
BLOCK
  5
15D
330
15B
100
AcDbEntity
  8
0
100
AcDbBlockBegin
  2
block 5
 70
     0
 10
0.0
 20
0.0
 30
0.0
  3
block 5
  1

  0
SPLINE
  5
15F
330
15B
100
AcDbEntity
  8
_U+30EC_U+30A4_U+30E4_U+30FC 1
370
     0
100
AcDbSpline
210
0.0
220
0.0
230
1.0
 70
    11
 71
     3
 72
    44
 73
    40
 74
     0
 42
0.0000000001
 43
0.0000000001
 12
1.0
 22
0.0
 32
0.0
 13
1.0
 23
0.0
 33
0.0
 40
0.0
 40
0.0
 40
0.0
 40
0.0
 40
1.0
 40
1.0
 40
1.0
 40
2.0
 40
2.0
 40
2.0
 40
3.0
 40
3.0
 40
3.0
 40
4.0
 40
4.0
 40
4.0
 40
5.0
 40
5.0
 40
5.0
 40
6.0
 40
6.0
 40
6.0
 40
7.0
 40
7.0
 40
7.0
 40
8.0
 40
8.0
 40
8.0
 40
9.0
 40
9.0
 40
9.0
 40
10.0
 40
10.0
 40
10.0
 40
11.0
 40
11.0
 40
11.0
 40
12.0
 40
12.0
 40
12.0
 40
13.0
 40
13.0
 40
13.0
 40
13.0
 10
95.54145505423963
 20
-113.176554333685
 30
0.0
 10
95.32372501957185
 20
-113.3353732355551
 30
0.0
 10
95.2307074414701
 20
-113.4094427884879
 30
0.0
 10
95.18178708557956
 20
-113.5531032702228
 30
0.0
 10
95.18178708557956
 20
-113.5531032702228
 30
0.0
 10
95.96037866524603
 20
-113.5531032702228
 30
0.0
 10
95.96037866524603
 20
-113.5531032702228
 30
0.0
 10
95.96037866524603
 20
-113.5531032702228
 30
0.0
 10
95.96037866524603
 20
-113.7584309611437
 30
0.0
 10
95.96037866524603
 20
-113.7584309611437
 30
0.0
 10
95.96037866524603
 20
-113.7584309611437
 30
0.0
 10
94.93236217244747
 20
-113.7584309611437
 30
0.0
 10
94.93236217244747
 20
-113.7584309611437
 30
0.0
 10
94.96405705091176
 20
-113.4008300497748
 30
0.0
 10
95.02951386513152
 20
-113.3226263822596
 30
0.0
 10
95.41467554038245
 20
-113.024281113237
 30
0.0
 10
95.6706461349365
 20
-112.8254991037381
 30
0.0
 10
95.73610294915626
 20
-112.7576307226787
 30
0.0
 10
95.73610294915626
 20
-112.6201714128172
 30
0.0
 10
95.73610294915626
 20
-112.5016601281246
 30
0.0
 10
95.66410045351454
 20
-112.3707464996851
 30
0.0
 10
95.46738550130677
 20
-112.3707464996851
 30
0.0
 10
95.20728079217041
 20
-112.3707464996851
 30
0.0
 10
95.19866805345728
 20
-112.6012233876483
 30
0.0
 10
95.19453393887498
 20
-112.7176676150497
 30
0.0
 10
95.19453393887498
 20
-112.7176676150497
 30
0.0
 10
94.97025822278522
 20
-112.7176676150497
 30
0.0
 10
94.97025822278522
 20
-112.7176676150497
 30
0.0
 10
94.97887096149834
 20
-112.590543591644
 30
0.0
 10
94.98955075750261
 20
-112.4785779883734
 30
0.0
 10
95.06982148230894
 20
-112.3600667036808
 30
0.0
 10
95.1797200282884
 20
-112.1991807445197
 30
0.0
 10
95.36609969404043
 20
-112.1654188087642
 30
0.0
 10
95.48219941189335
 20
-112.1654188087642
 30
0.0
 10
95.75952959845596
 20
-112.1654188087642
 30
0.0
 10
95.966924346668
 20
-112.3493869076765
 30
0.0
 10
95.966924346668
 20
-112.6222384701083
 30
0.0
 10
95.966924346668
 20
-112.8509928103289
 30
0.0
 10
95.85048011926655
 20
-112.9502115603041
 30
0.0
 10
95.54145505423963
 20
-113.176554333685
 30
0.0
  0
HATCH
  5
160
330
15B
100
AcDbEntity
  8
_U+30EC_U+30A4_U+30E4_U+30FC 1
 62
   179
420
  2234388
100
AcDbHatch
 10
0.0
 20
0.0
 30
0.0
210
0.0
220
0.0
230
1.0
  2
SOLID
 70
     1
 71
     0
 91
        1
 92
        1
 93
        1
 72
     4
 94
        3
 73
     0
 74
     1
 95
       44
 96
       40
 40
0.0
 40
0.0
 40
0.0
 40
0.0
 40
1.0
 40
1.0
 40
1.0
 40
2.0
 40
2.0
 40
2.0
 40
3.0
 40
3.0
 40
3.0
 40
4.0
 40
4.0
 40
4.0
 40
5.0
 40
5.0
 40
5.0
 40
6.0
 40
6.0
 40
6.0
 40
7.0
 40
7.0
 40
7.0
 40
8.0
 40
8.0
 40
8.0
 40
9.0
 40
9.0
 40
9.0
 40
10.0
 40
10.0
 40
10.0
 40
11.0
 40
11.0
 40
11.0
 40
12.0
 40
12.0
 40
12.0
 40
13.0
 40
13.0
 40
13.0
 40
13.0
 10
95.54145505423963
 20
-113.176554333685
 10
95.32372501957185
 20
-113.3353732355551
 10
95.2307074414701
 20
-113.4094427884879
 10
95.18178708557956
 20
-113.5531032702228
 10
95.18178708557956
 20
-113.5531032702228
 10
95.96037866524603
 20
-113.5531032702228
 10
95.96037866524603
 20
-113.5531032702228
 10
95.96037866524603
 20
-113.5531032702228
 10
95.96037866524603
 20
-113.7584309611437
 10
95.96037866524603
 20
-113.7584309611437
 10
95.96037866524603
 20
-113.7584309611437
 10
94.93236217244747
 20
-113.7584309611437
 10
94.93236217244747
 20
-113.7584309611437
 10
94.96405705091176
 20
-113.4008300497748
 10
95.02951386513152
 20
-113.3226263822596
 10
95.41467554038245
 20
-113.024281113237
 10
95.6706461349365
 20
-112.8254991037381
 10
95.73610294915626
 20
-112.7576307226787
 10
95.73610294915626
 20
-112.6201714128172
 10
95.73610294915626
 20
-112.5016601281246
 10
95.66410045351454
 20
-112.3707464996851
 10
95.46738550130677
 20
-112.3707464996851
 10
95.20728079217041
 20
-112.3707464996851
 10
95.19866805345728
 20
-112.6012233876483
 10
95.19453393887498
 20
-112.7176676150497
 10
95.19453393887498
 20
-112.7176676150497
 10
94.97025822278522
 20
-112.7176676150497
 10
94.97025822278522
 20
-112.7176676150497
 10
94.97887096149834
 20
-112.590543591644
 10
94.98955075750261
 20
-112.4785779883734
 10
95.06982148230894
 20
-112.3600667036808
 10
95.1797200282884
 20
-112.1991807445197
 10
95.36609969404043
 20
-112.1654188087642
 10
95.48219941189335
 20
-112.1654188087642
 10
95.75952959845596
 20
-112.1654188087642
 10
95.966924346668
 20
-112.3493869076765
 10
95.966924346668
 20
-112.6222384701083
 10
95.966924346668
 20
-112.8509928103289
 10
95.85048011926655
 20
-112.9502115603041
 10
95.54145505423963
 20
-113.176554333685
 97
        0
 97
        0
 75
     2
 76
     1
 98
        0
  0
SPLINE
  5
161
330
15B
100
AcDbEntity
  8
_U+30EC_U+30A4_U+30E4_U+30FC 1
370
     0
100
AcDbSpline
210
0.0
220
0.0
230
1.0
 70
    11
 71
     3
 72
    53
 73
    49
 74
     0
 42
0.0000000001
 43
0.0000000001
 12
1.0
 22
0.0
 32
0.0
 13
1.0
 23
0.0
 33
0.0
 40
0.0
 40
0.0
 40
0.0
 40
0.0
 40
1.0
 40
1.0
 40
1.0
 40
2.0
 40
2.0
 40
2.0
 40
3.0
 40
3.0
 40
3.0
 40
4.0
 40
4.0
 40
4.0
 40
5.0
 40
5.0
 40
5.0
 40
6.0
 40
6.0
 40
6.0
 40
7.0
 40
7.0
 40
7.0
 40
8.0
 40
8.0
 40
8.0
 40
9.0
 40
9.0
 40
9.0
 40
10.0
 40
10.0
 40
10.0
 40
11.0
 40
11.0
 40
11.0
 40
12.0
 40
12.0
 40
12.0
 40
13.0
 40
13.0
 40
13.0
 40
14.0
 40
14.0
 40
14.0
 40
15.0
 40
15.0
 40
15.0
 40
16.0
 40
16.0
 40
16.0
 40
16.0
 10
96.60633406873036
 20
-113.8090738647769
 30
0.0
 10
96.5281304012152
 20
-113.8090738647769
 30
0.0
 10
96.42650008440032
 20
-113.7921928968992
 30
0.0
 10
96.32486976758545
 20
-113.7288031399706
 30
0.0
 10
96.15158146467739
 20
-113.6189045939911
 30
0.0
 10
96.13022187266884
 20
-113.4876464560031
 30
0.0
 10
96.11127384749996
 20
-113.3798149673148
 30
0.0
 10
96.11127384749996
 20
-113.3798149673148
 30
0.0
 10
96.33348250629858
 20
-113.3798149673148
 30
0.0
 10
96.33348250629858
 20
-113.3798149673148
 30
0.0
 10
96.38825952451405
 20
-113.5785969768137
 30
0.0
 10
96.51538354791977
 20
-113.6082247979868
 30
0.0
 10
96.60840112602152
 20
-113.6082247979868
 30
0.0
 10
96.74792749317413
 20
-113.6082247979868
 30
0.0
 10
96.90020071362218
 20
-113.5086615384631
 30
0.0
 10
96.90020071362218
 20
-113.2761175932088
 30
0.0
 10
96.90020071362218
 20
-113.0201469986547
 30
0.0
 10
96.72036672929214
 20
-112.9502115603041
 30
0.0
 10
96.5997883873084
 20
-112.9502115603041
 30
0.0
 10
96.56809350884409
 20
-112.9502115603041
 30
0.0
 10
96.42650008440032
 20
-112.9502115603041
 30
0.0
 10
96.33761662088088
 20
-113.079402641001
 30
0.0
 10
96.33761662088088
 20
-113.079402641001
 30
0.0
 10
96.16191675113313
 20
-113.0604546158321
 30
0.0
 10
96.16191675113313
 20
-113.0604546158321
 30
0.0
 10
96.16191675113313
 20
-113.0604546158321
 30
0.0
 10
96.28249509311688
 20
-112.2139946551062
 30
0.0
 10
96.28249509311688
 20
-112.2139946551062
 30
0.0
 10
96.28249509311688
 20
-112.2139946551062
 30
0.0
 10
97.06108667278335
 20
-112.2139946551062
 30
0.0
 10
97.06108667278335
 20
-112.2139946551062
 30
0.0
 10
97.06108667278335
 20
-112.2139946551062
 30
0.0
 10
97.06108667278335
 20
-112.4086425500228
 30
0.0
 10
97.06108667278335
 20
-112.4086425500228
 30
0.0
 10
97.06108667278335
 20
-112.4086425500228
 30
0.0
 10
96.4454481095692
 20
-112.4086425500228
 30
0.0
 10
96.4454481095692
 20
-112.4086425500228
 30
0.0
 10
96.4454481095692
 20
-112.4086425500228
 30
0.0
 10
96.37999129534946
 20
-112.8317002756115
 30
0.0
 10
96.37999129534946
 20
-112.8317002756115
 30
0.0
 10
96.4413139949869
 20
-112.7979383398561
 30
0.0
 10
96.52365177708437
 20
-112.7576307226787
 30
0.0
 10
96.64216306177697
 20
-112.7576307226787
 30
0.0
 10
96.89606659903988
 20
-112.7576307226787
 30
0.0
 10
97.13308916842506
 20
-112.9440103884307
 30
0.0
 10
97.13308916842506
 20
-113.2571695680399
 30
0.0
 10
97.13308916842506
 20
-113.5744628622314
 30
0.0
 10
96.9088134523353
 20
-113.8090738647769
 30
0.0
 10
96.60633406873036
 20
-113.8090738647769
 30
0.0
  0
HATCH
  5
162
330
15B
100
AcDbEntity
  8
_U+30EC_U+30A4_U+30E4_U+30FC 1
 62
   179
420
  2234388
100
AcDbHatch
 10
0.0
 20
0.0
 30
0.0
210
0.0
220
0.0
230
1.0
  2
SOLID
 70
     1
 71
     0
 91
        1
 92
        1
 93
        1
 72
     4
 94
        3
 73
     0
 74
     1
 95
       53
 96
       49
 40
0.0
 40
0.0
 40
0.0
 40
0.0
 40
1.0
 40
1.0
 40
1.0
 40
2.0
 40
2.0
 40
2.0
 40
3.0
 40
3.0
 40
3.0
 40
4.0
 40
4.0
 40
4.0
 40
5.0
 40
5.0
 40
5.0
 40
6.0
 40
6.0
 40
6.0
 40
7.0
 40
7.0
 40
7.0
 40
8.0
 40
8.0
 40
8.0
 40
9.0
 40
9.0
 40
9.0
 40
10.0
 40
10.0
 40
10.0
 40
11.0
 40
11.0
 40
11.0
 40
12.0
 40
12.0
 40
12.0
 40
13.0
 40
13.0
 40
13.0
 40
14.0
 40
14.0
 40
14.0
 40
15.0
 40
15.0
 40
15.0
 40
16.0
 40
16.0
 40
16.0
 40
16.0
 10
96.60633406873036
 20
-113.8090738647769
 10
96.5281304012152
 20
-113.8090738647769
 10
96.42650008440032
 20
-113.7921928968992
 10
96.32486976758545
 20
-113.7288031399706
 10
96.15158146467739
 20
-113.6189045939911
 10
96.13022187266884
 20
-113.4876464560031
 10
96.11127384749996
 20
-113.3798149673148
 10
96.11127384749996
 20
-113.3798149673148
 10
96.33348250629858
 20
-113.3798149673148
 10
96.33348250629858
 20
-113.3798149673148
 10
96.38825952451405
 20
-113.5785969768137
 10
96.51538354791977
 20
-113.6082247979868
 10
96.60840112602152
 20
-113.6082247979868
 10
96.74792749317413
 20
-113.6082247979868
 10
96.90020071362218
 20
-113.5086615384631
 10
96.90020071362218
 20
-113.2761175932088
 10
96.90020071362218
 20
-113.0201469986547
 10
96.72036672929214
 20
-112.9502115603041
 10
96.5997883873084
 20
-112.9502115603041
 10
96.56809350884409
 20
-112.9502115603041
 10
96.42650008440032
 20
-112.9502115603041
 10
96.33761662088088
 20
-113.079402641001
 10
96.33761662088088
 20
-113.079402641001
 10
96.16191675113313
 20
-113.0604546158321
 10
96.16191675113313
 20
-113.0604546158321
 10
96.16191675113313
 20
-113.0604546158321
 10
96.28249509311688
 20
-112.2139946551062
 10
96.28249509311688
 20
-112.2139946551062
 10
96.28249509311688
 20
-112.2139946551062
 10
97.06108667278335
 20
-112.2139946551062
 10
97.06108667278335
 20
-112.2139946551062
 10
97.06108667278335
 20
-112.2139946551062
 10
97.06108667278335
 20
-112.4086425500228
 10
97.06108667278335
 20
-112.4086425500228
 10
97.06108667278335
 20
-112.4086425500228
 10
96.4454481095692
 20
-112.4086425500228
 10
96.4454481095692
 20
-112.4086425500228
 10
96.4454481095692
 20
-112.4086425500228
 10
96.37999129534946
 20
-112.8317002756115
 10
96.37999129534946
 20
-112.8317002756115
 10
96.4413139949869
 20
-112.7979383398561
 10
96.52365177708437
 20
-112.7576307226787
 10
96.64216306177697
 20
-112.7576307226787
 10
96.89606659903988
 20
-112.7576307226787
 10
97.13308916842506
 20
-112.9440103884307
 10
97.13308916842506
 20
-113.2571695680399
 10
97.13308916842506
 20
-113.5744628622314
 10
96.9088134523353
 20
-113.8090738647769
 10
96.60633406873036
 20
-113.8090738647769
 97
        0
 97
        0
 75
     2
 76
     1
 98
        0
  0
ENDBLK
  5
15E
330
15B
100
AcDbEntity
  8
0
100
AcDbBlockEnd
  0
ENDSEC
  0
SECTION
  2
ENTITIES
  0
SPLINE
  5
41
330
1F
100
AcDbEntity
  8
_U+30EC_U+30A4_U+30E4_U+30FC 1
370
     0
100
AcDbSpline
210
0.0
220
0.0
230
1.0
 70
    11
 71
     3
 72
    71
 73
    67
 74
     0
 42
0.0000000001
 43
0.0000000001
 12
1.0
 22
0.0
 32
0.0
 13
1.0
 23
0.0
 33
0.0
 40
0.0
 40
0.0
 40
0.0
 40
0.0
 40
1.0
 40
1.0
 40
1.0
 40
2.0
 40
2.0
 40
2.0
 40
3.0
 40
3.0
 40
3.0
 40
4.0
 40
4.0
 40
4.0
 40
5.0
 40
5.0
 40
5.0
 40
6.0
 40
6.0
 40
6.0
 40
7.0
 40
7.0
 40
7.0
 40
8.0
 40
8.0
 40
8.0
 40
9.0
 40
9.0
 40
9.0
 40
10.0
 40
10.0
 40
10.0
 40
11.0
 40
11.0
 40
11.0
 40
12.0
 40
12.0
 40
12.0
 40
13.0
 40
13.0
 40
13.0
 40
14.0
 40
14.0
 40
14.0
 40
15.0
 40
15.0
 40
15.0
 40
16.0
 40
16.0
 40
16.0
 40
17.0
 40
17.0
 40
17.0
 40
18.0
 40
18.0
 40
18.0
 40
19.0
 40
19.0
 40
19.0
 40
20.0
 40
20.0
 40
20.0
 40
21.0
 40
21.0
 40
21.0
 40
22.0
 40
22.0
 40
22.0
 40
22.0
 10
83.61281147797058
 20
-120.6048796920709
 30
0.0
 10
83.61281147797058
 20
-120.6048796920709
 30
0.0
 10
83.61281147797058
 20
-144.2047957972823
 30
0.0
 10
83.61281147797058
 20
-144.2047957972823
 30
0.0
 10
83.61281147797058
 20
-144.2047957972823
 30
0.0
 10
87.61324082035557
 20
-144.2047957972823
 30
0.0
 10
87.61324082035557
 20
-144.2047957972823
 30
0.0
 10
87.61324082035557
 20
-144.2047957972823
 30
0.0
 10
87.61324082035557
 20
-141.8207941312112
 30
0.0
 10
87.61324082035557
 20
-141.8207941312112
 30
0.0
 10
87.61324082035557
 20
-141.8207941312112
 30
0.0
 10
87.11303722200572
 20
-140.9546894092057
 30
0.0
 10
87.11303722200572
 20
-140.9546894092057
 30
0.0
 10
87.11303722200572
 20
-140.9546894092057
 30
0.0
 10
86.73821084267944
 20
-140.9546894092057
 30
0.0
 10
86.73821084267944
 20
-140.9546894092057
 30
0.0
 10
86.73821084267944
 20
-140.9546894092057
 30
0.0
 10
86.73821084267944
 20
-142.2548871866587
 30
0.0
 10
86.73821084267944
 20
-142.2548871866587
 30
0.0
 10
86.73821084267944
 20
-142.2548871866587
 30
0.0
 10
86.98797750297403
 20
-142.5046538532625
 30
0.0
 10
86.98797750297403
 20
-142.5046538532625
 30
0.0
 10
86.98797750297403
 20
-142.5046538532625
 30
0.0
 10
86.98797750297403
 20
-143.5547321863333
 30
0.0
 10
86.98797750297403
 20
-143.5547321863333
 30
0.0
 10
86.98797750297403
 20
-143.5547321863333
 30
0.0
 10
84.26322785026596
 20
-143.5547321863333
 30
0.0
 10
84.26322785026596
 20
-143.5547321863333
 30
0.0
 10
84.26322785026596
 20
-143.5547321863333
 30
0.0
 10
84.26322785026596
 20
-120.6048796920709
 30
0.0
 10
84.26322785026596
 20
-120.6048796920709
 30
0.0
 10
84.26322785026596
 20
-120.1904363588412
 30
0.0
 10
84.59879006392728
 20
-119.8548741367031
 30
0.0
 10
85.01288060891851
 20
-119.8548741367031
 30
0.0
 10
85.01288060891851
 20
-119.8548741367031
 30
0.0
 10
107.9630853011878
 20
-119.8548741367031
 30
0.0
 10
107.9630853011878
 20
-119.8548741367031
 30
0.0
 10
107.9630853011878
 20
-119.8548741367031
 30
0.0
 10
107.9630853011878
 20
-122.5799413582439
 30
0.0
 10
107.9630853011878
 20
-122.5799413582439
 30
0.0
 10
107.9630853011878
 20
-122.5799413582439
 30
0.0
 10
106.9130069946442
 20
-122.5799413582439
 30
0.0
 10
106.9130069946442
 20
-122.5799413582439
 30
0.0
 10
106.9130069946442
 20
-122.5799413582439
 30
0.0
 10
106.6629228343577
 20
-122.329821913862
 30
0.0
 10
106.6629228343577
 20
-122.329821913862
 30
0.0
 10
106.6629228343577
 20
-122.329821913862
 30
0.0
 10
105.3630805292146
 20
-122.329821913862
 30
0.0
 10
105.3630805292146
 20
-122.329821913862
 30
0.0
 10
105.3630805292146
 20
-122.329821913862
 30
0.0
 10
105.3630805292146
 20
-122.7046483026572
 30
0.0
 10
105.3630805292146
 20
-122.7046483026572
 30
0.0
 10
105.3630805292146
 20
-122.7046483026572
 30
0.0
 10
106.2291825676456
 20
-123.2048871914209
 30
0.0
 10
106.2291825676456
 20
-123.2048871914209
 30
0.0
 10
106.2291825676456
 20
-123.2048871914209
 30
0.0
 10
108.6131841734913
 20
-123.2048871914209
 30
0.0
 10
108.6131841734913
 20
-123.2048871914209
 30
0.0
 10
108.6131841734913
 20
-123.2048871914209
 30
0.0
 10
108.6131841734913
 20
-119.2047752479766
 30
0.0
 10
108.6131841734913
 20
-119.2047752479766
 30
0.0
 10
108.6131841734913
 20
-119.2047752479766
 30
0.0
 10
85.01288060891851
 20
-119.2047752479766
 30
0.0
 10
85.01288060891851
 20
-119.2047752479766
 30
0.0
 10
84.2398055344956
 20
-119.2047752479766
 30
0.0
 10
83.61281147797058
 20
-119.8314496922643
 30
0.0
 10
83.61281147797058
 20
-120.6048796920709
 30
0.0
  0
HATCH
  5
42
330
1F
100
AcDbEntity
  8
_U+30EC_U+30A4_U+30E4_U+30FC 1
 62
     7
420
 16777215
100
AcDbHatch
 10
0.0
 20
0.0
 30
0.0
210
0.0
220
0.0
230
1.0
  2
SOLID
 70
     1
 71
     0
 91
        1
 92
        1
 93
        1
 72
     4
 94
        3
 73
     0
 74
     1
 95
       71
 96
       67
 40
0.0
 40
0.0
 40
0.0
 40
0.0
 40
1.0
 40
1.0
 40
1.0
 40
2.0
 40
2.0
 40
2.0
 40
3.0
 40
3.0
 40
3.0
 40
4.0
 40
4.0
 40
4.0
 40
5.0
 40
5.0
 40
5.0
 40
6.0
 40
6.0
 40
6.0
 40
7.0
 40
7.0
 40
7.0
 40
8.0
 40
8.0
 40
8.0
 40
9.0
 40
9.0
 40
9.0
 40
10.0
 40
10.0
 40
10.0
 40
11.0
 40
11.0
 40
11.0
 40
12.0
 40
12.0
 40
12.0
 40
13.0
 40
13.0
 40
13.0
 40
14.0
 40
14.0
 40
14.0
 40
15.0
 40
15.0
 40
15.0
 40
16.0
 40
16.0
 40
16.0
 40
17.0
 40
17.0
 40
17.0
 40
18.0
 40
18.0
 40
18.0
 40
19.0
 40
19.0
 40
19.0
 40
20.0
 40
20.0
 40
20.0
 40
21.0
 40
21.0
 40
21.0
 40
22.0
 40
22.0
 40
22.0
 40
22.0
 10
83.61281147797058
 20
-120.6048796920709
 10
83.61281147797058
 20
-120.6048796920709
 10
83.61281147797058
 20
-144.2047957972823
 10
83.61281147797058
 20
-144.2047957972823
 10
83.61281147797058
 20
-144.2047957972823
 10
87.61324082035557
 20
-144.2047957972823
 10
87.61324082035557
 20
-144.2047957972823
 10
87.61324082035557
 20
-144.2047957972823
 10
87.61324082035557
 20
-141.8207941312112
 10
87.61324082035557
 20
-141.8207941312112
 10
87.61324082035557
 20
-141.8207941312112
 10
87.11303722200572
 20
-140.9546894092057
 10
87.11303722200572
 20
-140.9546894092057
 10
87.11303722200572
 20
-140.9546894092057
 10
86.73821084267944
 20
-140.9546894092057
 10
86.73821084267944
 20
-140.9546894092057
 10
86.73821084267944
 20
-140.9546894092057
 10
86.73821084267944
 20
-142.2548871866587
 10
86.73821084267944
 20
-142.2548871866587
 10
86.73821084267944
 20
-142.2548871866587
 10
86.98797750297403
 20
-142.5046538532625
 10
86.98797750297403
 20
-142.5046538532625
 10
86.98797750297403
 20
-142.5046538532625
 10
86.98797750297403
 20
-143.5547321863333
 10
86.98797750297403
 20
-143.5547321863333
 10
86.98797750297403
 20
-143.5547321863333
 10
84.26322785026596
 20
-143.5547321863333
 10
84.26322785026596
 20
-143.5547321863333
 10
84.26322785026596
 20
-143.5547321863333
 10
84.26322785026596
 20
-120.6048796920709
 10
84.26322785026596
 20
-120.6048796920709
 10
84.26322785026596
 20
-120.1904363588412
 10
84.59879006392728
 20
-119.8548741367031
 10
85.01288060891851
 20
-119.8548741367031
 10
85.01288060891851
 20
-119.8548741367031
 10
107.9630853011878
 20
-119.8548741367031
 10
107.9630853011878
 20
-119.8548741367031
 10
107.9630853011878
 20
-119.8548741367031
 10
107.9630853011878
 20
-122.5799413582439
 10
107.9630853011878
 20
-122.5799413582439
 10
107.9630853011878
 20
-122.5799413582439
 10
106.9130069946442
 20
-122.5799413582439
 10
106.9130069946442
 20
-122.5799413582439
 10
106.9130069946442
 20
-122.5799413582439
 10
106.6629228343577
 20
-122.329821913862
 10
106.6629228343577
 20
-122.329821913862
 10
106.6629228343577
 20
-122.329821913862
 10
105.3630805292146
 20
-122.329821913862
 10
105.3630805292146
 20
-122.329821913862
 10
105.3630805292146
 20
-122.329821913862
 10
105.3630805292146
 20
-122.7046483026572
 10
105.3630805292146
 20
-122.7046483026572
 10
105.3630805292146
 20
-122.7046483026572
 10
106.2291825676456
 20
-123.2048871914209
 10
106.2291825676456
 20
-123.2048871914209
 10
106.2291825676456
 20
-123.2048871914209
 10
108.6131841734913
 20
-123.2048871914209
 10
108.6131841734913
 20
-123.2048871914209
 10
108.6131841734913
 20
-123.2048871914209
 10
108.6131841734913
 20
-119.2047752479766
 10
108.6131841734913
 20
-119.2047752479766
 10
108.6131841734913
 20
-119.2047752479766
 10
85.01288060891851
 20
-119.2047752479766
 10
85.01288060891851
 20
-119.2047752479766
 10
84.2398055344956
 20
-119.2047752479766
 10
83.61281147797058
 20
-119.8314496922643
 10
83.61281147797058
 20
-120.6048796920709
 97
        0
 97
        0
 75
     2
 76
     1
 98
        0
  0
INSERT
  5
44
330
1F
100
AcDbEntity
  8
_U+30EC_U+30A4_U+30E4_U+30FC 1
100
AcDbBlockReference
  2
block 2
 10
0.0
 20
0.0
 30
0.0
  0
ENDSEC
  0
SECTION
  2
OBJECTS
  0
DICTIONARY
  5
C
330
0
100
AcDbDictionary
281
     1
  3
ACAD_GROUP
350
D
  3
ACAD_LAYOUT
350
1A
  3
ACAD_MATERIAL
350
3B
  3
ACAD_MLEADERSTYLE
350
164
  3
ACAD_MLINESTYLE
350
17
  3
ACAD_PLOTSETTINGS
350
19
  3
ACAD_PLOTSTYLENAME
350
E
  3
ACAD_TABLESTYLE
350
163
  3
ACAD_VISUALSTYLE
350
2A
  0
SUN
  5
3F
330
29
100
AcDbSun
 90
        1
290
     0
 63
     7
421
 16777215
 40
1.0
291
     1
 91
  2455826
 92
 54000000
292
     0
 70
     2
 71
   256
280
     1
  0
DICTIONARY
  5
D
102
{ACAD_REACTORS
330
C
102
}
330
C
100
AcDbDictionary
281
     1
  0
DICTIONARY
  5
1A
102
{ACAD_REACTORS
330
C
102
}
330
C
100
AcDbDictionary
281
     1
  3
Layout1
350
1E
  3
Layout2
350
26
  3
Model
350
22
  0
DICTIONARY
  5
3B
102
{ACAD_REACTORS
330
C
102
}
330
C
100
AcDbDictionary
281
     1
  3
ByBlock
350
3D
  3
ByLayer
350
3C
  3
Global
350
3E
  0
DICTIONARY
  5
164
102
{ACAD_REACTORS
330
C
102
}
330
C
100
AcDbDictionary
281
     1
  0
DICTIONARY
  5
17
102
{ACAD_REACTORS
330
C
102
}
330
C
100
AcDbDictionary
281
     1
  3
Standard
350
18
  0
DICTIONARY
  5
19
102
{ACAD_REACTORS
330
C
102
}
330
C
100
AcDbDictionary
281
     1
  0
ACDBDICTIONARYWDFLT
  5
E
102
{ACAD_REACTORS
330
C
102
}
330
C
100
AcDbDictionary
281
     1
  3
Normal
350
F
100
AcDbDictionaryWithDefault
340
F
  0
DICTIONARY
  5
163
102
{ACAD_REACTORS
330
C
102
}
330
C
100
AcDbDictionary
281
     1
  0
DICTIONARY
  5
2A
102
{ACAD_REACTORS
330
C
102
}
330
C
100
AcDbDictionary
281
     1
  3
2dWireframe
350
2F
  3
3D Hidden
350
31
  3
3dWireframe
350
30
  3
Basic
350
32
  3
Brighten
350
36
  3
ColorChange
350
3A
  3
Conceptual
350
34
  3
Dim
350
35
  3
Facepattern
350
39
  3
Flat
350
2B
  3
FlatWithEdges
350
2C
  3
Gouraud
350
2D
  3
GouraudWithEdges
350
2E
  3
Linepattern
350
38
  3
Realistic
350
33
  3
Thicken
350
37
  0
LAYOUT
  5
1E
102
{ACAD_REACTORS
330
1A
102
}
330
1A
100
AcDbPlotSettings
  1

  2
none_device
  4

  6

 40
0.0
 41
0.0
 42
0.0
 43
0.0
 44
0.0
 45
0.0
 46
0.0
 47
0.0
 48
0.0
 49
0.0
140
0.0
141
0.0
142
1.0
143
1.0
 70
   688
 72
     0
 73
     0
 74
     5
  7

 75
    16
 76
     0
 77
     2
 78
   300
147
1.0
148
0.0
149
0.0
100
AcDbLayout
  1
Layout1
 70
     1
 71
     1
 10
0.0
 20
0.0
 11
12.0
 21
9.0
 12
0.0
 22
0.0
 32
0.0
 14
1.000000000000000E+20
 24
1.000000000000000E+20
 34
1.000000000000000E+20
 15
-1.000000000000000E+20
 25
-1.000000000000000E+20
 35
-1.000000000000000E+20
146
0.0
 13
0.0
 23
0.0
 33
0.0
 16
1.0
 26
0.0
 36
0.0
 17
0.0
 27
1.0
 37
0.0
 76
     0
330
1B
  0
LAYOUT
  5
26
102
{ACAD_REACTORS
330
1A
102
}
330
1A
100
AcDbPlotSettings
  1

  2
none_device
  4

  6

 40
0.0
 41
0.0
 42
0.0
 43
0.0
 44
0.0
 45
0.0
 46
0.0
 47
0.0
 48
0.0
 49
0.0
140
0.0
141
0.0
142
1.0
143
1.0
 70
   688
 72
     0
 73
     0
 74
     5
  7

 75
    16
 76
     0
 77
     2
 78
   300
147
1.0
148
0.0
149
0.0
100
AcDbLayout
  1
Layout2
 70
     1
 71
     2
 10
0.0
 20
0.0
 11
0.0
 21
0.0
 12
0.0
 22
0.0
 32
0.0
 14
0.0
 24
0.0
 34
0.0
 15
0.0
 25
0.0
 35
0.0
146
0.0
 13
0.0
 23
0.0
 33
0.0
 16
1.0
 26
0.0
 36
0.0
 17
0.0
 27
1.0
 37
0.0
 76
     0
330
23
  0
LAYOUT
  5
22
102
{ACAD_REACTORS
330
1A
102
}
330
1A
100
AcDbPlotSettings
  1

  2
none_device
  4

  6

 40
0.0
 41
0.0
 42
0.0
 43
0.0
 44
0.0
 45
0.0
 46
0.0
 47
0.0
 48
0.0
 49
0.0
140
0.0
141
0.0
142
1.0
143
1.0
 70
  1712
 72
     0
 73
     0
 74
     0
  7

 75
     0
 76
     0
 77
     2
 78
   300
147
1.0
148
0.0
149
0.0
100
AcDbLayout
  1
Model
 70
     1
 71
     0
 10
0.0
 20
0.0
 11
12.0
 21
9.0
 12
0.0
 22
0.0
 32
0.0
 14
1.000000000000000E+20
 24
1.000000000000000E+20
 34
1.000000000000000E+20
 15
-1.000000000000000E+20
 25
-1.000000000000000E+20
 35
-1.000000000000000E+20
146
0.0
 13
0.0
 23
0.0
 33
0.0
 16
1.0
 26
0.0
 36
0.0
 17
0.0
 27
1.0
 37
0.0
 76
     0
330
1F
331
29
  0
MATERIAL
  5
3D
102
{ACAD_REACTORS
330
3B
102
}
330
3B
100
AcDbMaterial
  1
ByBlock
 72
     1
 94
      127
  0
MATERIAL
  5
3C
102
{ACAD_REACTORS
330
3B
102
}
330
3B
100
AcDbMaterial
  1
ByLayer
 72
     1
 94
      127
  0
MATERIAL
  5
3E
102
{ACAD_REACTORS
330
3B
102
}
330
3B
100
AcDbMaterial
  1
Global
 72
     1
 94
      127
  0
MLINESTYLE
  5
18
102
{ACAD_REACTORS
330
17
102
}
330
17
100
AcDbMlineStyle
  2
Standard
 70
     0
  3

 62
   256
 51
90.0
 52
90.0
 71
     2
 49
0.5
 62
   256
  6
BYLAYER
 49
-0.5
 62
   256
  6
BYLAYER
  0
ACDBPLACEHOLDER
  5
F
102
{ACAD_REACTORS
330
E
102
}
330
E
  0
VISUALSTYLE
  5
2F
102
{ACAD_REACTORS
330
2A
102
}
330
2A
100
AcDbVisualStyle
  2
2dWireframe
 70
     4
177
     2
291
     0
 71
     0
176
     1
 72
     2
176
     1
 73
     0
176
     1
 90
        0
176
     1
 40
-0.6
176
     1
 41
-30.0
176
     1
 62
     5
 63
     7
421
 16777215
176
     1
 74
     1
176
     1
 91
        4
176
     1
 64
     7
176
     1
 65
   257
176
     1
 75
     1
176
     1
175
     1
176
     1
 42
1.0
176
     1
 92
        0
176
     1
 66
   257
176
     1
 43
1.0
176
     1
 76
     1
176
     1
 77
     6
176
     1
 78
     2
176
     1
 67
     7
176
     1
 79
     5
176
     1
170
     0
176
     1
171
     0
176
     1
290
     0
176
     1
 93
        1
176
     1
 44
0.0
176
     1
173
     0
176
     1
  0
VISUALSTYLE
  5
31
102
{ACAD_REACTORS
330
2A
102
}
330
2A
100
AcDbVisualStyle
  2
3D Hidden
 70
     6
177
     2
291
     0
 71
     1
176
     1
 72
     2
176
     1
 73
     2
176
     1
 90
        0
176
     1
 40
-0.6
176
     1
 41
-30.0
176
     1
 62
     5
 63
     7
421
 16777215
176
     1
 74
     2
176
     1
 91
        2
176
     1
 64
     7
176
     1
 65
   257
176
     1
 75
     2
176
     1
175
     1
176
     1
 42
40.0
176
     1
 92
        0
176
     1
 66
   257
176
     1
 43
1.0
176
     1
 76
     1
176
     1
 77
     6
176
     1
 78
     2
176
     1
 67
     7
176
     1
 79
     3
176
     1
170
     0
176
     1
171
     0
176
     1
290
     0
176
     1
 93
        1
176
     1
 44
0.0
176
     1
173
     0
176
     1
  0
VISUALSTYLE
  5
30
102
{ACAD_REACTORS
330
2A
102
}
330
2A
100
AcDbVisualStyle
  2
3dWireframe
 70
     5
177
     2
291
     0
 71
     0
176
     1
 72
     2
176
     1
 73
     0
176
     1
 90
        0
176
     1
 40
-0.6
176
     1
 41
-30.0
176
     1
 62
     5
 63
     7
421
 16777215
176
     1
 74
     1
176
     1
 91
        4
176
     1
 64
     7
176
     1
 65
   257
176
     1
 75
     1
176
     1
175
     1
176
     1
 42
1.0
176
     1
 92
        0
176
     1
 66
   257
176
     1
 43
1.0
176
     1
 76
     1
176
     1
 77
     6
176
     1
 78
     2
176
     1
 67
     7
176
     1
 79
     5
176
     1
170
     0
176
     1
171
     0
176
     1
290
     0
176
     1
 93
        1
176
     1
 44
0.0
176
     1
173
     0
176
     1
  0
VISUALSTYLE
  5
32
102
{ACAD_REACTORS
330
2A
102
}
330
2A
100
AcDbVisualStyle
  2
Basic
 70
     7
177
     2
291
     1
 71
     1
176
     1
 72
     0
176
     1
 73
     1
176
     1
 90
        0
176
     1
 40
-0.6
176
     1
 41
-30.0
176
     1
 62
     5
 63
     7
421
 16777215
176
     1
 74
     0
176
     1
 91
        4
176
     1
 64
     7
176
     1
 65
   257
176
     1
 75
     1
176
     1
175
     1
176
     1
 42
1.0
176
     1
 92
        8
176
     1
 66
     7
176
     1
 43
1.0
176
     1
 76
     1
176
     1
 77
     6
176
     1
 78
     2
176
     1
 67
     7
176
     1
 79
     5
176
     1
170
     0
176
     1
171
     0
176
     1
290
     0
176
     1
 93
        1
176
     1
 44
0.0
176
     1
173
     0
176
     1
  0
VISUALSTYLE
  5
36
102
{ACAD_REACTORS
330
2A
102
}
330
2A
100
AcDbVisualStyle
  2
Brighten
 70
    12
177
     2
291
     1
 71
     2
176
     1
 72
     2
176
     1
 73
     0
176
     1
 90
        0
176
     1
 40
-0.6
176
     1
 41
-30.0
176
     1
 62
     5
 63
     7
421
 16777215
176
     1
 74
     1
176
     1
 91
        4
176
     1
 64
     7
176
     1
 65
   257
176
     1
 75
     1
176
     1
175
     1
176
     1
 42
1.0
176
     1
 92
        8
176
     1
 66
     7
176
     1
 43
1.0
176
     1
 76
     1
176
     1
 77
     6
176
     1
 78
     2
176
     1
 67
     7
176
     1
 79
     5
176
     1
170
     0
176
     1
171
     0
176
     1
290
     0
176
     1
 93
        1
176
     1
 44
50.0
176
     1
173
     0
176
     1
  0
VISUALSTYLE
  5
3A
102
{ACAD_REACTORS
330
2A
102
}
330
2A
100
AcDbVisualStyle
  2
ColorChange
 70
    16
177
     2
291
     1
 71
     2
176
     1
 72
     2
176
     1
 73
     3
176
     1
 90
        0
176
     1
 40
-0.6
176
     1
 41
-30.0
176
     1
 62
     5
 63
     8
421
  8421504
176
     1
 74
     1
176
     1
 91
        4
176
     1
 64
     7
176
     1
 65
   257
176
     1
 75
     1
176
     1
175
     1
176
     1
 42
1.0
176
     1
 92
        8
176
     1
 66
     8
424
  8421504
176
     1
 43
1.0
176
     1
 76
     1
176
     1
 77
     6
176
     1
 78
     2
176
     1
 67
     7
176
     1
 79
     5
176
     1
170
     0
176
     1
171
     0
176
     1
290
     0
176
     1
 93
        1
176
     1
 44
0.0
176
     1
173
     0
176
     1
  0
VISUALSTYLE
  5
34
102
{ACAD_REACTORS
330
2A
102
}
330
2A
100
AcDbVisualStyle
  2
Conceptual
 70
     9
177
     2
291
     0
 71
     3
176
     1
 72
     2
176
     1
 73
     0
176
     1
 90
        0
176
     1
 40
-0.6
176
     1
 41
-30.0
176
     1
 62
     5
 63
     7
421
 16777215
176
     1
 74
     2
176
     1
 91
        2
176
     1
 64
     7
176
     1
 65
   257
176
     1
 75
     1
176
     1
175
     1
176
     1
 42
40.0
176
     1
 92
        8
176
     1
 66
     7
176
     1
 43
1.0
176
     1
 76
     1
176
     1
 77
     6
176
     1
 78
     2
176
     1
 67
     7
176
     1
 79
     3
176
     1
170
     0
176
     1
171
     0
176
     1
290
     0
176
     1
 93
        1
176
     1
 44
0.0
176
     1
173
     0
176
     1
  0
VISUALSTYLE
  5
35
102
{ACAD_REACTORS
330
2A
102
}
330
2A
100
AcDbVisualStyle
  2
Dim
 70
    11
177
     2
291
     1
 71
     2
176
     1
 72
     2
176
     1
 73
     0
176
     1
 90
        0
176
     1
 40
-0.6
176
     1
 41
-30.0
176
     1
 62
     5
 63
     7
421
 16777215
176
     1
 74
     1
176
     1
 91
        4
176
     1
 64
     7
176
     1
 65
   257
176
     1
 75
     1
176
     1
175
     1
176
     1
 42
1.0
176
     1
 92
        8
176
     1
 66
     7
176
     1
 43
1.0
176
     1
 76
     1
176
     1
 77
     6
176
     1
 78
     2
176
     1
 67
     7
176
     1
 79
     5
176
     1
170
     0
176
     1
171
     0
176
     1
290
     0
176
     1
 93
        1
176
     1
 44
-50.0
176
     1
173
     0
176
     1
  0
VISUALSTYLE
  5
39
102
{ACAD_REACTORS
330
2A
102
}
330
2A
100
AcDbVisualStyle
  2
Facepattern
 70
    15
177
     2
291
     1
 71
     2
176
     1
 72
     2
176
     1
 73
     0
176
     1
 90
        0
176
     1
 40
-0.6
176
     1
 41
-30.0
176
     1
 62
     5
 63
     7
421
 16777215
176
     1
 74
     1
176
     1
 91
        4
176
     1
 64
     7
176
     1
 65
   257
176
     1
 75
     1
176
     1
175
     1
176
     1
 42
1.0
176
     1
 92
        8
176
     1
 66
     7
176
     1
 43
1.0
176
     1
 76
     1
176
     1
 77
     6
176
     1
 78
     2
176
     1
 67
     7
176
     1
 79
     5
176
     1
170
     0
176
     1
171
     0
176
     1
290
     0
176
     1
 93
        1
176
     1
 44
0.0
176
     1
173
     0
176
     1
  0
VISUALSTYLE
  5
2B
102
{ACAD_REACTORS
330
2A
102
}
330
2A
100
AcDbVisualStyle
  2
Flat
 70
     0
177
     2
291
     1
 71
     2
176
     1
 72
     1
176
     1
 73
     1
176
     1
 90
        2
176
     1
 40
-0.6
176
     1
 41
30.0
176
     1
 62
     5
 63
     7
421
 16777215
176
     1
 74
     0
176
     1
 91
        4
176
     1
 64
     7
176
     1
 65
   257
176
     1
 75
     1
176
     1
175
     1
176
     1
 42
1.0
176
     1
 92
        8
176
     1
 66
     7
176
     1
 43
1.0
176
     1
 76
     1
176
     1
 77
     6
176
     1
 78
     2
176
     1
 67
     7
176
     1
 79
     5
176
     1
170
     0
176
     1
171
     0
176
     1
290
     0
176
     1
 93
       13
176
     1
 44
0.0
176
     1
173
     0
176
     1
  0
VISUALSTYLE
  5
2C
102
{ACAD_REACTORS
330
2A
102
}
330
2A
100
AcDbVisualStyle
  2
FlatWithEdges
 70
     1
177
     2
291
     1
 71
     2
176
     1
 72
     1
176
     1
 73
     1
176
     1
 90
        2
176
     1
 40
-0.6
176
     1
 41
30.0
176
     1
 62
     5
 63
     7
421
 16777215
176
     1
 74
     1
176
     1
 91
        4
176
     1
 64
     7
176
     1
 65
   257
176
     1
 75
     1
176
     1
175
     1
176
     1
 42
1.0
176
     1
 92
        0
176
     1
 66
   257
176
     1
 43
1.0
176
     1
 76
     1
176
     1
 77
     6
176
     1
 78
     2
176
     1
 67
     7
176
     1
 79
     5
176
     1
170
     0
176
     1
171
     0
176
     1
290
     0
176
     1
 93
       13
176
     1
 44
0.0
176
     1
173
     0
176
     1
  0
VISUALSTYLE
  5
2D
102
{ACAD_REACTORS
330
2A
102
}
330
2A
100
AcDbVisualStyle
  2
Gouraud
 70
     2
177
     2
291
     1
 71
     2
176
     1
 72
     2
176
     1
 73
     1
176
     1
 90
        2
176
     1
 40
-0.6
176
     1
 41
30.0
176
     1
 62
     5
 63
     7
421
 16777215
176
     1
 74
     0
176
     1
 91
        4
176
     1
 64
     7
176
     1
 65
   257
176
     1
 75
     1
176
     1
175
     1
176
     1
 42
1.0
176
     1
 92
        0
176
     1
 66
     7
176
     1
 43
1.0
176
     1
 76
     1
176
     1
 77
     6
176
     1
 78
     2
176
     1
 67
     7
176
     1
 79
     5
176
     1
170
     0
176
     1
171
     0
176
     1
290
     0
176
     1
 93
       13
176
     1
 44
0.0
176
     1
173
     0
176
     1
  0
VISUALSTYLE
  5
2E
102
{ACAD_REACTORS
330
2A
102
}
330
2A
100
AcDbVisualStyle
  2
GouraudWithEdges
 70
     3
177
     2
291
     1
 71
     2
176
     1
 72
     2
176
     1
 73
     1
176
     1
 90
        2
176
     1
 40
-0.6
176
     1
 41
30.0
176
     1
 62
     5
 63
     7
421
 16777215
176
     1
 74
     1
176
     1
 91
        4
176
     1
 64
     7
176
     1
 65
   257
176
     1
 75
     1
176
     1
175
     1
176
     1
 42
1.0
176
     1
 92
        0
176
     1
 66
   257
176
     1
 43
1.0
176
     1
 76
     1
176
     1
 77
     6
176
     1
 78
     2
176
     1
 67
     7
176
     1
 79
     5
176
     1
170
     0
176
     1
171
     0
176
     1
290
     0
176
     1
 93
       13
176
     1
 44
0.0
176
     1
173
     0
176
     1
  0
VISUALSTYLE
  5
38
102
{ACAD_REACTORS
330
2A
102
}
330
2A
100
AcDbVisualStyle
  2
Linepattern
 70
    14
177
     2
291
     1
 71
     2
176
     1
 72
     2
176
     1
 73
     0
176
     1
 90
        0
176
     1
 40
-0.6
176
     1
 41
-30.0
176
     1
 62
     5
 63
     7
421
 16777215
176
     1
 74
     1
176
     1
 91
        4
176
     1
 64
     7
176
     1
 65
   257
176
     1
 75
     7
176
     1
175
     7
176
     1
 42
1.0
176
     1
 92
        8
176
     1
 66
     7
176
     1
 43
1.0
176
     1
 76
     1
176
     1
 77
     6
176
     1
 78
     2
176
     1
 67
     7
176
     1
 79
     5
176
     1
170
     0
176
     1
171
     0
176
     1
290
     0
176
     1
 93
        1
176
     1
 44
0.0
176
     1
173
     0
176
     1
  0
VISUALSTYLE
  5
33
102
{ACAD_REACTORS
330
2A
102
}
330
2A
100
AcDbVisualStyle
  2
Realistic
 70
     8
177
     2
291
     0
 71
     2
176
     1
 72
     2
176
     1
 73
     0
176
     1
 90
        0
176
     1
 40
-0.6
176
     1
 41
-30.0
176
     1
 62
     5
 63
     7
421
 16777215
176
     1
 74
     1
176
     1
 91
        0
176
     1
 64
     7
176
     1
 65
   257
176
     1
 75
     1
176
     1
175
     1
176
     1
 42
1.0
176
     1
 92
        8
176
     1
 66
     8
424
  7895160
176
     1
 43
1.0
176
     1
 76
     1
176
     1
 77
     6
176
     1
 78
     2
176
     1
 67
     7
176
     1
 79
     5
176
     1
170
     0
176
     1
171
     0
176
     1
290
     0
176
     1
 93
       13
176
     1
 44
0.0
176
     1
173
     0
176
     1
  0
VISUALSTYLE
  5
37
102
{ACAD_REACTORS
330
2A
102
}
330
2A
100
AcDbVisualStyle
  2
Thicken
 70
    13
177
     2
291
     1
 71
     2
176
     1
 72
     2
176
     1
 73
     0
176
     1
 90
        0
176
     1
 40
-0.6
176
     1
 41
-30.0
176
     1
 62
     5
 63
     7
421
 16777215
176
     1
 74
     1
176
     1
 91
        4
176
     1
 64
     7
176
     1
 65
   257
176
     1
 75
     1
176
     1
175
     1
176
     1
 42
1.0
176
     1
 92
       12
176
     1
 66
     7
176
     1
 43
1.0
176
     1
 76
     1
176
     1
 77
     6
176
     1
 78
     2
176
     1
 67
     7
176
     1
 79
     5
176
     1
170
     0
176
     1
171
     0
176
     1
290
     0
176
     1
 93
        1
176
     1
 44
0.0
176
     1
173
     0
176
     1
  0
ENDSEC
  0
EOF
