  0
SECTION
  2
HEADER
  9
$ACADVER
  1
AC1024
  9
$ACADMAINTVER
 70
     6
  9
$DWGCODEPAGE
  3
UNDEFINED
  9
$INSBASE
 10
0.0
 20
0.0
 30
0.0
  9
$EXTMIN
 10
1.000000000000000E+20
 20
1.000000000000000E+20
 30
1.000000000000000E+20
  9
$EXTMAX
 10
-1.000000000000000E+20
 20
-1.000000000000000E+20
 30
-1.000000000000000E+20
  9
$LIMMIN
 10
0.0
 20
0.0
  9
$LIMMAX
 10
12.0
 20
9.0
  9
$ORTHOMODE
 70
     0
  9
$REGENMODE
 70
     1
  9
$FILLMODE
 70
     1
  9
$QTEXTMODE
 70
     0
  9
$MIRRTEXT
 70
     1
  9
$LTSCALE
 40
1.0
  9
$ATTMODE
 70
     1
  9
$TEXTSIZE
 40
0.2
  9
$TRACEWID
 40
0.05
  9
$TEXTSTYLE
  7
Standard
  9
$CLAYER
  8
0
  9
$CELTYPE
  6
ByLayer
  9
$CECOLOR
 62
   256
  9
$CELTSCALE
 40
1.0
  9
$DISPSILH
 70
     0
  9
$DIMSCALE
 40
1.0
  9
$DIMASZ
 40
0.18
  9
$DIMEXO
 40
0.0625
  9
$DIMDLI
 40
0.38
  9
$DIMRND
 40
0.0
  9
$DIMDLE
 40
0.0
  9
$DIMEXE
 40
0.18
  9
$DIMTP
 40
0.0
  9
$DIMTM
 40
0.0
  9
$DIMTXT
 40
0.18
  9
$DIMCEN
 40
0.09
  9
$DIMTSZ
 40
0.0
  9
$DIMTOL
 70
     0
  9
$DIMLIM
 70
     0
  9
$DIMTIH
 70
     1
  9
$DIMTOH
 70
     1
  9
$DIMSE1
 70
     0
  9
$DIMSE2
 70
     0
  9
$DIMTAD
 70
     0
  9
$DIMZIN
 70
     0
  9
$DIMBLK
  1

  9
$DIMASO
 70
     1
  9
$DIMSHO
 70
     1
  9
$DIMPOST
  1

  9
$DIMAPOST
  1

  9
$DIMALT
 70
     0
  9
$DIMALTD
 70
     2
  9
$DIMALTF
 40
25.4
  9
$DIMLFAC
 40
1.0
  9
$DIMTOFL
 70
     0
  9
$DIMTVP
 40
0.0
  9
$DIMTIX
 70
     0
  9
$DIMSOXD
 70
     0
  9
$DIMSAH
 70
     0
  9
$DIMBLK1
  1

  9
$DIMBLK2
  1

  9
$DIMSTYLE
  2
Standard
  9
$DIMCLRD
 70
     0
  9
$DIMCLRE
 70
     0
  9
$DIMCLRT
 70
     0
  9
$DIMTFAC
 40
1.0
  9
$DIMGAP
 40
0.09
  9
$DIMJUST
 70
     0
  9
$DIMSD1
 70
     0
  9
$DIMSD2
 70
     0
  9
$DIMTOLJ
 70
     1
  9
$DIMTZIN
 70
     0
  9
$DIMALTZ
 70
     0
  9
$DIMALTTZ
 70
     0
  9
$DIMUPT
 70
     0
  9
$DIMDEC
 70
     4
  9
$DIMTDEC
 70
     4
  9
$DIMALTU
 70
     2
  9
$DIMALTTD
 70
     2
  9
$DIMTXSTY
  7
Standard
  9
$DIMAUNIT
 70
     0
  9
$DIMADEC
 70
     0
  9
$DIMALTRND
 40
0.0
  9
$DIMAZIN
 70
     0
  9
$DIMDSEP
 70
    46
  9
$DIMATFIT
 70
     3
  9
$DIMFRAC
 70
     0
  9
$DIMLDRBLK
  1

  9
$DIMLUNIT
 70
     2
  9
$DIMLWD
 70
    -2
  9
$DIMLWE
 70
    -2
  9
$DIMTMOVE
 70
     0
  9
$DIMFXL
 40
1.0
  9
$DIMFXLON
 70
     0
  9
$DIMJOGANG
 40
0.7853981633974483
  9
$DIMTFILL
 70
     0
  9
$DIMTFILLCLR
 70
     0
  9
$DIMARCSYM
 70
     0
  9
$DIMLTYPE
  6

  9
$DIMLTEX1
  6

  9
$DIMLTEX2
  6

  9
$DIMTXTDIRECTION
 70
     0
  9
$LUNITS
 70
     2
  9
$LUPREC
 70
     4
  9
$SKETCHINC
 40
0.1
  9
$FILLETRAD
 40
0.5
  9
$AUNITS
 70
     0
  9
$AUPREC
 70
     0
  9
$MENU
  1
.
  9
$ELEVATION
 40
0.0
  9
$PELEVATION
 40
0.0
  9
$THICKNESS
 40
0.0
  9
$LIMCHECK
 70
     0
  9
$CHAMFERA
 40
0.5
  9
$CHAMFERB
 40
0.5
  9
$CHAMFERC
 40
1.0
  9
$CHAMFERD
 40
0.0
  9
$SKPOLY
 70
     0
  9
$TDCREATE
 40
2457917.592719896
  9
$TDUCREATE
 40
2457917.217719907
  9
$TDUPDATE
 40
2457917.592719896
  9
$TDUUPDATE
 40
2457917.217719907
  9
$TDINDWG
 40
0.0000000116
  9
$TDUSRTIMER
 40
0.0000000116
  9
$USRTIMER
 70
     1
  9
$ANGBASE
 50
0.0
  9
$ANGDIR
 70
     0
  9
$PDMODE
 70
     0
  9
$PDSIZE
 40
0.0
  9
$PLINEWID
 40
0.0
  9
$SPLFRAME
 70
     0
  9
$SPLINETYPE
 70
     6
  9
$SPLINESEGS
 70
     8
  9
$HANDSEED
  5
E1
  9
$SURFTAB1
 70
     6
  9
$SURFTAB2
 70
     6
  9
$SURFTYPE
 70
     6
  9
$SURFU
 70
     6
  9
$SURFV
 70
     6
  9
$UCSBASE
  2

  9
$UCSNAME
  2

  9
$UCSORG
 10
0.0
 20
0.0
 30
0.0
  9
$UCSXDIR
 10
1.0
 20
0.0
 30
0.0
  9
$UCSYDIR
 10
0.0
 20
1.0
 30
0.0
  9
$UCSORTHOREF
  2

  9
$UCSORTHOVIEW
 70
     0
  9
$UCSORGTOP
 10
0.0
 20
0.0
 30
0.0
  9
$UCSORGBOTTOM
 10
0.0
 20
0.0
 30
0.0
  9
$UCSORGLEFT
 10
0.0
 20
0.0
 30
0.0
  9
$UCSORGRIGHT
 10
0.0
 20
0.0
 30
0.0
  9
$UCSORGFRONT
 10
0.0
 20
0.0
 30
0.0
  9
$UCSORGBACK
 10
0.0
 20
0.0
 30
0.0
  9
$PUCSBASE
  2

  9
$PUCSNAME
  2

  9
$PUCSORG
 10
0.0
 20
0.0
 30
0.0
  9
$PUCSXDIR
 10
1.0
 20
0.0
 30
0.0
  9
$PUCSYDIR
 10
0.0
 20
1.0
 30
0.0
  9
$PUCSORTHOREF
  2

  9
$PUCSORTHOVIEW
 70
     0
  9
$PUCSORGTOP
 10
0.0
 20
0.0
 30
0.0
  9
$PUCSORGBOTTOM
 10
0.0
 20
0.0
 30
0.0
  9
$PUCSORGLEFT
 10
0.0
 20
0.0
 30
0.0
  9
$PUCSORGRIGHT
 10
0.0
 20
0.0
 30
0.0
  9
$PUCSORGFRONT
 10
0.0
 20
0.0
 30
0.0
  9
$PUCSORGBACK
 10
0.0
 20
0.0
 30
0.0
  9
$USERI1
 70
     0
  9
$USERI2
 70
     0
  9
$USERI3
 70
     0
  9
$USERI4
 70
     0
  9
$USERI5
 70
     0
  9
$USERR1
 40
0.0
  9
$USERR2
 40
0.0
  9
$USERR3
 40
0.0
  9
$USERR4
 40
0.0
  9
$USERR5
 40
0.0
  9
$WORLDVIEW
 70
     1
  9
$SHADEDGE
 70
     3
  9
$SHADEDIF
 70
    70
  9
$TILEMODE
 70
     1
  9
$MAXACTVP
 70
    64
  9
$PINSBASE
 10
0.0
 20
0.0
 30
0.0
  9
$PLIMCHECK
 70
     0
  9
$PEXTMIN
 10
1.000000000000000E+20
 20
1.000000000000000E+20
 30
1.000000000000000E+20
  9
$PEXTMAX
 10
-1.000000000000000E+20
 20
-1.000000000000000E+20
 30
-1.000000000000000E+20
  9
$PLIMMIN
 10
0.0
 20
0.0
  9
$PLIMMAX
 10
12.0
 20
9.0
  9
$UNITMODE
 70
     0
  9
$VISRETAIN
 70
     1
  9
$PLINEGEN
 70
     0
  9
$PSLTSCALE
 70
     1
  9
$TREEDEPTH
 70
  3020
  9
$CMLSTYLE
  2
Standard
  9
$CMLJUST
 70
     0
  9
$CMLSCALE
 40
1.0
  9
$PROXYGRAPHICS
 70
     1
  9
$MEASUREMENT
 70
     0
  9
$CELWEIGHT
370
    -1
  9
$ENDCAPS
280
     0
  9
$JOINSTYLE
280
     0
  9
$LWDISPLAY
290
     1
  9
$INSUNITS
 70
     1
  9
$HYPERLINKBASE
  1

  9
$STYLESHEET
  1

  9
$XEDIT
290
     1
  9
$CEPSNTYPE
380
     0
  9
$PSTYLEMODE
290
     1
  9
$FINGERPRINTGUID
  2
{160A4BCE-1E73-4DDD-A5E4-E5368CC86700}
  9
$VERSIONGUID
  2
{FAEB1C32-E019-11D5-929B-00C0DF256EC4}
  9
$EXTNAMES
290
     1
  9
$PSVPSCALE
 40
0.0
  9
$OLESTARTUP
290
     0
  9
$SORTENTS
280
   127
  9
$INDEXCTL
280
     0
  9
$HIDETEXT
280
     1
  9
$XCLIPFRAME
280
     2
  9
$HALOGAP
280
     0
  9
$OBSCOLOR
 70
   257
  9
$OBSLTYPE
280
     0
  9
$INTERSECTIONDISPLAY
280
     0
  9
$INTERSECTIONCOLOR
 70
   257
  9
$DIMASSOC
280
     2
  9
$PROJECTNAME
  1

  9
$CAMERADISPLAY
290
     0
  9
$LENSLENGTH
 40
50.0
  9
$CAMERAHEIGHT
 40
0.0
  9
$STEPSPERSEC
 40
2.0
  9
$STEPSIZE
 40
6.0
  9
$3DDWFPREC
 40
2.0
  9
$PSOLWIDTH
 40
0.25
  9
$PSOLHEIGHT
 40
4.0
  9
$LOFTANG1
 40
1.570796326794897
  9
$LOFTANG2
 40
1.570796326794897
  9
$LOFTMAG1
 40
0.0
  9
$LOFTMAG2
 40
0.0
  9
$LOFTPARAM
 70
     7
  9
$LOFTNORMALS
280
     1
  9
$LATITUDE
 40
37.795
  9
$LONGITUDE
 40
-122.394
  9
$NORTHDIRECTION
 40
0.0
  9
$TIMEZONE
 70
 -8000
  9
$LIGHTGLYPHDISPLAY
280
     1
  9
$TILEMODELIGHTSYNCH
280
     1
  9
$CMATERIAL
347
3C
  9
$SOLIDHIST
280
     1
  9
$SHOWHIST
280
     1
  9
$DWFFRAME
280
     2
  9
$DGNFRAME
280
     2
  9
$REALWORLDSCALE
290
     1
  9
$INTERFERECOLOR
 62
   256
  9
$CSHADOW
280
     0
  9
$SHADOWPLANELOCATION
 40
0.0
  0
ENDSEC
  0
SECTION
  2
CLASSES
  0
CLASS
  1
ACDBDICTIONARYWDFLT
  2
AcDbDictionaryWithDefault
  3
ObjectDBX Classes
 90
        0
 91
        4
280
     0
281
     0
  0
CLASS
  1
VISUALSTYLE
  2
AcDbVisualStyle
  3
ObjectDBX Classes
 90
     4095
 91
        4
280
     0
281
     0
  0
CLASS
  1
MATERIAL
  2
AcDbMaterial
  3
ObjectDBX Classes
 90
     1153
 91
        4
280
     0
281
     0
  0
CLASS
  1
SUN
  2
AcDbSun
  3
SCENEOE
 90
     1024
 91
        4
280
     0
281
     0
  0
ENDSEC
  0
SECTION
  2
TABLES
  0
TABLE
  2
VPORT
  5
8
330
0
100
AcDbSymbolTable
 70
     1
  0
VPORT
  5
29
330
8
100
AcDbSymbolTableRecord
100
AcDbViewportTableRecord
  2
*Active
 70
     0
 10
0.0
 20
0.0
 11
1.0
 21
1.0
 12
0.0
 22
0.0
 13
0.0
 23
0.0
 14
0.5
 24
0.5
 15
0.5
 25
0.5
 16
0.0
 26
0.0
 36
1.0
 17
63.499999984125
 27
-89.00059456108309
 37
0.0
 40
178.0011891221662
 41
0.7134783795241226
 42
50.0
 43
0.0
 44
0.0
 50
0.0
 51
0.0
 71
     0
 72
   100
 73
     1
 74
     3
 75
     0
 76
     0
 77
     0
 78
     0
281
     0
 65
     1
110
0.0
120
0.0
130
0.0
111
1.0
121
0.0
131
0.0
112
0.0
122
1.0
132
0.0
 79
     0
146
0.0
 60
     3
 61
     5
292
     1
282
     1
141
0.0
142
0.0
 63
   250
361
3F
  0
ENDTAB
  0
TABLE
  2
LTYPE
  5
5
330
0
100
AcDbSymbolTable
 70
     1
  0
LTYPE
  5
14
330
5
100
AcDbSymbolTableRecord
100
AcDbLinetypeTableRecord
  2
ByBlock
 70
     0
  3

 72
    65
 73
     0
 40
0.0
  0
LTYPE
  5
15
330
5
100
AcDbSymbolTableRecord
100
AcDbLinetypeTableRecord
  2
ByLayer
 70
     0
  3

 72
    65
 73
     0
 40
0.0
  0
LTYPE
  5
16
330
5
100
AcDbSymbolTableRecord
100
AcDbLinetypeTableRecord
  2
Continuous
 70
     0
  3
Solid line
 72
    65
 73
     0
 40
0.0
  0
ENDTAB
  0
TABLE
  2
LAYER
  5
2
330
0
100
AcDbSymbolTable
 70
     2
  0
LAYER
  5
10
330
2
100
AcDbSymbolTableRecord
100
AcDbLayerTableRecord
  2
0
 70
     0
 62
     7
  6
Continuous
370
    -3
390
F
347
3E
  0
LAYER
  5
40
330
2
100
AcDbSymbolTableRecord
100
AcDbLayerTableRecord
  2
_U+30EC_U+30A4_U+30E4_U+30FC 1
 70
     0
 62
     7
  6
Continuous
370
    -3
390
F
347
3E
  0
ENDTAB
  0
TABLE
  2
STYLE
  5
3
330
0
100
AcDbSymbolTable
 70
     1
  0
STYLE
  5
11
330
3
100
AcDbSymbolTableRecord
100
AcDbTextStyleTableRecord
  2
Standard
 70
     0
 40
0.0
 41
1.0
 50
0.0
 71
     0
 42
0.2
  3
txt
  4

  0
ENDTAB
  0
TABLE
  2
VIEW
  5
6
330
0
100
AcDbSymbolTable
 70
     0
  0
ENDTAB
  0
TABLE
  2
UCS
  5
7
330
0
100
AcDbSymbolTable
 70
     0
  0
ENDTAB
  0
TABLE
  2
APPID
  5
9
330
0
100
AcDbSymbolTable
 70
     1
  0
APPID
  5
12
330
9
100
AcDbSymbolTableRecord
100
AcDbRegAppTableRecord
  2
ACAD
 70
     0
  0
ENDTAB
  0
TABLE
  2
DIMSTYLE
  5
A
330
0
100
AcDbSymbolTable
 70
     1
100
AcDbDimStyleTable
  0
DIMSTYLE
105
27
330
A
100
AcDbSymbolTableRecord
100
AcDbDimStyleTableRecord
  2
Standard
 70
     0
178
     0
340
11
  0
ENDTAB
  0
TABLE
  2
BLOCK_RECORD
  5
1
330
0
100
AcDbSymbolTable
 70
     7
  0
BLOCK_RECORD
  5
1F
330
1
100
AcDbSymbolTableRecord
100
AcDbBlockTableRecord
  2
*Model_Space
340
22
 70
     0
280
     1
281
     0
  0
BLOCK_RECORD
  5
1B
330
1
100
AcDbSymbolTableRecord
100
AcDbBlockTableRecord
  2
*Paper_Space
340
1E
 70
     0
280
     1
281
     0
  0
BLOCK_RECORD
  5
23
330
1
100
AcDbSymbolTableRecord
100
AcDbBlockTableRecord
  2
*Paper_Space0
340
26
 70
     0
280
     1
281
     0
  0
BLOCK_RECORD
  5
41
330
1
100
AcDbSymbolTableRecord
100
AcDbBlockTableRecord
  2
block 2
340
0
102
{BLKREFS
331
42
102
}
 70
     0
280
     1
281
     0
  0
BLOCK_RECORD
  5
82
330
1
100
AcDbSymbolTableRecord
100
AcDbBlockTableRecord
  2
block 3
340
0
102
{BLKREFS
331
83
102
}
 70
     0
280
     1
281
     0
  0
BLOCK_RECORD
  5
94
330
1
100
AcDbSymbolTableRecord
100
AcDbBlockTableRecord
  2
block 4
340
0
102
{BLKREFS
331
95
102
}
 70
     0
280
     1
281
     0
  0
BLOCK_RECORD
  5
A8
330
1
100
AcDbSymbolTableRecord
100
AcDbBlockTableRecord
  2
block 5
340
0
102
{BLKREFS
331
A9
102
}
 70
     0
280
     1
281
     0
  0
BLOCK_RECORD
  5
C1
330
1
100
AcDbSymbolTableRecord
100
AcDbBlockTableRecord
  2
block 6
340
0
102
{BLKREFS
331
C2
102
}
 70
     0
280
     1
281
     0
  0
BLOCK_RECORD
  5
CB
330
1
100
AcDbSymbolTableRecord
100
AcDbBlockTableRecord
  2
block 7
340
0
102
{BLKREFS
331
CC
102
}
 70
     0
280
     1
281
     0
  0
ENDTAB
  0
ENDSEC
  0
SECTION
  2
BLOCKS
  0
BLOCK
  5
20
330
1F
100
AcDbEntity
  8
0
100
AcDbBlockBegin
  2
*Model_Space
 70
     0
 10
0.0
 20
0.0
 30
0.0
  3
*Model_Space
  1

  0
ENDBLK
  5
21
330
1F
100
AcDbEntity
  8
0
100
AcDbBlockEnd
  0
BLOCK
  5
1C
330
1B
100
AcDbEntity
 67
     1
  8
0
100
AcDbBlockBegin
  2
*Paper_Space
 70
     0
 10
0.0
 20
0.0
 30
0.0
  3
*Paper_Space
  1

  0
ENDBLK
  5
1D
330
1B
100
AcDbEntity
 67
     1
  8
0
100
AcDbBlockEnd
  0
BLOCK
  5
24
330
23
100
AcDbEntity
  8
0
100
AcDbBlockBegin
  2
*Paper_Space0
 70
     0
 10
0.0
 20
0.0
 30
0.0
  3
*Paper_Space0
  1

  0
ENDBLK
  5
25
330
23
100
AcDbEntity
  8
0
100
AcDbBlockEnd
  0
BLOCK
  5
43
330
41
100
AcDbEntity
  8
0
100
AcDbBlockBegin
  2
block 2
 70
     0
 10
0.0
 20
0.0
 30
0.0
  3
block 2
  1

  0
POLYLINE
  5
45
330
41
100
AcDbEntity
  8
_U+30EC_U+30A4_U+30E4_U+30FC 1
 62
   179
420
  2234388
370
    25
100
AcDb2dPolyline
 66
     1
 10
0.0
 20
0.0
 30
0.0
  0
VERTEX
  5
46
330
45
100
AcDbEntity
  8
_U+30EC_U+30A4_U+30E4_U+30FC 1
 62
   179
420
  2234388
370
    25
100
AcDbVertex
100
AcDb2dVertex
 10
76.78980720759547
 20
-74.01736387038459
 30
0.0
  0
VERTEX
  5
47
330
45
100
AcDbEntity
  8
_U+30EC_U+30A4_U+30E4_U+30FC 1
 62
   179
420
  2234388
370
    25
100
AcDbVertex
100
AcDb2dVertex
 10
76.78980720759547
 20
-77.01735081407892
 30
0.0
  0
SEQEND
  5
48
330
45
100
AcDbEntity
  8
_U+30EC_U+30A4_U+30E4_U+30FC 1
 62
   179
420
  2234388
370
    25
  0
POLYLINE
  5
49
330
41
100
AcDbEntity
  8
_U+30EC_U+30A4_U+30E4_U+30FC 1
 62
   179
420
  2234388
370
    25
100
AcDb2dPolyline
 66
     1
 10
0.0
 20
0.0
 30
0.0
  0
VERTEX
  5
4A
330
49
100
AcDbEntity
  8
_U+30EC_U+30A4_U+30E4_U+30FC 1
 62
   179
420
  2234388
370
    25
100
AcDbVertex
100
AcDb2dVertex
 10
52.98969165341936
 20
-74.01736387038459
 30
0.0
  0
VERTEX
  5
4B
330
49
100
AcDbEntity
  8
_U+30EC_U+30A4_U+30E4_U+30FC 1
 62
   179
420
  2234388
370
    25
100
AcDbVertex
100
AcDb2dVertex
 10
52.98969165341936
 20
-99.01756080857916
 30
0.0
  0
SEQEND
  5
4C
330
49
100
AcDbEntity
  8
_U+30EC_U+30A4_U+30E4_U+30FC 1
 62
   179
420
  2234388
370
    25
  0
POLYLINE
  5
4D
330
41
100
AcDbEntity
  8
_U+30EC_U+30A4_U+30E4_U+30FC 1
 62
   179
420
  2234388
370
    25
100
AcDb2dPolyline
 66
     1
 10
0.0
 20
0.0
 30
0.0
  0
VERTEX
  5
4E
330
4D
100
AcDbEntity
  8
_U+30EC_U+30A4_U+30E4_U+30FC 1
 62
   179
420
  2234388
370
    25
100
AcDbVertex
100
AcDb2dVertex
 10
52.98969165341936
 20
-74.01736387038459
 30
0.0
  0
VERTEX
  5
4F
330
4D
100
AcDbEntity
  8
_U+30EC_U+30A4_U+30E4_U+30FC 1
 62
   179
420
  2234388
370
    25
100
AcDbVertex
100
AcDb2dVertex
 10
76.78980720759547
 20
-74.01736387038459
 30
0.0
  0
SEQEND
  5
50
330
4D
100
AcDbEntity
  8
_U+30EC_U+30A4_U+30E4_U+30FC 1
 62
   179
420
  2234388
370
    25
  0
POLYLINE
  5
51
330
41
100
AcDbEntity
  8
_U+30EC_U+30A4_U+30E4_U+30FC 1
 62
   179
420
  2234388
370
    25
100
AcDb2dPolyline
 66
     1
 10
0.0
 20
0.0
 30
0.0
  0
VERTEX
  5
52
330
51
100
AcDbEntity
  8
_U+30EC_U+30A4_U+30E4_U+30FC 1
 62
   179
420
  2234388
370
    25
100
AcDbVertex
100
AcDb2dVertex
 10
52.98969165341936
 20
-99.01756080857916
 30
0.0
  0
VERTEX
  5
53
330
51
100
AcDbEntity
  8
_U+30EC_U+30A4_U+30E4_U+30FC 1
 62
   179
420
  2234388
370
    25
100
AcDbVertex
100
AcDb2dVertex
 10
53.98981665316935
 20
-99.01756080857916
 30
0.0
  0
SEQEND
  5
54
330
51
100
AcDbEntity
  8
_U+30EC_U+30A4_U+30E4_U+30FC 1
 62
   179
420
  2234388
370
    25
  0
POLYLINE
  5
55
330
41
100
AcDbEntity
  8
_U+30EC_U+30A4_U+30E4_U+30FC 1
 62
   179
420
  2234388
370
    25
100
AcDb2dPolyline
 66
     1
 10
0.0
 20
0.0
 30
0.0
  0
VERTEX
  5
56
330
55
100
AcDbEntity
  8
_U+30EC_U+30A4_U+30E4_U+30FC 1
 62
   179
420
  2234388
370
    25
100
AcDbVertex
100
AcDb2dVertex
 10
53.98981665316935
 20
-75.01745359235673
 30
0.0
  0
VERTEX
  5
57
330
55
100
AcDbEntity
  8
_U+30EC_U+30A4_U+30E4_U+30FC 1
 62
   179
420
  2234388
370
    25
100
AcDbVertex
100
AcDb2dVertex
 10
53.98981665316935
 20
-99.01756080857916
 30
0.0
  0
SEQEND
  5
58
330
55
100
AcDbEntity
  8
_U+30EC_U+30A4_U+30E4_U+30FC 1
 62
   179
420
  2234388
370
    25
  0
POLYLINE
  5
59
330
41
100
AcDbEntity
  8
_U+30EC_U+30A4_U+30E4_U+30FC 1
 62
   179
420
  2234388
370
    25
100
AcDb2dPolyline
 66
     1
 10
0.0
 20
0.0
 30
0.0
  0
VERTEX
  5
5A
330
59
100
AcDbEntity
  8
_U+30EC_U+30A4_U+30E4_U+30FC 1
 62
   179
420
  2234388
370
    25
100
AcDbVertex
100
AcDb2dVertex
 10
53.98981665316935
 20
-75.01745359235673
 30
0.0
  0
VERTEX
  5
5B
330
59
100
AcDbEntity
  8
_U+30EC_U+30A4_U+30E4_U+30FC 1
 62
   179
420
  2234388
370
    25
100
AcDbVertex
100
AcDb2dVertex
 10
75.78968223311078
 20
-75.01745359235673
 30
0.0
  0
SEQEND
  5
5C
330
59
100
AcDbEntity
  8
_U+30EC_U+30A4_U+30E4_U+30FC 1
 62
   179
420
  2234388
370
    25
  0
POLYLINE
  5
5D
330
41
100
AcDbEntity
  8
_U+30EC_U+30A4_U+30E4_U+30FC 1
 62
   179
420
  2234388
370
    25
100
AcDb2dPolyline
 66
     1
 10
0.0
 20
0.0
 30
0.0
  0
VERTEX
  5
5E
330
5D
100
AcDbEntity
  8
_U+30EC_U+30A4_U+30E4_U+30FC 1
 62
   179
420
  2234388
370
    25
100
AcDbVertex
100
AcDb2dVertex
 10
66.78972162938558
 20
-77.01735081407892
 30
0.0
  0
VERTEX
  5
5F
330
5D
100
AcDbEntity
  8
_U+30EC_U+30A4_U+30E4_U+30FC 1
 62
   179
420
  2234388
370
    25
100
AcDbVertex
100
AcDb2dVertex
 10
76.78980720759547
 20
-77.01735081407892
 30
0.0
  0
SEQEND
  5
60
330
5D
100
AcDbEntity
  8
_U+30EC_U+30A4_U+30E4_U+30FC 1
 62
   179
420
  2234388
370
    25
  0
POLYLINE
  5
61
330
41
100
AcDbEntity
  8
_U+30EC_U+30A4_U+30E4_U+30FC 1
 62
   179
420
  2234388
370
    25
100
AcDb2dPolyline
 66
     1
 10
0.0
 20
0.0
 30
0.0
  0
VERTEX
  5
62
330
61
100
AcDbEntity
  8
_U+30EC_U+30A4_U+30E4_U+30FC 1
 62
   179
420
  2234388
370
    25
100
AcDbVertex
100
AcDb2dVertex
 10
75.78968223311078
 20
-75.01745359235673
 30
0.0
  0
VERTEX
  5
63
330
61
100
AcDbEntity
  8
_U+30EC_U+30A4_U+30E4_U+30FC 1
 62
   179
420
  2234388
370
    25
100
AcDbVertex
100
AcDb2dVertex
 10
75.78968223311078
 20
-76.01722581432895
 30
0.0
  0
SEQEND
  5
64
330
61
100
AcDbEntity
  8
_U+30EC_U+30A4_U+30E4_U+30FC 1
 62
   179
420
  2234388
370
    25
  0
POLYLINE
  5
65
330
41
100
AcDbEntity
  8
_U+30EC_U+30A4_U+30E4_U+30FC 1
 62
   179
420
  2234388
370
    25
100
AcDb2dPolyline
 66
     1
 10
0.0
 20
0.0
 30
0.0
  0
VERTEX
  5
66
330
65
100
AcDbEntity
  8
_U+30EC_U+30A4_U+30E4_U+30FC 1
 62
   179
420
  2234388
370
    25
100
AcDbVertex
100
AcDb2dVertex
 10
66.78972162938558
 20
-76.01722581432895
 30
0.0
  0
VERTEX
  5
67
330
65
100
AcDbEntity
  8
_U+30EC_U+30A4_U+30E4_U+30FC 1
 62
   179
420
  2234388
370
    25
100
AcDbVertex
100
AcDb2dVertex
 10
75.78968223311078
 20
-76.01722581432895
 30
0.0
  0
SEQEND
  5
68
330
65
100
AcDbEntity
  8
_U+30EC_U+30A4_U+30E4_U+30FC 1
 62
   179
420
  2234388
370
    25
  0
POLYLINE
  5
69
330
41
100
AcDbEntity
  8
_U+30EC_U+30A4_U+30E4_U+30FC 1
 62
   179
420
  2234388
370
    25
100
AcDb2dPolyline
 66
     1
 10
0.0
 20
0.0
 30
0.0
  0
VERTEX
  5
6A
330
69
100
AcDbEntity
  8
_U+30EC_U+30A4_U+30E4_U+30FC 1
 62
   179
420
  2234388
370
    25
100
AcDbVertex
100
AcDb2dVertex
 10
66.78972162938558
 20
-76.01722581432895
 30
0.0
  0
VERTEX
  5
6B
330
69
100
AcDbEntity
  8
_U+30EC_U+30A4_U+30E4_U+30FC 1
 62
   179
420
  2234388
370
    25
100
AcDbVertex
100
AcDb2dVertex
 10
66.78972162938558
 20
-77.01735081407892
 30
0.0
  0
SEQEND
  5
6C
330
69
100
AcDbEntity
  8
_U+30EC_U+30A4_U+30E4_U+30FC 1
 62
   179
420
  2234388
370
    25
  0
SPLINE
  5
6D
330
41
100
AcDbEntity
  8
_U+30EC_U+30A4_U+30E4_U+30FC 1
 62
   179
420
  2234388
370
     9
100
AcDbSpline
210
0.0
220
0.0
230
1.0
 70
    11
 71
     3
 72
    17
 73
    13
 74
     0
 42
0.0000000001
 43
0.0000000001
 12
1.0
 22
0.0
 32
0.0
 13
1.0
 23
0.0
 33
0.0
 40
0.0
 40
0.0
 40
0.0
 40
0.0
 40
1.0
 40
1.0
 40
1.0
 40
2.0
 40
2.0
 40
2.0
 40
3.0
 40
3.0
 40
3.0
 40
4.0
 40
4.0
 40
4.0
 40
4.0
 10
49.08983791428057
 20
-74.01736387038459
 30
0.0
 10
49.08983791428057
 20
-73.96190720373191
 30
0.0
 10
49.04507041542268
 20
-73.91710442596519
 30
0.0
 10
48.98993125016273
 20
-73.91710442596519
 30
0.0
 10
48.93447458491088
 20
-73.91710442596519
 30
0.0
 10
48.89002458604489
 20
-73.96190720373191
 30
0.0
 10
48.89002458604489
 20
-74.01736387038459
 30
0.0
 10
48.89002458604489
 20
-74.07282053703726
 30
0.0
 10
48.93447458491088
 20
-74.11727053702623
 30
0.0
 10
48.98993125016273
 20
-74.11727053702623
 30
0.0
 10
49.04507041542268
 20
-74.11727053702623
 30
0.0
 10
49.08983791428057
 20
-74.07282053703726
 30
0.0
 10
49.08983791428057
 20
-74.01736387038459
 30
0.0
  0
SPLINE
  5
6E
330
41
100
AcDbEntity
  8
_U+30EC_U+30A4_U+30E4_U+30FC 1
 62
   179
420
  2234388
370
     9
100
AcDbSpline
210
0.0
220
0.0
230
1.0
 70
    11
 71
     3
 72
    17
 73
    13
 74
     0
 42
0.0000000001
 43
0.0000000001
 12
1.0
 22
0.0
 32
0.0
 13
1.0
 23
0.0
 33
0.0
 40
0.0
 40
0.0
 40
0.0
 40
0.0
 40
1.0
 40
1.0
 40
1.0
 40
2.0
 40
2.0
 40
2.0
 40
3.0
 40
3.0
 40
3.0
 40
4.0
 40
4.0
 40
4.0
 40
4.0
 10
49.08983791428057
 20
-99.01756080857916
 30
0.0
 10
49.08983791428057
 20
-98.96242164192608
 30
0.0
 10
49.04507041542268
 20
-98.91765414193752
 30
0.0
 10
48.98993125016273
 20
-98.91765414193752
 30
0.0
 10
48.93447458491088
 20
-98.91765414193752
 30
0.0
 10
48.89002458604489
 20
-98.96242164192608
 30
0.0
 10
48.89002458604489
 20
-99.01756080857916
 30
0.0
 10
48.89002458604489
 20
-99.07266469745407
 30
0.0
 10
48.93447458491088
 20
-99.11746747522079
 30
0.0
 10
48.98993125016273
 20
-99.11746747522079
 30
0.0
 10
49.04507041542268
 20
-99.11746747522079
 30
0.0
 10
49.08983791428057
 20
-99.07266469745407
 30
0.0
 10
49.08983791428057
 20
-99.01756080857916
 30
0.0
  0
SPLINE
  5
6F
330
41
100
AcDbEntity
  8
_U+30EC_U+30A4_U+30E4_U+30FC 1
 62
   179
420
  2234388
370
     9
100
AcDbSpline
210
0.0
220
0.0
230
1.0
 70
    11
 71
     3
 72
    17
 73
    13
 74
     0
 42
0.0000000001
 43
0.0000000001
 12
1.0
 22
0.0
 32
0.0
 13
1.0
 23
0.0
 33
0.0
 40
0.0
 40
0.0
 40
0.0
 40
0.0
 40
1.0
 40
1.0
 40
1.0
 40
2.0
 40
2.0
 40
2.0
 40
3.0
 40
3.0
 40
3.0
 40
4.0
 40
4.0
 40
4.0
 40
4.0
 10
53.08959697890488
 20
-103.0173199742454
 30
0.0
 10
53.08959697890488
 20
-102.962180807593
 30
0.0
 10
53.04482948004699
 20
-102.9174133076038
 30
0.0
 10
52.98969165341936
 20
-102.9174133076038
 30
0.0
 10
52.93458642730397
 20
-102.9174133076038
 30
0.0
 10
52.88978365066921
 20
-102.962180807593
 30
0.0
 10
52.88978365066921
 20
-103.0173199742454
 30
0.0
 10
52.88978365066921
 20
-103.072423863121
 30
0.0
 10
52.93458642730397
 20
-103.1172266408877
 30
0.0
 10
52.98969165341936
 20
-103.1172266408877
 30
0.0
 10
53.04482948004699
 20
-103.1172266408877
 30
0.0
 10
53.08959697890488
 20
-103.072423863121
 30
0.0
 10
53.08959697890488
 20
-103.0173199742454
 30
0.0
  0
SPLINE
  5
70
330
41
100
AcDbEntity
  8
_U+30EC_U+30A4_U+30E4_U+30FC 1
 62
   179
420
  2234388
370
     9
100
AcDbSpline
210
0.0
220
0.0
230
1.0
 70
    11
 71
     3
 72
    17
 73
    13
 74
     0
 42
0.0000000001
 43
0.0000000001
 12
1.0
 22
0.0
 32
0.0
 13
1.0
 23
0.0
 33
0.0
 40
0.0
 40
0.0
 40
0.0
 40
0.0
 40
1.0
 40
1.0
 40
1.0
 40
2.0
 40
2.0
 40
2.0
 40
3.0
 40
3.0
 40
3.0
 40
4.0
 40
4.0
 40
4.0
 40
4.0
 10
54.08972195338956
 20
-103.0173199742454
 30
0.0
 10
54.08972195338956
 20
-102.962180807593
 30
0.0
 10
54.0449191767548
 20
-102.9174133076038
 30
0.0
 10
53.98981665316935
 20
-102.9174133076038
 30
0.0
 10
53.93467612401178
 20
-102.9174133076038
 30
0.0
 10
53.88990862515389
 20
-102.962180807593
 30
0.0
 10
53.88990862515389
 20
-103.0173199742454
 30
0.0
 10
53.88990862515389
 20
-103.072423863121
 30
0.0
 10
53.93467612401178
 20
-103.1172266408877
 30
0.0
 10
53.98981665316935
 20
-103.1172266408877
 30
0.0
 10
54.0449191767548
 20
-103.1172266408877
 30
0.0
 10
54.08972195338956
 20
-103.072423863121
 30
0.0
 10
54.08972195338956
 20
-103.0173199742454
 30
0.0
  0
SPLINE
  5
71
330
41
100
AcDbEntity
  8
_U+30EC_U+30A4_U+30E4_U+30FC 1
 62
   179
420
  2234388
370
     9
100
AcDbSpline
210
0.0
220
0.0
230
1.0
 70
    11
 71
     3
 72
    17
 73
    13
 74
     0
 42
0.0000000001
 43
0.0000000001
 12
1.0
 22
0.0
 32
0.0
 13
1.0
 23
0.0
 33
0.0
 40
0.0
 40
0.0
 40
0.0
 40
0.0
 40
1.0
 40
1.0
 40
1.0
 40
2.0
 40
2.0
 40
2.0
 40
3.0
 40
3.0
 40
3.0
 40
4.0
 40
4.0
 40
4.0
 40
4.0
 10
76.88971387171331
 20
-81.01710997974581
 30
0.0
 10
76.88971387171331
 20
-80.96197081309273
 30
0.0
 10
76.84491109507854
 20
-80.91720331310418
 30
0.0
 10
76.78980720759547
 20
-80.91720331310418
 30
0.0
 10
76.73466804233553
 20
-80.91720331310418
 30
0.0
 10
76.68990054347763
 20
-80.96197081309273
 30
0.0
 10
76.68990054347763
 20
-81.01710997974581
 30
0.0
 10
76.68990054347763
 20
-81.0725666463985
 30
0.0
 10
76.73466804233553
 20
-81.11736942416522
 30
0.0
 10
76.78980720759547
 20
-81.11736942416522
 30
0.0
 10
76.84491109507854
 20
-81.11736942416522
 30
0.0
 10
76.88971387171331
 20
-81.0725666463985
 30
0.0
 10
76.88971387171331
 20
-81.01710997974581
 30
0.0
  0
SPLINE
  5
72
330
41
100
AcDbEntity
  8
_U+30EC_U+30A4_U+30E4_U+30FC 1
 62
   179
420
  2234388
370
     9
100
AcDbSpline
210
0.0
220
0.0
230
1.0
 70
    11
 71
     3
 72
    17
 73
    13
 74
     0
 42
0.0000000001
 43
0.0000000001
 12
1.0
 22
0.0
 32
0.0
 13
1.0
 23
0.0
 33
0.0
 40
0.0
 40
0.0
 40
0.0
 40
0.0
 40
1.0
 40
1.0
 40
1.0
 40
2.0
 40
2.0
 40
2.0
 40
3.0
 40
3.0
 40
3.0
 40
4.0
 40
4.0
 40
4.0
 40
4.0
 10
66.8896282935034
 20
-81.01710997974581
 30
0.0
 10
66.8896282935034
 20
-80.96197081309273
 30
0.0
 10
66.84482551686865
 20
-80.91720331310418
 30
0.0
 10
66.78972162938558
 20
-80.91720331310418
 30
0.0
 10
66.73458246412562
 20
-80.91720331310418
 30
0.0
 10
66.68981664999403
 20
-80.96197081309273
 30
0.0
 10
66.68981664999403
 20
-81.01710997974581
 30
0.0
 10
66.68981664999403
 20
-81.0725666463985
 30
0.0
 10
66.73458246412562
 20
-81.11736942416522
 30
0.0
 10
66.78972162938558
 20
-81.11736942416522
 30
0.0
 10
66.84482551686865
 20
-81.11736942416522
 30
0.0
 10
66.8896282935034
 20
-81.0725666463985
 30
0.0
 10
66.8896282935034
 20
-81.01710997974581
 30
0.0
  0
SPLINE
  5
73
330
41
100
AcDbEntity
  8
_U+30EC_U+30A4_U+30E4_U+30FC 1
 62
   179
420
  2234388
370
     9
100
AcDbSpline
210
0.0
220
0.0
230
1.0
 70
    11
 71
     3
 72
    17
 73
    13
 74
     0
 42
0.0000000001
 43
0.0000000001
 12
1.0
 22
0.0
 32
0.0
 13
1.0
 23
0.0
 33
0.0
 40
0.0
 40
0.0
 40
0.0
 40
0.0
 40
1.0
 40
1.0
 40
1.0
 40
2.0
 40
2.0
 40
2.0
 40
3.0
 40
3.0
 40
3.0
 40
4.0
 40
4.0
 40
4.0
 40
4.0
 10
80.8901432140983
 20
-77.01735081407892
 30
0.0
 10
80.8901432140983
 20
-76.96189414742625
 30
0.0
 10
80.84537775756633
 20
-76.9174441474373
 30
0.0
 10
80.79023654998046
 20
-76.9174441474373
 30
0.0
 10
80.73442710695984
 20
-76.9174441474373
 30
0.0
 10
80.68965960810195
 20
-76.96189414742625
 30
0.0
 10
80.68965960810195
 20
-77.01735081407892
 30
0.0
 10
80.68965960810195
 20
-77.07280748073192
 30
0.0
 10
80.73442710695984
 20
-77.11761025849833
 30
0.0
 10
80.79023654998046
 20
-77.11761025849833
 30
0.0
 10
80.84537775756633
 20
-77.11761025849833
 30
0.0
 10
80.8901432140983
 20
-77.07280748073192
 30
0.0
 10
80.8901432140983
 20
-77.01735081407892
 30
0.0
  0
SPLINE
  5
74
330
41
100
AcDbEntity
  8
_U+30EC_U+30A4_U+30E4_U+30FC 1
 62
   179
420
  2234388
370
     9
100
AcDbSpline
210
0.0
220
0.0
230
1.0
 70
    11
 71
     3
 72
    17
 73
    13
 74
     0
 42
0.0000000001
 43
0.0000000001
 12
1.0
 22
0.0
 32
0.0
 13
1.0
 23
0.0
 33
0.0
 40
0.0
 40
0.0
 40
0.0
 40
0.0
 40
1.0
 40
1.0
 40
1.0
 40
2.0
 40
2.0
 40
2.0
 40
3.0
 40
3.0
 40
3.0
 40
4.0
 40
4.0
 40
4.0
 40
4.0
 10
80.8901432140983
 20
-74.01736387038459
 30
0.0
 10
80.8901432140983
 20
-73.96190720373191
 30
0.0
 10
80.84537775756633
 20
-73.91710442596519
 30
0.0
 10
80.79023654998046
 20
-73.91710442596519
 30
0.0
 10
80.73442710695984
 20
-73.91710442596519
 30
0.0
 10
80.68965960810195
 20
-73.96190720373191
 30
0.0
 10
80.68965960810195
 20
-74.01736387038459
 30
0.0
 10
80.68965960810195
 20
-74.07282053703726
 30
0.0
 10
80.73442710695984
 20
-74.11727053702623
 30
0.0
 10
80.79023654998046
 20
-74.11727053702623
 30
0.0
 10
80.84537775756633
 20
-74.11727053702623
 30
0.0
 10
80.8901432140983
 20
-74.07282053703726
 30
0.0
 10
80.8901432140983
 20
-74.01736387038459
 30
0.0
  0
SPLINE
  5
75
330
41
100
AcDbEntity
  8
_U+30EC_U+30A4_U+30E4_U+30FC 1
 62
   179
420
  2234388
370
     9
100
AcDbSpline
210
0.0
220
0.0
230
1.0
 70
    11
 71
     3
 72
    17
 73
    13
 74
     0
 42
0.0000000001
 43
0.0000000001
 12
1.0
 22
0.0
 32
0.0
 13
1.0
 23
0.0
 33
0.0
 40
0.0
 40
0.0
 40
0.0
 40
0.0
 40
1.0
 40
1.0
 40
1.0
 40
2.0
 40
2.0
 40
2.0
 40
3.0
 40
3.0
 40
3.0
 40
4.0
 40
4.0
 40
4.0
 40
4.0
 10
54.08972195338956
 20
-81.01710997974581
 30
0.0
 10
54.08972195338956
 20
-80.96197081309273
 30
0.0
 10
54.0449191767548
 20
-80.91720331310418
 30
0.0
 10
53.98981665316935
 20
-80.91720331310418
 30
0.0
 10
53.93467612401178
 20
-80.91720331310418
 30
0.0
 10
53.88990862515389
 20
-80.96197081309273
 30
0.0
 10
53.88990862515389
 20
-81.01710997974581
 30
0.0
 10
53.88990862515389
 20
-81.0725666463985
 30
0.0
 10
53.93467612401178
 20
-81.11736942416522
 30
0.0
 10
53.98981665316935
 20
-81.11736942416522
 30
0.0
 10
54.0449191767548
 20
-81.11736942416522
 30
0.0
 10
54.08972195338956
 20
-81.0725666463985
 30
0.0
 10
54.08972195338956
 20
-81.01710997974581
 30
0.0
  0
POLYLINE
  5
76
330
41
100
AcDbEntity
  8
_U+30EC_U+30A4_U+30E4_U+30FC 1
 62
   179
420
  2234388
370
     9
100
AcDb2dPolyline
 66
     1
 10
0.0
 20
0.0
 30
0.0
  0
VERTEX
  5
77
330
76
100
AcDbEntity
  8
_U+30EC_U+30A4_U+30E4_U+30FC 1
 62
   179
420
  2234388
370
     9
100
AcDbVertex
100
AcDb2dVertex
 10
80.79023654998046
 20
-74.01736387038459
 30
0.0
  0
VERTEX
  5
78
330
76
100
AcDbEntity
  8
_U+30EC_U+30A4_U+30E4_U+30FC 1
 62
   179
420
  2234388
370
     9
100
AcDbVertex
100
AcDb2dVertex
 10
80.79023654998046
 20
-77.01735081407892
 30
0.0
  0
SEQEND
  5
79
330
76
100
AcDbEntity
  8
_U+30EC_U+30A4_U+30E4_U+30FC 1
 62
   179
420
  2234388
370
     9
  0
POLYLINE
  5
7A
330
41
100
AcDbEntity
  8
_U+30EC_U+30A4_U+30E4_U+30FC 1
 62
   179
420
  2234388
370
     9
100
AcDb2dPolyline
 66
     1
 10
0.0
 20
0.0
 30
0.0
  0
VERTEX
  5
7B
330
7A
100
AcDbEntity
  8
_U+30EC_U+30A4_U+30E4_U+30FC 1
 62
   179
420
  2234388
370
     9
100
AcDbVertex
100
AcDb2dVertex
 10
79.33019720238953
 20
-74.01736387038459
 30
0.0
  0
VERTEX
  5
7C
330
7A
100
AcDbEntity
  8
_U+30EC_U+30A4_U+30E4_U+30FC 1
 62
   179
420
  2234388
370
     9
100
AcDbVertex
100
AcDb2dVertex
 10
81.79000874669637
 20
-74.01736387038459
 30
0.0
  0
SEQEND
  5
7D
330
7A
100
AcDbEntity
  8
_U+30EC_U+30A4_U+30E4_U+30FC 1
 62
   179
420
  2234388
370
     9
  0
POLYLINE
  5
7E
330
41
100
AcDbEntity
  8
_U+30EC_U+30A4_U+30E4_U+30FC 1
 62
   179
420
  2234388
370
     9
100
AcDb2dPolyline
 66
     1
 10
0.0
 20
0.0
 30
0.0
  0
VERTEX
  5
7F
330
7E
100
AcDbEntity
  8
_U+30EC_U+30A4_U+30E4_U+30FC 1
 62
   179
420
  2234388
370
     9
100
AcDbVertex
100
AcDb2dVertex
 10
79.33019720238953
 20
-77.01735081407892
 30
0.0
  0
VERTEX
  5
80
330
7E
100
AcDbEntity
  8
_U+30EC_U+30A4_U+30E4_U+30FC 1
 62
   179
420
  2234388
370
     9
100
AcDbVertex
100
AcDb2dVertex
 10
81.79000874669637
 20
-77.01735081407892
 30
0.0
  0
SEQEND
  5
81
330
7E
100
AcDbEntity
  8
_U+30EC_U+30A4_U+30E4_U+30FC 1
 62
   179
420
  2234388
370
     9
  0
INSERT
  5
83
330
41
100
AcDbEntity
  8
_U+30EC_U+30A4_U+30E4_U+30FC 1
100
AcDbBlockReference
  2
block 3
 10
0.0
 20
0.0
 30
0.0
  0
POLYLINE
  5
88
330
41
100
AcDbEntity
  8
_U+30EC_U+30A4_U+30E4_U+30FC 1
 62
   179
420
  2234388
370
     9
100
AcDb2dPolyline
 66
     1
 10
0.0
 20
0.0
 30
0.0
  0
VERTEX
  5
89
330
88
100
AcDbEntity
  8
_U+30EC_U+30A4_U+30E4_U+30FC 1
 62
   179
420
  2234388
370
     9
100
AcDbVertex
100
AcDb2dVertex
 10
48.98993125016273
 20
-74.01736387038459
 30
0.0
  0
VERTEX
  5
8A
330
88
100
AcDbEntity
  8
_U+30EC_U+30A4_U+30E4_U+30FC 1
 62
   179
420
  2234388
370
     9
100
AcDbVertex
100
AcDb2dVertex
 10
48.98993125016273
 20
-99.01756080857916
 30
0.0
  0
SEQEND
  5
8B
330
88
100
AcDbEntity
  8
_U+30EC_U+30A4_U+30E4_U+30FC 1
 62
   179
420
  2234388
370
     9
  0
POLYLINE
  5
8C
330
41
100
AcDbEntity
  8
_U+30EC_U+30A4_U+30E4_U+30FC 1
 62
   179
420
  2234388
370
     9
100
AcDb2dPolyline
 66
     1
 10
0.0
 20
0.0
 30
0.0
  0
VERTEX
  5
8D
330
8C
100
AcDbEntity
  8
_U+30EC_U+30A4_U+30E4_U+30FC 1
 62
   179
420
  2234388
370
     9
100
AcDbVertex
100
AcDb2dVertex
 10
50.44997260180286
 20
-74.01736387038459
 30
0.0
  0
VERTEX
  5
8E
330
8C
100
AcDbEntity
  8
_U+30EC_U+30A4_U+30E4_U+30FC 1
 62
   179
420
  2234388
370
     9
100
AcDbVertex
100
AcDb2dVertex
 10
47.98984155345492
 20
-74.01736387038459
 30
0.0
  0
SEQEND
  5
8F
330
8C
100
AcDbEntity
  8
_U+30EC_U+30A4_U+30E4_U+30FC 1
 62
   179
420
  2234388
370
     9
  0
POLYLINE
  5
90
330
41
100
AcDbEntity
  8
_U+30EC_U+30A4_U+30E4_U+30FC 1
 62
   179
420
  2234388
370
     9
100
AcDb2dPolyline
 66
     1
 10
0.0
 20
0.0
 30
0.0
  0
VERTEX
  5
91
330
90
100
AcDbEntity
  8
_U+30EC_U+30A4_U+30E4_U+30FC 1
 62
   179
420
  2234388
370
     9
100
AcDbVertex
100
AcDb2dVertex
 10
50.44997260180286
 20
-99.01756080857916
 30
0.0
  0
VERTEX
  5
92
330
90
100
AcDbEntity
  8
_U+30EC_U+30A4_U+30E4_U+30FC 1
 62
   179
420
  2234388
370
     9
100
AcDbVertex
100
AcDb2dVertex
 10
47.98984155345492
 20
-99.01756080857916
 30
0.0
  0
SEQEND
  5
93
330
90
100
AcDbEntity
  8
_U+30EC_U+30A4_U+30E4_U+30FC 1
 62
   179
420
  2234388
370
     9
  0
INSERT
  5
95
330
41
100
AcDbEntity
  8
_U+30EC_U+30A4_U+30E4_U+30FC 1
100
AcDbBlockReference
  2
block 4
 10
0.0
 20
0.0
 30
0.0
  0
POLYLINE
  5
9C
330
41
100
AcDbEntity
  8
_U+30EC_U+30A4_U+30E4_U+30FC 1
 62
   179
420
  2234388
370
     9
100
AcDb2dPolyline
 66
     1
 10
0.0
 20
0.0
 30
0.0
  0
VERTEX
  5
9D
330
9C
100
AcDbEntity
  8
_U+30EC_U+30A4_U+30E4_U+30FC 1
 62
   179
420
  2234388
370
     9
100
AcDbVertex
100
AcDb2dVertex
 10
66.78972162938558
 20
-81.01710997974581
 30
0.0
  0
VERTEX
  5
9E
330
9C
100
AcDbEntity
  8
_U+30EC_U+30A4_U+30E4_U+30FC 1
 62
   179
420
  2234388
370
     9
100
AcDbVertex
100
AcDb2dVertex
 10
76.78980720759547
 20
-81.01710997974581
 30
0.0
  0
SEQEND
  5
9F
330
9C
100
AcDbEntity
  8
_U+30EC_U+30A4_U+30E4_U+30FC 1
 62
   179
420
  2234388
370
     9
  0
POLYLINE
  5
A0
330
41
100
AcDbEntity
  8
_U+30EC_U+30A4_U+30E4_U+30FC 1
 62
   179
420
  2234388
370
     9
100
AcDb2dPolyline
 66
     1
 10
0.0
 20
0.0
 30
0.0
  0
VERTEX
  5
A1
330
A0
100
AcDbEntity
  8
_U+30EC_U+30A4_U+30E4_U+30FC 1
 62
   179
420
  2234388
370
     9
100
AcDbVertex
100
AcDb2dVertex
 10
66.78972162938558
 20
-79.55742136899954
 30
0.0
  0
VERTEX
  5
A2
330
A0
100
AcDbEntity
  8
_U+30EC_U+30A4_U+30E4_U+30FC 1
 62
   179
420
  2234388
370
     9
100
AcDbVertex
100
AcDb2dVertex
 10
66.78972162938558
 20
-82.01755247949572
 30
0.0
  0
SEQEND
  5
A3
330
A0
100
AcDbEntity
  8
_U+30EC_U+30A4_U+30E4_U+30FC 1
 62
   179
420
  2234388
370
     9
  0
POLYLINE
  5
A4
330
41
100
AcDbEntity
  8
_U+30EC_U+30A4_U+30E4_U+30FC 1
 62
   179
420
  2234388
370
     9
100
AcDb2dPolyline
 66
     1
 10
0.0
 20
0.0
 30
0.0
  0
VERTEX
  5
A5
330
A4
100
AcDbEntity
  8
_U+30EC_U+30A4_U+30E4_U+30FC 1
 62
   179
420
  2234388
370
     9
100
AcDbVertex
100
AcDb2dVertex
 10
76.78980720759547
 20
-79.55742136899954
 30
0.0
  0
VERTEX
  5
A6
330
A4
100
AcDbEntity
  8
_U+30EC_U+30A4_U+30E4_U+30FC 1
 62
   179
420
  2234388
370
     9
100
AcDbVertex
100
AcDb2dVertex
 10
76.78980720759547
 20
-82.01755247949572
 30
0.0
  0
SEQEND
  5
A7
330
A4
100
AcDbEntity
  8
_U+30EC_U+30A4_U+30E4_U+30FC 1
 62
   179
420
  2234388
370
     9
  0
INSERT
  5
A9
330
41
100
AcDbEntity
  8
_U+30EC_U+30A4_U+30E4_U+30FC 1
100
AcDbBlockReference
  2
block 5
 10
0.0
 20
0.0
 30
0.0
  0
POLYLINE
  5
B1
330
41
100
AcDbEntity
  8
_U+30EC_U+30A4_U+30E4_U+30FC 1
 62
   179
420
  2234388
370
     9
100
AcDb2dPolyline
 66
     1
 10
0.0
 20
0.0
 30
0.0
  0
VERTEX
  5
B2
330
B1
100
AcDbEntity
  8
_U+30EC_U+30A4_U+30E4_U+30FC 1
 62
   179
420
  2234388
370
     9
100
AcDbVertex
100
AcDb2dVertex
 10
53.98981665316935
 20
-103.0173199742454
 30
0.0
  0
VERTEX
  5
B3
330
B1
100
AcDbEntity
  8
_U+30EC_U+30A4_U+30E4_U+30FC 1
 62
   179
420
  2234388
370
     9
100
AcDbVertex
100
AcDb2dVertex
 10
57.76012769308304
 20
-103.0173199742454
 30
0.0
  0
SEQEND
  5
B4
330
B1
100
AcDbEntity
  8
_U+30EC_U+30A4_U+30E4_U+30FC 1
 62
   179
420
  2234388
370
     9
  0
POLYLINE
  5
B5
330
41
100
AcDbEntity
  8
_U+30EC_U+30A4_U+30E4_U+30FC 1
 62
   179
420
  2234388
370
     9
100
AcDb2dPolyline
 66
     1
 10
0.0
 20
0.0
 30
0.0
  0
VERTEX
  5
B6
330
B5
100
AcDbEntity
  8
_U+30EC_U+30A4_U+30E4_U+30FC 1
 62
   179
420
  2234388
370
     9
100
AcDbVertex
100
AcDb2dVertex
 10
53.98981665316935
 20
-103.0173199742454
 30
0.0
  0
VERTEX
  5
B7
330
B5
100
AcDbEntity
  8
_U+30EC_U+30A4_U+30E4_U+30FC 1
 62
   179
420
  2234388
370
     9
100
AcDbVertex
100
AcDb2dVertex
 10
51.98991943144682
 20
-103.0173199742454
 30
0.0
  0
SEQEND
  5
B8
330
B5
100
AcDbEntity
  8
_U+30EC_U+30A4_U+30E4_U+30FC 1
 62
   179
420
  2234388
370
     9
  0
POLYLINE
  5
B9
330
41
100
AcDbEntity
  8
_U+30EC_U+30A4_U+30E4_U+30FC 1
 62
   179
420
  2234388
370
     9
100
AcDb2dPolyline
 66
     1
 10
0.0
 20
0.0
 30
0.0
  0
VERTEX
  5
BA
330
B9
100
AcDbEntity
  8
_U+30EC_U+30A4_U+30E4_U+30FC 1
 62
   179
420
  2234388
370
     9
100
AcDbVertex
100
AcDb2dVertex
 10
53.98981665316935
 20
-101.5572785857217
 30
0.0
  0
VERTEX
  5
BB
330
B9
100
AcDbEntity
  8
_U+30EC_U+30A4_U+30E4_U+30FC 1
 62
   179
420
  2234388
370
     9
100
AcDbVertex
100
AcDb2dVertex
 10
53.98981665316935
 20
-104.0170921962179
 30
0.0
  0
SEQEND
  5
BC
330
B9
100
AcDbEntity
  8
_U+30EC_U+30A4_U+30E4_U+30FC 1
 62
   179
420
  2234388
370
     9
  0
POLYLINE
  5
BD
330
41
100
AcDbEntity
  8
_U+30EC_U+30A4_U+30E4_U+30FC 1
 62
   179
420
  2234388
370
     9
100
AcDb2dPolyline
 66
     1
 10
0.0
 20
0.0
 30
0.0
  0
VERTEX
  5
BE
330
BD
100
AcDbEntity
  8
_U+30EC_U+30A4_U+30E4_U+30FC 1
 62
   179
420
  2234388
370
     9
100
AcDbVertex
100
AcDb2dVertex
 10
52.98969165341936
 20
-101.5572785857217
 30
0.0
  0
VERTEX
  5
BF
330
BD
100
AcDbEntity
  8
_U+30EC_U+30A4_U+30E4_U+30FC 1
 62
   179
420
  2234388
370
     9
100
AcDbVertex
100
AcDb2dVertex
 10
52.98969165341936
 20
-104.0170921962179
 30
0.0
  0
SEQEND
  5
C0
330
BD
100
AcDbEntity
  8
_U+30EC_U+30A4_U+30E4_U+30FC 1
 62
   179
420
  2234388
370
     9
  0
INSERT
  5
C2
330
41
100
AcDbEntity
  8
_U+30EC_U+30A4_U+30E4_U+30FC 1
100
AcDbBlockReference
  2
block 6
 10
0.0
 20
0.0
 30
0.0
  0
POLYLINE
  5
C7
330
41
100
AcDbEntity
  8
_U+30EC_U+30A4_U+30E4_U+30FC 1
 62
   179
420
  2234388
370
     9
100
AcDb2dPolyline
 66
     1
 10
0.0
 20
0.0
 30
0.0
  0
VERTEX
  5
C8
330
C7
100
AcDbEntity
  8
_U+30EC_U+30A4_U+30E4_U+30FC 1
 62
   179
420
  2234388
370
     9
100
AcDbVertex
100
AcDb2dVertex
 10
66.78972162938558
 20
-81.01710997974581
 30
0.0
  0
VERTEX
  5
C9
330
C7
100
AcDbEntity
  8
_U+30EC_U+30A4_U+30E4_U+30FC 1
 62
   179
420
  2234388
370
     9
100
AcDbVertex
100
AcDb2dVertex
 10
53.98981665316935
 20
-81.01710997974581
 30
0.0
  0
SEQEND
  5
CA
330
C7
100
AcDbEntity
  8
_U+30EC_U+30A4_U+30E4_U+30FC 1
 62
   179
420
  2234388
370
     9
  0
INSERT
  5
CC
330
41
100
AcDbEntity
  8
_U+30EC_U+30A4_U+30E4_U+30FC 1
100
AcDbBlockReference
  2
block 7
 10
0.0
 20
0.0
 30
0.0
  0
ENDBLK
  5
44
330
41
100
AcDbEntity
  8
0
100
AcDbBlockEnd
  0
BLOCK
  5
84
330
82
100
AcDbEntity
  8
0
100
AcDbBlockBegin
  2
block 3
 70
     0
 10
0.0
 20
0.0
 30
0.0
  3
block 3
  1

  0
SPLINE
  5
86
330
82
100
AcDbEntity
  8
_U+30EC_U+30A4_U+30E4_U+30FC 1
370
     0
100
AcDbSpline
210
0.0
220
0.0
230
1.0
 70
    11
 71
     3
 72
    62
 73
    58
 74
     0
 42
0.0000000001
 43
0.0000000001
 12
1.0
 22
0.0
 32
0.0
 13
1.0
 23
0.0
 33
0.0
 40
0.0
 40
0.0
 40
0.0
 40
0.0
 40
1.0
 40
1.0
 40
1.0
 40
2.0
 40
2.0
 40
2.0
 40
3.0
 40
3.0
 40
3.0
 40
4.0
 40
4.0
 40
4.0
 40
5.0
 40
5.0
 40
5.0
 40
6.0
 40
6.0
 40
6.0
 40
7.0
 40
7.0
 40
7.0
 40
8.0
 40
8.0
 40
8.0
 40
9.0
 40
9.0
 40
9.0
 40
10.0
 40
10.0
 40
10.0
 40
11.0
 40
11.0
 40
11.0
 40
12.0
 40
12.0
 40
12.0
 40
13.0
 40
13.0
 40
13.0
 40
14.0
 40
14.0
 40
14.0
 40
15.0
 40
15.0
 40
15.0
 40
16.0
 40
16.0
 40
16.0
 40
17.0
 40
17.0
 40
17.0
 40
18.0
 40
18.0
 40
18.0
 40
19.0
 40
19.0
 40
19.0
 40
19.0
 10
79.53864201570562
 20
-75.48428139388935
 30
0.0
 10
79.53864201570562
 20
-75.58591171070422
 30
0.0
 10
79.5176269332456
 20
-75.81880016550711
 30
0.0
 10
79.3315917770421
 20
-75.95229761556054
 30
0.0
 10
79.21928166422296
 20
-76.03136255694703
 30
0.0
 10
79.12006291424777
 20
-76.03584118107784
 30
0.0
 10
79.03531356531062
 20
-76.04049205998294
 30
0.0
 10
79.03531356531062
 20
-76.04049205998294
 30
0.0
 10
79.03531356531062
 20
-75.80519203834037
 30
0.0
 10
79.03531356531062
 20
-75.80519203834037
 30
0.0
 10
79.10938311824349
 20
-75.80295272627497
 30
0.0
 10
79.343994120789
 20
-75.7917561659479
 30
0.0
 10
79.343994120789
 20
-75.48876001802017
 30
0.0
 10
79.343994120789
 20
-75.34182669557427
 30
0.0
 10
79.27440319198696
 20
-75.17904593389622
 30
0.0
 10
79.0459933613149
 20
-75.17904593389622
 30
0.0
 10
78.92954913391345
 20
-75.17904593389622
 30
0.0
 10
78.88097328757142
 20
-75.21969806062216
 30
0.0
 10
78.84927840910713
 20
-75.25363225115187
 30
0.0
 10
78.77520885617426
 20
-75.33269719253836
 30
0.0
 10
78.76246200287883
 20
-75.45706513955588
 30
0.0
 10
78.76246200287883
 20
-75.51580401757938
 30
0.0
 10
78.76246200287883
 20
-75.53630233571663
 30
0.0
 10
78.76452906016998
 20
-75.57471515037716
 30
0.0
 10
78.76866317475228
 20
-75.60399846200178
 30
0.0
 10
78.76866317475228
 20
-75.60399846200178
 30
0.0
 10
78.57401527983566
 20
-75.60399846200178
 30
0.0
 10
78.57401527983566
 20
-75.60399846200178
 30
0.0
 10
78.58056096125765
 20
-75.56334633527584
 30
0.0
 10
78.58262801854879
 20
-75.51821558441907
 30
0.0
 10
78.58262801854879
 20
-75.51132539344856
 30
0.0
 10
78.58262801854879
 20
-75.44121770032373
 30
0.0
 10
78.56126842654024
 20
-75.22882756365807
 30
0.0
 10
78.32459036670357
 20
-75.22882756365807
 30
0.0
 10
78.14682343966469
 20
-75.22882756365807
 30
0.0
 10
78.09170191190069
 20
-75.36887069513348
 30
0.0
 10
78.09170191190069
 20
-75.48652070595476
 30
0.0
 10
78.09170191190069
 20
-75.76901853574525
 30
0.0
 10
78.32459036670357
 20
-75.77814803878115
 30
0.0
 10
78.39624835279677
 20
-75.78262666291198
 30
0.0
 10
78.39624835279677
 20
-75.78262666291198
 30
0.0
 10
78.39624835279677
 20
-75.99966767848272
 30
0.0
 10
78.39624835279677
 20
-75.99966767848272
 30
0.0
 10
78.27153589623073
 20
-75.99071043022107
 30
0.0
 10
77.89498695969293
 20
-75.96125486382219
 30
0.0
 10
77.89498695969293
 20
-75.47291257878803
 30
0.0
 10
77.89498695969293
 20
-75.2333061877889
 30
0.0
 10
78.02211098309864
 20
-74.97561304549221
 30
0.0
 10
78.3180446852816
 20
-74.97561304549221
 30
0.0
 10
78.50442435103362
 20
-74.97561304549221
 30
0.0
 10
78.58676213313109
 20
-75.07724336230709
 30
0.0
 10
78.64808483276853
 20
-75.18352455802705
 30
0.0
 10
78.67564559665054
 20
-75.11789548903303
 30
0.0
 10
78.75591632145685
 20
-74.92359210366494
 30
0.0
 10
79.03324650801947
 20
-74.92359210366494
 30
0.0
 10
79.371554884671
 20
-74.92359210366494
 30
0.0
 10
79.53864201570562
 20
-75.18800318215786
 30
0.0
 10
79.53864201570562
 20
-75.48428139388935
 30
0.0
  0
HATCH
  5
87
330
82
100
AcDbEntity
  8
_U+30EC_U+30A4_U+30E4_U+30FC 1
 62
   179
420
  2234388
100
AcDbHatch
 10
0.0
 20
0.0
 30
0.0
210
0.0
220
0.0
230
1.0
  2
SOLID
 70
     1
 71
     0
 91
        1
 92
        1
 93
        1
 72
     4
 94
        3
 73
     0
 74
     1
 95
       62
 96
       58
 40
0.0
 40
0.0
 40
0.0
 40
0.0
 40
1.0
 40
1.0
 40
1.0
 40
2.0
 40
2.0
 40
2.0
 40
3.0
 40
3.0
 40
3.0
 40
4.0
 40
4.0
 40
4.0
 40
5.0
 40
5.0
 40
5.0
 40
6.0
 40
6.0
 40
6.0
 40
7.0
 40
7.0
 40
7.0
 40
8.0
 40
8.0
 40
8.0
 40
9.0
 40
9.0
 40
9.0
 40
10.0
 40
10.0
 40
10.0
 40
11.0
 40
11.0
 40
11.0
 40
12.0
 40
12.0
 40
12.0
 40
13.0
 40
13.0
 40
13.0
 40
14.0
 40
14.0
 40
14.0
 40
15.0
 40
15.0
 40
15.0
 40
16.0
 40
16.0
 40
16.0
 40
17.0
 40
17.0
 40
17.0
 40
18.0
 40
18.0
 40
18.0
 40
19.0
 40
19.0
 40
19.0
 40
19.0
 10
79.53864201570562
 20
-75.48428139388935
 10
79.53864201570562
 20
-75.58591171070422
 10
79.5176269332456
 20
-75.81880016550711
 10
79.3315917770421
 20
-75.95229761556054
 10
79.21928166422296
 20
-76.03136255694703
 10
79.12006291424777
 20
-76.03584118107784
 10
79.03531356531062
 20
-76.04049205998294
 10
79.03531356531062
 20
-76.04049205998294
 10
79.03531356531062
 20
-75.80519203834037
 10
79.03531356531062
 20
-75.80519203834037
 10
79.10938311824349
 20
-75.80295272627497
 10
79.343994120789
 20
-75.7917561659479
 10
79.343994120789
 20
-75.48876001802017
 10
79.343994120789
 20
-75.34182669557427
 10
79.27440319198696
 20
-75.17904593389622
 10
79.0459933613149
 20
-75.17904593389622
 10
78.92954913391345
 20
-75.17904593389622
 10
78.88097328757142
 20
-75.21969806062216
 10
78.84927840910713
 20
-75.25363225115187
 10
78.77520885617426
 20
-75.33269719253836
 10
78.76246200287883
 20
-75.45706513955588
 10
78.76246200287883
 20
-75.51580401757938
 10
78.76246200287883
 20
-75.53630233571663
 10
78.76452906016998
 20
-75.57471515037716
 10
78.76866317475228
 20
-75.60399846200178
 10
78.76866317475228
 20
-75.60399846200178
 10
78.57401527983566
 20
-75.60399846200178
 10
78.57401527983566
 20
-75.60399846200178
 10
78.58056096125765
 20
-75.56334633527584
 10
78.58262801854879
 20
-75.51821558441907
 10
78.58262801854879
 20
-75.51132539344856
 10
78.58262801854879
 20
-75.44121770032373
 10
78.56126842654024
 20
-75.22882756365807
 10
78.32459036670357
 20
-75.22882756365807
 10
78.14682343966469
 20
-75.22882756365807
 10
78.09170191190069
 20
-75.36887069513348
 10
78.09170191190069
 20
-75.48652070595476
 10
78.09170191190069
 20
-75.76901853574525
 10
78.32459036670357
 20
-75.77814803878115
 10
78.39624835279677
 20
-75.78262666291198
 10
78.39624835279677
 20
-75.78262666291198
 10
78.39624835279677
 20
-75.99966767848272
 10
78.39624835279677
 20
-75.99966767848272
 10
78.27153589623073
 20
-75.99071043022107
 10
77.89498695969293
 20
-75.96125486382219
 10
77.89498695969293
 20
-75.47291257878803
 10
77.89498695969293
 20
-75.2333061877889
 10
78.02211098309864
 20
-74.97561304549221
 10
78.3180446852816
 20
-74.97561304549221
 10
78.50442435103362
 20
-74.97561304549221
 10
78.58676213313109
 20
-75.07724336230709
 10
78.64808483276853
 20
-75.18352455802705
 10
78.67564559665054
 20
-75.11789548903303
 10
78.75591632145685
 20
-74.92359210366494
 10
79.03324650801947
 20
-74.92359210366494
 10
79.371554884671
 20
-74.92359210366494
 10
79.53864201570562
 20
-75.18800318215786
 10
79.53864201570562
 20
-75.48428139388935
 97
        0
 97
        0
 75
     2
 76
     1
 98
        0
  0
ENDBLK
  5
85
330
82
100
AcDbEntity
  8
0
100
AcDbBlockEnd
  0
BLOCK
  5
96
330
94
100
AcDbEntity
  8
0
100
AcDbBlockBegin
  2
block 4
 70
     0
 10
0.0
 20
0.0
 30
0.0
  3
block 4
  1

  0
SPLINE
  5
98
330
94
100
AcDbEntity
  8
_U+30EC_U+30A4_U+30E4_U+30FC 1
370
     0
100
AcDbSpline
210
0.0
220
0.0
230
1.0
 70
    11
 71
     3
 72
    44
 73
    40
 74
     0
 42
0.0000000001
 43
0.0000000001
 12
1.0
 22
0.0
 32
0.0
 13
1.0
 23
0.0
 33
0.0
 40
0.0
 40
0.0
 40
0.0
 40
0.0
 40
1.0
 40
1.0
 40
1.0
 40
2.0
 40
2.0
 40
2.0
 40
3.0
 40
3.0
 40
3.0
 40
4.0
 40
4.0
 40
4.0
 40
5.0
 40
5.0
 40
5.0
 40
6.0
 40
6.0
 40
6.0
 40
7.0
 40
7.0
 40
7.0
 40
8.0
 40
8.0
 40
8.0
 40
9.0
 40
9.0
 40
9.0
 40
10.0
 40
10.0
 40
10.0
 40
11.0
 40
11.0
 40
11.0
 40
12.0
 40
12.0
 40
12.0
 40
13.0
 40
13.0
 40
13.0
 40
13.0
 10
47.10565184369234
 20
-87.04378253032239
 30
0.0
 10
47.26429849078809
 20
-87.27667098512528
 30
0.0
 10
47.33836804372097
 20
-87.376234244649
 30
0.0
 10
47.48220078023014
 20
-87.42825518647628
 30
0.0
 10
47.48220078023014
 20
-87.42825518647628
 30
0.0
 10
47.48220078023014
 20
-86.59592011723991
 30
0.0
 10
47.48220078023014
 20
-86.59592011723991
 30
0.0
 10
47.48220078023014
 20
-86.59592011723991
 30
0.0
 10
47.68735621637678
 20
-86.59592011723991
 30
0.0
 10
47.68735621637678
 20
-86.59592011723991
 30
0.0
 10
47.68735621637678
 20
-86.59592011723991
 30
0.0
 10
47.68735621637678
 20
-87.69490557703462
 30
0.0
 10
47.68735621637678
 20
-87.69490557703462
 30
0.0
 10
47.32975530500784
 20
-87.66079913173064
 30
0.0
 10
47.25155163749267
 20
-87.59086369338007
 30
0.0
 10
46.95320636847003
 20
-87.17951929244124
 30
0.0
 10
46.75442435897112
 20
-86.9059787109124
 30
0.0
 10
46.68672823268596
 20
-86.8356987630133
 30
0.0
 10
46.54926892282449
 20
-86.8356987630133
 30
0.0
 10
46.43075763813189
 20
-86.8356987630133
 30
0.0
 10
46.29967175491814
 20
-86.91252439233438
 30
0.0
 10
46.29967175491814
 20
-87.12301972648314
 30
0.0
 10
46.29967175491814
 20
-87.4010389321428
 30
0.0
 10
46.53014864288135
 20
-87.40999618040445
 30
0.0
 10
46.6465928702828
 20
-87.41447480453527
 30
0.0
 10
46.6465928702828
 20
-87.41447480453527
 30
0.0
 10
46.6465928702828
 20
-87.65425345030866
 30
0.0
 10
46.6465928702828
 20
-87.65425345030866
 30
0.0
 10
46.51964110165135
 20
-87.645296202047
 30
0.0
 10
46.40750324360646
 20
-87.63392738694569
 30
0.0
 10
46.28899195891387
 20
-87.54779999981444
 30
0.0
 10
46.12827825452696
 20
-87.43032224376742
 30
0.0
 10
46.09434406399725
 20
-87.23154023426851
 30
0.0
 10
46.09434406399725
 20
-87.10717228725099
 30
0.0
 10
46.09434406399725
 20
-86.8108940755195
 30
0.0
 10
46.27848441768386
 20
-86.58937443581794
 30
0.0
 10
46.55133598011564
 20
-86.58937443581794
 30
0.0
 10
46.7797458107877
 20
-86.58937443581794
 30
0.0
 10
46.87930907031142
 20
-86.71374238283546
 30
0.0
 10
47.10565184369234
 20
-87.04378253032239
 30
0.0
  0
HATCH
  5
99
330
94
100
AcDbEntity
  8
_U+30EC_U+30A4_U+30E4_U+30FC 1
 62
   179
420
  2234388
100
AcDbHatch
 10
0.0
 20
0.0
 30
0.0
210
0.0
220
0.0
230
1.0
  2
SOLID
 70
     1
 71
     0
 91
        1
 92
        1
 93
        1
 72
     4
 94
        3
 73
     0
 74
     1
 95
       44
 96
       40
 40
0.0
 40
0.0
 40
0.0
 40
0.0
 40
1.0
 40
1.0
 40
1.0
 40
2.0
 40
2.0
 40
2.0
 40
3.0
 40
3.0
 40
3.0
 40
4.0
 40
4.0
 40
4.0
 40
5.0
 40
5.0
 40
5.0
 40
6.0
 40
6.0
 40
6.0
 40
7.0
 40
7.0
 40
7.0
 40
8.0
 40
8.0
 40
8.0
 40
9.0
 40
9.0
 40
9.0
 40
10.0
 40
10.0
 40
10.0
 40
11.0
 40
11.0
 40
11.0
 40
12.0
 40
12.0
 40
12.0
 40
13.0
 40
13.0
 40
13.0
 40
13.0
 10
47.10565184369234
 20
-87.04378253032239
 10
47.26429849078809
 20
-87.27667098512528
 10
47.33836804372097
 20
-87.376234244649
 10
47.48220078023014
 20
-87.42825518647628
 10
47.48220078023014
 20
-87.42825518647628
 10
47.48220078023014
 20
-86.59592011723991
 10
47.48220078023014
 20
-86.59592011723991
 10
47.48220078023014
 20
-86.59592011723991
 10
47.68735621637678
 20
-86.59592011723991
 10
47.68735621637678
 20
-86.59592011723991
 10
47.68735621637678
 20
-86.59592011723991
 10
47.68735621637678
 20
-87.69490557703462
 10
47.68735621637678
 20
-87.69490557703462
 10
47.32975530500784
 20
-87.66079913173064
 10
47.25155163749267
 20
-87.59086369338007
 10
46.95320636847003
 20
-87.17951929244124
 10
46.75442435897112
 20
-86.9059787109124
 10
46.68672823268596
 20
-86.8356987630133
 10
46.54926892282449
 20
-86.8356987630133
 10
46.43075763813189
 20
-86.8356987630133
 10
46.29967175491814
 20
-86.91252439233438
 10
46.29967175491814
 20
-87.12301972648314
 10
46.29967175491814
 20
-87.4010389321428
 10
46.53014864288135
 20
-87.40999618040445
 10
46.6465928702828
 20
-87.41447480453527
 10
46.6465928702828
 20
-87.41447480453527
 10
46.6465928702828
 20
-87.65425345030866
 10
46.6465928702828
 20
-87.65425345030866
 10
46.51964110165135
 20
-87.645296202047
 10
46.40750324360646
 20
-87.63392738694569
 10
46.28899195891387
 20
-87.54779999981444
 10
46.12827825452696
 20
-87.43032224376742
 10
46.09434406399725
 20
-87.23154023426851
 10
46.09434406399725
 20
-87.10717228725099
 10
46.09434406399725
 20
-86.8108940755195
 10
46.27848441768386
 20
-86.58937443581794
 10
46.55133598011564
 20
-86.58937443581794
 10
46.7797458107877
 20
-86.58937443581794
 10
46.87930907031142
 20
-86.71374238283546
 10
47.10565184369234
 20
-87.04378253032239
 97
        0
 97
        0
 75
     2
 76
     1
 98
        0
  0
SPLINE
  5
9A
330
94
100
AcDbEntity
  8
_U+30EC_U+30A4_U+30E4_U+30FC 1
370
     0
100
AcDbSpline
210
0.0
220
0.0
230
1.0
 70
    11
 71
     3
 72
    53
 73
    49
 74
     0
 42
0.0000000001
 43
0.0000000001
 12
1.0
 22
0.0
 32
0.0
 13
1.0
 23
0.0
 33
0.0
 40
0.0
 40
0.0
 40
0.0
 40
0.0
 40
1.0
 40
1.0
 40
1.0
 40
2.0
 40
2.0
 40
2.0
 40
3.0
 40
3.0
 40
3.0
 40
4.0
 40
4.0
 40
4.0
 40
5.0
 40
5.0
 40
5.0
 40
6.0
 40
6.0
 40
6.0
 40
7.0
 40
7.0
 40
7.0
 40
8.0
 40
8.0
 40
8.0
 40
9.0
 40
9.0
 40
9.0
 40
10.0
 40
10.0
 40
10.0
 40
11.0
 40
11.0
 40
11.0
 40
12.0
 40
12.0
 40
12.0
 40
13.0
 40
13.0
 40
13.0
 40
14.0
 40
14.0
 40
14.0
 40
15.0
 40
15.0
 40
15.0
 40
16.0
 40
16.0
 40
16.0
 40
16.0
 10
47.73817137478421
 20
-85.90586749154437
 30
0.0
 10
47.73817137478421
 20
-85.98958331183594
 30
0.0
 10
47.72111815213222
 20
-86.09775931007279
 30
0.0
 10
47.65772839520363
 20
-86.20662432740669
 30
0.0
 10
47.54765759444989
 20
-86.39197046451312
 30
0.0
 10
47.41657171123614
 20
-86.41436358516725
 30
0.0
 10
47.30874022254782
 20
-86.43468964853022
 30
0.0
 10
47.30874022254782
 20
-86.43468964853022
 30
0.0
 10
47.30874022254782
 20
-86.19732256959651
 30
0.0
 10
47.30874022254782
 20
-86.19732256959651
 30
0.0
 10
47.50752223204673
 20
-86.13875594634726
 30
0.0
 10
47.53715005321988
 20
-86.00301918422842
 30
0.0
 10
47.53715005321988
 20
-85.9034559247047
 30
0.0
 10
47.53715005321988
 20
-85.75428329019337
 30
0.0
 10
47.43775904847043
 20
-85.59133027374106
 30
0.0
 10
47.2050428484418
 20
-85.59133027374106
 30
0.0
 10
46.94907225388773
 20
-85.59133027374106
 30
0.0
 10
46.87930907031142
 20
-85.783566601818
 30
0.0
 10
46.87930907031142
 20
-85.91241317296634
 30
0.0
 10
46.87930907031142
 20
-85.94651961827032
 30
0.0
 10
46.87930907031142
 20
-86.09775931007279
 30
0.0
 10
47.00832789623403
 20
-86.19284394546568
 30
0.0
 10
47.00832789623403
 20
-86.19284394546568
 30
0.0
 10
46.9892076162909
 20
-86.3806016494118
 30
0.0
 10
46.9892076162909
 20
-86.3806016494118
 30
0.0
 10
46.9892076162909
 20
-86.3806016494118
 30
0.0
 10
46.14309216511354
 20
-86.25175507826346
 30
0.0
 10
46.14309216511354
 20
-86.25175507826346
 30
0.0
 10
46.14309216511354
 20
-86.25175507826346
 30
0.0
 10
46.14309216511354
 20
-85.41976451857562
 30
0.0
 10
46.14309216511354
 20
-85.41976451857562
 30
0.0
 10
46.14309216511354
 20
-85.41976451857562
 30
0.0
 10
46.33774006003015
 20
-85.41976451857562
 30
0.0
 10
46.33774006003015
 20
-85.41976451857562
 30
0.0
 10
46.33774006003015
 20
-85.41976451857562
 30
0.0
 10
46.33774006003015
 20
-86.07743324670982
 30
0.0
 10
46.33774006003015
 20
-86.07743324670982
 30
0.0
 10
46.33774006003015
 20
-86.07743324670982
 30
0.0
 10
46.76079778561883
 20
-86.14771319460891
 30
0.0
 10
46.76079778561883
 20
-86.14771319460891
 30
0.0
 10
46.72686359508912
 20
-86.08225638038917
 30
0.0
 10
46.68672823268596
 20
-85.99406193596677
 30
0.0
 10
46.68672823268596
 20
-85.86728242210957
 30
0.0
 10
46.68672823268596
 20
-85.59615340742042
 30
0.0
 10
46.87293564366372
 20
-85.34293888925454
 30
0.0
 10
47.18592256849866
 20
-85.34293888925454
 30
0.0
 10
47.50338811746443
 20
-85.34293888925454
 30
0.0
 10
47.73817137478421
 20
-85.58237302547941
 30
0.0
 10
47.73817137478421
 20
-85.90586749154437
 30
0.0
  0
HATCH
  5
9B
330
94
100
AcDbEntity
  8
_U+30EC_U+30A4_U+30E4_U+30FC 1
 62
   179
420
  2234388
100
AcDbHatch
 10
0.0
 20
0.0
 30
0.0
210
0.0
220
0.0
230
1.0
  2
SOLID
 70
     1
 71
     0
 91
        1
 92
        1
 93
        1
 72
     4
 94
        3
 73
     0
 74
     1
 95
       53
 96
       49
 40
0.0
 40
0.0
 40
0.0
 40
0.0
 40
1.0
 40
1.0
 40
1.0
 40
2.0
 40
2.0
 40
2.0
 40
3.0
 40
3.0
 40
3.0
 40
4.0
 40
4.0
 40
4.0
 40
5.0
 40
5.0
 40
5.0
 40
6.0
 40
6.0
 40
6.0
 40
7.0
 40
7.0
 40
7.0
 40
8.0
 40
8.0
 40
8.0
 40
9.0
 40
9.0
 40
9.0
 40
10.0
 40
10.0
 40
10.0
 40
11.0
 40
11.0
 40
11.0
 40
12.0
 40
12.0
 40
12.0
 40
13.0
 40
13.0
 40
13.0
 40
14.0
 40
14.0
 40
14.0
 40
15.0
 40
15.0
 40
15.0
 40
16.0
 40
16.0
 40
16.0
 40
16.0
 10
47.73817137478421
 20
-85.90586749154437
 10
47.73817137478421
 20
-85.98958331183594
 10
47.72111815213222
 20
-86.09775931007279
 10
47.65772839520363
 20
-86.20662432740669
 10
47.54765759444989
 20
-86.39197046451312
 10
47.41657171123614
 20
-86.41436358516725
 10
47.30874022254782
 20
-86.43468964853022
 10
47.30874022254782
 20
-86.43468964853022
 10
47.30874022254782
 20
-86.19732256959651
 10
47.30874022254782
 20
-86.19732256959651
 10
47.50752223204673
 20
-86.13875594634726
 10
47.53715005321988
 20
-86.00301918422842
 10
47.53715005321988
 20
-85.9034559247047
 10
47.53715005321988
 20
-85.75428329019337
 10
47.43775904847043
 20
-85.59133027374106
 10
47.2050428484418
 20
-85.59133027374106
 10
46.94907225388773
 20
-85.59133027374106
 10
46.87930907031142
 20
-85.783566601818
 10
46.87930907031142
 20
-85.91241317296634
 10
46.87930907031142
 20
-85.94651961827032
 10
46.87930907031142
 20
-86.09775931007279
 10
47.00832789623403
 20
-86.19284394546568
 10
47.00832789623403
 20
-86.19284394546568
 10
46.9892076162909
 20
-86.3806016494118
 10
46.9892076162909
 20
-86.3806016494118
 10
46.9892076162909
 20
-86.3806016494118
 10
46.14309216511354
 20
-86.25175507826346
 10
46.14309216511354
 20
-86.25175507826346
 10
46.14309216511354
 20
-86.25175507826346
 10
46.14309216511354
 20
-85.41976451857562
 10
46.14309216511354
 20
-85.41976451857562
 10
46.14309216511354
 20
-85.41976451857562
 10
46.33774006003015
 20
-85.41976451857562
 10
46.33774006003015
 20
-85.41976451857562
 10
46.33774006003015
 20
-85.41976451857562
 10
46.33774006003015
 20
-86.07743324670982
 10
46.33774006003015
 20
-86.07743324670982
 10
46.33774006003015
 20
-86.07743324670982
 10
46.76079778561883
 20
-86.14771319460891
 10
46.76079778561883
 20
-86.14771319460891
 10
46.72686359508912
 20
-86.08225638038917
 10
46.68672823268596
 20
-85.99406193596677
 10
46.68672823268596
 20
-85.86728242210957
 10
46.68672823268596
 20
-85.59615340742042
 10
46.87293564366372
 20
-85.34293888925454
 10
47.18592256849866
 20
-85.34293888925454
 10
47.50338811746443
 20
-85.34293888925454
 10
47.73817137478421
 20
-85.58237302547941
 10
47.73817137478421
 20
-85.90586749154437
 97
        0
 97
        0
 75
     2
 76
     1
 98
        0
  0
ENDBLK
  5
97
330
94
100
AcDbEntity
  8
0
100
AcDbBlockEnd
  0
BLOCK
  5
AA
330
A8
100
AcDbEntity
  8
0
100
AcDbBlockBegin
  2
block 5
 70
     0
 10
0.0
 20
0.0
 30
0.0
  3
block 5
  1

  0
SPLINE
  5
AC
330
A8
100
AcDbEntity
  8
_U+30EC_U+30A4_U+30E4_U+30FC 1
370
     0
100
AcDbSpline
210
0.0
220
0.0
230
1.0
 70
    11
 71
     3
 72
    26
 73
    22
 74
     0
 42
0.0000000001
 43
0.0000000001
 12
1.0
 22
0.0
 32
0.0
 13
1.0
 23
0.0
 33
0.0
 40
0.0
 40
0.0
 40
0.0
 40
0.0
 40
1.0
 40
1.0
 40
1.0
 40
2.0
 40
2.0
 40
2.0
 40
3.0
 40
3.0
 40
3.0
 40
4.0
 40
4.0
 40
4.0
 40
5.0
 40
5.0
 40
5.0
 40
6.0
 40
6.0
 40
6.0
 40
7.0
 40
7.0
 40
7.0
 40
7.0
 10
71.11331649697861
 20
-79.71744247139009
 30
0.0
 10
71.11331649697861
 20
-79.71744247139009
 30
0.0
 10
71.11331649697861
 20
-78.61311711359325
 30
0.0
 10
71.11331649697861
 20
-78.61311711359325
 30
0.0
 10
71.11331649697861
 20
-78.61311711359325
 30
0.0
 10
70.76088322883756
 20
-78.61311711359325
 30
0.0
 10
70.76088322883756
 20
-78.61311711359325
 30
0.0
 10
70.76088322883756
 20
-78.61311711359325
 30
0.0
 10
70.76088322883756
 20
-78.46515026250177
 30
0.0
 10
70.76088322883756
 20
-78.46515026250177
 30
0.0
 10
71.1157280638183
 20
-78.4503363519152
 30
0.0
 10
71.16533743880589
 20
-78.28738333546288
 30
0.0
 10
71.19703231727019
 20
-78.17317842012685
 30
0.0
 10
71.19703231727019
 20
-78.17317842012685
 30
0.0
 10
71.35309514275201
 20
-78.17317842012685
 30
0.0
 10
71.35309514275201
 20
-78.17317842012685
 30
0.0
 10
71.35309514275201
 20
-78.17317842012685
 30
0.0
 10
71.35309514275201
 20
-79.71744247139009
 30
0.0
 10
71.35309514275201
 20
-79.71744247139009
 30
0.0
 10
71.35309514275201
 20
-79.71744247139009
 30
0.0
 10
71.11331649697861
 20
-79.71744247139009
 30
0.0
 10
71.11331649697861
 20
-79.71744247139009
 30
0.0
  0
HATCH
  5
AD
330
A8
100
AcDbEntity
  8
_U+30EC_U+30A4_U+30E4_U+30FC 1
 62
   179
420
  2234388
100
AcDbHatch
 10
0.0
 20
0.0
 30
0.0
210
0.0
220
0.0
230
1.0
  2
SOLID
 70
     1
 71
     0
 91
        1
 92
        1
 93
        1
 72
     4
 94
        3
 73
     0
 74
     1
 95
       26
 96
       22
 40
0.0
 40
0.0
 40
0.0
 40
0.0
 40
1.0
 40
1.0
 40
1.0
 40
2.0
 40
2.0
 40
2.0
 40
3.0
 40
3.0
 40
3.0
 40
4.0
 40
4.0
 40
4.0
 40
5.0
 40
5.0
 40
5.0
 40
6.0
 40
6.0
 40
6.0
 40
7.0
 40
7.0
 40
7.0
 40
7.0
 10
71.11331649697861
 20
-79.71744247139009
 10
71.11331649697861
 20
-79.71744247139009
 10
71.11331649697861
 20
-78.61311711359325
 10
71.11331649697861
 20
-78.61311711359325
 10
71.11331649697861
 20
-78.61311711359325
 10
70.76088322883756
 20
-78.61311711359325
 10
70.76088322883756
 20
-78.61311711359325
 10
70.76088322883756
 20
-78.61311711359325
 10
70.76088322883756
 20
-78.46515026250177
 10
70.76088322883756
 20
-78.46515026250177
 10
71.1157280638183
 20
-78.4503363519152
 10
71.16533743880589
 20
-78.28738333546288
 10
71.19703231727019
 20
-78.17317842012685
 10
71.19703231727019
 20
-78.17317842012685
 10
71.35309514275201
 20
-78.17317842012685
 10
71.35309514275201
 20
-78.17317842012685
 10
71.35309514275201
 20
-78.17317842012685
 10
71.35309514275201
 20
-79.71744247139009
 10
71.35309514275201
 20
-79.71744247139009
 10
71.35309514275201
 20
-79.71744247139009
 10
71.11331649697861
 20
-79.71744247139009
 10
71.11331649697861
 20
-79.71744247139009
 97
        0
 97
        0
 75
     2
 76
     1
 98
        0
  0
SPLINE
  5
AE
330
A8
100
AcDbEntity
  8
_U+30EC_U+30A4_U+30E4_U+30FC 1
370
     0
100
AcDbSpline
210
0.0
220
0.0
230
1.0
 70
    11
 71
     3
 72
    29
 73
    25
 74
     0
 42
0.0000000001
 43
0.0000000001
 12
1.0
 22
0.0
 32
0.0
 13
1.0
 23
0.0
 33
0.0
 40
0.0
 40
0.0
 40
0.0
 40
0.0
 40
1.0
 40
1.0
 40
1.0
 40
2.0
 40
2.0
 40
2.0
 40
3.0
 40
3.0
 40
3.0
 40
4.0
 40
4.0
 40
4.0
 40
5.0
 40
5.0
 40
5.0
 40
6.0
 40
6.0
 40
6.0
 40
7.0
 40
7.0
 40
7.0
 40
8.0
 40
8.0
 40
8.0
 40
8.0
 10
72.84826658335044
 20
-79.5396755443512
 30
0.0
 10
72.73285588459457
 20
-79.74913734985438
 30
0.0
 10
72.54750974748812
 20
-79.76808537502326
 30
0.0
 10
72.4231418004706
 20
-79.76808537502326
 30
0.0
 10
72.25157604530517
 20
-79.76808537502326
 30
0.0
 10
72.09999184395417
 20
-79.72157658597239
 30
0.0
 10
71.9983615271393
 20
-79.5396755443512
 30
0.0
 10
71.88742945251425
 20
-79.34502764943458
 30
0.0
 10
71.86710338915128
 20
-79.10834958959792
 30
0.0
 10
71.86710338915128
 20
-78.9453965731456
 30
0.0
 10
71.86710338915128
 20
-78.80139158186216
 30
0.0
 10
71.88501788567459
 20
-78.54972735666466
 30
0.0
 10
71.9983615271393
 20
-78.35077309239148
 30
0.0
 10
72.11342771634665
 20
-78.147684713536
 30
0.0
 10
72.28533798106061
 20
-78.12443031901056
 30
0.0
 10
72.4231418004706
 20
-78.12443031901056
 30
0.0
 10
72.59298500789342
 20
-78.12443031901056
 30
0.0
 10
72.74663626653556
 20
-78.16887205077029
 30
0.0
 10
72.84826658335044
 20
-78.35077309239148
 30
0.0
 10
72.95472003384465
 20
-78.54335393001695
 30
0.0
 10
72.97952472133845
 20
-78.77176376068901
 30
0.0
 10
72.97952472133845
 20
-78.9453965731456
 30
0.0
 10
72.97952472133845
 20
-79.11661781876252
 30
0.0
 10
72.95678709113581
 20
-79.34709470672573
 30
0.0
 10
72.84826658335044
 20
-79.5396755443512
 30
0.0
  0
SPLINE
  5
AF
330
A8
100
AcDbEntity
  8
_U+30EC_U+30A4_U+30E4_U+30FC 1
370
     0
100
AcDbSpline
210
0.0
220
0.0
230
1.0
 70
    11
 71
     3
 72
    17
 73
    13
 74
     0
 42
0.0000000001
 43
0.0000000001
 12
1.0
 22
0.0
 32
0.0
 13
1.0
 23
0.0
 33
0.0
 40
0.0
 40
0.0
 40
0.0
 40
0.0
 40
1.0
 40
1.0
 40
1.0
 40
2.0
 40
2.0
 40
2.0
 40
3.0
 40
3.0
 40
3.0
 40
4.0
 40
4.0
 40
4.0
 40
4.0
 10
72.4231418004706
 20
-78.31701115663603
 30
0.0
 10
72.15649140991226
 20
-78.31701115663603
 30
0.0
 10
72.10688203492467
 20
-78.60054251507209
 30
0.0
 10
72.10688203492467
 20
-78.9453965731456
 30
0.0
 10
72.10688203492467
 20
-79.26475692462826
 30
0.0
 10
72.14512259481094
 20
-79.57343748010665
 30
0.0
 10
72.4231418004706
 20
-79.57343748010665
 30
0.0
 10
72.6877251337378
 20
-79.57343748010665
 30
0.0
 10
72.73974607556507
 20
-79.29231768851025
 30
0.0
 10
72.73974607556507
 20
-78.9453965731456
 30
0.0
 10
72.73974607556507
 20
-78.62586396688867
 30
0.0
 10
72.69909394883912
 20
-78.31701115663603
 30
0.0
 10
72.4231418004706
 20
-78.31701115663603
 30
0.0
  0
HATCH
  5
B0
330
A8
100
AcDbEntity
  8
_U+30EC_U+30A4_U+30E4_U+30FC 1
 62
   179
420
  2234388
100
AcDbHatch
 10
0.0
 20
0.0
 30
0.0
210
0.0
220
0.0
230
1.0
  2
SOLID
 70
     1
 71
     0
 91
        2
 92
        1
 93
        1
 72
     4
 94
        3
 73
     0
 74
     1
 95
       29
 96
       25
 40
0.0
 40
0.0
 40
0.0
 40
0.0
 40
1.0
 40
1.0
 40
1.0
 40
2.0
 40
2.0
 40
2.0
 40
3.0
 40
3.0
 40
3.0
 40
4.0
 40
4.0
 40
4.0
 40
5.0
 40
5.0
 40
5.0
 40
6.0
 40
6.0
 40
6.0
 40
7.0
 40
7.0
 40
7.0
 40
8.0
 40
8.0
 40
8.0
 40
8.0
 10
72.84826658335044
 20
-79.5396755443512
 10
72.73285588459457
 20
-79.74913734985438
 10
72.54750974748812
 20
-79.76808537502326
 10
72.4231418004706
 20
-79.76808537502326
 10
72.25157604530517
 20
-79.76808537502326
 10
72.09999184395417
 20
-79.72157658597239
 10
71.9983615271393
 20
-79.5396755443512
 10
71.88742945251425
 20
-79.34502764943458
 10
71.86710338915128
 20
-79.10834958959792
 10
71.86710338915128
 20
-78.9453965731456
 10
71.86710338915128
 20
-78.80139158186216
 10
71.88501788567459
 20
-78.54972735666466
 10
71.9983615271393
 20
-78.35077309239148
 10
72.11342771634665
 20
-78.147684713536
 10
72.28533798106061
 20
-78.12443031901056
 10
72.4231418004706
 20
-78.12443031901056
 10
72.59298500789342
 20
-78.12443031901056
 10
72.74663626653556
 20
-78.16887205077029
 10
72.84826658335044
 20
-78.35077309239148
 10
72.95472003384465
 20
-78.54335393001695
 10
72.97952472133845
 20
-78.77176376068901
 10
72.97952472133845
 20
-78.9453965731456
 10
72.97952472133845
 20
-79.11661781876252
 10
72.95678709113581
 20
-79.34709470672573
 10
72.84826658335044
 20
-79.5396755443512
 97
        0
 97
        0
 92
        1
 93
        1
 72
     4
 94
        3
 73
     0
 74
     1
 95
       17
 96
       13
 40
0.0
 40
0.0
 40
0.0
 40
0.0
 40
1.0
 40
1.0
 40
1.0
 40
2.0
 40
2.0
 40
2.0
 40
3.0
 40
3.0
 40
3.0
 40
4.0
 40
4.0
 40
4.0
 40
4.0
 10
72.4231418004706
 20
-78.31701115663603
 10
72.15649140991226
 20
-78.31701115663603
 10
72.10688203492467
 20
-78.60054251507209
 10
72.10688203492467
 20
-78.9453965731456
 10
72.10688203492467
 20
-79.26475692462826
 10
72.14512259481094
 20
-79.57343748010665
 10
72.4231418004706
 20
-79.57343748010665
 10
72.6877251337378
 20
-79.57343748010665
 10
72.73974607556507
 20
-79.29231768851025
 10
72.73974607556507
 20
-78.9453965731456
 10
72.73974607556507
 20
-78.62586396688867
 10
72.69909394883912
 20
-78.31701115663603
 10
72.4231418004706
 20
-78.31701115663603
 97
        0
 97
        0
 75
     2
 76
     1
 98
        0
  0
ENDBLK
  5
AB
330
A8
100
AcDbEntity
  8
0
100
AcDbBlockEnd
  0
BLOCK
  5
C3
330
C1
100
AcDbEntity
  8
0
100
AcDbBlockBegin
  2
block 6
 70
     0
 10
0.0
 20
0.0
 30
0.0
  3
block 6
  1

  0
SPLINE
  5
C5
330
C1
100
AcDbEntity
  8
_U+30EC_U+30A4_U+30E4_U+30FC 1
370
     0
100
AcDbSpline
210
0.0
220
0.0
230
1.0
 70
    11
 71
     3
 72
    26
 73
    22
 74
     0
 42
0.0000000001
 43
0.0000000001
 12
1.0
 22
0.0
 32
0.0
 13
1.0
 23
0.0
 33
0.0
 40
0.0
 40
0.0
 40
0.0
 40
0.0
 40
1.0
 40
1.0
 40
1.0
 40
2.0
 40
2.0
 40
2.0
 40
3.0
 40
3.0
 40
3.0
 40
4.0
 40
4.0
 40
4.0
 40
5.0
 40
5.0
 40
5.0
 40
6.0
 40
6.0
 40
6.0
 40
7.0
 40
7.0
 40
7.0
 40
7.0
 10
56.97998452351543
 20
-101.7157551829044
 30
0.0
 10
56.97998452351543
 20
-101.7157551829044
 30
0.0
 10
56.97998452351543
 20
-100.6116020798818
 30
0.0
 10
56.97998452351543
 20
-100.6116020798818
 30
0.0
 10
56.97998452351543
 20
-100.6116020798818
 30
0.0
 10
56.62720674582584
 20
-100.6116020798818
 30
0.0
 10
56.62720674582584
 20
-100.6116020798818
 30
0.0
 10
56.62720674582584
 20
-100.6116020798818
 30
0.0
 10
56.62720674582584
 20
-100.4634629740161
 30
0.0
 10
56.62720674582584
 20
-100.4634629740161
 30
0.0
 10
56.98222383558083
 20
-100.4486490634295
 30
0.0
 10
57.03200546534269
 20
-100.2856960469772
 30
0.0
 10
57.06352808903273
 20
-100.1713188768669
 30
0.0
 10
57.06352808903273
 20
-100.1713188768669
 30
0.0
 10
57.21959091451455
 20
-100.1713188768669
 30
0.0
 10
57.21959091451455
 20
-100.1713188768669
 30
0.0
 10
57.21959091451455
 20
-100.1713188768669
 30
0.0
 10
57.21959091451455
 20
-101.7157551829044
 30
0.0
 10
57.21959091451455
 20
-101.7157551829044
 30
0.0
 10
57.21959091451455
 20
-101.7157551829044
 30
0.0
 10
56.97998452351543
 20
-101.7157551829044
 30
0.0
 10
56.97998452351543
 20
-101.7157551829044
 30
0.0
  0
HATCH
  5
C6
330
C1
100
AcDbEntity
  8
_U+30EC_U+30A4_U+30E4_U+30FC 1
 62
   179
420
  2234388
100
AcDbHatch
 10
0.0
 20
0.0
 30
0.0
210
0.0
220
0.0
230
1.0
  2
SOLID
 70
     1
 71
     0
 91
        1
 92
        1
 93
        1
 72
     4
 94
        3
 73
     0
 74
     1
 95
       26
 96
       22
 40
0.0
 40
0.0
 40
0.0
 40
0.0
 40
1.0
 40
1.0
 40
1.0
 40
2.0
 40
2.0
 40
2.0
 40
3.0
 40
3.0
 40
3.0
 40
4.0
 40
4.0
 40
4.0
 40
5.0
 40
5.0
 40
5.0
 40
6.0
 40
6.0
 40
6.0
 40
7.0
 40
7.0
 40
7.0
 40
7.0
 10
56.97998452351543
 20
-101.7157551829044
 10
56.97998452351543
 20
-101.7157551829044
 10
56.97998452351543
 20
-100.6116020798818
 10
56.97998452351543
 20
-100.6116020798818
 10
56.97998452351543
 20
-100.6116020798818
 10
56.62720674582584
 20
-100.6116020798818
 10
56.62720674582584
 20
-100.6116020798818
 10
56.62720674582584
 20
-100.6116020798818
 10
56.62720674582584
 20
-100.4634629740161
 10
56.62720674582584
 20
-100.4634629740161
 10
56.98222383558083
 20
-100.4486490634295
 10
57.03200546534269
 20
-100.2856960469772
 10
57.06352808903273
 20
-100.1713188768669
 10
57.06352808903273
 20
-100.1713188768669
 10
57.21959091451455
 20
-100.1713188768669
 10
57.21959091451455
 20
-100.1713188768669
 10
57.21959091451455
 20
-100.1713188768669
 10
57.21959091451455
 20
-101.7157551829044
 10
57.21959091451455
 20
-101.7157551829044
 10
57.21959091451455
 20
-101.7157551829044
 10
56.97998452351543
 20
-101.7157551829044
 10
56.97998452351543
 20
-101.7157551829044
 97
        0
 97
        0
 75
     2
 76
     1
 98
        0
  0
ENDBLK
  5
C4
330
C1
100
AcDbEntity
  8
0
100
AcDbBlockEnd
  0
BLOCK
  5
CD
330
CB
100
AcDbEntity
  8
0
100
AcDbBlockBegin
  2
block 7
 70
     0
 10
0.0
 20
0.0
 30
0.0
  3
block 7
  1

  0
SPLINE
  5
CF
330
CB
100
AcDbEntity
  8
_U+30EC_U+30A4_U+30E4_U+30FC 1
370
     0
100
AcDbSpline
210
0.0
220
0.0
230
1.0
 70
    11
 71
     3
 72
    26
 73
    22
 74
     0
 42
0.0000000001
 43
0.0000000001
 12
1.0
 22
0.0
 32
0.0
 13
1.0
 23
0.0
 33
0.0
 40
0.0
 40
0.0
 40
0.0
 40
0.0
 40
1.0
 40
1.0
 40
1.0
 40
2.0
 40
2.0
 40
2.0
 40
3.0
 40
3.0
 40
3.0
 40
4.0
 40
4.0
 40
4.0
 40
5.0
 40
5.0
 40
5.0
 40
6.0
 40
6.0
 40
6.0
 40
7.0
 40
7.0
 40
7.0
 40
7.0
 10
59.0453192669227
 20
-79.71744247139009
 30
0.0
 10
59.0453192669227
 20
-79.71744247139009
 30
0.0
 10
59.0453192669227
 20
-78.61311711359325
 30
0.0
 10
59.0453192669227
 20
-78.61311711359325
 30
0.0
 10
59.0453192669227
 20
-78.61311711359325
 30
0.0
 10
58.69288599878164
 20
-78.61311711359325
 30
0.0
 10
58.69288599878164
 20
-78.61311711359325
 30
0.0
 10
58.69288599878164
 20
-78.61311711359325
 30
0.0
 10
58.69288599878164
 20
-78.46515026250177
 30
0.0
 10
58.69288599878164
 20
-78.46515026250177
 30
0.0
 10
59.04773083376237
 20
-78.4503363519152
 30
0.0
 10
59.09734020874998
 20
-78.28738333546288
 30
0.0
 10
59.12903508721427
 20
-78.17317842012685
 30
0.0
 10
59.12903508721427
 20
-78.17317842012685
 30
0.0
 10
59.28509791269609
 20
-78.17317842012685
 30
0.0
 10
59.28509791269609
 20
-78.17317842012685
 30
0.0
 10
59.28509791269609
 20
-78.17317842012685
 30
0.0
 10
59.28509791269609
 20
-79.71744247139009
 30
0.0
 10
59.28509791269609
 20
-79.71744247139009
 30
0.0
 10
59.28509791269609
 20
-79.71744247139009
 30
0.0
 10
59.0453192669227
 20
-79.71744247139009
 30
0.0
 10
59.0453192669227
 20
-79.71744247139009
 30
0.0
  0
HATCH
  5
D0
330
CB
100
AcDbEntity
  8
_U+30EC_U+30A4_U+30E4_U+30FC 1
 62
   179
420
  2234388
100
AcDbHatch
 10
0.0
 20
0.0
 30
0.0
210
0.0
220
0.0
230
1.0
  2
SOLID
 70
     1
 71
     0
 91
        1
 92
        1
 93
        1
 72
     4
 94
        3
 73
     0
 74
     1
 95
       26
 96
       22
 40
0.0
 40
0.0
 40
0.0
 40
0.0
 40
1.0
 40
1.0
 40
1.0
 40
2.0
 40
2.0
 40
2.0
 40
3.0
 40
3.0
 40
3.0
 40
4.0
 40
4.0
 40
4.0
 40
5.0
 40
5.0
 40
5.0
 40
6.0
 40
6.0
 40
6.0
 40
7.0
 40
7.0
 40
7.0
 40
7.0
 10
59.0453192669227
 20
-79.71744247139009
 10
59.0453192669227
 20
-79.71744247139009
 10
59.0453192669227
 20
-78.61311711359325
 10
59.0453192669227
 20
-78.61311711359325
 10
59.0453192669227
 20
-78.61311711359325
 10
58.69288599878164
 20
-78.61311711359325
 10
58.69288599878164
 20
-78.61311711359325
 10
58.69288599878164
 20
-78.61311711359325
 10
58.69288599878164
 20
-78.46515026250177
 10
58.69288599878164
 20
-78.46515026250177
 10
59.04773083376237
 20
-78.4503363519152
 10
59.09734020874998
 20
-78.28738333546288
 10
59.12903508721427
 20
-78.17317842012685
 10
59.12903508721427
 20
-78.17317842012685
 10
59.28509791269609
 20
-78.17317842012685
 10
59.28509791269609
 20
-78.17317842012685
 10
59.28509791269609
 20
-78.17317842012685
 10
59.28509791269609
 20
-79.71744247139009
 10
59.28509791269609
 20
-79.71744247139009
 10
59.28509791269609
 20
-79.71744247139009
 10
59.0453192669227
 20
-79.71744247139009
 10
59.0453192669227
 20
-79.71744247139009
 97
        0
 97
        0
 75
     2
 76
     1
 98
        0
  0
SPLINE
  5
D1
330
CB
100
AcDbEntity
  8
_U+30EC_U+30A4_U+30E4_U+30FC 1
370
     0
100
AcDbSpline
210
0.0
220
0.0
230
1.0
 70
    11
 71
     3
 72
    44
 73
    40
 74
     0
 42
0.0000000001
 43
0.0000000001
 12
1.0
 22
0.0
 32
0.0
 13
1.0
 23
0.0
 33
0.0
 40
0.0
 40
0.0
 40
0.0
 40
0.0
 40
1.0
 40
1.0
 40
1.0
 40
2.0
 40
2.0
 40
2.0
 40
3.0
 40
3.0
 40
3.0
 40
4.0
 40
4.0
 40
4.0
 40
5.0
 40
5.0
 40
5.0
 40
6.0
 40
6.0
 40
6.0
 40
7.0
 40
7.0
 40
7.0
 40
8.0
 40
8.0
 40
8.0
 40
9.0
 40
9.0
 40
9.0
 40
10.0
 40
10.0
 40
10.0
 40
11.0
 40
11.0
 40
11.0
 40
12.0
 40
12.0
 40
12.0
 40
13.0
 40
13.0
 40
13.0
 40
13.0
 10
60.45470782993841
 20
-79.13556584393139
 30
0.0
 10
60.22181937513552
 20
-79.29438474580141
 30
0.0
 10
60.1222561156118
 20
-79.36845429873428
 30
0.0
 10
60.07023517378452
 20
-79.51211478046919
 30
0.0
 10
60.07023517378452
 20
-79.51211478046919
 30
0.0
 10
60.90257024302089
 20
-79.51211478046919
 30
0.0
 10
60.90257024302089
 20
-79.51211478046919
 30
0.0
 10
60.90257024302089
 20
-79.51211478046919
 30
0.0
 10
60.90257024302089
 20
-79.71744247139009
 30
0.0
 10
60.90257024302089
 20
-79.71744247139009
 30
0.0
 10
60.90257024302089
 20
-79.71744247139009
 30
0.0
 10
59.80358478322619
 20
-79.71744247139009
 30
0.0
 10
59.80358478322619
 20
-79.71744247139009
 30
0.0
 10
59.83769122853016
 20
-79.35984156002115
 30
0.0
 10
59.90762666688074
 20
-79.28163789250598
 30
0.0
 10
60.31897106781957
 20
-78.98329262348335
 30
0.0
 10
60.5925116493484
 20
-78.78451061398444
 30
0.0
 10
60.6627915972475
 20
-78.71681448769927
 30
0.0
 10
60.6627915972475
 20
-78.5793551778378
 30
0.0
 10
60.6627915972475
 20
-78.46084389314521
 30
0.0
 10
60.58596596792643
 20
-78.32975800993145
 30
0.0
 10
60.37547063377766
 20
-78.32975800993145
 30
0.0
 10
60.097451428118
 20
-78.32975800993145
 30
0.0
 10
60.08849417985635
 20
-78.56023489789467
 30
0.0
 10
60.08401555572553
 20
-78.67667912529612
 30
0.0
 10
60.08401555572553
 20
-78.67667912529612
 30
0.0
 10
59.84423690995214
 20
-78.67667912529612
 30
0.0
 10
59.84423690995214
 20
-78.67667912529612
 30
0.0
 10
59.85319415821379
 20
-78.54972735666466
 30
0.0
 10
59.86456297331511
 20
-78.43758949861977
 30
0.0
 10
59.95069036044636
 20
-78.31907821392718
 30
0.0
 10
60.06816811649337
 20
-78.15836450954028
 30
0.0
 10
60.2669501259923
 20
-78.12443031901056
 30
0.0
 10
60.39131807300981
 20
-78.12443031901056
 30
0.0
 10
60.6875962847413
 20
-78.12443031901056
 30
0.0
 10
60.90911592444287
 20
-78.30857067269717
 30
0.0
 10
60.90911592444287
 20
-78.58142223512895
 30
0.0
 10
60.90911592444287
 20
-78.80983206580102
 30
0.0
 10
60.78474797742534
 20
-78.90922307055048
 30
0.0
 10
60.45470782993841
 20
-79.13556584393139
 30
0.0
  0
HATCH
  5
D2
330
CB
100
AcDbEntity
  8
_U+30EC_U+30A4_U+30E4_U+30FC 1
 62
   179
420
  2234388
100
AcDbHatch
 10
0.0
 20
0.0
 30
0.0
210
0.0
220
0.0
230
1.0
  2
SOLID
 70
     1
 71
     0
 91
        1
 92
        1
 93
        1
 72
     4
 94
        3
 73
     0
 74
     1
 95
       44
 96
       40
 40
0.0
 40
0.0
 40
0.0
 40
0.0
 40
1.0
 40
1.0
 40
1.0
 40
2.0
 40
2.0
 40
2.0
 40
3.0
 40
3.0
 40
3.0
 40
4.0
 40
4.0
 40
4.0
 40
5.0
 40
5.0
 40
5.0
 40
6.0
 40
6.0
 40
6.0
 40
7.0
 40
7.0
 40
7.0
 40
8.0
 40
8.0
 40
8.0
 40
9.0
 40
9.0
 40
9.0
 40
10.0
 40
10.0
 40
10.0
 40
11.0
 40
11.0
 40
11.0
 40
12.0
 40
12.0
 40
12.0
 40
13.0
 40
13.0
 40
13.0
 40
13.0
 10
60.45470782993841
 20
-79.13556584393139
 10
60.22181937513552
 20
-79.29438474580141
 10
60.1222561156118
 20
-79.36845429873428
 10
60.07023517378452
 20
-79.51211478046919
 10
60.07023517378452
 20
-79.51211478046919
 10
60.90257024302089
 20
-79.51211478046919
 10
60.90257024302089
 20
-79.51211478046919
 10
60.90257024302089
 20
-79.51211478046919
 10
60.90257024302089
 20
-79.71744247139009
 10
60.90257024302089
 20
-79.71744247139009
 10
60.90257024302089
 20
-79.71744247139009
 10
59.80358478322619
 20
-79.71744247139009
 10
59.80358478322619
 20
-79.71744247139009
 10
59.83769122853016
 20
-79.35984156002115
 10
59.90762666688074
 20
-79.28163789250598
 10
60.31897106781957
 20
-78.98329262348335
 10
60.5925116493484
 20
-78.78451061398444
 10
60.6627915972475
 20
-78.71681448769927
 10
60.6627915972475
 20
-78.5793551778378
 10
60.6627915972475
 20
-78.46084389314521
 10
60.58596596792643
 20
-78.32975800993145
 10
60.37547063377766
 20
-78.32975800993145
 10
60.097451428118
 20
-78.32975800993145
 10
60.08849417985635
 20
-78.56023489789467
 10
60.08401555572553
 20
-78.67667912529612
 10
60.08401555572553
 20
-78.67667912529612
 10
59.84423690995214
 20
-78.67667912529612
 10
59.84423690995214
 20
-78.67667912529612
 10
59.85319415821379
 20
-78.54972735666466
 10
59.86456297331511
 20
-78.43758949861977
 10
59.95069036044636
 20
-78.31907821392718
 10
60.06816811649337
 20
-78.15836450954028
 10
60.2669501259923
 20
-78.12443031901056
 10
60.39131807300981
 20
-78.12443031901056
 10
60.6875962847413
 20
-78.12443031901056
 10
60.90911592444287
 20
-78.30857067269717
 10
60.90911592444287
 20
-78.58142223512895
 10
60.90911592444287
 20
-78.80983206580102
 10
60.78474797742534
 20
-78.90922307055048
 10
60.45470782993841
 20
-79.13556584393139
 97
        0
 97
        0
 75
     2
 76
     1
 98
        0
  0
POLYLINE
  5
D3
330
CB
100
AcDbEntity
  8
_U+30EC_U+30A4_U+30E4_U+30FC 1
370
     0
100
AcDb2dPolyline
 66
     1
 10
0.0
 20
0.0
 30
0.0
  0
VERTEX
  5
D4
330
D3
100
AcDbEntity
  8
_U+30EC_U+30A4_U+30E4_U+30FC 1
370
     0
100
AcDbVertex
100
AcDb2dVertex
 10
61.1426933983428
 20
-79.71744247139009
 30
0.0
  0
VERTEX
  5
D5
330
D3
100
AcDbEntity
  8
_U+30EC_U+30A4_U+30E4_U+30FC 1
370
     0
100
AcDbVertex
100
AcDb2dVertex
 10
61.1426933983428
 20
-79.46560599141833
 30
0.0
  0
VERTEX
  5
D6
330
D3
100
AcDbEntity
  8
_U+30EC_U+30A4_U+30E4_U+30FC 1
370
     0
100
AcDbVertex
100
AcDb2dVertex
 10
61.41175535574082
 20
-79.46560599141833
 30
0.0
  0
VERTEX
  5
D7
330
D3
100
AcDbEntity
  8
_U+30EC_U+30A4_U+30E4_U+30FC 1
370
     0
100
AcDbVertex
100
AcDb2dVertex
 10
61.41175535574082
 20
-79.71744247139009
 30
0.0
  0
VERTEX
  5
D8
330
D3
100
AcDbEntity
  8
_U+30EC_U+30A4_U+30E4_U+30FC 1
370
     0
100
AcDbVertex
100
AcDb2dVertex
 10
61.1426933983428
 20
-79.71744247139009
 30
0.0
  0
SEQEND
  5
D9
330
D3
100
AcDbEntity
  8
_U+30EC_U+30A4_U+30E4_U+30FC 1
370
     0
  0
HATCH
  5
DA
330
CB
100
AcDbEntity
  8
_U+30EC_U+30A4_U+30E4_U+30FC 1
 62
   179
420
  2234388
100
AcDbHatch
 10
0.0
 20
0.0
 30
0.0
210
0.0
220
0.0
230
1.0
  2
SOLID
 70
     1
 71
     0
 91
        1
 92
        1
 93
        4
 72
     1
 10
61.1426933983428
 20
-79.71744247139009
 11
61.1426933983428
 21
-79.46560599141833
 72
     1
 10
61.1426933983428
 20
-79.46560599141833
 11
61.41175535574082
 21
-79.46560599141833
 72
     1
 10
61.41175535574082
 20
-79.46560599141833
 11
61.41175535574082
 21
-79.71744247139009
 72
     1
 10
61.41175535574082
 20
-79.71744247139009
 11
61.1426933983428
 21
-79.71744247139009
 97
        0
 75
     2
 76
     1
 98
        0
  0
SPLINE
  5
DB
330
CB
100
AcDbEntity
  8
_U+30EC_U+30A4_U+30E4_U+30FC 1
370
     0
100
AcDbSpline
210
0.0
220
0.0
230
1.0
 70
    11
 71
     3
 72
    29
 73
    25
 74
     0
 42
0.0000000001
 43
0.0000000001
 12
1.0
 22
0.0
 32
0.0
 13
1.0
 23
0.0
 33
0.0
 40
0.0
 40
0.0
 40
0.0
 40
0.0
 40
1.0
 40
1.0
 40
1.0
 40
2.0
 40
2.0
 40
2.0
 40
3.0
 40
3.0
 40
3.0
 40
4.0
 40
4.0
 40
4.0
 40
5.0
 40
5.0
 40
5.0
 40
6.0
 40
6.0
 40
6.0
 40
7.0
 40
7.0
 40
7.0
 40
8.0
 40
8.0
 40
8.0
 40
8.0
 10
62.19861516457188
 20
-79.76808537502326
 30
0.0
 10
61.91405027749024
 20
-79.76808537502326
 30
0.0
 10
61.64257675325256
 20
-79.63062606516179
 30
0.0
 10
61.64257675325256
 20
-79.28163789250598
 30
0.0
 10
61.64257675325256
 20
-79.02566729795193
 30
0.0
 10
61.79416095460355
 20
-78.93058266255902
 30
0.0
 10
61.90716008651974
 20
-78.86908770814732
 30
0.0
 10
61.77383489124057
 20
-78.80983206580102
 30
0.0
 10
61.69218612824015
 20
-78.69562715046499
 30
0.0
 10
61.69218612824015
 20
-78.53491344607808
 30
0.0
 10
61.69218612824015
 20
-78.25982257158088
 30
0.0
 10
61.90474851968006
 20
-78.12443031901056
 30
0.0
 10
62.19861516457188
 20
-78.12443031901056
 30
0.0
 10
62.50178356727386
 20
-78.12443031901056
 30
0.0
 10
62.7050442009036
 20
-78.26826305551974
 30
0.0
 10
62.7050442009036
 20
-78.53491344607808
 30
0.0
 10
62.7050442009036
 20
-78.69562715046499
 30
0.0
 10
62.62167289016055
 20
-78.80983206580102
 30
0.0
 10
62.48800318533286
 20
-78.86908770814732
 30
0.0
 10
62.58308782072576
 20
-78.91990286655475
 30
0.0
 10
62.75258651860005
 20
-79.01498750194764
 30
0.0
 10
62.75258651860005
 20
-79.27750377792368
 30
0.0
 10
62.75258651860005
 20
-79.65198565717034
 30
0.0
 10
62.45424124957741
 20
-79.76808537502326
 30
0.0
 10
62.19861516457188
 20
-79.76808537502326
 30
0.0
  0
SPLINE
  5
DC
330
CB
100
AcDbEntity
  8
_U+30EC_U+30A4_U+30E4_U+30FC 1
370
     0
100
AcDbSpline
210
0.0
220
0.0
230
1.0
 70
    11
 71
     3
 72
    17
 73
    13
 74
     0
 42
0.0000000001
 43
0.0000000001
 12
1.0
 22
0.0
 32
0.0
 13
1.0
 23
0.0
 33
0.0
 40
0.0
 40
0.0
 40
0.0
 40
0.0
 40
1.0
 40
1.0
 40
1.0
 40
2.0
 40
2.0
 40
2.0
 40
3.0
 40
3.0
 40
3.0
 40
4.0
 40
4.0
 40
4.0
 40
4.0
 10
62.19861516457188
 20
-78.9770914516099
 30
0.0
 10
62.04496390592973
 20
-78.9770914516099
 30
0.0
 10
61.88235539902594
 20
-79.06390785783819
 30
0.0
 10
61.88235539902594
 20
-79.26682398191942
 30
0.0
 10
61.88235539902594
 20
-79.4721516728403
 30
0.0
 10
62.01774765159626
 20
-79.57343748010665
 30
0.0
 10
62.19861516457188
 20
-79.57343748010665
 30
0.0
 10
62.39774168361932
 20
-79.57343748010665
 30
0.0
 10
62.51521943966634
 20
-79.45079208083175
 30
0.0
 10
62.51521943966634
 20
-79.27302515379286
 30
0.0
 10
62.51521943966634
 20
-79.05116100454276
 30
0.0
 10
62.34124211766122
 20
-78.9770914516099
 30
0.0
 10
62.19861516457188
 20
-78.9770914516099
 30
0.0
  0
SPLINE
  5
DD
330
CB
100
AcDbEntity
  8
_U+30EC_U+30A4_U+30E4_U+30FC 1
370
     0
100
AcDbSpline
210
0.0
220
0.0
230
1.0
 70
    11
 71
     3
 72
    17
 73
    13
 74
     0
 42
0.0000000001
 43
0.0000000001
 12
1.0
 22
0.0
 32
0.0
 13
1.0
 23
0.0
 33
0.0
 40
0.0
 40
0.0
 40
0.0
 40
0.0
 40
1.0
 40
1.0
 40
1.0
 40
2.0
 40
2.0
 40
2.0
 40
3.0
 40
3.0
 40
3.0
 40
4.0
 40
4.0
 40
4.0
 40
4.0
 10
62.19861516457188
 20
-78.31701115663603
 30
0.0
 10
62.02222627572709
 20
-78.31701115663603
 30
0.0
 10
61.93196477401354
 20
-78.41209579202892
 30
0.0
 10
61.93196477401354
 20
-78.54748804459925
 30
0.0
 10
61.93196477401354
 20
-78.6703056986484
 30
0.0
 10
62.00879040333461
 20
-78.788816983341
 30
0.0
 10
62.19861516457188
 20
-78.788816983341
 30
0.0
 10
62.38878443535767
 20
-78.788816983341
 30
0.0
 10
62.46561006467874
 20
-78.6703056986484
 30
0.0
 10
62.46561006467874
 20
-78.54748804459925
 30
0.0
 10
62.46561006467874
 20
-78.41209579202892
 30
0.0
 10
62.37293699612552
 20
-78.31701115663603
 30
0.0
 10
62.19861516457188
 20
-78.31701115663603
 30
0.0
  0
HATCH
  5
DE
330
CB
100
AcDbEntity
  8
_U+30EC_U+30A4_U+30E4_U+30FC 1
 62
   179
420
  2234388
100
AcDbHatch
 10
0.0
 20
0.0
 30
0.0
210
0.0
220
0.0
230
1.0
  2
SOLID
 70
     1
 71
     0
 91
        3
 92
        1
 93
        1
 72
     4
 94
        3
 73
     0
 74
     1
 95
       29
 96
       25
 40
0.0
 40
0.0
 40
0.0
 40
0.0
 40
1.0
 40
1.0
 40
1.0
 40
2.0
 40
2.0
 40
2.0
 40
3.0
 40
3.0
 40
3.0
 40
4.0
 40
4.0
 40
4.0
 40
5.0
 40
5.0
 40
5.0
 40
6.0
 40
6.0
 40
6.0
 40
7.0
 40
7.0
 40
7.0
 40
8.0
 40
8.0
 40
8.0
 40
8.0
 10
62.19861516457188
 20
-79.76808537502326
 10
61.91405027749024
 20
-79.76808537502326
 10
61.64257675325256
 20
-79.63062606516179
 10
61.64257675325256
 20
-79.28163789250598
 10
61.64257675325256
 20
-79.02566729795193
 10
61.79416095460355
 20
-78.93058266255902
 10
61.90716008651974
 20
-78.86908770814732
 10
61.77383489124057
 20
-78.80983206580102
 10
61.69218612824015
 20
-78.69562715046499
 10
61.69218612824015
 20
-78.53491344607808
 10
61.69218612824015
 20
-78.25982257158088
 10
61.90474851968006
 20
-78.12443031901056
 10
62.19861516457188
 20
-78.12443031901056
 10
62.50178356727386
 20
-78.12443031901056
 10
62.7050442009036
 20
-78.26826305551974
 10
62.7050442009036
 20
-78.53491344607808
 10
62.7050442009036
 20
-78.69562715046499
 10
62.62167289016055
 20
-78.80983206580102
 10
62.48800318533286
 20
-78.86908770814732
 10
62.58308782072576
 20
-78.91990286655475
 10
62.75258651860005
 20
-79.01498750194764
 10
62.75258651860005
 20
-79.27750377792368
 10
62.75258651860005
 20
-79.65198565717034
 10
62.45424124957741
 20
-79.76808537502326
 10
62.19861516457188
 20
-79.76808537502326
 97
        0
 97
        0
 92
        1
 93
        1
 72
     4
 94
        3
 73
     0
 74
     1
 95
       17
 96
       13
 40
0.0
 40
0.0
 40
0.0
 40
0.0
 40
1.0
 40
1.0
 40
1.0
 40
2.0
 40
2.0
 40
2.0
 40
3.0
 40
3.0
 40
3.0
 40
4.0
 40
4.0
 40
4.0
 40
4.0
 10
62.19861516457188
 20
-78.9770914516099
 10
62.04496390592973
 20
-78.9770914516099
 10
61.88235539902594
 20
-79.06390785783819
 10
61.88235539902594
 20
-79.26682398191942
 10
61.88235539902594
 20
-79.4721516728403
 10
62.01774765159626
 20
-79.57343748010665
 10
62.19861516457188
 20
-79.57343748010665
 10
62.39774168361932
 20
-79.57343748010665
 10
62.51521943966634
 20
-79.45079208083175
 10
62.51521943966634
 20
-79.27302515379286
 10
62.51521943966634
 20
-79.05116100454276
 10
62.34124211766122
 20
-78.9770914516099
 10
62.19861516457188
 20
-78.9770914516099
 97
        0
 97
        0
 92
        1
 93
        1
 72
     4
 94
        3
 73
     0
 74
     1
 95
       17
 96
       13
 40
0.0
 40
0.0
 40
0.0
 40
0.0
 40
1.0
 40
1.0
 40
1.0
 40
2.0
 40
2.0
 40
2.0
 40
3.0
 40
3.0
 40
3.0
 40
4.0
 40
4.0
 40
4.0
 40
4.0
 10
62.19861516457188
 20
-78.31701115663603
 10
62.02222627572709
 20
-78.31701115663603
 10
61.93196477401354
 20
-78.41209579202892
 10
61.93196477401354
 20
-78.54748804459925
 10
61.93196477401354
 20
-78.6703056986484
 10
62.00879040333461
 20
-78.788816983341
 10
62.19861516457188
 20
-78.788816983341
 10
62.38878443535767
 20
-78.788816983341
 10
62.46561006467874
 20
-78.6703056986484
 10
62.46561006467874
 20
-78.54748804459925
 10
62.46561006467874
 20
-78.41209579202892
 10
62.37293699612552
 20
-78.31701115663603
 10
62.19861516457188
 20
-78.31701115663603
 97
        0
 97
        0
 75
     2
 76
     1
 98
        0
  0
ENDBLK
  5
CE
330
CB
100
AcDbEntity
  8
0
100
AcDbBlockEnd
  0
ENDSEC
  0
SECTION
  2
ENTITIES
  0
INSERT
  5
42
330
1F
100
AcDbEntity
  8
_U+30EC_U+30A4_U+30E4_U+30FC 1
100
AcDbBlockReference
  2
block 2
 10
0.0
 20
0.0
 30
0.0
  0
ENDSEC
  0
SECTION
  2
OBJECTS
  0
DICTIONARY
  5
C
330
0
100
AcDbDictionary
281
     1
  3
ACAD_GROUP
350
D
  3
ACAD_LAYOUT
350
1A
  3
ACAD_MATERIAL
350
3B
  3
ACAD_MLEADERSTYLE
350
E0
  3
ACAD_MLINESTYLE
350
17
  3
ACAD_PLOTSETTINGS
350
19
  3
ACAD_PLOTSTYLENAME
350
E
  3
ACAD_TABLESTYLE
350
DF
  3
ACAD_VISUALSTYLE
350
2A
  0
SUN
  5
3F
330
29
100
AcDbSun
 90
        1
290
     0
 63
     7
421
 16777215
 40
1.0
291
     1
 91
  2455826
 92
 54000000
292
     0
 70
     2
 71
   256
280
     1
  0
DICTIONARY
  5
D
102
{ACAD_REACTORS
330
C
102
}
330
C
100
AcDbDictionary
281
     1
  0
DICTIONARY
  5
1A
102
{ACAD_REACTORS
330
C
102
}
330
C
100
AcDbDictionary
281
     1
  3
Layout1
350
1E
  3
Layout2
350
26
  3
Model
350
22
  0
DICTIONARY
  5
3B
102
{ACAD_REACTORS
330
C
102
}
330
C
100
AcDbDictionary
281
     1
  3
ByBlock
350
3D
  3
ByLayer
350
3C
  3
Global
350
3E
  0
DICTIONARY
  5
E0
102
{ACAD_REACTORS
330
C
102
}
330
C
100
AcDbDictionary
281
     1
  0
DICTIONARY
  5
17
102
{ACAD_REACTORS
330
C
102
}
330
C
100
AcDbDictionary
281
     1
  3
Standard
350
18
  0
DICTIONARY
  5
19
102
{ACAD_REACTORS
330
C
102
}
330
C
100
AcDbDictionary
281
     1
  0
ACDBDICTIONARYWDFLT
  5
E
102
{ACAD_REACTORS
330
C
102
}
330
C
100
AcDbDictionary
281
     1
  3
Normal
350
F
100
AcDbDictionaryWithDefault
340
F
  0
DICTIONARY
  5
DF
102
{ACAD_REACTORS
330
C
102
}
330
C
100
AcDbDictionary
281
     1
  0
DICTIONARY
  5
2A
102
{ACAD_REACTORS
330
C
102
}
330
C
100
AcDbDictionary
281
     1
  3
2dWireframe
350
2F
  3
3D Hidden
350
31
  3
3dWireframe
350
30
  3
Basic
350
32
  3
Brighten
350
36
  3
ColorChange
350
3A
  3
Conceptual
350
34
  3
Dim
350
35
  3
Facepattern
350
39
  3
Flat
350
2B
  3
FlatWithEdges
350
2C
  3
Gouraud
350
2D
  3
GouraudWithEdges
350
2E
  3
Linepattern
350
38
  3
Realistic
350
33
  3
Thicken
350
37
  0
LAYOUT
  5
1E
102
{ACAD_REACTORS
330
1A
102
}
330
1A
100
AcDbPlotSettings
  1

  2
none_device
  4

  6

 40
0.0
 41
0.0
 42
0.0
 43
0.0
 44
0.0
 45
0.0
 46
0.0
 47
0.0
 48
0.0
 49
0.0
140
0.0
141
0.0
142
1.0
143
1.0
 70
   688
 72
     0
 73
     0
 74
     5
  7

 75
    16
 76
     0
 77
     2
 78
   300
147
1.0
148
0.0
149
0.0
100
AcDbLayout
  1
Layout1
 70
     1
 71
     1
 10
0.0
 20
0.0
 11
12.0
 21
9.0
 12
0.0
 22
0.0
 32
0.0
 14
1.000000000000000E+20
 24
1.000000000000000E+20
 34
1.000000000000000E+20
 15
-1.000000000000000E+20
 25
-1.000000000000000E+20
 35
-1.000000000000000E+20
146
0.0
 13
0.0
 23
0.0
 33
0.0
 16
1.0
 26
0.0
 36
0.0
 17
0.0
 27
1.0
 37
0.0
 76
     0
330
1B
  0
LAYOUT
  5
26
102
{ACAD_REACTORS
330
1A
102
}
330
1A
100
AcDbPlotSettings
  1

  2
none_device
  4

  6

 40
0.0
 41
0.0
 42
0.0
 43
0.0
 44
0.0
 45
0.0
 46
0.0
 47
0.0
 48
0.0
 49
0.0
140
0.0
141
0.0
142
1.0
143
1.0
 70
   688
 72
     0
 73
     0
 74
     5
  7

 75
    16
 76
     0
 77
     2
 78
   300
147
1.0
148
0.0
149
0.0
100
AcDbLayout
  1
Layout2
 70
     1
 71
     2
 10
0.0
 20
0.0
 11
0.0
 21
0.0
 12
0.0
 22
0.0
 32
0.0
 14
0.0
 24
0.0
 34
0.0
 15
0.0
 25
0.0
 35
0.0
146
0.0
 13
0.0
 23
0.0
 33
0.0
 16
1.0
 26
0.0
 36
0.0
 17
0.0
 27
1.0
 37
0.0
 76
     0
330
23
  0
LAYOUT
  5
22
102
{ACAD_REACTORS
330
1A
102
}
330
1A
100
AcDbPlotSettings
  1

  2
none_device
  4

  6

 40
0.0
 41
0.0
 42
0.0
 43
0.0
 44
0.0
 45
0.0
 46
0.0
 47
0.0
 48
0.0
 49
0.0
140
0.0
141
0.0
142
1.0
143
1.0
 70
  1712
 72
     0
 73
     0
 74
     0
  7

 75
     0
 76
     0
 77
     2
 78
   300
147
1.0
148
0.0
149
0.0
100
AcDbLayout
  1
Model
 70
     1
 71
     0
 10
0.0
 20
0.0
 11
12.0
 21
9.0
 12
0.0
 22
0.0
 32
0.0
 14
1.000000000000000E+20
 24
1.000000000000000E+20
 34
1.000000000000000E+20
 15
-1.000000000000000E+20
 25
-1.000000000000000E+20
 35
-1.000000000000000E+20
146
0.0
 13
0.0
 23
0.0
 33
0.0
 16
1.0
 26
0.0
 36
0.0
 17
0.0
 27
1.0
 37
0.0
 76
     0
330
1F
331
29
  0
MATERIAL
  5
3D
102
{ACAD_REACTORS
330
3B
102
}
330
3B
100
AcDbMaterial
  1
ByBlock
 72
     1
 94
      127
  0
MATERIAL
  5
3C
102
{ACAD_REACTORS
330
3B
102
}
330
3B
100
AcDbMaterial
  1
ByLayer
 72
     1
 94
      127
  0
MATERIAL
  5
3E
102
{ACAD_REACTORS
330
3B
102
}
330
3B
100
AcDbMaterial
  1
Global
 72
     1
 94
      127
  0
MLINESTYLE
  5
18
102
{ACAD_REACTORS
330
17
102
}
330
17
100
AcDbMlineStyle
  2
Standard
 70
     0
  3

 62
   256
 51
90.0
 52
90.0
 71
     2
 49
0.5
 62
   256
  6
BYLAYER
 49
-0.5
 62
   256
  6
BYLAYER
  0
ACDBPLACEHOLDER
  5
F
102
{ACAD_REACTORS
330
E
102
}
330
E
  0
VISUALSTYLE
  5
2F
102
{ACAD_REACTORS
330
2A
102
}
330
2A
100
AcDbVisualStyle
  2
2dWireframe
 70
     4
177
     2
291
     0
 71
     0
176
     1
 72
     2
176
     1
 73
     0
176
     1
 90
        0
176
     1
 40
-0.6
176
     1
 41
-30.0
176
     1
 62
     5
 63
     7
421
 16777215
176
     1
 74
     1
176
     1
 91
        4
176
     1
 64
     7
176
     1
 65
   257
176
     1
 75
     1
176
     1
175
     1
176
     1
 42
1.0
176
     1
 92
        0
176
     1
 66
   257
176
     1
 43
1.0
176
     1
 76
     1
176
     1
 77
     6
176
     1
 78
     2
176
     1
 67
     7
176
     1
 79
     5
176
     1
170
     0
176
     1
171
     0
176
     1
290
     0
176
     1
 93
        1
176
     1
 44
0.0
176
     1
173
     0
176
     1
  0
VISUALSTYLE
  5
31
102
{ACAD_REACTORS
330
2A
102
}
330
2A
100
AcDbVisualStyle
  2
3D Hidden
 70
     6
177
     2
291
     0
 71
     1
176
     1
 72
     2
176
     1
 73
     2
176
     1
 90
        0
176
     1
 40
-0.6
176
     1
 41
-30.0
176
     1
 62
     5
 63
     7
421
 16777215
176
     1
 74
     2
176
     1
 91
        2
176
     1
 64
     7
176
     1
 65
   257
176
     1
 75
     2
176
     1
175
     1
176
     1
 42
40.0
176
     1
 92
        0
176
     1
 66
   257
176
     1
 43
1.0
176
     1
 76
     1
176
     1
 77
     6
176
     1
 78
     2
176
     1
 67
     7
176
     1
 79
     3
176
     1
170
     0
176
     1
171
     0
176
     1
290
     0
176
     1
 93
        1
176
     1
 44
0.0
176
     1
173
     0
176
     1
  0
VISUALSTYLE
  5
30
102
{ACAD_REACTORS
330
2A
102
}
330
2A
100
AcDbVisualStyle
  2
3dWireframe
 70
     5
177
     2
291
     0
 71
     0
176
     1
 72
     2
176
     1
 73
     0
176
     1
 90
        0
176
     1
 40
-0.6
176
     1
 41
-30.0
176
     1
 62
     5
 63
     7
421
 16777215
176
     1
 74
     1
176
     1
 91
        4
176
     1
 64
     7
176
     1
 65
   257
176
     1
 75
     1
176
     1
175
     1
176
     1
 42
1.0
176
     1
 92
        0
176
     1
 66
   257
176
     1
 43
1.0
176
     1
 76
     1
176
     1
 77
     6
176
     1
 78
     2
176
     1
 67
     7
176
     1
 79
     5
176
     1
170
     0
176
     1
171
     0
176
     1
290
     0
176
     1
 93
        1
176
     1
 44
0.0
176
     1
173
     0
176
     1
  0
VISUALSTYLE
  5
32
102
{ACAD_REACTORS
330
2A
102
}
330
2A
100
AcDbVisualStyle
  2
Basic
 70
     7
177
     2
291
     1
 71
     1
176
     1
 72
     0
176
     1
 73
     1
176
     1
 90
        0
176
     1
 40
-0.6
176
     1
 41
-30.0
176
     1
 62
     5
 63
     7
421
 16777215
176
     1
 74
     0
176
     1
 91
        4
176
     1
 64
     7
176
     1
 65
   257
176
     1
 75
     1
176
     1
175
     1
176
     1
 42
1.0
176
     1
 92
        8
176
     1
 66
     7
176
     1
 43
1.0
176
     1
 76
     1
176
     1
 77
     6
176
     1
 78
     2
176
     1
 67
     7
176
     1
 79
     5
176
     1
170
     0
176
     1
171
     0
176
     1
290
     0
176
     1
 93
        1
176
     1
 44
0.0
176
     1
173
     0
176
     1
  0
VISUALSTYLE
  5
36
102
{ACAD_REACTORS
330
2A
102
}
330
2A
100
AcDbVisualStyle
  2
Brighten
 70
    12
177
     2
291
     1
 71
     2
176
     1
 72
     2
176
     1
 73
     0
176
     1
 90
        0
176
     1
 40
-0.6
176
     1
 41
-30.0
176
     1
 62
     5
 63
     7
421
 16777215
176
     1
 74
     1
176
     1
 91
        4
176
     1
 64
     7
176
     1
 65
   257
176
     1
 75
     1
176
     1
175
     1
176
     1
 42
1.0
176
     1
 92
        8
176
     1
 66
     7
176
     1
 43
1.0
176
     1
 76
     1
176
     1
 77
     6
176
     1
 78
     2
176
     1
 67
     7
176
     1
 79
     5
176
     1
170
     0
176
     1
171
     0
176
     1
290
     0
176
     1
 93
        1
176
     1
 44
50.0
176
     1
173
     0
176
     1
  0
VISUALSTYLE
  5
3A
102
{ACAD_REACTORS
330
2A
102
}
330
2A
100
AcDbVisualStyle
  2
ColorChange
 70
    16
177
     2
291
     1
 71
     2
176
     1
 72
     2
176
     1
 73
     3
176
     1
 90
        0
176
     1
 40
-0.6
176
     1
 41
-30.0
176
     1
 62
     5
 63
     8
421
  8421504
176
     1
 74
     1
176
     1
 91
        4
176
     1
 64
     7
176
     1
 65
   257
176
     1
 75
     1
176
     1
175
     1
176
     1
 42
1.0
176
     1
 92
        8
176
     1
 66
     8
424
  8421504
176
     1
 43
1.0
176
     1
 76
     1
176
     1
 77
     6
176
     1
 78
     2
176
     1
 67
     7
176
     1
 79
     5
176
     1
170
     0
176
     1
171
     0
176
     1
290
     0
176
     1
 93
        1
176
     1
 44
0.0
176
     1
173
     0
176
     1
  0
VISUALSTYLE
  5
34
102
{ACAD_REACTORS
330
2A
102
}
330
2A
100
AcDbVisualStyle
  2
Conceptual
 70
     9
177
     2
291
     0
 71
     3
176
     1
 72
     2
176
     1
 73
     0
176
     1
 90
        0
176
     1
 40
-0.6
176
     1
 41
-30.0
176
     1
 62
     5
 63
     7
421
 16777215
176
     1
 74
     2
176
     1
 91
        2
176
     1
 64
     7
176
     1
 65
   257
176
     1
 75
     1
176
     1
175
     1
176
     1
 42
40.0
176
     1
 92
        8
176
     1
 66
     7
176
     1
 43
1.0
176
     1
 76
     1
176
     1
 77
     6
176
     1
 78
     2
176
     1
 67
     7
176
     1
 79
     3
176
     1
170
     0
176
     1
171
     0
176
     1
290
     0
176
     1
 93
        1
176
     1
 44
0.0
176
     1
173
     0
176
     1
  0
VISUALSTYLE
  5
35
102
{ACAD_REACTORS
330
2A
102
}
330
2A
100
AcDbVisualStyle
  2
Dim
 70
    11
177
     2
291
     1
 71
     2
176
     1
 72
     2
176
     1
 73
     0
176
     1
 90
        0
176
     1
 40
-0.6
176
     1
 41
-30.0
176
     1
 62
     5
 63
     7
421
 16777215
176
     1
 74
     1
176
     1
 91
        4
176
     1
 64
     7
176
     1
 65
   257
176
     1
 75
     1
176
     1
175
     1
176
     1
 42
1.0
176
     1
 92
        8
176
     1
 66
     7
176
     1
 43
1.0
176
     1
 76
     1
176
     1
 77
     6
176
     1
 78
     2
176
     1
 67
     7
176
     1
 79
     5
176
     1
170
     0
176
     1
171
     0
176
     1
290
     0
176
     1
 93
        1
176
     1
 44
-50.0
176
     1
173
     0
176
     1
  0
VISUALSTYLE
  5
39
102
{ACAD_REACTORS
330
2A
102
}
330
2A
100
AcDbVisualStyle
  2
Facepattern
 70
    15
177
     2
291
     1
 71
     2
176
     1
 72
     2
176
     1
 73
     0
176
     1
 90
        0
176
     1
 40
-0.6
176
     1
 41
-30.0
176
     1
 62
     5
 63
     7
421
 16777215
176
     1
 74
     1
176
     1
 91
        4
176
     1
 64
     7
176
     1
 65
   257
176
     1
 75
     1
176
     1
175
     1
176
     1
 42
1.0
176
     1
 92
        8
176
     1
 66
     7
176
     1
 43
1.0
176
     1
 76
     1
176
     1
 77
     6
176
     1
 78
     2
176
     1
 67
     7
176
     1
 79
     5
176
     1
170
     0
176
     1
171
     0
176
     1
290
     0
176
     1
 93
        1
176
     1
 44
0.0
176
     1
173
     0
176
     1
  0
VISUALSTYLE
  5
2B
102
{ACAD_REACTORS
330
2A
102
}
330
2A
100
AcDbVisualStyle
  2
Flat
 70
     0
177
     2
291
     1
 71
     2
176
     1
 72
     1
176
     1
 73
     1
176
     1
 90
        2
176
     1
 40
-0.6
176
     1
 41
30.0
176
     1
 62
     5
 63
     7
421
 16777215
176
     1
 74
     0
176
     1
 91
        4
176
     1
 64
     7
176
     1
 65
   257
176
     1
 75
     1
176
     1
175
     1
176
     1
 42
1.0
176
     1
 92
        8
176
     1
 66
     7
176
     1
 43
1.0
176
     1
 76
     1
176
     1
 77
     6
176
     1
 78
     2
176
     1
 67
     7
176
     1
 79
     5
176
     1
170
     0
176
     1
171
     0
176
     1
290
     0
176
     1
 93
       13
176
     1
 44
0.0
176
     1
173
     0
176
     1
  0
VISUALSTYLE
  5
2C
102
{ACAD_REACTORS
330
2A
102
}
330
2A
100
AcDbVisualStyle
  2
FlatWithEdges
 70
     1
177
     2
291
     1
 71
     2
176
     1
 72
     1
176
     1
 73
     1
176
     1
 90
        2
176
     1
 40
-0.6
176
     1
 41
30.0
176
     1
 62
     5
 63
     7
421
 16777215
176
     1
 74
     1
176
     1
 91
        4
176
     1
 64
     7
176
     1
 65
   257
176
     1
 75
     1
176
     1
175
     1
176
     1
 42
1.0
176
     1
 92
        0
176
     1
 66
   257
176
     1
 43
1.0
176
     1
 76
     1
176
     1
 77
     6
176
     1
 78
     2
176
     1
 67
     7
176
     1
 79
     5
176
     1
170
     0
176
     1
171
     0
176
     1
290
     0
176
     1
 93
       13
176
     1
 44
0.0
176
     1
173
     0
176
     1
  0
VISUALSTYLE
  5
2D
102
{ACAD_REACTORS
330
2A
102
}
330
2A
100
AcDbVisualStyle
  2
Gouraud
 70
     2
177
     2
291
     1
 71
     2
176
     1
 72
     2
176
     1
 73
     1
176
     1
 90
        2
176
     1
 40
-0.6
176
     1
 41
30.0
176
     1
 62
     5
 63
     7
421
 16777215
176
     1
 74
     0
176
     1
 91
        4
176
     1
 64
     7
176
     1
 65
   257
176
     1
 75
     1
176
     1
175
     1
176
     1
 42
1.0
176
     1
 92
        0
176
     1
 66
     7
176
     1
 43
1.0
176
     1
 76
     1
176
     1
 77
     6
176
     1
 78
     2
176
     1
 67
     7
176
     1
 79
     5
176
     1
170
     0
176
     1
171
     0
176
     1
290
     0
176
     1
 93
       13
176
     1
 44
0.0
176
     1
173
     0
176
     1
  0
VISUALSTYLE
  5
2E
102
{ACAD_REACTORS
330
2A
102
}
330
2A
100
AcDbVisualStyle
  2
GouraudWithEdges
 70
     3
177
     2
291
     1
 71
     2
176
     1
 72
     2
176
     1
 73
     1
176
     1
 90
        2
176
     1
 40
-0.6
176
     1
 41
30.0
176
     1
 62
     5
 63
     7
421
 16777215
176
     1
 74
     1
176
     1
 91
        4
176
     1
 64
     7
176
     1
 65
   257
176
     1
 75
     1
176
     1
175
     1
176
     1
 42
1.0
176
     1
 92
        0
176
     1
 66
   257
176
     1
 43
1.0
176
     1
 76
     1
176
     1
 77
     6
176
     1
 78
     2
176
     1
 67
     7
176
     1
 79
     5
176
     1
170
     0
176
     1
171
     0
176
     1
290
     0
176
     1
 93
       13
176
     1
 44
0.0
176
     1
173
     0
176
     1
  0
VISUALSTYLE
  5
38
102
{ACAD_REACTORS
330
2A
102
}
330
2A
100
AcDbVisualStyle
  2
Linepattern
 70
    14
177
     2
291
     1
 71
     2
176
     1
 72
     2
176
     1
 73
     0
176
     1
 90
        0
176
     1
 40
-0.6
176
     1
 41
-30.0
176
     1
 62
     5
 63
     7
421
 16777215
176
     1
 74
     1
176
     1
 91
        4
176
     1
 64
     7
176
     1
 65
   257
176
     1
 75
     7
176
     1
175
     7
176
     1
 42
1.0
176
     1
 92
        8
176
     1
 66
     7
176
     1
 43
1.0
176
     1
 76
     1
176
     1
 77
     6
176
     1
 78
     2
176
     1
 67
     7
176
     1
 79
     5
176
     1
170
     0
176
     1
171
     0
176
     1
290
     0
176
     1
 93
        1
176
     1
 44
0.0
176
     1
173
     0
176
     1
  0
VISUALSTYLE
  5
33
102
{ACAD_REACTORS
330
2A
102
}
330
2A
100
AcDbVisualStyle
  2
Realistic
 70
     8
177
     2
291
     0
 71
     2
176
     1
 72
     2
176
     1
 73
     0
176
     1
 90
        0
176
     1
 40
-0.6
176
     1
 41
-30.0
176
     1
 62
     5
 63
     7
421
 16777215
176
     1
 74
     1
176
     1
 91
        0
176
     1
 64
     7
176
     1
 65
   257
176
     1
 75
     1
176
     1
175
     1
176
     1
 42
1.0
176
     1
 92
        8
176
     1
 66
     8
424
  7895160
176
     1
 43
1.0
176
     1
 76
     1
176
     1
 77
     6
176
     1
 78
     2
176
     1
 67
     7
176
     1
 79
     5
176
     1
170
     0
176
     1
171
     0
176
     1
290
     0
176
     1
 93
       13
176
     1
 44
0.0
176
     1
173
     0
176
     1
  0
VISUALSTYLE
  5
37
102
{ACAD_REACTORS
330
2A
102
}
330
2A
100
AcDbVisualStyle
  2
Thicken
 70
    13
177
     2
291
     1
 71
     2
176
     1
 72
     2
176
     1
 73
     0
176
     1
 90
        0
176
     1
 40
-0.6
176
     1
 41
-30.0
176
     1
 62
     5
 63
     7
421
 16777215
176
     1
 74
     1
176
     1
 91
        4
176
     1
 64
     7
176
     1
 65
   257
176
     1
 75
     1
176
     1
175
     1
176
     1
 42
1.0
176
     1
 92
       12
176
     1
 66
     7
176
     1
 43
1.0
176
     1
 76
     1
176
     1
 77
     6
176
     1
 78
     2
176
     1
 67
     7
176
     1
 79
     5
176
     1
170
     0
176
     1
171
     0
176
     1
290
     0
176
     1
 93
        1
176
     1
 44
0.0
176
     1
173
     0
176
     1
  0
ENDSEC
  0
EOF
