  0
SECTION
  2
HEADER
  9
$ACADVER
  1
AC1024
  9
$ACADMAINTVER
 70
   226
  9
$DWGCODEPAGE
  3
ANSI_932
  9
$INSBASE
 10
0.0
 20
0.0
 30
0.0
  9
$EXTMIN
 10
1.000000000000000E+20
 20
1.000000000000000E+20
 30
1.000000000000000E+20
  9
$EXTMAX
 10
-1.000000000000000E+20
 20
-1.000000000000000E+20
 30
-1.000000000000000E+20
  9
$LIMMIN
 10
0.0
 20
0.0
  9
$LIMMAX
 10
12.0
 20
9.0
  9
$ORTHOMODE
 70
     0
  9
$REGENMODE
 70
     1
  9
$FILLMODE
 70
     1
  9
$QTEXTMODE
 70
     0
  9
$MIRRTEXT
 70
     0
  9
$LTSCALE
 40
1.0
  9
$ATTMODE
 70
     1
  9
$TEXTSIZE
 40
0.2
  9
$TRACEWID
 40
0.05
  9
$TEXTSTYLE
  7
Standard
  9
$CLAYER
  8
0
  9
$CELTYPE
  6
ByLayer
  9
$CECOLOR
 62
   256
  9
$CELTSCALE
 40
1.0
  9
$DISPSILH
 70
     0
  9
$DIMSCALE
 40
1.0
  9
$DIMASZ
 40
0.18
  9
$DIMEXO
 40
0.0625
  9
$DIMDLI
 40
0.38
  9
$DIMRND
 40
0.0
  9
$DIMDLE
 40
0.0
  9
$DIMEXE
 40
0.18
  9
$DIMTP
 40
0.0
  9
$DIMTM
 40
0.0
  9
$DIMTXT
 40
0.18
  9
$DIMCEN
 40
0.09
  9
$DIMTSZ
 40
0.0
  9
$DIMTOL
 70
     0
  9
$DIMLIM
 70
     0
  9
$DIMTIH
 70
     1
  9
$DIMTOH
 70
     1
  9
$DIMSE1
 70
     0
  9
$DIMSE2
 70
     0
  9
$DIMTAD
 70
     0
  9
$DIMZIN
 70
     0
  9
$DIMBLK
  1

  9
$DIMASO
 70
     1
  9
$DIMSHO
 70
     1
  9
$DIMPOST
  1

  9
$DIMAPOST
  1

  9
$DIMALT
 70
     0
  9
$DIMALTD
 70
     2
  9
$DIMALTF
 40
25.4
  9
$DIMLFAC
 40
1.0
  9
$DIMTOFL
 70
     0
  9
$DIMTVP
 40
0.0
  9
$DIMTIX
 70
     0
  9
$DIMSOXD
 70
     0
  9
$DIMSAH
 70
     0
  9
$DIMBLK1
  1

  9
$DIMBLK2
  1

  9
$DIMSTYLE
  2
Standard
  9
$DIMCLRD
 70
     0
  9
$DIMCLRE
 70
     0
  9
$DIMCLRT
 70
     0
  9
$DIMTFAC
 40
1.0
  9
$DIMGAP
 40
0.09
  9
$DIMJUST
 70
     0
  9
$DIMSD1
 70
     0
  9
$DIMSD2
 70
     0
  9
$DIMTOLJ
 70
     1
  9
$DIMTZIN
 70
     0
  9
$DIMALTZ
 70
     0
  9
$DIMALTTZ
 70
     0
  9
$DIMUPT
 70
     0
  9
$DIMDEC
 70
     4
  9
$DIMTDEC
 70
     4
  9
$DIMALTU
 70
     2
  9
$DIMALTTD
 70
     2
  9
$DIMTXSTY
  7
Standard
  9
$DIMAUNIT
 70
     0
  9
$DIMADEC
 70
     0
  9
$DIMALTRND
 40
0.0
  9
$DIMAZIN
 70
     0
  9
$DIMDSEP
 70
    46
  9
$DIMATFIT
 70
     3
  9
$DIMFRAC
 70
     0
  9
$DIMLDRBLK
  1

  9
$DIMLUNIT
 70
     2
  9
$DIMLWD
 70
    -2
  9
$DIMLWE
 70
    -2
  9
$DIMTMOVE
 70
     0
  9
$DIMFXL
 40
1.0
  9
$DIMFXLON
 70
     0
  9
$DIMJOGANG
 40
0.7853981633974483
  9
$DIMTFILL
 70
     0
  9
$DIMTFILLCLR
 70
     0
  9
$DIMARCSYM
 70
     0
  9
$DIMLTYPE
  6

  9
$DIMLTEX1
  6

  9
$DIMLTEX2
  6

  9
$DIMTXTDIRECTION
 70
     0
  9
$LUNITS
 70
     2
  9
$LUPREC
 70
     4
  9
$SKETCHINC
 40
0.1
  9
$FILLETRAD
 40
0.0
  9
$AUNITS
 70
     0
  9
$AUPREC
 70
     0
  9
$MENU
  1
.
  9
$ELEVATION
 40
0.0
  9
$PELEVATION
 40
0.0
  9
$THICKNESS
 40
0.0
  9
$LIMCHECK
 70
     0
  9
$CHAMFERA
 40
0.0
  9
$CHAMFERB
 40
0.0
  9
$CHAMFERC
 40
0.0
  9
$CHAMFERD
 40
0.0
  9
$SKPOLY
 70
     0
  9
$TDCREATE
 40
2459569.488912037
  9
$TDUCREATE
 40
2459569.113912037
  9
$TDUPDATE
 40
2459569.488912037
  9
$TDUUPDATE
 40
2459569.113912037
  9
$TDINDWG
 40
0.0000000000
  9
$TDUSRTIMER
 40
0.0000000000
  9
$USRTIMER
 70
     1
  9
$ANGBASE
 50
0.0
  9
$ANGDIR
 70
     0
  9
$PDMODE
 70
     0
  9
$PDSIZE
 40
0.0
  9
$PLINEWID
 40
0.0
  9
$SPLFRAME
 70
     0
  9
$SPLINETYPE
 70
     6
  9
$SPLINESEGS
 70
     8
  9
$HANDSEED
  5
135
  9
$SURFTAB1
 70
     6
  9
$SURFTAB2
 70
     6
  9
$SURFTYPE
 70
     6
  9
$SURFU
 70
     6
  9
$SURFV
 70
     6
  9
$UCSBASE
  2

  9
$UCSNAME
  2

  9
$UCSORG
 10
0.0
 20
0.0
 30
0.0
  9
$UCSXDIR
 10
1.0
 20
0.0
 30
0.0
  9
$UCSYDIR
 10
0.0
 20
1.0
 30
0.0
  9
$UCSORTHOREF
  2

  9
$UCSORTHOVIEW
 70
     0
  9
$UCSORGTOP
 10
0.0
 20
0.0
 30
0.0
  9
$UCSORGBOTTOM
 10
0.0
 20
0.0
 30
0.0
  9
$UCSORGLEFT
 10
0.0
 20
0.0
 30
0.0
  9
$UCSORGRIGHT
 10
0.0
 20
0.0
 30
0.0
  9
$UCSORGFRONT
 10
0.0
 20
0.0
 30
0.0
  9
$UCSORGBACK
 10
0.0
 20
0.0
 30
0.0
  9
$PUCSBASE
  2

  9
$PUCSNAME
  2

  9
$PUCSORG
 10
0.0
 20
0.0
 30
0.0
  9
$PUCSXDIR
 10
1.0
 20
0.0
 30
0.0
  9
$PUCSYDIR
 10
0.0
 20
1.0
 30
0.0
  9
$PUCSORTHOREF
  2

  9
$PUCSORTHOVIEW
 70
     0
  9
$PUCSORGTOP
 10
0.0
 20
0.0
 30
0.0
  9
$PUCSORGBOTTOM
 10
0.0
 20
0.0
 30
0.0
  9
$PUCSORGLEFT
 10
0.0
 20
0.0
 30
0.0
  9
$PUCSORGRIGHT
 10
0.0
 20
0.0
 30
0.0
  9
$PUCSORGFRONT
 10
0.0
 20
0.0
 30
0.0
  9
$PUCSORGBACK
 10
0.0
 20
0.0
 30
0.0
  9
$USERI1
 70
     0
  9
$USERI2
 70
     0
  9
$USERI3
 70
     0
  9
$USERI4
 70
     0
  9
$USERI5
 70
     0
  9
$USERR1
 40
0.0
  9
$USERR2
 40
0.0
  9
$USERR3
 40
0.0
  9
$USERR4
 40
0.0
  9
$USERR5
 40
0.0
  9
$WORLDVIEW
 70
     1
  9
$SHADEDGE
 70
     3
  9
$SHADEDIF
 70
    70
  9
$TILEMODE
 70
     1
  9
$MAXACTVP
 70
    64
  9
$PINSBASE
 10
0.0
 20
0.0
 30
0.0
  9
$PLIMCHECK
 70
     0
  9
$PEXTMIN
 10
1.000000000000000E+20
 20
1.000000000000000E+20
 30
1.000000000000000E+20
  9
$PEXTMAX
 10
-1.000000000000000E+20
 20
-1.000000000000000E+20
 30
-1.000000000000000E+20
  9
$PLIMMIN
 10
0.0
 20
0.0
  9
$PLIMMAX
 10
12.0
 20
9.0
  9
$UNITMODE
 70
     0
  9
$VISRETAIN
 70
     1
  9
$PLINEGEN
 70
     0
  9
$PSLTSCALE
 70
     1
  9
$TREEDEPTH
 70
  3020
  9
$CMLSTYLE
  2
Standard
  9
$CMLJUST
 70
     0
  9
$CMLSCALE
 40
1.0
  9
$PROXYGRAPHICS
 70
     1
  9
$MEASUREMENT
 70
     0
  9
$CELWEIGHT
370
    -1
  9
$ENDCAPS
280
     0
  9
$JOINSTYLE
280
     0
  9
$LWDISPLAY
290
     1
  9
$INSUNITS
 70
     4
  9
$HYPERLINKBASE
  1

  9
$STYLESHEET
  1

  9
$XEDIT
290
     1
  9
$CEPSNTYPE
380
     0
  9
$PSTYLEMODE
290
     1
  9
$FINGERPRINTGUID
  2
{3E44F507-3E33-0947-BAE4-974351A496DC}
  9
$VERSIONGUID
  2
{45F1D05E-2499-F442-9FD5-001B3F96530A}
  9
$EXTNAMES
290
     1
  9
$PSVPSCALE
 40
0.0
  9
$OLESTARTUP
290
     0
  9
$SORTENTS
280
   127
  9
$INDEXCTL
280
     0
  9
$HIDETEXT
280
     1
  9
$XCLIPFRAME
280
     2
  9
$HALOGAP
280
     0
  9
$OBSCOLOR
 70
   257
  9
$OBSLTYPE
280
     0
  9
$INTERSECTIONDISPLAY
280
     0
  9
$INTERSECTIONCOLOR
 70
   257
  9
$DIMASSOC
280
     2
  9
$PROJECTNAME
  1

  9
$CAMERADISPLAY
290
     0
  9
$LENSLENGTH
 40
50.0
  9
$CAMERAHEIGHT
 40
0.0
  9
$STEPSPERSEC
 40
2.0
  9
$STEPSIZE
 40
6.0
  9
$3DDWFPREC
 40
2.0
  9
$PSOLWIDTH
 40
0.25
  9
$PSOLHEIGHT
 40
4.0
  9
$LOFTANG1
 40
1.570796326794896
  9
$LOFTANG2
 40
1.570796326794896
  9
$LOFTMAG1
 40
0.0
  9
$LOFTMAG2
 40
0.0
  9
$LOFTPARAM
 70
     7
  9
$LOFTNORMALS
280
     1
  9
$LATITUDE
 40
37.795
  9
$LONGITUDE
 40
-122.394
  9
$NORTHDIRECTION
 40
0.0
  9
$TIMEZONE
 70
 -8000
  9
$LIGHTGLYPHDISPLAY
280
     1
  9
$TILEMODELIGHTSYNCH
280
     1
  9
$CMATERIAL
347
11
  9
$SOLIDHIST
280
     0
  9
$SHOWHIST
280
     1
  9
$DWFFRAME
280
     2
  9
$DGNFRAME
280
     0
  9
$REALWORLDSCALE
290
     1
  9
$INTERFERECOLOR
 62
     1
  9
$INTERFEREOBJVS
345
33
  9
$INTERFEREVPVS
346
30
  9
$CSHADOW
280
     0
  9
$SHADOWPLANELOCATION
 40
0.0
  0
ENDSEC
  0
SECTION
  2
CLASSES
  0
CLASS
  1
ACDBDICTIONARYWDFLT
  2
AcDbDictionaryWithDefault
  3
ObjectDBX Classes
 90
        0
 91
        1
280
     0
281
     0
  0
CLASS
  1
MATERIAL
  2
AcDbMaterial
  3
ObjectDBX Classes
 90
     1153
 91
        3
280
     0
281
     0
  0
CLASS
  1
VISUALSTYLE
  2
AcDbVisualStyle
  3
ObjectDBX Classes
 90
     4095
 91
       24
280
     0
281
     0
  0
CLASS
  1
SCALE
  2
AcDbScale
  3
ObjectDBX Classes
 90
     1153
 91
       17
280
     0
281
     0
  0
CLASS
  1
TABLESTYLE
  2
AcDbTableStyle
  3
ObjectDBX Classes
 90
     4095
 91
        1
280
     0
281
     0
  0
CLASS
  1
MLEADERSTYLE
  2
AcDbMLeaderStyle
  3
ACDB_MLEADERSTYLE_CLASS
 90
     4095
 91
        1
280
     0
281
     0
  0
CLASS
  1
ACDBSECTIONVIEWSTYLE
  2
AcDbSectionViewStyle
  3
ObjectDBX Classes
 90
     1025
 91
        1
280
     0
281
     0
  0
CLASS
  1
ACDBDETAILVIEWSTYLE
  2
AcDbDetailViewStyle
  3
ObjectDBX Classes
 90
     1025
 91
        1
280
     0
281
     0
  0
CLASS
  1
DICTIONARYVAR
  2
AcDbDictionaryVar
  3
ObjectDBX Classes
 90
        0
 91
        5
280
     0
281
     0
  0
CLASS
  1
CELLSTYLEMAP
  2
AcDbCellStyleMap
  3
ObjectDBX Classes
 90
     1152
 91
        1
280
     0
281
     0
  0
ENDSEC
  0
SECTION
  2
TABLES
  0
TABLE
  2
VPORT
  5
8
330
0
100
AcDbSymbolTable
 70
     1
  0
VPORT
  5
57
330
8
100
AcDbSymbolTableRecord
100
AcDbViewportTableRecord
  2
*Active
 70
     0
 10
0.0
 20
0.0
 11
1.0
 21
1.0
 12
0.0
 22
0.0
 13
0.0
 23
0.0
 14
1.0
 24
1.0
 15
0.0
 25
0.0
 16
0.0
 26
0.0
 36
1.0
 17
104.9999999737534
 27
-148.4999999628701
 37
0.0
 40
302.939999924255
 41
0.7070707070707534
 42
50.0
 43
0.0
 44
0.0
 50
0.0
 51
0.0
 71
     0
 72
   100
 73
     1
 74
     0
 75
     1
 76
     0
 77
     0
 78
     0
281
     0
 65
     1
110
0.0
120
0.0
130
0.0
111
1.0
121
0.0
131
0.0
112
0.0
122
1.0
132
0.0
 79
     0
146
0.0
 60
     3
 61
     5
292
     1
282
     1
141
0.0
142
0.0
 63
   250
421
  3355443
  0
ENDTAB
  0
TABLE
  2
LTYPE
  5
5
330
0
100
AcDbSymbolTable
 70
     2
  0
LTYPE
  5
5B
330
5
100
AcDbSymbolTableRecord
100
AcDbLinetypeTableRecord
  2
ByBlock
 70
     0
  3

 72
    65
 73
     0
 40
0.0
  0
LTYPE
  5
5C
330
5
100
AcDbSymbolTableRecord
100
AcDbLinetypeTableRecord
  2
ByLayer
 70
     0
  3

 72
    65
 73
     0
 40
0.0
  0
LTYPE
  5
5D
330
5
100
AcDbSymbolTableRecord
100
AcDbLinetypeTableRecord
  2
Continuous
 70
     0
  3
Solid line
 72
    65
 73
     0
 40
0.0
  0
LTYPE
  5
D5
330
5
100
AcDbSymbolTableRecord
100
AcDbLinetypeTableRecord
  2
AI-Linetype-0
 70
     0
  3
Adobe Illustrator Linetype No. 0
 72
    65
 73
     2
 40
1.411111110758333
 49
0.7055555553791667
 74
     0
 49
-0.7055555553791667
 74
     0
  0
ENDTAB
  0
TABLE
  2
LAYER
  5
2
330
0
100
AcDbSymbolTable
 70
     2
  0
LAYER
  5
54
330
2
100
AcDbSymbolTableRecord
100
AcDbLayerTableRecord
  2
0
 70
     0
 62
     7
  6
Continuous
370
    -3
390
F
347
21
  0
LAYER
  5
78
330
2
100
AcDbSymbolTableRecord
100
AcDbLayerTableRecord
  2
レイヤー 1
 70
     0
 62
     7
  6
Continuous
370
     0
390
F
347
21
  0
ENDTAB
  0
TABLE
  2
STYLE
  5
3
330
0
100
AcDbSymbolTable
 70
     2
  0
STYLE
  5
55
330
3
100
AcDbSymbolTableRecord
100
AcDbTextStyleTableRecord
  2
Standard
 70
     0
 40
0.0
 41
1.0
 50
0.0
 71
     0
 42
0.2
  3
txt
  4

  0
STYLE
  5
5A
330
3
100
AcDbSymbolTableRecord
100
AcDbTextStyleTableRecord
  2
Annotative
 70
     0
 40
0.0
 41
1.0
 50
0.0
 71
     0
 42
0.2
  3
txt
  4

1001
AcadAnnotative
1000
AnnotativeData
1002
{
1070
     1
1070
     1
1002
}
  0
ENDTAB
  0
TABLE
  2
VIEW
  5
6
330
0
100
AcDbSymbolTable
 70
     0
  0
ENDTAB
  0
TABLE
  2
UCS
  5
7
330
0
100
AcDbSymbolTable
 70
     0
  0
ENDTAB
  0
TABLE
  2
APPID
  5
9
330
0
100
AcDbSymbolTable
 70
     2
  0
APPID
  5
56
330
9
100
AcDbSymbolTableRecord
100
AcDbRegAppTableRecord
  2
ACAD
 70
     0
  0
APPID
  5
5E
330
9
100
AcDbSymbolTableRecord
100
AcDbRegAppTableRecord
  2
AcadAnnotative
 70
     0
  0
ENDTAB
  0
TABLE
  2
DIMSTYLE
  5
A
330
0
100
AcDbSymbolTable
 70
     2
100
AcDbDimStyleTable
 71
     0
  0
DIMSTYLE
105
58
330
A
100
AcDbSymbolTableRecord
100
AcDbDimStyleTableRecord
  2
Standard
 70
     0
340
55
  0
DIMSTYLE
105
59
330
A
100
AcDbSymbolTableRecord
100
AcDbDimStyleTableRecord
  2
Annotative
 70
     0
340
55
1001
AcadAnnotative
1000
AnnotativeData
1002
{
1070
     1
1070
     1
1002
}
  0
ENDTAB
  0
TABLE
  2
BLOCK_RECORD
  5
1
330
0
100
AcDbSymbolTable
 70
    13
  0
BLOCK_RECORD
  5
70
330
1
100
AcDbSymbolTableRecord
100
AcDbBlockTableRecord
  2
*Model_Space
340
73
 70
     0
280
     1
281
     0
  0
BLOCK_RECORD
  5
6C
330
1
100
AcDbSymbolTableRecord
100
AcDbBlockTableRecord
  2
*Paper_Space
340
6F
 70
     0
280
     1
281
     0
  0
BLOCK_RECORD
  5
74
330
1
100
AcDbSymbolTableRecord
100
AcDbBlockTableRecord
  2
*Paper_Space0
340
77
 70
     0
280
     1
281
     0
  0
BLOCK_RECORD
  5
79
330
1
100
AcDbSymbolTableRecord
100
AcDbBlockTableRecord
  2
Block_0
340
0
102
{BLKREFS
331
7A
102
}
 70
     0
280
     1
281
     0
  0
BLOCK_RECORD
  5
93
330
1
100
AcDbSymbolTableRecord
100
AcDbBlockTableRecord
  2
Block_1
340
0
102
{BLKREFS
331
94
102
}
 70
     0
280
     1
281
     0
  0
BLOCK_RECORD
  5
9C
330
1
100
AcDbSymbolTableRecord
100
AcDbBlockTableRecord
  2
Block_2
340
0
102
{BLKREFS
331
9D
102
}
 70
     0
280
     1
281
     0
  0
BLOCK_RECORD
  5
A0
330
1
100
AcDbSymbolTableRecord
100
AcDbBlockTableRecord
  2
Block_3
340
0
102
{BLKREFS
331
A1
102
}
 70
     0
280
     1
281
     0
  0
BLOCK_RECORD
  5
AB
330
1
100
AcDbSymbolTableRecord
100
AcDbBlockTableRecord
  2
Block_4
340
0
102
{BLKREFS
331
AC
102
}
 70
     0
280
     1
281
     0
  0
BLOCK_RECORD
  5
AF
330
1
100
AcDbSymbolTableRecord
100
AcDbBlockTableRecord
  2
Block_5
340
0
102
{BLKREFS
331
B0
102
}
 70
     0
280
     1
281
     0
  0
BLOCK_RECORD
  5
B9
330
1
100
AcDbSymbolTableRecord
100
AcDbBlockTableRecord
  2
Block_6
340
0
102
{BLKREFS
331
BA
102
}
 70
     0
280
     1
281
     0
  0
BLOCK_RECORD
  5
BD
330
1
100
AcDbSymbolTableRecord
100
AcDbBlockTableRecord
  2
Block_7
340
0
102
{BLKREFS
331
BE
102
}
 70
     0
280
     1
281
     0
  0
BLOCK_RECORD
  5
CE
330
1
100
AcDbSymbolTableRecord
100
AcDbBlockTableRecord
  2
Block_8
340
0
102
{BLKREFS
331
CF
102
}
 70
     0
280
     1
281
     0
  0
BLOCK_RECORD
  5
D6
330
1
100
AcDbSymbolTableRecord
100
AcDbBlockTableRecord
  2
Block_9
340
0
102
{BLKREFS
331
D7
102
}
 70
     0
280
     1
281
     0
  0
BLOCK_RECORD
  5
DC
330
1
100
AcDbSymbolTableRecord
100
AcDbBlockTableRecord
  2
Block_10
340
0
102
{BLKREFS
331
DD
102
}
 70
     0
280
     1
281
     0
  0
BLOCK_RECORD
  5
E0
330
1
100
AcDbSymbolTableRecord
100
AcDbBlockTableRecord
  2
Block_11
340
0
102
{BLKREFS
331
E1
102
}
 70
     0
280
     1
281
     0
  0
ENDTAB
  0
ENDSEC
  0
SECTION
  2
BLOCKS
  0
BLOCK
  5
71
330
70
100
AcDbEntity
  8
0
100
AcDbBlockBegin
  2
*Model_Space
 70
     0
 10
0.0
 20
0.0
 30
0.0
  3
*Model_Space
  1

  0
ENDBLK
  5
72
330
70
100
AcDbEntity
  8
0
100
AcDbBlockEnd
  0
BLOCK
  5
6D
330
6C
100
AcDbEntity
 67
     1
  8
0
100
AcDbBlockBegin
  2
*Paper_Space
 70
     0
 10
0.0
 20
0.0
 30
0.0
  3
*Paper_Space
  1

  0
ENDBLK
  5
6E
330
6C
100
AcDbEntity
 67
     1
  8
0
100
AcDbBlockEnd
  0
BLOCK
  5
75
330
74
100
AcDbEntity
 67
     1
  8
0
100
AcDbBlockBegin
  2
*Paper_Space0
 70
     0
 10
0.0
 20
0.0
 30
0.0
  3
*Paper_Space0
  1

  0
ENDBLK
  5
76
330
74
100
AcDbEntity
 67
     1
  8
0
100
AcDbBlockEnd
  0
BLOCK
  5
7B
330
79
100
AcDbEntity
  8
0
100
AcDbBlockBegin
  2
Block_0
 70
     0
 10
0.0
 20
0.0
 30
0.0
  3
Block_0
  1

  0
LINE
  5
7D
330
79
100
AcDbEntity
  8
レイヤー 1
 62
   250
420
  2299925
370
    25
100
AcDbLine
 10
115.863955474534
 20
-135.8470368538923
 30
0.0
 11
115.863955474534
 21
-138.8470237218007
 31
0.0
  0
LINE
  5
7E
330
79
100
AcDbEntity
  8
レイヤー 1
 62
   250
420
  2299925
370
    25
100
AcDbLine
 10
95.0641782274028
 20
-135.8470368538923
 30
0.0
 11
95.0641782274028
 21
-160.8467392716523
 31
0.0
  0
LINE
  5
7F
330
79
100
AcDbEntity
  8
レイヤー 1
 62
   250
420
  2299925
370
    25
100
AcDbLine
 10
95.0641782274028
 20
-135.8470368538923
 30
0.0
 11
115.863955474534
 21
-135.8470368538923
 31
0.0
  0
LINE
  5
80
330
79
100
AcDbEntity
  8
レイヤー 1
 62
   250
420
  2299925
370
    25
100
AcDbLine
 10
95.0641782274028
 20
-160.8467392716523
 30
0.0
 11
96.06430320188749
 21
-160.8467392716523
 31
0.0
  0
LINE
  5
81
330
79
100
AcDbEntity
  8
レイヤー 1
 62
   250
420
  2299925
370
    25
100
AcDbLine
 10
96.06430320188749
 20
-136.8468090506082
 30
0.0
 11
96.06430320188749
 21
-160.8467392716523
 31
0.0
  0
LINE
  5
82
330
79
100
AcDbEntity
  8
レイヤー 1
 62
   250
420
  2299925
370
    25
100
AcDbLine
 10
96.06430320188749
 20
-136.8468090506082
 30
0.0
 11
114.8638305000493
 21
-136.8468090506082
 31
0.0
  0
LINE
  5
83
330
79
100
AcDbEntity
  8
レイヤー 1
 62
   250
420
  2299925
370
    25
100
AcDbLine
 10
105.8642226740929
 20
-138.8470237218007
 30
0.0
 11
115.863955474534
 21
-138.8470237218007
 31
0.0
  0
LINE
  5
84
330
79
100
AcDbEntity
  8
レイヤー 1
 62
   250
420
  2299925
370
    25
100
AcDbLine
 10
114.8638305000493
 20
-136.8468090506082
 30
0.0
 11
114.8638305000493
 21
-137.8469340250929
 31
0.0
  0
LINE
  5
85
330
79
100
AcDbEntity
  8
レイヤー 1
 62
   250
420
  2299925
370
    25
100
AcDbLine
 10
105.8642226740929
 20
-137.8469340250929
 30
0.0
 11
114.8638305000493
 21
-137.8469340250929
 31
0.0
  0
LINE
  5
86
330
79
100
AcDbEntity
  8
レイヤー 1
 62
   250
420
  2299925
370
    25
100
AcDbLine
 10
105.8642226740929
 20
-137.8469340250929
 30
0.0
 11
105.8642226740929
 21
-138.8470237218007
 31
0.0
  0
SPLINE
  5
87
330
79
100
AcDbEntity
  8
レイヤー 1
 62
   250
420
  2299925
370
     9
100
AcDbSpline
210
0.0
220
0.0
230
1.0
 70
     9
 71
     3
 72
    17
 73
    13
 74
     0
 42
0.0000000001
 43
0.0000000001
 40
0.0
 40
0.0
 40
0.0
 40
0.0
 40
1.0
 40
1.0
 40
1.0
 40
2.0
 40
2.0
 40
2.0
 40
3.0
 40
3.0
 40
3.0
 40
4.0
 40
4.0
 40
4.0
 40
4.0
 10
91.16436336051997
 20
-135.8470368538923
 30
0.0
 10
91.16436336051997
 20
-135.7915801886408
 30
0.0
 10
91.11956058275325
 20
-135.7467774120057
 30
0.0
 10
91.06410166278658
 20
-135.7467774120057
 30
0.0
 10
91.00896249752663
 20
-135.7467774120057
 30
0.0
 10
90.96419499866874
 20
-135.7915801886408
 30
0.0
 10
90.96419499866874
 20
-135.8470368538923
 30
0.0
 10
90.96419499866874
 20
-135.9021760191523
 30
0.0
 10
91.00896249752663
 20
-135.9469435180101
 30
0.0
 10
91.06410166278658
 20
-135.9469435180101
 30
0.0
 10
91.11956058275325
 20
-135.9469435180101
 30
0.0
 10
91.16436336051997
 20
-135.9021760191523
 30
0.0
 10
91.16436336051997
 20
-135.8470368538923
 30
0.0
  0
SPLINE
  5
88
330
79
100
AcDbEntity
  8
レイヤー 1
 62
   250
420
  2299925
370
     9
100
AcDbSpline
210
0.0
220
0.0
230
1.0
 70
     9
 71
     3
 72
    17
 73
    13
 74
     0
 42
0.0000000001
 43
0.0000000001
 40
0.0
 40
0.0
 40
0.0
 40
0.0
 40
1.0
 40
1.0
 40
1.0
 40
2.0
 40
2.0
 40
2.0
 40
3.0
 40
3.0
 40
3.0
 40
4.0
 40
4.0
 40
4.0
 40
4.0
 10
91.16436336051997
 20
-160.8467392716523
 30
0.0
 10
91.16436336051997
 20
-160.7916001063924
 30
0.0
 10
91.11956058275325
 20
-160.7467973297576
 30
0.0
 10
91.06410166278658
 20
-160.7467973297576
 30
0.0
 10
91.00896249752663
 20
-160.7467973297576
 30
0.0
 10
90.96419499866874
 20
-160.7916001063924
 30
0.0
 10
90.96419499866874
 20
-160.8467392716523
 30
0.0
 10
90.96419499866874
 20
-160.9018431591354
 30
0.0
 10
91.00896249752663
 20
-160.9466459357702
 30
0.0
 10
91.06410166278658
 20
-160.9466459357702
 30
0.0
 10
91.11956058275325
 20
-160.9466459357702
 30
0.0
 10
91.16436336051997
 20
-160.9018431591354
 30
0.0
 10
91.16436336051997
 20
-160.8467392716523
 30
0.0
  0
SPLINE
  5
89
330
79
100
AcDbEntity
  8
レイヤー 1
 62
   250
420
  2299925
370
     9
100
AcDbSpline
210
0.0
220
0.0
230
1.0
 70
     9
 71
     3
 72
    17
 73
    13
 74
     0
 42
0.0000000001
 43
0.0000000001
 40
0.0
 40
0.0
 40
0.0
 40
0.0
 40
1.0
 40
1.0
 40
1.0
 40
2.0
 40
2.0
 40
2.0
 40
3.0
 40
3.0
 40
3.0
 40
4.0
 40
4.0
 40
4.0
 40
4.0
 10
95.16443766928942
 20
-164.8471686140373
 30
0.0
 10
95.16443766928942
 20
-164.7913591710167
 30
0.0
 10
95.11967017043152
 20
-164.7465563943819
 30
0.0
 10
95.0641782274028
 20
-164.7465563943819
 30
0.0
 10
95.00907433991972
 20
-164.7465563943819
 30
0.0
 10
94.96427156328497
 20
-164.7913591710167
 30
0.0
 10
94.96427156328497
 20
-164.8471686140373
 30
0.0
 10
94.96427156328497
 20
-164.9022725015204
 30
0.0
 10
95.00907433991972
 20
-164.9470752781551
 30
0.0
 10
95.0641782274028
 20
-164.9470752781551
 30
0.0
 10
95.11967017043152
 20
-164.9470752781551
 30
0.0
 10
95.16443766928942
 20
-164.9022725015204
 30
0.0
 10
95.16443766928942
 20
-164.8471686140373
 30
0.0
  0
SPLINE
  5
8A
330
79
100
AcDbEntity
  8
レイヤー 1
 62
   250
420
  2299925
370
     9
100
AcDbSpline
210
0.0
220
0.0
230
1.0
 70
     9
 71
     3
 72
    17
 73
    13
 74
     0
 42
0.0000000001
 43
0.0000000001
 40
0.0
 40
0.0
 40
0.0
 40
0.0
 40
1.0
 40
1.0
 40
1.0
 40
2.0
 40
2.0
 40
2.0
 40
3.0
 40
3.0
 40
3.0
 40
4.0
 40
4.0
 40
4.0
 40
4.0
 10
96.16420986600532
 20
-164.8471686140373
 30
0.0
 10
96.16420986600532
 20
-164.7913591710167
 30
0.0
 10
96.11944236714743
 20
-164.7465563943819
 30
0.0
 10
96.06430320188749
 20
-164.7465563943819
 30
0.0
 10
96.00919931440442
 20
-164.7465563943819
 30
0.0
 10
95.96439653776997
 20
-164.7913591710167
 30
0.0
 10
95.96439653776997
 20
-164.8471686140373
 30
0.0
 10
95.96439653776997
 20
-164.9022725015204
 30
0.0
 10
96.00919931440442
 20
-164.9470752781551
 30
0.0
 10
96.06430320188749
 20
-164.9470752781551
 30
0.0
 10
96.11944236714743
 20
-164.9470752781551
 30
0.0
 10
96.16420986600532
 20
-164.9022725015204
 30
0.0
 10
96.16420986600532
 20
-164.8471686140373
 30
0.0
  0
CIRCLE
  5
8B
330
79
100
AcDbEntity
  8
レイヤー 1
 62
   250
420
  2299925
370
     9
100
AcDbCircle
 10
115.863955474534
 20
-142.8467827864251
 30
0.0
 40
0.099906664117715
  0
CIRCLE
  5
8C
330
79
100
AcDbEntity
  8
レイヤー 1
 62
   250
420
  2299925
370
     9
100
AcDbCircle
 10
105.8642226740929
 20
-142.8467827864251
 30
0.0
 40
0.099906664117715
  0
SPLINE
  5
8D
330
79
100
AcDbEntity
  8
レイヤー 1
 62
   250
420
  2299925
370
     9
100
AcDbSpline
210
0.0
220
0.0
230
1.0
 70
     9
 71
     3
 72
    17
 73
    13
 74
     0
 42
0.0000000001
 43
0.0000000001
 40
0.0
 40
0.0
 40
0.0
 40
0.0
 40
1.0
 40
1.0
 40
1.0
 40
2.0
 40
2.0
 40
2.0
 40
3.0
 40
3.0
 40
3.0
 40
4.0
 40
4.0
 40
4.0
 40
4.0
 10
119.9639739810449
 20
-138.8470237218007
 30
0.0
 10
119.9639739810449
 20
-138.7915619791719
 30
0.0
 10
119.9191712044102
 20
-138.747111979183
 30
0.0
 10
119.8640673169271
 20
-138.747111979183
 30
0.0
 10
119.8085753738984
 20
-138.747111979183
 30
0.0
 10
119.7638078750405
 20
-138.7915619791719
 30
0.0
 10
119.7638078750405
 20
-138.8470237218007
 30
0.0
 10
119.7638078750405
 20
-138.9021628870606
 30
0.0
 10
119.8085753738984
 20
-138.9469303859189
 30
0.0
 10
119.8640673169271
 20
-138.9469303859189
 30
0.0
 10
119.9191712044102
 20
-138.9469303859189
 30
0.0
 10
119.9639739810449
 20
-138.9021628870606
 30
0.0
 10
119.9639739810449
 20
-138.8470237218007
 30
0.0
  0
SPLINE
  5
8E
330
79
100
AcDbEntity
  8
レイヤー 1
 62
   250
420
  2299925
370
     9
100
AcDbSpline
210
0.0
220
0.0
230
1.0
 70
     9
 71
     3
 72
    17
 73
    13
 74
     0
 42
0.0000000001
 43
0.0000000001
 40
0.0
 40
0.0
 40
0.0
 40
0.0
 40
1.0
 40
1.0
 40
1.0
 40
2.0
 40
2.0
 40
2.0
 40
3.0
 40
3.0
 40
3.0
 40
4.0
 40
4.0
 40
4.0
 40
4.0
 10
119.9639739810449
 20
-135.8470368538923
 30
0.0
 10
119.9639739810449
 20
-135.7915801886408
 30
0.0
 10
119.9191712044102
 20
-135.7467774120057
 30
0.0
 10
119.8640673169271
 20
-135.7467774120057
 30
0.0
 10
119.8085753738984
 20
-135.7467774120057
 30
0.0
 10
119.7638078750405
 20
-135.7915801886408
 30
0.0
 10
119.7638078750405
 20
-135.8470368538923
 30
0.0
 10
119.7638078750405
 20
-135.9021760191523
 30
0.0
 10
119.8085753738984
 20
-135.9469435180101
 30
0.0
 10
119.8640673169271
 20
-135.9469435180101
 30
0.0
 10
119.9191712044102
 20
-135.9469435180101
 30
0.0
 10
119.9639739810449
 20
-135.9021760191523
 30
0.0
 10
119.9639739810449
 20
-135.8470368538923
 30
0.0
  0
CIRCLE
  5
8F
330
79
100
AcDbEntity
  8
レイヤー 1
 62
   250
420
  2299925
370
     9
100
AcDbCircle
 10
96.06430320188756
 20
-142.8467827864251
 30
0.0
 40
0.0999066641175947
  0
LINE
  5
90
330
79
100
AcDbEntity
  8
レイヤー 1
 62
   250
420
  2299925
370
     9
100
AcDbLine
 10
119.8640673169271
 20
-135.8470368538923
 30
0.0
 11
119.8640673169271
 21
-138.8470237218007
 31
0.0
  0
LINE
  5
91
330
79
100
AcDbEntity
  8
レイヤー 1
 62
   250
420
  2299925
370
     9
100
AcDbLine
 10
118.404025965287
 20
-135.8470368538923
 30
0.0
 11
120.863839513643
 21
-135.8470368538923
 31
0.0
  0
LINE
  5
92
330
79
100
AcDbEntity
  8
レイヤー 1
 62
   250
420
  2299925
370
     9
100
AcDbLine
 10
118.404025965287
 20
-138.8470237218007
 30
0.0
 11
120.863839513643
 21
-138.8470237218007
 31
0.0
  0
INSERT
  5
94
330
79
100
AcDbEntity
  8
レイヤー 1
100
AcDbBlockReference
  2
Block_1
 10
0.0
 20
0.0
 30
0.0
  0
LINE
  5
99
330
79
100
AcDbEntity
  8
レイヤー 1
 62
   250
420
  2299925
370
     9
100
AcDbLine
 10
91.06410166278658
 20
-135.8470368538923
 30
0.0
 11
91.06410166278658
 21
-160.8467392716523
 31
0.0
  0
LINE
  5
9A
330
79
100
AcDbEntity
  8
レイヤー 1
 62
   250
420
  2299925
370
     9
100
AcDbLine
 10
92.52410773664983
 20
-135.8470368538923
 30
0.0
 11
90.06432946607068
 21
-135.8470368538923
 31
0.0
  0
LINE
  5
9B
330
79
100
AcDbEntity
  8
レイヤー 1
 62
   250
420
  2299925
370
     9
100
AcDbLine
 10
92.52410773664983
 20
-160.8467392716523
 30
0.0
 11
90.06432946607068
 21
-160.8467392716523
 31
0.0
  0
INSERT
  5
9D
330
79
100
AcDbEntity
  8
レイヤー 1
100
AcDbBlockReference
  2
Block_2
 10
0.0
 20
0.0
 30
0.0
  0
LINE
  5
A8
330
79
100
AcDbEntity
  8
レイヤー 1
 62
   250
420
  2299925
370
     9
100
AcDbLine
 10
105.8642226740929
 20
-142.846782786425
 30
0.0
 11
115.863955474534
 21
-142.846782786425
 31
0.0
  0
LINE
  5
A9
330
79
100
AcDbEntity
  8
レイヤー 1
 62
   250
420
  2299925
370
     9
100
AcDbLine
 10
105.8642226740929
 20
-141.3867414347849
 30
0.0
 11
105.8642226740929
 21
-143.8472605386785
 31
0.0
  0
LINE
  5
AA
330
79
100
AcDbEntity
  8
レイヤー 1
 62
   250
420
  2299925
370
     9
100
AcDbLine
 10
115.863955474534
 20
-141.3867414347849
 30
0.0
 11
115.863955474534
 21
-143.8472605386785
 31
0.0
  0
INSERT
  5
AC
330
79
100
AcDbEntity
  8
レイヤー 1
100
AcDbBlockReference
  2
Block_4
 10
0.0
 20
0.0
 30
0.0
  0
LINE
  5
B8
330
79
100
AcDbEntity
  8
レイヤー 1
 62
   250
420
  2299925
370
     9
100
AcDbLine
 10
105.8642226740929
 20
-142.846782786425
 30
0.0
 11
96.06430320188749
 21
-142.846782786425
 31
0.0
  0
INSERT
  5
BA
330
79
100
AcDbEntity
  8
レイヤー 1
100
AcDbBlockReference
  2
Block_6
 10
0.0
 20
0.0
 30
0.0
  0
LINE
  5
CA
330
79
100
AcDbEntity
  8
レイヤー 1
 62
   250
420
  2299925
370
     9
100
AcDbLine
 10
96.06430320188749
 20
-164.8471686140373
 30
0.0
 11
99.8346156056988
 21
-164.8471686140373
 31
0.0
  0
LINE
  5
CB
330
79
100
AcDbEntity
  8
レイヤー 1
 62
   250
420
  2299925
370
     9
100
AcDbLine
 10
96.06430320188749
 20
-164.8471686140373
 30
0.0
 11
94.06408853069498
 21
-164.8471686140373
 31
0.0
  0
LINE
  5
CC
330
79
100
AcDbEntity
  8
レイヤー 1
 62
   250
420
  2299925
370
     9
100
AcDbLine
 10
96.06430320188749
 20
-163.3871272623972
 30
0.0
 11
96.06430320188749
 21
-165.8469408107532
 31
0.0
  0
LINE
  5
CD
330
79
100
AcDbEntity
  8
レイヤー 1
 62
   250
420
  2299925
370
     9
100
AcDbLine
 10
95.0641782274028
 20
-163.3871272623972
 30
0.0
 11
95.0641782274028
 21
-165.8469408107532
 31
0.0
  0
INSERT
  5
CF
330
79
100
AcDbEntity
  8
レイヤー 1
100
AcDbBlockReference
  2
Block_8
 10
0.0
 20
0.0
 30
0.0
  0
ENDBLK
  5
7C
330
79
100
AcDbEntity
  8
0
100
AcDbBlockEnd
  0
BLOCK
  5
95
330
93
100
AcDbEntity
  8
0
100
AcDbBlockBegin
  2
Block_1
 70
     0
 10
0.0
 20
0.0
 30
0.0
  3
Block_1
  1

  0
SPLINE
  5
97
330
93
100
AcDbEntity
  8
レイヤー 1
100
AcDbSpline
210
0.0
220
0.0
230
1.0
 70
     9
 71
     3
 72
    62
 73
    58
 74
     0
 42
0.0000000001
 43
0.0000000001
 40
0.0
 40
0.0
 40
0.0
 40
0.0
 40
1.0
 40
1.0
 40
1.0
 40
2.0
 40
2.0
 40
2.0
 40
3.0
 40
3.0
 40
3.0
 40
4.0
 40
4.0
 40
4.0
 40
5.0
 40
5.0
 40
5.0
 40
6.0
 40
6.0
 40
6.0
 40
7.0
 40
7.0
 40
7.0
 40
8.0
 40
8.0
 40
8.0
 40
9.0
 40
9.0
 40
9.0
 40
10.0
 40
10.0
 40
10.0
 40
11.0
 40
11.0
 40
11.0
 40
12.0
 40
12.0
 40
12.0
 40
13.0
 40
13.0
 40
13.0
 40
14.0
 40
14.0
 40
14.0
 40
15.0
 40
15.0
 40
15.0
 40
16.0
 40
16.0
 40
16.0
 40
17.0
 40
17.0
 40
17.0
 40
18.0
 40
18.0
 40
18.0
 40
19.0
 40
19.0
 40
19.0
 40
19.0
 10
118.6129150094092
 20
-137.3134100676681
 30
0.0
 10
118.6129150094092
 20
-137.415040384483
 30
0.0
 10
118.5918999269492
 20
-137.6479288392859
 30
0.0
 10
118.4058647707457
 20
-137.7814262893394
 30
0.0
 10
118.2935546579266
 20
-137.8604912307258
 30
0.0
 10
118.1943359079514
 20
-137.8649698548567
 30
0.0
 10
118.1095865590142
 20
-137.8696207337617
 30
0.0
 10
118.1095865590142
 20
-137.8696207337617
 30
0.0
 10
118.1095865590142
 20
-137.6343207121192
 30
0.0
 10
118.1095865590142
 20
-137.6343207121192
 30
0.0
 10
118.1836561119471
 20
-137.6320814000538
 30
0.0
 10
118.4182671144926
 20
-137.6208848397267
 30
0.0
 10
118.4182671144926
 20
-137.317888691799
 30
0.0
 10
118.4182671144926
 20
-137.1709553693531
 30
0.0
 10
118.3486761856906
 20
-137.008174607675
 30
0.0
 10
118.1202663550185
 20
-137.008174607675
 30
0.0
 10
118.0038221276171
 20
-137.008174607675
 30
0.0
 10
117.955246281275
 20
-137.048826734401
 30
0.0
 10
117.9235514028108
 20
-137.0827609249307
 30
0.0
 10
117.8494818498779
 20
-137.1618258663172
 30
0.0
 10
117.8367349965825
 20
-137.2861938133347
 30
0.0
 10
117.8367349965825
 20
-137.3449326913582
 30
0.0
 10
117.8367349965825
 20
-137.3654310094954
 30
0.0
 10
117.8388020538736
 20
-137.403843824156
 30
0.0
 10
117.8429361684559
 20
-137.4331271357806
 30
0.0
 10
117.8429361684559
 20
-137.4331271357806
 30
0.0
 10
117.6482882735393
 20
-137.4331271357806
 30
0.0
 10
117.6482882735393
 20
-137.4331271357806
 30
0.0
 10
117.6548339549613
 20
-137.3924750090546
 30
0.0
 10
117.6569010122524
 20
-137.3473442581979
 30
0.0
 10
117.6569010122524
 20
-137.3404540672274
 30
0.0
 10
117.6569010122524
 20
-137.2703463741025
 30
0.0
 10
117.6355414202439
 20
-137.0579562374369
 30
0.0
 10
117.3988633604072
 20
-137.0579562374369
 30
0.0
 10
117.2210964333683
 20
-137.0579562374369
 30
0.0
 10
117.1659749056043
 20
-137.1979993689123
 30
0.0
 10
117.1659749056043
 20
-137.3156493797336
 30
0.0
 10
117.1659749056043
 20
-137.5981472095241
 30
0.0
 10
117.3988633604072
 20
-137.60727671256
 30
0.0
 10
117.4705213465004
 20
-137.6117553366908
 30
0.0
 10
117.4705213465004
 20
-137.6117553366908
 30
0.0
 10
117.4705213465004
 20
-137.8287963522615
 30
0.0
 10
117.4705213465004
 20
-137.8287963522615
 30
0.0
 10
117.3458088899344
 20
-137.8198391039999
 30
0.0
 10
116.9692599533965
 20
-137.790383537601
 30
0.0
 10
116.9692599533965
 20
-137.3020412525668
 30
0.0
 10
116.9692599533965
 20
-137.0624348615677
 30
0.0
 10
117.0963839768023
 20
-136.804741719271
 30
0.0
 10
117.3923176789852
 20
-136.804741719271
 30
0.0
 10
117.5786973447372
 20
-136.804741719271
 30
0.0
 10
117.6610351268347
 20
-136.9063720360859
 30
0.0
 10
117.7223578264722
 20
-137.0126532318058
 30
0.0
 10
117.7499185903542
 20
-136.9470241628118
 30
0.0
 10
117.8301893151605
 20
-136.7527207774438
 30
0.0
 10
118.1075195017231
 20
-136.7527207774438
 30
0.0
 10
118.4458278783746
 20
-136.7527207774438
 30
0.0
 10
118.6129150094092
 20
-137.0171318559367
 30
0.0
 10
118.6129150094092
 20
-137.3134100676681
 30
0.0
  0
HATCH
  5
98
330
93
100
AcDbEntity
  8
レイヤー 1
 62
   250
420
  2299925
440
 33554687
100
AcDbHatch
 10
0.0
 20
0.0
 30
0.0
210
0.0
220
0.0
230
1.0
  2
SOLID
 70
     1
 71
     1
 91
        1
 92
        1
 93
        1
 72
     4
 94
        3
 73
     0
 74
     0
 95
       62
 96
       58
 40
0.0
 40
0.0
 40
0.0
 40
0.0
 40
1.0
 40
1.0
 40
1.0
 40
2.0
 40
2.0
 40
2.0
 40
3.0
 40
3.0
 40
3.0
 40
4.0
 40
4.0
 40
4.0
 40
5.0
 40
5.0
 40
5.0
 40
6.0
 40
6.0
 40
6.0
 40
7.0
 40
7.0
 40
7.0
 40
8.0
 40
8.0
 40
8.0
 40
9.0
 40
9.0
 40
9.0
 40
10.0
 40
10.0
 40
10.0
 40
11.0
 40
11.0
 40
11.0
 40
12.0
 40
12.0
 40
12.0
 40
13.0
 40
13.0
 40
13.0
 40
14.0
 40
14.0
 40
14.0
 40
15.0
 40
15.0
 40
15.0
 40
16.0
 40
16.0
 40
16.0
 40
17.0
 40
17.0
 40
17.0
 40
18.0
 40
18.0
 40
18.0
 40
19.0
 40
19.0
 40
19.0
 40
19.0
 10
118.6129150094092
 20
-137.3134100676681
 10
118.6129150094092
 20
-137.415040384483
 10
118.5918999269492
 20
-137.6479288392859
 10
118.4058647707457
 20
-137.7814262893394
 10
118.2935546579266
 20
-137.8604912307258
 10
118.1943359079514
 20
-137.8649698548567
 10
118.1095865590142
 20
-137.8696207337617
 10
118.1095865590142
 20
-137.8696207337617
 10
118.1095865590142
 20
-137.6343207121192
 10
118.1095865590142
 20
-137.6343207121192
 10
118.1836561119471
 20
-137.6320814000538
 10
118.4182671144926
 20
-137.6208848397267
 10
118.4182671144926
 20
-137.317888691799
 10
118.4182671144926
 20
-137.1709553693531
 10
118.3486761856906
 20
-137.008174607675
 10
118.1202663550185
 20
-137.008174607675
 10
118.0038221276171
 20
-137.008174607675
 10
117.955246281275
 20
-137.048826734401
 10
117.9235514028108
 20
-137.0827609249307
 10
117.8494818498779
 20
-137.1618258663172
 10
117.8367349965825
 20
-137.2861938133347
 10
117.8367349965825
 20
-137.3449326913582
 10
117.8367349965825
 20
-137.3654310094954
 10
117.8388020538736
 20
-137.403843824156
 10
117.8429361684559
 20
-137.4331271357806
 10
117.8429361684559
 20
-137.4331271357806
 10
117.6482882735393
 20
-137.4331271357806
 10
117.6482882735393
 20
-137.4331271357806
 10
117.6548339549613
 20
-137.3924750090546
 10
117.6569010122524
 20
-137.3473442581979
 10
117.6569010122524
 20
-137.3404540672274
 10
117.6569010122524
 20
-137.2703463741025
 10
117.6355414202439
 20
-137.0579562374369
 10
117.3988633604072
 20
-137.0579562374369
 10
117.2210964333683
 20
-137.0579562374369
 10
117.1659749056043
 20
-137.1979993689123
 10
117.1659749056043
 20
-137.3156493797336
 10
117.1659749056043
 20
-137.5981472095241
 10
117.3988633604072
 20
-137.60727671256
 10
117.4705213465004
 20
-137.6117553366908
 10
117.4705213465004
 20
-137.6117553366908
 10
117.4705213465004
 20
-137.8287963522615
 10
117.4705213465004
 20
-137.8287963522615
 10
117.3458088899344
 20
-137.8198391039999
 10
116.9692599533965
 20
-137.790383537601
 10
116.9692599533965
 20
-137.3020412525668
 10
116.9692599533965
 20
-137.0624348615677
 10
117.0963839768023
 20
-136.804741719271
 10
117.3923176789852
 20
-136.804741719271
 10
117.5786973447372
 20
-136.804741719271
 10
117.6610351268347
 20
-136.9063720360859
 10
117.7223578264722
 20
-137.0126532318058
 10
117.7499185903542
 20
-136.9470241628118
 10
117.8301893151605
 20
-136.7527207774438
 10
118.1075195017231
 20
-136.7527207774438
 10
118.4458278783746
 20
-136.7527207774438
 10
118.6129150094092
 20
-137.0171318559367
 10
118.6129150094092
 20
-137.3134100676681
 97
        0
 97
        1
330
97
 75
     2
 76
     1
 98
        1
 10
0.0
 20
0.0
450
        0
451
        0
460
0.0
461
0.0
452
        0
462
0.0
453
        0
470

  0
ENDBLK
  5
96
330
93
100
AcDbEntity
  8
0
100
AcDbBlockEnd
  0
BLOCK
  5
9E
330
9C
100
AcDbEntity
  8
0
100
AcDbBlockBegin
  2
Block_2
 70
     0
 10
0.0
 20
0.0
 30
0.0
  3
Block_2
  1

  0
INSERT
  5
A1
330
9C
100
AcDbEntity
  8
レイヤー 1
100
AcDbBlockReference
  2
Block_3
 10
0.0
 20
0.0
 30
0.0
  0
ENDBLK
  5
9F
330
9C
100
AcDbEntity
  8
0
100
AcDbBlockEnd
  0
BLOCK
  5
A2
330
A0
100
AcDbEntity
  8
0
100
AcDbBlockBegin
  2
Block_3
 70
     0
 10
0.0
 20
0.0
 30
0.0
  3
Block_3
  1

  0
SPLINE
  5
A4
330
A0
100
AcDbEntity
  8
レイヤー 1
100
AcDbSpline
210
0.0
220
0.0
230
1.0
 70
     9
 71
     3
 72
    44
 73
    40
 74
     0
 42
0.0000000001
 43
0.0000000001
 40
0.0
 40
0.0
 40
0.0
 40
0.0
 40
1.0
 40
1.0
 40
1.0
 40
2.0
 40
2.0
 40
2.0
 40
3.0
 40
3.0
 40
3.0
 40
4.0
 40
4.0
 40
4.0
 40
5.0
 40
5.0
 40
5.0
 40
6.0
 40
6.0
 40
6.0
 40
7.0
 40
7.0
 40
7.0
 40
8.0
 40
8.0
 40
8.0
 40
9.0
 40
9.0
 40
9.0
 40
10.0
 40
10.0
 40
10.0
 40
11.0
 40
11.0
 40
11.0
 40
12.0
 40
12.0
 40
12.0
 40
13.0
 40
13.0
 40
13.0
 40
13.0
 10
89.18008624072582
 20
-148.8736002231983
 30
0.0
 10
89.33873288782157
 20
-149.1064886780011
 30
0.0
 10
89.41280244075445
 20
-149.2060519375248
 30
0.0
 10
89.55663517726362
 20
-149.2580728793521
 30
0.0
 10
89.55663517726362
 20
-149.2580728793521
 30
0.0
 10
89.55663517726362
 20
-148.4255655553415
 30
0.0
 10
89.55663517726362
 20
-148.4255655553415
 30
0.0
 10
89.55663517726362
 20
-148.4255655553415
 30
0.0
 10
89.76179061341026
 20
-148.4255655553415
 30
0.0
 10
89.76179061341026
 20
-148.4255655553415
 30
0.0
 10
89.76179061341026
 20
-148.4255655553415
 30
0.0
 10
89.76179061341026
 20
-149.5247232699105
 30
0.0
 10
89.76179061341026
 20
-149.5247232699105
 30
0.0
 10
89.40418970204133
 20
-149.4906168246065
 30
0.0
 10
89.32598603452616
 20
-149.4206813862559
 30
0.0
 10
89.02764076550351
 20
-149.0093369853171
 30
0.0
 10
88.82885875600459
 20
-148.735624149014
 30
0.0
 10
88.76116262971944
 20
-148.6653442011149
 30
0.0
 10
88.62370331985797
 20
-148.6653442011149
 30
0.0
 10
88.50519203516538
 20
-148.6653442011149
 30
0.0
 10
88.37393389717735
 20
-148.7421698304359
 30
0.0
 10
88.37393389717735
 20
-148.952837419359
 30
0.0
 10
88.37393389717735
 20
-149.2308566250186
 30
0.0
 10
88.60458303991483
 20
-149.2398138732803
 30
0.0
 10
88.72102726731627
 20
-149.2442924974111
 30
0.0
 10
88.72102726731627
 20
-149.2442924974111
 30
0.0
 10
88.72102726731627
 20
-149.4840711431845
 30
0.0
 10
88.72102726731627
 20
-149.4840711431845
 30
0.0
 10
88.59407549868482
 20
-149.4751138949229
 30
0.0
 10
88.48193764063994
 20
-149.4637450798215
 30
0.0
 10
88.36342635594734
 20
-149.3776176926903
 30
0.0
 10
88.20271265156042
 20
-149.2601399366433
 30
0.0
 10
88.16877846103073
 20
-149.0613579271444
 30
0.0
 10
88.16877846103073
 20
-148.9369899801268
 30
0.0
 10
88.16877846103073
 20
-148.6405395136211
 30
0.0
 10
88.35291881471732
 20
-148.4190198739195
 30
0.0
 10
88.62577037714912
 20
-148.4190198739195
 30
0.0
 10
88.85418020782118
 20
-148.4190198739195
 30
0.0
 10
88.9537434673449
 20
-148.5433878209371
 30
0.0
 10
89.18008624072582
 20
-148.8736002231983
 30
0.0
  0
HATCH
  5
A5
330
A0
100
AcDbEntity
  8
レイヤー 1
 62
   250
420
  2299925
440
 33554687
100
AcDbHatch
 10
0.0
 20
0.0
 30
0.0
210
0.0
220
0.0
230
1.0
  2
SOLID
 70
     1
 71
     1
 91
        1
 92
        1
 93
        1
 72
     4
 94
        3
 73
     0
 74
     0
 95
       44
 96
       40
 40
0.0
 40
0.0
 40
0.0
 40
0.0
 40
1.0
 40
1.0
 40
1.0
 40
2.0
 40
2.0
 40
2.0
 40
3.0
 40
3.0
 40
3.0
 40
4.0
 40
4.0
 40
4.0
 40
5.0
 40
5.0
 40
5.0
 40
6.0
 40
6.0
 40
6.0
 40
7.0
 40
7.0
 40
7.0
 40
8.0
 40
8.0
 40
8.0
 40
9.0
 40
9.0
 40
9.0
 40
10.0
 40
10.0
 40
10.0
 40
11.0
 40
11.0
 40
11.0
 40
12.0
 40
12.0
 40
12.0
 40
13.0
 40
13.0
 40
13.0
 40
13.0
 10
89.18008624072582
 20
-148.8736002231983
 10
89.33873288782157
 20
-149.1064886780011
 10
89.41280244075445
 20
-149.2060519375248
 10
89.55663517726362
 20
-149.2580728793521
 10
89.55663517726362
 20
-149.2580728793521
 10
89.55663517726362
 20
-148.4255655553415
 10
89.55663517726362
 20
-148.4255655553415
 10
89.55663517726362
 20
-148.4255655553415
 10
89.76179061341026
 20
-148.4255655553415
 10
89.76179061341026
 20
-148.4255655553415
 10
89.76179061341026
 20
-148.4255655553415
 10
89.76179061341026
 20
-149.5247232699105
 10
89.76179061341026
 20
-149.5247232699105
 10
89.40418970204133
 20
-149.4906168246065
 10
89.32598603452616
 20
-149.4206813862559
 10
89.02764076550351
 20
-149.0093369853171
 10
88.82885875600459
 20
-148.735624149014
 10
88.76116262971944
 20
-148.6653442011149
 10
88.62370331985797
 20
-148.6653442011149
 10
88.50519203516538
 20
-148.6653442011149
 10
88.37393389717735
 20
-148.7421698304359
 10
88.37393389717735
 20
-148.952837419359
 10
88.37393389717735
 20
-149.2308566250186
 10
88.60458303991483
 20
-149.2398138732803
 10
88.72102726731627
 20
-149.2442924974111
 10
88.72102726731627
 20
-149.2442924974111
 10
88.72102726731627
 20
-149.4840711431845
 10
88.72102726731627
 20
-149.4840711431845
 10
88.59407549868482
 20
-149.4751138949229
 10
88.48193764063994
 20
-149.4637450798215
 10
88.36342635594734
 20
-149.3776176926903
 10
88.20271265156042
 20
-149.2601399366433
 10
88.16877846103073
 20
-149.0613579271444
 10
88.16877846103073
 20
-148.9369899801268
 10
88.16877846103073
 20
-148.6405395136211
 10
88.35291881471732
 20
-148.4190198739195
 10
88.62577037714912
 20
-148.4190198739195
 10
88.85418020782118
 20
-148.4190198739195
 10
88.9537434673449
 20
-148.5433878209371
 10
89.18008624072582
 20
-148.8736002231983
 97
        0
 97
        1
330
A4
 75
     2
 76
     1
 98
        1
 10
0.0
 20
0.0
450
        0
451
        0
460
0.0
461
0.0
452
        0
462
0.0
453
        0
470

  0
SPLINE
  5
A6
330
A0
100
AcDbEntity
  8
レイヤー 1
100
AcDbSpline
210
0.0
220
0.0
230
1.0
 70
     9
 71
     3
 72
    53
 73
    49
 74
     0
 42
0.0000000001
 43
0.0000000001
 40
0.0
 40
0.0
 40
0.0
 40
0.0
 40
1.0
 40
1.0
 40
1.0
 40
2.0
 40
2.0
 40
2.0
 40
3.0
 40
3.0
 40
3.0
 40
4.0
 40
4.0
 40
4.0
 40
5.0
 40
5.0
 40
5.0
 40
6.0
 40
6.0
 40
6.0
 40
7.0
 40
7.0
 40
7.0
 40
8.0
 40
8.0
 40
8.0
 40
9.0
 40
9.0
 40
9.0
 40
10.0
 40
10.0
 40
10.0
 40
11.0
 40
11.0
 40
11.0
 40
12.0
 40
12.0
 40
12.0
 40
13.0
 40
13.0
 40
13.0
 40
14.0
 40
14.0
 40
14.0
 40
15.0
 40
15.0
 40
15.0
 40
16.0
 40
16.0
 40
16.0
 40
16.0
 10
89.81260577181769
 20
-147.7355129296459
 30
0.0
 10
89.81260577181769
 20
-147.8192287499375
 30
0.0
 10
89.79572480393995
 20
-147.9274047481744
 30
0.0
 10
89.73216279223711
 20
-148.0362697655083
 30
0.0
 10
89.62209199148338
 20
-148.2216159026147
 30
0.0
 10
89.49100610826961
 20
-148.2440090232688
 30
0.0
 10
89.3831746195813
 20
-148.2643350866318
 30
0.0
 10
89.3831746195813
 20
-148.2643350866318
 30
0.0
 10
89.3831746195813
 20
-148.0269680076981
 30
0.0
 10
89.3831746195813
 20
-148.0269680076981
 30
0.0
 10
89.58195662908021
 20
-147.9684013844488
 30
0.0
 10
89.61158445025336
 20
-147.83266462233
 30
0.0
 10
89.61158445025336
 20
-147.7331013628063
 30
0.0
 10
89.61158445025336
 20
-147.583928728295
 30
0.0
 10
89.5121934455039
 20
-147.4209757118427
 30
0.0
 10
89.27947724547527
 20
-147.4209757118427
 30
0.0
 10
89.0235066509212
 20
-147.4209757118427
 30
0.0
 10
88.9537434673449
 20
-147.6132120399196
 30
0.0
 10
88.9537434673449
 20
-147.7420586110679
 30
0.0
 10
88.9537434673449
 20
-147.7761650563719
 30
0.0
 10
88.9537434673449
 20
-147.9274047481744
 30
0.0
 10
89.0827622932675
 20
-148.0224893835673
 30
0.0
 10
89.0827622932675
 20
-148.0224893835673
 30
0.0
 10
89.06364201332436
 20
-148.2102470875134
 30
0.0
 10
89.06364201332436
 20
-148.2102470875134
 30
0.0
 10
89.06364201332436
 20
-148.2102470875134
 30
0.0
 10
88.21752656214702
 20
-148.0814005163651
 30
0.0
 10
88.21752656214702
 20
-148.0814005163651
 30
0.0
 10
88.21752656214702
 20
-148.0814005163651
 30
0.0
 10
88.21752656214702
 20
-147.2494099566772
 30
0.0
 10
88.21752656214702
 20
-147.2494099566772
 30
0.0
 10
88.21752656214702
 20
-147.2494099566772
 30
0.0
 10
88.41217445706362
 20
-147.2494099566772
 30
0.0
 10
88.41217445706362
 20
-147.2494099566772
 30
0.0
 10
88.41217445706362
 20
-147.2494099566772
 30
0.0
 10
88.41217445706362
 20
-147.9070786848114
 30
0.0
 10
88.41217445706362
 20
-147.9070786848114
 30
0.0
 10
88.41217445706362
 20
-147.9070786848114
 30
0.0
 10
88.8352321826523
 20
-147.9773586327105
 30
0.0
 10
88.8352321826523
 20
-147.9773586327105
 30
0.0
 10
88.8012979921226
 20
-147.9119018184908
 30
0.0
 10
88.76116262971944
 20
-147.8237073740684
 30
0.0
 10
88.76116262971944
 20
-147.6969278602112
 30
0.0
 10
88.76116262971944
 20
-147.425798845522
 30
0.0
 10
88.94737004069719
 20
-147.1725843273561
 30
0.0
 10
89.26035696553213
 20
-147.1725843273561
 30
0.0
 10
89.5778225144979
 20
-147.1725843273561
 30
0.0
 10
89.81260577181769
 20
-147.412018463581
 30
0.0
 10
89.81260577181769
 20
-147.7355129296459
 30
0.0
  0
HATCH
  5
A7
330
A0
100
AcDbEntity
  8
レイヤー 1
 62
   250
420
  2299925
440
 33554687
100
AcDbHatch
 10
0.0
 20
0.0
 30
0.0
210
0.0
220
0.0
230
1.0
  2
SOLID
 70
     1
 71
     1
 91
        1
 92
        1
 93
        1
 72
     4
 94
        3
 73
     0
 74
     0
 95
       53
 96
       49
 40
0.0
 40
0.0
 40
0.0
 40
0.0
 40
1.0
 40
1.0
 40
1.0
 40
2.0
 40
2.0
 40
2.0
 40
3.0
 40
3.0
 40
3.0
 40
4.0
 40
4.0
 40
4.0
 40
5.0
 40
5.0
 40
5.0
 40
6.0
 40
6.0
 40
6.0
 40
7.0
 40
7.0
 40
7.0
 40
8.0
 40
8.0
 40
8.0
 40
9.0
 40
9.0
 40
9.0
 40
10.0
 40
10.0
 40
10.0
 40
11.0
 40
11.0
 40
11.0
 40
12.0
 40
12.0
 40
12.0
 40
13.0
 40
13.0
 40
13.0
 40
14.0
 40
14.0
 40
14.0
 40
15.0
 40
15.0
 40
15.0
 40
16.0
 40
16.0
 40
16.0
 40
16.0
 10
89.81260577181769
 20
-147.7355129296459
 10
89.81260577181769
 20
-147.8192287499375
 10
89.79572480393995
 20
-147.9274047481744
 10
89.73216279223711
 20
-148.0362697655083
 10
89.62209199148338
 20
-148.2216159026147
 10
89.49100610826961
 20
-148.2440090232688
 10
89.3831746195813
 20
-148.2643350866318
 10
89.3831746195813
 20
-148.2643350866318
 10
89.3831746195813
 20
-148.0269680076981
 10
89.3831746195813
 20
-148.0269680076981
 10
89.58195662908021
 20
-147.9684013844488
 10
89.61158445025336
 20
-147.83266462233
 10
89.61158445025336
 20
-147.7331013628063
 10
89.61158445025336
 20
-147.583928728295
 10
89.5121934455039
 20
-147.4209757118427
 10
89.27947724547527
 20
-147.4209757118427
 10
89.0235066509212
 20
-147.4209757118427
 10
88.9537434673449
 20
-147.6132120399196
 10
88.9537434673449
 20
-147.7420586110679
 10
88.9537434673449
 20
-147.7761650563719
 10
88.9537434673449
 20
-147.9274047481744
 10
89.0827622932675
 20
-148.0224893835673
 10
89.0827622932675
 20
-148.0224893835673
 10
89.06364201332436
 20
-148.2102470875134
 10
89.06364201332436
 20
-148.2102470875134
 10
89.06364201332436
 20
-148.2102470875134
 10
88.21752656214702
 20
-148.0814005163651
 10
88.21752656214702
 20
-148.0814005163651
 10
88.21752656214702
 20
-148.0814005163651
 10
88.21752656214702
 20
-147.2494099566772
 10
88.21752656214702
 20
-147.2494099566772
 10
88.21752656214702
 20
-147.2494099566772
 10
88.41217445706362
 20
-147.2494099566772
 10
88.41217445706362
 20
-147.2494099566772
 10
88.41217445706362
 20
-147.2494099566772
 10
88.41217445706362
 20
-147.9070786848114
 10
88.41217445706362
 20
-147.9070786848114
 10
88.41217445706362
 20
-147.9070786848114
 10
88.8352321826523
 20
-147.9773586327105
 10
88.8352321826523
 20
-147.9773586327105
 10
88.8012979921226
 20
-147.9119018184908
 10
88.76116262971944
 20
-147.8237073740684
 10
88.76116262971944
 20
-147.6969278602112
 10
88.76116262971944
 20
-147.425798845522
 10
88.94737004069719
 20
-147.1725843273561
 10
89.26035696553213
 20
-147.1725843273561
 10
89.5778225144979
 20
-147.1725843273561
 10
89.81260577181769
 20
-147.412018463581
 10
89.81260577181769
 20
-147.7355129296459
 97
        0
 97
        1
330
A6
 75
     2
 76
     1
 98
        1
 10
0.0
 20
0.0
450
        0
451
        0
460
0.0
461
0.0
452
        0
462
0.0
453
        0
470

  0
ENDBLK
  5
A3
330
A0
100
AcDbEntity
  8
0
100
AcDbBlockEnd
  0
BLOCK
  5
AD
330
AB
100
AcDbEntity
  8
0
100
AcDbBlockBegin
  2
Block_4
 70
     0
 10
0.0
 20
0.0
 30
0.0
  3
Block_4
  1

  0
INSERT
  5
B0
330
AB
100
AcDbEntity
  8
レイヤー 1
100
AcDbBlockReference
  2
Block_5
 10
0.0
 20
0.0
 30
0.0
  0
ENDBLK
  5
AE
330
AB
100
AcDbEntity
  8
0
100
AcDbBlockEnd
  0
BLOCK
  5
B1
330
AF
100
AcDbEntity
  8
0
100
AcDbBlockBegin
  2
Block_5
 70
     0
 10
0.0
 20
0.0
 30
0.0
  3
Block_5
  1

  0
SPLINE
  5
B3
330
AF
100
AcDbEntity
  8
レイヤー 1
100
AcDbSpline
210
0.0
220
0.0
230
1.0
 70
    11
 71
     3
 72
    26
 73
    22
 74
     0
 42
0.0000000001
 43
0.0000000001
 40
0.0
 40
0.0
 40
0.0
 40
0.0
 40
1.0
 40
1.0
 40
1.0
 40
2.0
 40
2.0
 40
2.0
 40
3.0
 40
3.0
 40
3.0
 40
4.0
 40
4.0
 40
4.0
 40
5.0
 40
5.0
 40
5.0
 40
6.0
 40
6.0
 40
6.0
 40
7.0
 40
7.0
 40
7.0
 40
7.0
 10
110.1875894906823
 20
-141.5470879094917
 30
0.0
 10
110.1875894906823
 20
-141.5470879094917
 30
0.0
 10
110.1875894906823
 20
-140.4427625516948
 30
0.0
 10
110.1875894906823
 20
-140.4427625516948
 30
0.0
 10
110.1875894906823
 20
-140.4427625516948
 30
0.0
 10
109.8351562225412
 20
-140.4427625516948
 30
0.0
 10
109.8351562225412
 20
-140.4427625516948
 30
0.0
 10
109.8351562225412
 20
-140.4427625516948
 30
0.0
 10
109.8351562225412
 20
-140.2947957006034
 30
0.0
 10
109.8351562225412
 20
-140.2947957006034
 30
0.0
 10
110.1900010575219
 20
-140.2799817900168
 30
0.0
 10
110.2396104325095
 20
-140.1170287735645
 30
0.0
 10
110.2713053109738
 20
-140.0028238582284
 30
0.0
 10
110.2713053109738
 20
-140.0028238582284
 30
0.0
 10
110.4273681364556
 20
-140.0028238582284
 30
0.0
 10
110.4273681364556
 20
-140.0028238582284
 30
0.0
 10
110.4273681364556
 20
-140.0028238582284
 30
0.0
 10
110.4273681364556
 20
-141.5470879094917
 30
0.0
 10
110.4273681364556
 20
-141.5470879094917
 30
0.0
 10
110.4273681364556
 20
-141.5470879094917
 30
0.0
 10
110.1875894906823
 20
-141.5470879094917
 30
0.0
 10
110.1875894906823
 20
-141.5470879094917
 30
0.0
  0
HATCH
  5
B4
330
AF
100
AcDbEntity
  8
レイヤー 1
 62
   250
420
  2299925
440
 33554687
100
AcDbHatch
 10
0.0
 20
0.0
 30
0.0
210
0.0
220
0.0
230
1.0
  2
SOLID
 70
     1
 71
     1
 91
        1
 92
        1
 93
        1
 72
     4
 94
        3
 73
     0
 74
     0
 95
       26
 96
       22
 40
0.0
 40
0.0
 40
0.0
 40
0.0
 40
1.0
 40
1.0
 40
1.0
 40
2.0
 40
2.0
 40
2.0
 40
3.0
 40
3.0
 40
3.0
 40
4.0
 40
4.0
 40
4.0
 40
5.0
 40
5.0
 40
5.0
 40
6.0
 40
6.0
 40
6.0
 40
7.0
 40
7.0
 40
7.0
 40
7.0
 10
110.1875894906823
 20
-141.5470879094917
 10
110.1875894906823
 20
-141.5470879094917
 10
110.1875894906823
 20
-140.4427625516948
 10
110.1875894906823
 20
-140.4427625516948
 10
110.1875894906823
 20
-140.4427625516948
 10
109.8351562225412
 20
-140.4427625516948
 10
109.8351562225412
 20
-140.4427625516948
 10
109.8351562225412
 20
-140.4427625516948
 10
109.8351562225412
 20
-140.2947957006034
 10
109.8351562225412
 20
-140.2947957006034
 10
110.1900010575219
 20
-140.2799817900168
 10
110.2396104325095
 20
-140.1170287735645
 10
110.2713053109738
 20
-140.0028238582284
 10
110.2713053109738
 20
-140.0028238582284
 10
110.4273681364556
 20
-140.0028238582284
 10
110.4273681364556
 20
-140.0028238582284
 10
110.4273681364556
 20
-140.0028238582284
 10
110.4273681364556
 20
-141.5470879094917
 10
110.4273681364556
 20
-141.5470879094917
 10
110.4273681364556
 20
-141.5470879094917
 10
110.1875894906823
 20
-141.5470879094917
 10
110.1875894906823
 20
-141.5470879094917
 97
        0
 97
        1
330
B3
 75
     2
 76
     1
 98
        1
 10
0.0
 20
0.0
450
        0
451
        0
460
0.0
461
0.0
452
        0
462
0.0
453
        0
470

  0
SPLINE
  5
B5
330
AF
100
AcDbEntity
  8
レイヤー 1
100
AcDbSpline
210
0.0
220
0.0
230
1.0
 70
     9
 71
     3
 72
    17
 73
    13
 74
     0
 42
0.0000000001
 43
0.0000000001
 40
0.0
 40
0.0
 40
0.0
 40
0.0
 40
1.0
 40
1.0
 40
1.0
 40
2.0
 40
2.0
 40
2.0
 40
3.0
 40
3.0
 40
3.0
 40
4.0
 40
4.0
 40
4.0
 40
4.0
 10
111.4974147941742
 20
-140.1466565947376
 30
0.0
 10
111.2307644036159
 20
-140.1466565947376
 30
0.0
 10
111.1811550286283
 20
-140.4301879531737
 30
0.0
 10
111.1811550286283
 20
-140.7750420112472
 30
0.0
 10
111.1811550286283
 20
-141.0944023627298
 30
0.0
 10
111.2193955885146
 20
-141.4030829182082
 30
0.0
 10
111.4974147941742
 20
-141.4030829182082
 30
0.0
 10
111.7619981274414
 20
-141.4030829182082
 30
0.0
 10
111.8140190692687
 20
-141.1219631266119
 30
0.0
 10
111.8140190692687
 20
-140.7750420112472
 30
0.0
 10
111.8140190692687
 20
-140.4555094049903
 30
0.0
 10
111.7733669425428
 20
-140.1466565947376
 30
0.0
 10
111.4974147941742
 20
-140.1466565947376
 30
0.0
  0
SPLINE
  5
B6
330
AF
100
AcDbEntity
  8
レイヤー 1
100
AcDbSpline
210
0.0
220
0.0
230
1.0
 70
     9
 71
     3
 72
    29
 73
    25
 74
     0
 42
0.0000000001
 43
0.0000000001
 40
0.0
 40
0.0
 40
0.0
 40
0.0
 40
1.0
 40
1.0
 40
1.0
 40
2.0
 40
2.0
 40
2.0
 40
3.0
 40
3.0
 40
3.0
 40
4.0
 40
4.0
 40
4.0
 40
5.0
 40
5.0
 40
5.0
 40
6.0
 40
6.0
 40
6.0
 40
7.0
 40
7.0
 40
7.0
 40
8.0
 40
8.0
 40
8.0
 40
8.0
 10
111.9225395770541
 20
-141.3693209824528
 30
0.0
 10
111.8071288782982
 20
-141.578782787956
 30
0.0
 10
111.6217827411918
 20
-141.5977308131249
 30
0.0
 10
111.4974147941742
 20
-141.5977308131249
 30
0.0
 10
111.3258490390088
 20
-141.5977308131249
 30
0.0
 10
111.1742648376578
 20
-141.551222024074
 30
0.0
 10
111.0726345208429
 20
-141.3693209824528
 30
0.0
 10
110.9617024462179
 20
-141.1746730875362
 30
0.0
 10
110.9413763828549
 20
-140.9379950276995
 30
0.0
 10
110.9413763828549
 20
-140.7750420112472
 30
0.0
 10
110.9413763828549
 20
-140.6310370199638
 30
0.0
 10
110.9592908793782
 20
-140.3793727947663
 30
0.0
 10
111.0726345208429
 20
-140.180418530493
 30
0.0
 10
111.1877007100503
 20
-139.9773301516376
 30
0.0
 10
111.3596109747643
 20
-139.9540757571122
 30
0.0
 10
111.4974147941742
 20
-139.9540757571122
 30
0.0
 10
111.667258001597
 20
-139.9540757571122
 30
0.0
 10
111.8209092602392
 20
-139.9985174888719
 30
0.0
 10
111.9225395770541
 20
-140.180418530493
 30
0.0
 10
112.0289930275483
 20
-140.3729993681186
 30
0.0
 10
112.0537977150421
 20
-140.6014091987906
 30
0.0
 10
112.0537977150421
 20
-140.7750420112472
 30
0.0
 10
112.0537977150421
 20
-140.9462632568641
 30
0.0
 10
112.0310600848394
 20
-141.1767401448273
 30
0.0
 10
111.9225395770541
 20
-141.3693209824528
 30
0.0
  0
HATCH
  5
B7
330
AF
100
AcDbEntity
  8
レイヤー 1
 62
   250
420
  2299925
440
 33554687
100
AcDbHatch
 10
0.0
 20
0.0
 30
0.0
210
0.0
220
0.0
230
1.0
  2
SOLID
 70
     1
 71
     1
 91
        2
 92
        1
 93
        1
 72
     4
 94
        3
 73
     0
 74
     0
 95
       17
 96
       13
 40
0.0
 40
0.0
 40
0.0
 40
0.0
 40
1.0
 40
1.0
 40
1.0
 40
2.0
 40
2.0
 40
2.0
 40
3.0
 40
3.0
 40
3.0
 40
4.0
 40
4.0
 40
4.0
 40
4.0
 10
111.4974147941742
 20
-140.1466565947376
 10
111.2307644036159
 20
-140.1466565947376
 10
111.1811550286283
 20
-140.4301879531737
 10
111.1811550286283
 20
-140.7750420112472
 10
111.1811550286283
 20
-141.0944023627298
 10
111.2193955885146
 20
-141.4030829182082
 10
111.4974147941742
 20
-141.4030829182082
 10
111.7619981274414
 20
-141.4030829182082
 10
111.8140190692687
 20
-141.1219631266119
 10
111.8140190692687
 20
-140.7750420112472
 10
111.8140190692687
 20
-140.4555094049903
 10
111.7733669425428
 20
-140.1466565947376
 10
111.4974147941742
 20
-140.1466565947376
 97
        0
 97
        1
330
B5
 92
        1
 93
        1
 72
     4
 94
        3
 73
     0
 74
     0
 95
       29
 96
       25
 40
0.0
 40
0.0
 40
0.0
 40
0.0
 40
1.0
 40
1.0
 40
1.0
 40
2.0
 40
2.0
 40
2.0
 40
3.0
 40
3.0
 40
3.0
 40
4.0
 40
4.0
 40
4.0
 40
5.0
 40
5.0
 40
5.0
 40
6.0
 40
6.0
 40
6.0
 40
7.0
 40
7.0
 40
7.0
 40
8.0
 40
8.0
 40
8.0
 40
8.0
 10
111.9225395770541
 20
-141.3693209824528
 10
111.8071288782982
 20
-141.578782787956
 10
111.6217827411918
 20
-141.5977308131249
 10
111.4974147941742
 20
-141.5977308131249
 10
111.3258490390088
 20
-141.5977308131249
 10
111.1742648376578
 20
-141.551222024074
 10
111.0726345208429
 20
-141.3693209824528
 10
110.9617024462179
 20
-141.1746730875362
 10
110.9413763828549
 20
-140.9379950276995
 10
110.9413763828549
 20
-140.7750420112472
 10
110.9413763828549
 20
-140.6310370199638
 10
110.9592908793782
 20
-140.3793727947663
 10
111.0726345208429
 20
-140.180418530493
 10
111.1877007100503
 20
-139.9773301516376
 10
111.3596109747643
 20
-139.9540757571122
 10
111.4974147941742
 20
-139.9540757571122
 10
111.667258001597
 20
-139.9540757571122
 10
111.8209092602392
 20
-139.9985174888719
 10
111.9225395770541
 20
-140.180418530493
 10
112.0289930275483
 20
-140.3729993681186
 10
112.0537977150421
 20
-140.6014091987906
 10
112.0537977150421
 20
-140.7750420112472
 10
112.0537977150421
 20
-140.9462632568641
 10
112.0310600848394
 20
-141.1767401448273
 10
111.9225395770541
 20
-141.3693209824528
 97
        0
 97
        1
330
B6
 75
     2
 76
     1
 98
        1
 10
0.0
 20
0.0
450
        0
451
        0
460
0.0
461
0.0
452
        0
462
0.0
453
        0
470

  0
ENDBLK
  5
B2
330
AF
100
AcDbEntity
  8
0
100
AcDbBlockEnd
  0
BLOCK
  5
BB
330
B9
100
AcDbEntity
  8
0
100
AcDbBlockBegin
  2
Block_6
 70
     0
 10
0.0
 20
0.0
 30
0.0
  3
Block_6
  1

  0
INSERT
  5
BE
330
B9
100
AcDbEntity
  8
レイヤー 1
100
AcDbBlockReference
  2
Block_7
 10
0.0
 20
0.0
 30
0.0
  0
ENDBLK
  5
BC
330
B9
100
AcDbEntity
  8
0
100
AcDbBlockEnd
  0
BLOCK
  5
BF
330
BD
100
AcDbEntity
  8
0
100
AcDbBlockBegin
  2
Block_7
 70
     0
 10
0.0
 20
0.0
 30
0.0
  3
Block_7
  1

  0
SPLINE
  5
C1
330
BD
100
AcDbEntity
  8
レイヤー 1
100
AcDbSpline
210
0.0
220
0.0
230
1.0
 70
     9
 71
     3
 72
    17
 73
    13
 74
     0
 42
0.0000000001
 43
0.0000000001
 40
0.0
 40
0.0
 40
0.0
 40
0.0
 40
1.0
 40
1.0
 40
1.0
 40
2.0
 40
2.0
 40
2.0
 40
3.0
 40
3.0
 40
3.0
 40
4.0
 40
4.0
 40
4.0
 40
4.0
 10
100.187166316099
 20
-140.1466565947376
 30
0.0
 10
100.0603868022418
 20
-140.1466565947376
 30
0.0
 10
99.87297360784426
 20
-140.2036729250185
 30
0.0
 10
99.87297360784426
 20
-140.4892713407457
 30
0.0
 10
99.87297360784426
 20
-140.7156141141266
 30
0.0
 10
100.0221462423555
 20
-140.8108710042938
 30
0.0
 10
100.1668402527361
 20
-140.8108710042938
 30
0.0
 10
100.4469265156868
 20
-140.8108710042938
 30
0.0
 10
100.4879231519613
 20
-140.6014091987906
 30
0.0
 10
100.4879231519613
 20
-140.4851372261634
 30
0.0
 10
100.4879231519613
 20
-140.3094373564157
 30
0.0
 10
100.3859483255979
 20
-140.1466565947376
 30
0.0
 10
100.187166316099
 20
-140.1466565947376
 30
0.0
  0
SPLINE
  5
C2
330
BD
100
AcDbEntity
  8
レイヤー 1
100
AcDbSpline
210
0.0
220
0.0
230
1.0
 70
     9
 71
     3
 72
    32
 73
    28
 74
     0
 42
0.0000000001
 43
0.0000000001
 40
0.0
 40
0.0
 40
0.0
 40
0.0
 40
1.0
 40
1.0
 40
1.0
 40
2.0
 40
2.0
 40
2.0
 40
3.0
 40
3.0
 40
3.0
 40
4.0
 40
4.0
 40
4.0
 40
5.0
 40
5.0
 40
5.0
 40
6.0
 40
6.0
 40
6.0
 40
7.0
 40
7.0
 40
7.0
 40
8.0
 40
8.0
 40
8.0
 40
9.0
 40
9.0
 40
9.0
 40
9.0
 10
100.1441026225334
 20
-141.5977308131249
 30
0.0
 10
99.958756485427
 20
-141.5977308131249
 30
0.0
 10
99.69658471899947
 20
-141.5281398843228
 30
0.0
 10
99.65593259227352
 20
-141.1960326795447
 30
0.0
 10
99.65593259227352
 20
-141.1960326795447
 30
0.0
 10
99.88399791339707
 20
-141.1960326795447
 30
0.0
 10
99.88399791339707
 20
-141.1960326795447
 30
0.0
 10
99.89536672849839
 20
-141.255288321891
 30
0.0
 10
99.92947317380236
 20
-141.4030829182082
 30
0.0
 10
100.1465141893731
 20
-141.4030829182082
 30
0.0
 10
100.4582953307882
 20
-141.4030829182082
 30
0.0
 10
100.4989474575141
 20
-141.0730427707213
 30
0.0
 10
100.5127278394551
 20
-140.868059589349
 30
0.0
 10
100.4155761467711
 20
-140.9483303141553
 30
0.0
 10
100.3432291415808
 20
-141.0055188992104
 30
0.0
 10
100.1485812466642
 20
-141.0055188992104
 30
0.0
 10
99.9563449185873
 20
-141.0055188992104
 30
0.0
 10
99.63319496207088
 20
-140.8997544678132
 30
0.0
 10
99.63319496207088
 20
-140.4935777101023
 30
0.0
 10
99.63319496207088
 20
-140.1740451038453
 30
0.0
 10
99.84575735351079
 20
-139.9540757571122
 30
0.0
 10
100.1847547492593
 20
-139.9540757571122
 30
0.0
 10
100.7342474791567
 20
-139.9540757571122
 30
0.0
 10
100.745616294258
 20
-140.5083916206889
 30
0.0
 10
100.745616294258
 20
-140.7219875407743
 30
0.0
 10
100.745616294258
 20
-140.9524644287376
 30
0.0
 10
100.725290230895
 20
-141.5977308131249
 30
0.0
 10
100.1441026225334
 20
-141.5977308131249
 30
0.0
  0
HATCH
  5
C3
330
BD
100
AcDbEntity
  8
レイヤー 1
 62
   250
420
  2299925
440
 33554687
100
AcDbHatch
 10
0.0
 20
0.0
 30
0.0
210
0.0
220
0.0
230
1.0
  2
SOLID
 70
     1
 71
     1
 91
        2
 92
        1
 93
        1
 72
     4
 94
        3
 73
     0
 74
     0
 95
       17
 96
       13
 40
0.0
 40
0.0
 40
0.0
 40
0.0
 40
1.0
 40
1.0
 40
1.0
 40
2.0
 40
2.0
 40
2.0
 40
3.0
 40
3.0
 40
3.0
 40
4.0
 40
4.0
 40
4.0
 40
4.0
 10
100.187166316099
 20
-140.1466565947376
 10
100.0603868022418
 20
-140.1466565947376
 10
99.87297360784426
 20
-140.2036729250185
 10
99.87297360784426
 20
-140.4892713407457
 10
99.87297360784426
 20
-140.7156141141266
 10
100.0221462423555
 20
-140.8108710042938
 10
100.1668402527361
 20
-140.8108710042938
 10
100.4469265156868
 20
-140.8108710042938
 10
100.4879231519613
 20
-140.6014091987906
 10
100.4879231519613
 20
-140.4851372261634
 10
100.4879231519613
 20
-140.3094373564157
 10
100.3859483255979
 20
-140.1466565947376
 10
100.187166316099
 20
-140.1466565947376
 97
        0
 97
        1
330
C1
 92
        1
 93
        1
 72
     4
 94
        3
 73
     0
 74
     0
 95
       32
 96
       28
 40
0.0
 40
0.0
 40
0.0
 40
0.0
 40
1.0
 40
1.0
 40
1.0
 40
2.0
 40
2.0
 40
2.0
 40
3.0
 40
3.0
 40
3.0
 40
4.0
 40
4.0
 40
4.0
 40
5.0
 40
5.0
 40
5.0
 40
6.0
 40
6.0
 40
6.0
 40
7.0
 40
7.0
 40
7.0
 40
8.0
 40
8.0
 40
8.0
 40
9.0
 40
9.0
 40
9.0
 40
9.0
 10
100.1441026225334
 20
-141.5977308131249
 10
99.958756485427
 20
-141.5977308131249
 10
99.69658471899947
 20
-141.5281398843228
 10
99.65593259227352
 20
-141.1960326795447
 10
99.65593259227352
 20
-141.1960326795447
 10
99.88399791339707
 20
-141.1960326795447
 10
99.88399791339707
 20
-141.1960326795447
 10
99.89536672849839
 20
-141.255288321891
 10
99.92947317380236
 20
-141.4030829182082
 10
100.1465141893731
 20
-141.4030829182082
 10
100.4582953307882
 20
-141.4030829182082
 10
100.4989474575141
 20
-141.0730427707213
 10
100.5127278394551
 20
-140.868059589349
 10
100.4155761467711
 20
-140.9483303141553
 10
100.3432291415808
 20
-141.0055188992104
 10
100.1485812466642
 20
-141.0055188992104
 10
99.9563449185873
 20
-141.0055188992104
 10
99.63319496207088
 20
-140.8997544678132
 10
99.63319496207088
 20
-140.4935777101023
 10
99.63319496207088
 20
-140.1740451038453
 10
99.84575735351079
 20
-139.9540757571122
 10
100.1847547492593
 20
-139.9540757571122
 10
100.7342474791567
 20
-139.9540757571122
 10
100.745616294258
 20
-140.5083916206889
 10
100.745616294258
 20
-140.7219875407743
 10
100.745616294258
 20
-140.9524644287376
 10
100.725290230895
 20
-141.5977308131249
 10
100.1441026225334
 20
-141.5977308131249
 97
        0
 97
        1
330
C2
 75
     2
 76
     1
 98
        1
 10
0.0
 20
0.0
450
        0
451
        0
460
0.0
461
0.0
452
        0
462
0.0
453
        0
470

  0
SPLINE
  5
C4
330
BD
100
AcDbEntity
  8
レイヤー 1
100
AcDbSpline
210
0.0
220
0.0
230
1.0
 70
    11
 71
     3
 72
    17
 73
    13
 74
     0
 42
0.0000000001
 43
0.0000000001
 40
0.0
 40
0.0
 40
0.0
 40
0.0
 40
1.0
 40
1.0
 40
1.0
 40
2.0
 40
2.0
 40
2.0
 40
3.0
 40
3.0
 40
3.0
 40
4.0
 40
4.0
 40
4.0
 40
4.0
 10
100.9767822013183
 20
-141.5470879094917
 30
0.0
 10
100.9767822013183
 20
-141.5470879094917
 30
0.0
 10
100.9767822013183
 20
-141.2952514295199
 30
0.0
 10
100.9767822013183
 20
-141.2952514295199
 30
0.0
 10
100.9767822013183
 20
-141.2952514295199
 30
0.0
 10
101.2458441587163
 20
-141.2952514295199
 30
0.0
 10
101.2458441587163
 20
-141.2952514295199
 30
0.0
 10
101.2458441587163
 20
-141.2952514295199
 30
0.0
 10
101.2458441587163
 20
-141.5470879094917
 30
0.0
 10
101.2458441587163
 20
-141.5470879094917
 30
0.0
 10
101.2458441587163
 20
-141.5470879094917
 30
0.0
 10
100.9767822013183
 20
-141.5470879094917
 30
0.0
 10
100.9767822013183
 20
-141.5470879094917
 30
0.0
  0
HATCH
  5
C5
330
BD
100
AcDbEntity
  8
レイヤー 1
 62
   250
420
  2299925
440
 33554687
100
AcDbHatch
 10
0.0
 20
0.0
 30
0.0
210
0.0
220
0.0
230
1.0
  2
SOLID
 70
     1
 71
     1
 91
        1
 92
        1
 93
        1
 72
     4
 94
        3
 73
     0
 74
     0
 95
       17
 96
       13
 40
0.0
 40
0.0
 40
0.0
 40
0.0
 40
1.0
 40
1.0
 40
1.0
 40
2.0
 40
2.0
 40
2.0
 40
3.0
 40
3.0
 40
3.0
 40
4.0
 40
4.0
 40
4.0
 40
4.0
 10
100.9767822013183
 20
-141.5470879094917
 10
100.9767822013183
 20
-141.5470879094917
 10
100.9767822013183
 20
-141.2952514295199
 10
100.9767822013183
 20
-141.2952514295199
 10
100.9767822013183
 20
-141.2952514295199
 10
101.2458441587163
 20
-141.2952514295199
 10
101.2458441587163
 20
-141.2952514295199
 10
101.2458441587163
 20
-141.2952514295199
 10
101.2458441587163
 20
-141.5470879094917
 10
101.2458441587163
 20
-141.5470879094917
 10
101.2458441587163
 20
-141.5470879094917
 10
100.9767822013183
 20
-141.5470879094917
 10
100.9767822013183
 20
-141.5470879094917
 97
        0
 97
        1
330
C4
 75
     2
 76
     1
 98
        1
 10
0.0
 20
0.0
450
        0
451
        0
460
0.0
461
0.0
452
        0
462
0.0
453
        0
470

  0
SPLINE
  5
C6
330
BD
100
AcDbEntity
  8
レイヤー 1
100
AcDbSpline
210
0.0
220
0.0
230
1.0
 70
     9
 71
     3
 72
    17
 73
    13
 74
     0
 42
0.0000000001
 43
0.0000000001
 40
0.0
 40
0.0
 40
0.0
 40
0.0
 40
1.0
 40
1.0
 40
1.0
 40
2.0
 40
2.0
 40
2.0
 40
3.0
 40
3.0
 40
3.0
 40
4.0
 40
4.0
 40
4.0
 40
4.0
 10
102.0330484770959
 20
-140.1466565947376
 30
0.0
 10
101.8566595882511
 20
-140.1466565947376
 30
0.0
 10
101.7663980865376
 20
-140.2417412301305
 30
0.0
 10
101.7663980865376
 20
-140.3771334827008
 30
0.0
 10
101.7663980865376
 20
-140.49995113675
 30
0.0
 10
101.8432237158586
 20
-140.6184624214426
 30
0.0
 10
102.0330484770959
 20
-140.6184624214426
 30
0.0
 10
102.2232177478817
 20
-140.6184624214426
 30
0.0
 10
102.3000433772027
 20
-140.49995113675
 30
0.0
 10
102.3000433772027
 20
-140.3771334827008
 30
0.0
 10
102.3000433772027
 20
-140.2417412301305
 30
0.0
 10
102.2073703086495
 20
-140.1466565947376
 30
0.0
 10
102.0330484770959
 20
-140.1466565947376
 30
0.0
  0
SPLINE
  5
C7
330
BD
100
AcDbEntity
  8
レイヤー 1
100
AcDbSpline
210
0.0
220
0.0
230
1.0
 70
     9
 71
     3
 72
    17
 73
    13
 74
     0
 42
0.0000000001
 43
0.0000000001
 40
0.0
 40
0.0
 40
0.0
 40
0.0
 40
1.0
 40
1.0
 40
1.0
 40
2.0
 40
2.0
 40
2.0
 40
3.0
 40
3.0
 40
3.0
 40
4.0
 40
4.0
 40
4.0
 40
4.0
 10
102.0330484770959
 20
-140.8067368897115
 30
0.0
 10
101.8793972184537
 20
-140.8067368897115
 30
0.0
 10
101.71678871155
 20
-140.8935532959398
 30
0.0
 10
101.71678871155
 20
-141.096469420021
 30
0.0
 10
101.71678871155
 20
-141.3017971109419
 30
0.0
 10
101.8521809641203
 20
-141.4030829182082
 30
0.0
 10
102.0330484770959
 20
-141.4030829182082
 30
0.0
 10
102.2321749961433
 20
-141.4030829182082
 30
0.0
 10
102.3496527521903
 20
-141.2804375189334
 30
0.0
 10
102.3496527521903
 20
-141.1026705918945
 30
0.0
 10
102.3496527521903
 20
-140.8808064426444
 30
0.0
 10
102.1756754301852
 20
-140.8067368897115
 30
0.0
 10
102.0330484770959
 20
-140.8067368897115
 30
0.0
  0
SPLINE
  5
C8
330
BD
100
AcDbEntity
  8
レイヤー 1
100
AcDbSpline
210
0.0
220
0.0
230
1.0
 70
     9
 71
     3
 72
    29
 73
    25
 74
     0
 42
0.0000000001
 43
0.0000000001
 40
0.0
 40
0.0
 40
0.0
 40
0.0
 40
1.0
 40
1.0
 40
1.0
 40
2.0
 40
2.0
 40
2.0
 40
3.0
 40
3.0
 40
3.0
 40
4.0
 40
4.0
 40
4.0
 40
5.0
 40
5.0
 40
5.0
 40
6.0
 40
6.0
 40
6.0
 40
7.0
 40
7.0
 40
7.0
 40
8.0
 40
8.0
 40
8.0
 40
8.0
 10
102.0330484770959
 20
-141.5977308131249
 30
0.0
 10
101.7484835900142
 20
-141.5977308131249
 30
0.0
 10
101.4770100657766
 20
-141.4602715032634
 30
0.0
 10
101.4770100657766
 20
-141.1112833306076
 30
0.0
 10
101.4770100657766
 20
-140.8553127360535
 30
0.0
 10
101.6285942671276
 20
-140.7602281006606
 30
0.0
 10
101.7415933990438
 20
-140.6987331462489
 30
0.0
 10
101.6082682037646
 20
-140.6394775039026
 30
0.0
 10
101.5266194407641
 20
-140.5252725885666
 30
0.0
 10
101.5266194407641
 20
-140.3645588841797
 30
0.0
 10
101.5266194407641
 20
-140.0894680096825
 30
0.0
 10
101.7391818322041
 20
-139.9540757571122
 30
0.0
 10
102.0330484770959
 20
-139.9540757571122
 30
0.0
 10
102.3362168797979
 20
-139.9540757571122
 30
0.0
 10
102.5394775134276
 20
-140.0979084936213
 30
0.0
 10
102.5394775134276
 20
-140.3645588841797
 30
0.0
 10
102.5394775134276
 20
-140.5252725885666
 30
0.0
 10
102.4561062026846
 20
-140.6394775039026
 30
0.0
 10
102.3224364978569
 20
-140.6987331462489
 30
0.0
 10
102.4175211332498
 20
-140.7495483046564
 30
0.0
 10
102.5870198311241
 20
-140.8446329400492
 30
0.0
 10
102.5870198311241
 20
-141.1071492160253
 30
0.0
 10
102.5870198311241
 20
-141.4816310952719
 30
0.0
 10
102.2886745621014
 20
-141.5977308131249
 30
0.0
 10
102.0330484770959
 20
-141.5977308131249
 30
0.0
  0
HATCH
  5
C9
330
BD
100
AcDbEntity
  8
レイヤー 1
 62
   250
420
  2299925
440
 33554687
100
AcDbHatch
 10
0.0
 20
0.0
 30
0.0
210
0.0
220
0.0
230
1.0
  2
SOLID
 70
     1
 71
     1
 91
        3
 92
        1
 93
        1
 72
     4
 94
        3
 73
     0
 74
     0
 95
       17
 96
       13
 40
0.0
 40
0.0
 40
0.0
 40
0.0
 40
1.0
 40
1.0
 40
1.0
 40
2.0
 40
2.0
 40
2.0
 40
3.0
 40
3.0
 40
3.0
 40
4.0
 40
4.0
 40
4.0
 40
4.0
 10
102.0330484770959
 20
-140.1466565947376
 10
101.8566595882511
 20
-140.1466565947376
 10
101.7663980865376
 20
-140.2417412301305
 10
101.7663980865376
 20
-140.3771334827008
 10
101.7663980865376
 20
-140.49995113675
 10
101.8432237158586
 20
-140.6184624214426
 10
102.0330484770959
 20
-140.6184624214426
 10
102.2232177478817
 20
-140.6184624214426
 10
102.3000433772027
 20
-140.49995113675
 10
102.3000433772027
 20
-140.3771334827008
 10
102.3000433772027
 20
-140.2417412301305
 10
102.2073703086495
 20
-140.1466565947376
 10
102.0330484770959
 20
-140.1466565947376
 97
        0
 97
        1
330
C6
 92
        1
 93
        1
 72
     4
 94
        3
 73
     0
 74
     0
 95
       17
 96
       13
 40
0.0
 40
0.0
 40
0.0
 40
0.0
 40
1.0
 40
1.0
 40
1.0
 40
2.0
 40
2.0
 40
2.0
 40
3.0
 40
3.0
 40
3.0
 40
4.0
 40
4.0
 40
4.0
 40
4.0
 10
102.0330484770959
 20
-140.8067368897115
 10
101.8793972184537
 20
-140.8067368897115
 10
101.71678871155
 20
-140.8935532959398
 10
101.71678871155
 20
-141.096469420021
 10
101.71678871155
 20
-141.3017971109419
 10
101.8521809641203
 20
-141.4030829182082
 10
102.0330484770959
 20
-141.4030829182082
 10
102.2321749961433
 20
-141.4030829182082
 10
102.3496527521903
 20
-141.2804375189334
 10
102.3496527521903
 20
-141.1026705918945
 10
102.3496527521903
 20
-140.8808064426444
 10
102.1756754301852
 20
-140.8067368897115
 10
102.0330484770959
 20
-140.8067368897115
 97
        0
 97
        1
330
C7
 92
        1
 93
        1
 72
     4
 94
        3
 73
     0
 74
     0
 95
       29
 96
       25
 40
0.0
 40
0.0
 40
0.0
 40
0.0
 40
1.0
 40
1.0
 40
1.0
 40
2.0
 40
2.0
 40
2.0
 40
3.0
 40
3.0
 40
3.0
 40
4.0
 40
4.0
 40
4.0
 40
5.0
 40
5.0
 40
5.0
 40
6.0
 40
6.0
 40
6.0
 40
7.0
 40
7.0
 40
7.0
 40
8.0
 40
8.0
 40
8.0
 40
8.0
 10
102.0330484770959
 20
-141.5977308131249
 10
101.7484835900142
 20
-141.5977308131249
 10
101.4770100657766
 20
-141.4602715032634
 10
101.4770100657766
 20
-141.1112833306076
 10
101.4770100657766
 20
-140.8553127360535
 10
101.6285942671276
 20
-140.7602281006606
 10
101.7415933990438
 20
-140.6987331462489
 10
101.6082682037646
 20
-140.6394775039026
 10
101.5266194407641
 20
-140.5252725885666
 10
101.5266194407641
 20
-140.3645588841797
 10
101.5266194407641
 20
-140.0894680096825
 10
101.7391818322041
 20
-139.9540757571122
 10
102.0330484770959
 20
-139.9540757571122
 10
102.3362168797979
 20
-139.9540757571122
 10
102.5394775134276
 20
-140.0979084936213
 10
102.5394775134276
 20
-140.3645588841797
 10
102.5394775134276
 20
-140.5252725885666
 10
102.4561062026846
 20
-140.6394775039026
 10
102.3224364978569
 20
-140.6987331462489
 10
102.4175211332498
 20
-140.7495483046564
 10
102.5870198311241
 20
-140.8446329400492
 10
102.5870198311241
 20
-141.1071492160253
 10
102.5870198311241
 20
-141.4816310952719
 10
102.2886745621014
 20
-141.5977308131249
 10
102.0330484770959
 20
-141.5977308131249
 97
        0
 97
        1
330
C8
 75
     2
 76
     1
 98
        1
 10
0.0
 20
0.0
450
        0
451
        0
460
0.0
461
0.0
452
        0
462
0.0
453
        0
470

  0
ENDBLK
  5
C0
330
BD
100
AcDbEntity
  8
0
100
AcDbBlockEnd
  0
BLOCK
  5
D0
330
CE
100
AcDbEntity
  8
0
100
AcDbBlockBegin
  2
Block_8
 70
     0
 10
0.0
 20
0.0
 30
0.0
  3
Block_8
  1

  0
SPLINE
  5
D2
330
CE
100
AcDbEntity
  8
レイヤー 1
100
AcDbSpline
210
0.0
220
0.0
230
1.0
 70
    11
 71
     3
 72
    26
 73
    22
 74
     0
 42
0.0000000001
 43
0.0000000001
 40
0.0
 40
0.0
 40
0.0
 40
0.0
 40
1.0
 40
1.0
 40
1.0
 40
2.0
 40
2.0
 40
2.0
 40
3.0
 40
3.0
 40
3.0
 40
4.0
 40
4.0
 40
4.0
 40
5.0
 40
5.0
 40
5.0
 40
6.0
 40
6.0
 40
6.0
 40
7.0
 40
7.0
 40
7.0
 40
7.0
 10
99.0544189205489
 20
-163.5448838566832
 30
0.0
 10
99.0544189205489
 20
-163.5448838566832
 30
0.0
 10
99.0544189205489
 20
-162.4407307536606
 30
0.0
 10
99.0544189205489
 20
-162.4407307536606
 30
0.0
 10
99.0544189205489
 20
-162.4407307536606
 30
0.0
 10
98.70164114285932
 20
-162.4407307536606
 30
0.0
 10
98.70164114285932
 20
-162.4407307536606
 30
0.0
 10
98.70164114285932
 20
-162.4407307536606
 30
0.0
 10
98.70164114285932
 20
-162.2925916477949
 30
0.0
 10
98.70164114285932
 20
-162.2925916477949
 30
0.0
 10
99.05665823261431
 20
-162.2777777372083
 30
0.0
 10
99.10643986237618
 20
-162.114824720756
 30
0.0
 10
99.13813474084047
 20
-162.0004475506457
 30
0.0
 10
99.13813474084047
 20
-162.0004475506457
 30
0.0
 10
99.29402531154803
 20
-162.0004475506457
 30
0.0
 10
99.29402531154803
 20
-162.0004475506457
 30
0.0
 10
99.29402531154803
 20
-162.0004475506457
 30
0.0
 10
99.29402531154803
 20
-163.5448838566832
 30
0.0
 10
99.29402531154803
 20
-163.5448838566832
 30
0.0
 10
99.29402531154803
 20
-163.5448838566832
 30
0.0
 10
99.0544189205489
 20
-163.5448838566832
 30
0.0
 10
99.0544189205489
 20
-163.5448838566832
 30
0.0
  0
HATCH
  5
D3
330
CE
100
AcDbEntity
  8
レイヤー 1
 62
   250
420
  2299925
440
 33554687
100
AcDbHatch
 10
0.0
 20
0.0
 30
0.0
210
0.0
220
0.0
230
1.0
  2
SOLID
 70
     1
 71
     1
 91
        1
 92
        1
 93
        1
 72
     4
 94
        3
 73
     0
 74
     0
 95
       26
 96
       22
 40
0.0
 40
0.0
 40
0.0
 40
0.0
 40
1.0
 40
1.0
 40
1.0
 40
2.0
 40
2.0
 40
2.0
 40
3.0
 40
3.0
 40
3.0
 40
4.0
 40
4.0
 40
4.0
 40
5.0
 40
5.0
 40
5.0
 40
6.0
 40
6.0
 40
6.0
 40
7.0
 40
7.0
 40
7.0
 40
7.0
 10
99.0544189205489
 20
-163.5448838566832
 10
99.0544189205489
 20
-163.5448838566832
 10
99.0544189205489
 20
-162.4407307536606
 10
99.0544189205489
 20
-162.4407307536606
 10
99.0544189205489
 20
-162.4407307536606
 10
98.70164114285932
 20
-162.4407307536606
 10
98.70164114285932
 20
-162.4407307536606
 10
98.70164114285932
 20
-162.4407307536606
 10
98.70164114285932
 20
-162.2925916477949
 10
98.70164114285932
 20
-162.2925916477949
 10
99.05665823261431
 20
-162.2777777372083
 10
99.10643986237618
 20
-162.114824720756
 10
99.13813474084047
 20
-162.0004475506457
 10
99.13813474084047
 20
-162.0004475506457
 10
99.29402531154803
 20
-162.0004475506457
 10
99.29402531154803
 20
-162.0004475506457
 10
99.29402531154803
 20
-162.0004475506457
 10
99.29402531154803
 20
-163.5448838566832
 10
99.29402531154803
 20
-163.5448838566832
 10
99.29402531154803
 20
-163.5448838566832
 10
99.0544189205489
 20
-163.5448838566832
 10
99.0544189205489
 20
-163.5448838566832
 97
        0
 97
        1
330
D2
 75
     2
 76
     1
 98
        1
 10
0.0
 20
0.0
450
        0
451
        0
460
0.0
461
0.0
452
        0
462
0.0
453
        0
470

  0
ENDBLK
  5
D1
330
CE
100
AcDbEntity
  8
0
100
AcDbBlockEnd
  0
BLOCK
  5
D8
330
D6
100
AcDbEntity
  8
0
100
AcDbBlockBegin
  2
Block_9
 70
     0
 10
0.0
 20
0.0
 30
0.0
  3
Block_9
  1

  0
LINE
  5
DA
330
D6
100
AcDbEntity
  8
レイヤー 1
 62
   250
420
  2299925
370
     9
100
AcDbLine
 10
107.9111698711556
 20
-135.0430064179064
 30
0.0
 11
110.746999296599
 21
-132.809325397702
 31
0.0
  0
LWPOLYLINE
  5
DB
330
D6
100
AcDbEntity
  8
レイヤー 1
 62
   250
420
  2299925
370
     9
100
AcDbPolyline
 90
        3
 70
     0
 43
0.0
 10
108.503502764769
 20
-134.2370796049064
 10
107.9111698711556
 20
-135.0430064179064
 10
108.8269760597234
 20
-134.6409137207485
  0
ENDBLK
  5
D9
330
D6
100
AcDbEntity
  8
0
100
AcDbBlockEnd
  0
BLOCK
  5
DE
330
DC
100
AcDbEntity
  8
0
100
AcDbBlockBegin
  2
Block_10
 70
     0
 10
0.0
 20
0.0
 30
0.0
  3
Block_10
  1

  0
INSERT
  5
E1
330
DC
100
AcDbEntity
  8
レイヤー 1
100
AcDbBlockReference
  2
Block_11
 10
0.0
 20
0.0
 30
0.0
  0
ENDBLK
  5
DF
330
DC
100
AcDbEntity
  8
0
100
AcDbBlockEnd
  0
BLOCK
  5
E2
330
E0
100
AcDbEntity
  8
0
100
AcDbBlockBegin
  2
Block_11
 70
     0
 10
0.0
 20
0.0
 30
0.0
  3
Block_11
  1

  0
SPLINE
  5
E4
330
E0
100
AcDbEntity
  8
レイヤー 1
100
AcDbSpline
210
0.0
220
0.0
230
1.0
 70
     9
 71
     3
 72
    17
 73
    13
 74
     0
 42
0.0000000001
 43
0.0000000001
 40
0.0
 40
0.0
 40
0.0
 40
0.0
 40
1.0
 40
1.0
 40
1.0
 40
2.0
 40
2.0
 40
2.0
 40
3.0
 40
3.0
 40
3.0
 40
4.0
 40
4.0
 40
4.0
 40
4.0
 10
112.3194145769548
 20
-133.0688801750661
 30
0.0
 10
112.3025336090771
 20
-133.098335741465
 30
0.0
 10
112.251890705444
 20
-133.191525574341
 30
0.0
 10
112.2412109094397
 20
-133.2104735995099
 30
0.0
 10
112.431724689774
 20
-133.2697292418562
 30
0.0
 10
112.452739772234
 20
-133.2761026685039
 30
0.0
 10
112.5247422678757
 20
-133.3036634323859
 30
0.0
 10
112.5798637956398
 20
-133.2168470261576
 30
0.0
 10
112.6029459353909
 20
-133.1427774732247
 30
0.0
 10
112.6177598459775
 20
-133.0688801750661
 30
0.0
 10
112.6177598459775
 20
-133.0688801750661
 30
0.0
 10
112.3194145769548
 20
-133.0688801750661
 30
0.0
 10
112.3194145769548
 20
-133.0688801750661
 30
0.0
  0
SPLINE
  5
E5
330
E0
100
AcDbEntity
  8
レイヤー 1
100
AcDbSpline
210
0.0
220
0.0
230
1.0
 70
    11
 71
     3
 72
    20
 73
    16
 74
     0
 42
0.0000000001
 43
0.0000000001
 40
0.0
 40
0.0
 40
0.0
 40
0.0
 40
1.0
 40
1.0
 40
1.0
 40
2.0
 40
2.0
 40
2.0
 40
3.0
 40
3.0
 40
3.0
 40
4.0
 40
4.0
 40
4.0
 40
5.0
 40
5.0
 40
5.0
 40
5.0
 10
112.2560248200263
 20
-132.2184583545322
 30
0.0
 10
112.2560248200263
 20
-132.2184583545322
 30
0.0
 10
112.2243299415619
 20
-132.2184583545322
 30
0.0
 10
112.2243299415619
 20
-132.2184583545322
 30
0.0
 10
112.2708387306128
 20
-132.3178493592816
 30
0.0
 10
112.3025336090771
 20
-132.3981200840879
 30
0.0
 10
112.3362955448326
 20
-132.5250718527194
 30
0.0
 10
112.3362955448326
 20
-132.5250718527194
 30
0.0
 10
112.5436902930446
 20
-132.5250718527194
 30
0.0
 10
112.5436902930446
 20
-132.5250718527194
 30
0.0
 10
112.5753851715089
 20
-132.4320542746177
 30
0.0
 10
112.5988118208086
 20
-132.3474771804548
 30
0.0
 10
112.6218939605598
 20
-132.2184583545322
 30
0.0
 10
112.6218939605598
 20
-132.2184583545322
 30
0.0
 10
112.2560248200263
 20
-132.2184583545322
 30
0.0
 10
112.2560248200263
 20
-132.2184583545322
 30
0.0
  0
SPLINE
  5
E6
330
E0
100
AcDbEntity
  8
レイヤー 1
100
AcDbSpline
210
0.0
220
0.0
230
1.0
 70
     9
 71
     3
 72
   242
 73
   238
 74
     0
 42
0.0000000001
 43
0.0000000001
 40
0.0
 40
0.0
 40
0.0
 40
0.0
 40
1.0
 40
1.0
 40
1.0
 40
2.0
 40
2.0
 40
2.0
 40
3.0
 40
3.0
 40
3.0
 40
4.0
 40
4.0
 40
4.0
 40
5.0
 40
5.0
 40
5.0
 40
6.0
 40
6.0
 40
6.0
 40
7.0
 40
7.0
 40
7.0
 40
8.0
 40
8.0
 40
8.0
 40
9.0
 40
9.0
 40
9.0
 40
10.0
 40
10.0
 40
10.0
 40
11.0
 40
11.0
 40
11.0
 40
12.0
 40
12.0
 40
12.0
 40
13.0
 40
13.0
 40
13.0
 40
14.0
 40
14.0
 40
14.0
 40
15.0
 40
15.0
 40
15.0
 40
16.0
 40
16.0
 40
16.0
 40
17.0
 40
17.0
 40
17.0
 40
18.0
 40
18.0
 40
18.0
 40
19.0
 40
19.0
 40
19.0
 40
20.0
 40
20.0
 40
20.0
 40
21.0
 40
21.0
 40
21.0
 40
22.0
 40
22.0
 40
22.0
 40
23.0
 40
23.0
 40
23.0
 40
24.0
 40
24.0
 40
24.0
 40
25.0
 40
25.0
 40
25.0
 40
26.0
 40
26.0
 40
26.0
 40
27.0
 40
27.0
 40
27.0
 40
28.0
 40
28.0
 40
28.0
 40
29.0
 40
29.0
 40
29.0
 40
30.0
 40
30.0
 40
30.0
 40
31.0
 40
31.0
 40
31.0
 40
32.0
 40
32.0
 40
32.0
 40
33.0
 40
33.0
 40
33.0
 40
34.0
 40
34.0
 40
34.0
 40
35.0
 40
35.0
 40
35.0
 40
36.0
 40
36.0
 40
36.0
 40
37.0
 40
37.0
 40
37.0
 40
38.0
 40
38.0
 40
38.0
 40
39.0
 40
39.0
 40
39.0
 40
40.0
 40
40.0
 40
40.0
 40
41.0
 40
41.0
 40
41.0
 40
42.0
 40
42.0
 40
42.0
 40
43.0
 40
43.0
 40
43.0
 40
44.0
 40
44.0
 40
44.0
 40
45.0
 40
45.0
 40
45.0
 40
46.0
 40
46.0
 40
46.0
 40
47.0
 40
47.0
 40
47.0
 40
48.0
 40
48.0
 40
48.0
 40
49.0
 40
49.0
 40
49.0
 40
50.0
 40
50.0
 40
50.0
 40
51.0
 40
51.0
 40
51.0
 40
52.0
 40
52.0
 40
52.0
 40
53.0
 40
53.0
 40
53.0
 40
54.0
 40
54.0
 40
54.0
 40
55.0
 40
55.0
 40
55.0
 40
56.0
 40
56.0
 40
56.0
 40
57.0
 40
57.0
 40
57.0
 40
58.0
 40
58.0
 40
58.0
 40
59.0
 40
59.0
 40
59.0
 40
60.0
 40
60.0
 40
60.0
 40
61.0
 40
61.0
 40
61.0
 40
62.0
 40
62.0
 40
62.0
 40
63.0
 40
63.0
 40
63.0
 40
64.0
 40
64.0
 40
64.0
 40
65.0
 40
65.0
 40
65.0
 40
66.0
 40
66.0
 40
66.0
 40
67.0
 40
67.0
 40
67.0
 40
68.0
 40
68.0
 40
68.0
 40
69.0
 40
69.0
 40
69.0
 40
70.0
 40
70.0
 40
70.0
 40
71.0
 40
71.0
 40
71.0
 40
72.0
 40
72.0
 40
72.0
 40
73.0
 40
73.0
 40
73.0
 40
74.0
 40
74.0
 40
74.0
 40
75.0
 40
75.0
 40
75.0
 40
76.0
 40
76.0
 40
76.0
 40
77.0
 40
77.0
 40
77.0
 40
78.0
 40
78.0
 40
78.0
 40
79.0
 40
79.0
 40
79.0
 40
79.0
 10
112.8844102365358
 20
-132.6837184998152
 30
0.0
 10
112.8844102365358
 20
-132.6837184998152
 30
0.0
 10
112.6305066992729
 20
-132.6837184998152
 30
0.0
 10
112.6305066992729
 20
-132.6837184998152
 30
0.0
 10
112.6305066992729
 20
-132.6837184998152
 30
0.0
 10
112.3535210222588
 20
-132.6837184998152
 30
0.0
 10
112.3535210222588
 20
-132.6837184998152
 30
0.0
 10
112.3535210222588
 20
-132.6837184998152
 30
0.0
 10
112.480300536116
 20
-132.7260931742837
 30
0.0
 10
112.480300536116
 20
-132.7260931742837
 30
0.0
 10
112.4909803321203
 20
-132.7303995436403
 30
0.0
 10
112.5037271854157
 20
-132.7366007155137
 30
0.0
 10
112.5037271854157
 20
-132.7493475688092
 30
0.0
 10
112.5037271854157
 20
-132.7705349060435
 30
0.0
 10
112.4716877974029
 20
-132.7769083326912
 30
0.0
 10
112.4506727149429
 20
-132.7810424472735
 30
0.0
 10
112.4399929189386
 20
-132.8042968417989
 30
0.0
 10
112.4103650977654
 20
-132.8699259107929
 30
0.0
 10
112.3914170725966
 20
-132.9143676425526
 30
0.0
 10
112.3914170725966
 20
-132.9143676425526
 30
0.0
 10
112.6622015777372
 20
-132.9143676425526
 30
0.0
 10
112.6622015777372
 20
-132.9143676425526
 30
0.0
 10
112.7531520985478
 20
-132.9143676425526
 30
0.0
 10
112.9498670507556
 20
-132.9100612731961
 30
0.0
 10
113.0918049847479
 20
-132.9016207892572
 30
0.0
 10
113.0918049847479
 20
-132.9016207892572
 30
0.0
 10
113.0918049847479
 20
-133.0793877162961
 30
0.0
 10
113.0918049847479
 20
-133.0793877162961
 30
0.0
 10
113.0091226931019
 20
-133.0750813469395
 30
0.0
 10
112.9881076106418
 20
-133.0750813469395
 30
0.0
 10
112.8082736263118
 20
-133.0709472323572
 30
0.0
 10
112.7765787478475
 20
-133.2252875100964
 30
0.0
 10
112.7321370160878
 20
-133.305730489677
 30
0.0
 10
112.6876952843281
 20
-133.3754936732533
 30
0.0
 10
112.8082736263118
 20
-133.4347493155996
 30
0.0
 10
112.914038057709
 20
-133.5024454418848
 30
0.0
 10
113.017735431815
 20
-133.5849554787565
 30
0.0
 10
113.017735431815
 20
-133.5849554787565
 30
0.0
 10
112.8992241471224
 20
-133.7520426097912
 30
0.0
 10
112.8992241471224
 20
-133.7520426097912
 30
0.0
 10
112.8757974978227
 20
-133.7330945846223
 30
0.0
 10
112.8630506445273
 20
-133.7246541006834
 30
0.0
 10
112.7510850412567
 20
-133.6399047517463
 30
0.0
 10
112.7025091949146
 20
-133.6018364466343
 30
0.0
 10
112.6432535525683
 20
-133.5660074535876
 30
0.0
 10
112.5626383182135
 20
-133.5215657218279
 30
0.0
 10
112.3511094554191
 20
-133.7077731328057
 30
0.0
 10
112.1461262740468
 20
-133.7310275273311
 30
0.0
 10
111.8560492341887
 20
-133.7606553485043
 30
0.0
 10
111.8560492341887
 20
-133.7606553485043
 30
0.0
 10
111.7526963696312
 20
-133.5808213641742
 30
0.0
 10
111.7526963696312
 20
-133.5808213641742
 30
0.0
 10
112.0699896638227
 20
-133.5765149948176
 30
0.0
 10
112.245345024022
 20
-133.5511935430011
 30
0.0
 10
112.39761824447
 20
-133.4411227422473
 30
0.0
 10
112.279451469326
 20
-133.3903075838399
 30
0.0
 10
112.1905680058065
 20
-133.3629190747322
 30
0.0
 10
112.1543945032114
 20
-133.3501722214367
 30
0.0
 10
112.1354464780425
 20
-133.3777329853187
 30
0.0
 10
112.1206325674559
 20
-133.3966810104876
 30
0.0
 10
112.0930718035739
 20
-133.4306152010173
 30
0.0
 10
112.0930718035739
 20
-133.4306152010173
 30
0.0
 10
111.8963568513662
 20
-133.3481051641456
 30
0.0
 10
111.8963568513662
 20
-133.3481051641456
 30
0.0
 10
111.9790391430122
 20
-133.267662184565
 30
0.0
 10
112.0403618426496
 20
-133.1724052943979
 30
0.0
 10
112.0972059181562
 20
-133.0709472323572
 30
0.0
 10
111.9070366473704
 20
-133.0750813469395
 30
0.0
 10
111.8856770553619
 20
-133.0750813469395
 30
0.0
 10
111.8033392732644
 20
-133.0793877162961
 30
0.0
 10
111.8033392732644
 20
-133.0793877162961
 30
0.0
 10
111.8033392732644
 20
-132.9016207892572
 30
0.0
 10
111.8033392732644
 20
-132.9016207892572
 30
0.0
 10
111.942865640417
 20
-132.9079942159049
 30
0.0
 10
112.1523274459202
 20
-132.9123005852615
 30
0.0
 10
112.1778211525111
 20
-132.9123005852615
 30
0.0
 10
112.1947021203888
 20
-132.8783663947318
 30
0.0
 10
112.2498236481528
 20
-132.757788052748
 30
0.0
 10
112.2687716733217
 20
-132.6837184998152
 30
0.0
 10
112.2498236481528
 20
-132.6837184998152
 30
0.0
 10
112.0720567211139
 20
-132.6900919264629
 30
0.0
 10
111.8774088261973
 20
-132.7028387797583
 30
0.0
 10
111.8774088261973
 20
-132.7028387797583
 30
0.0
 10
111.8774088261973
 20
-132.8361639750375
 30
0.0
 10
111.8774088261973
 20
-132.8361639750375
 30
0.0
 10
111.8288329798553
 20
-132.861485426854
 30
0.0
 10
111.769577337509
 20
-132.8931803053183
 30
0.0
 10
111.6362521422298
 20
-132.9588093743124
 30
0.0
 10
111.6362521422298
 20
-132.9588093743124
 30
0.0
 10
111.6362521422298
 20
-133.1047091681127
 30
0.0
 10
111.6362521422298
 20
-133.1047091681127
 30
0.0
 10
111.6362521422298
 20
-133.1047091681127
 30
0.0
 10
111.6362521422298
 20
-133.5723808802354
 30
0.0
 10
111.6362521422298
 20
-133.5723808802354
 30
0.0
 10
111.6362521422298
 20
-133.6991603940926
 30
0.0
 10
111.6000786396347
 20
-133.7584160364389
 30
0.0
 10
111.3168917907471
 20
-133.7499755525
 30
0.0
 10
111.3168917907471
 20
-133.7499755525
 30
0.0
 10
111.2131944166411
 20
-133.5427530590622
 30
0.0
 10
111.2131944166411
 20
-133.5427530590622
 30
0.0
 10
111.2765841735697
 20
-133.5553276575834
 30
0.0
 10
111.3251600199117
 20
-133.5596340269399
 30
0.0
 10
111.3654676370892
 20
-133.5596340269399
 30
0.0
 10
111.4416042473132
 20
-133.5596340269399
 30
0.0
 10
111.4522840433175
 20
-133.5363796324145
 30
0.0
 10
111.4522840433175
 20
-133.4707505634205
 30
0.0
 10
111.4522840433175
 20
-133.4707505634205
 30
0.0
 10
111.4522840433175
 20
-133.0413194111841
 30
0.0
 10
111.4522840433175
 20
-133.0413194111841
 30
0.0
 10
111.3547878410849
 20
-133.0814547735872
 30
0.0
 10
111.3379068732072
 20
-133.087828200235
 30
0.0
 10
111.2913980841563
 20
-133.1069484801781
 30
0.0
 10
111.287263969574
 20
-133.1279635626381
 30
0.0
 10
111.2827853454432
 20
-133.1575913838113
 30
0.0
 10
111.2638373202743
 20
-133.1575913838113
 30
0.0
 10
111.2555690911097
 20
-133.1575913838113
 30
0.0
 10
111.2448892951054
 20
-133.153457269229
 30
0.0
 10
111.2383436136834
 20
-133.1302028747035
 30
0.0
 10
111.2383436136834
 20
-133.1302028747035
 30
0.0
 10
111.1856336527591
 20
-132.9376220370781
 30
0.0
 10
111.1856336527591
 20
-132.9376220370781
 30
0.0
 10
111.3317057013337
 20
-132.8911132480272
 30
0.0
 10
111.3971625155535
 20
-132.8678588535018
 30
0.0
 10
111.4522840433175
 20
-132.8466715162675
 30
0.0
 10
111.4522840433175
 20
-132.8466715162675
 30
0.0
 10
111.4522840433175
 20
-132.4341213319088
 30
0.0
 10
111.4522840433175
 20
-132.4341213319088
 30
0.0
 10
111.4522840433175
 20
-132.4341213319088
 30
0.0
 10
111.3992295728446
 20
-132.4341213319088
 30
0.0
 10
111.3992295728446
 20
-132.4341213319088
 30
0.0
 10
111.3992295728446
 20
-132.4341213319088
 30
0.0
 10
111.3210259053295
 20
-132.4341213319088
 30
0.0
 10
111.3210259053295
 20
-132.4341213319088
 30
0.0
 10
111.25315752427
 20
-132.4341213319088
 30
0.0
 10
111.2448892951054
 20
-132.4341213319088
 30
0.0
 10
111.2087157925103
 20
-132.4404947585565
 30
0.0
 10
111.2087157925103
 20
-132.4404947585565
 30
0.0
 10
111.2087157925103
 20
-132.2458468636399
 30
0.0
 10
111.2087157925103
 20
-132.2458468636399
 30
0.0
 10
111.2362765563923
 20
-132.2522202902876
 30
0.0
 10
111.2448892951054
 20
-132.2522202902876
 30
0.0
 10
111.3144802239075
 20
-132.2522202902876
 30
0.0
 10
111.3144802239075
 20
-132.2522202902876
 30
0.0
 10
111.4478054191866
 20
-132.2522202902876
 30
0.0
 10
111.4478054191866
 20
-132.2522202902876
 30
0.0
 10
111.4478054191866
 20
-132.1824571067113
 30
0.0
 10
111.4478054191866
 20
-132.0999470698396
 30
0.0
 10
111.4457383618955
 20
-132.095640700483
 30
0.0
 10
111.4374701327309
 20
-131.915806716153
 30
0.0
 10
111.4374701327309
 20
-131.8968586909841
 30
0.0
 10
111.4350585658912
 20
-131.8503499019332
 30
0.0
 10
111.4350585658912
 20
-131.8503499019332
 30
0.0
 10
111.6510660528164
 20
-131.8587903858721
 30
0.0
 10
111.6510660528164
 20
-131.8587903858721
 30
0.0
 10
111.6617458488207
 20
-131.8587903858721
 30
0.0
 10
111.6827609312807
 20
-131.8608574431632
 30
0.0
 10
111.6827609312807
 20
-131.877738411041
 30
0.0
 10
111.6827609312807
 20
-131.8968586909841
 30
0.0
 10
111.6679470206941
 20
-131.9073662322141
 30
0.0
 10
111.6424533141032
 20
-131.9264865121573
 30
0.0
 10
111.6424533141032
 20
-131.9771294157904
 30
0.0
 10
111.6362521422298
 20
-132.2057115012368
 30
0.0
 10
111.638319199521
 20
-132.2522202902876
 30
0.0
 10
111.7675102802178
 20
-132.2522202902876
 30
0.0
 10
111.7799126239647
 20
-132.2522202902876
 30
0.0
 10
111.8774088261973
 20
-132.2437798063488
 30
0.0
 10
111.8774088261973
 20
-132.2437798063488
 30
0.0
 10
111.8774088261973
 20
-132.4384277012654
 30
0.0
 10
111.8774088261973
 20
-132.4384277012654
 30
0.0
 10
111.839168266311
 20
-132.4361883892
 30
0.0
 10
111.7716443948001
 20
-132.4320542746177
 30
0.0
 10
111.6362521422298
 20
-132.4341213319088
 30
0.0
 10
111.6362521422298
 20
-132.4341213319088
 30
0.0
 10
111.6362521422298
 20
-132.7726019633346
 30
0.0
 10
111.6362521422298
 20
-132.7726019633346
 30
0.0
 10
111.6913736699938
 20
-132.7493475688092
 30
0.0
 10
111.7568304842136
 20
-132.7217868049272
 30
0.0
 10
111.8054063305556
 20
-132.6985324104017
 30
0.0
 10
111.8054063305556
 20
-132.6985324104017
 30
0.0
 10
111.8054063305556
 20
-132.5209377381371
 30
0.0
 10
111.8054063305556
 20
-132.5209377381371
 30
0.0
 10
111.9197835006659
 20
-132.5335123366583
 30
0.0
 10
112.0382947853585
 20
-132.5335123366583
 30
0.0
 10
112.1543945032114
 20
-132.5335123366583
 30
0.0
 10
112.1313123634602
 20
-132.4384277012654
 30
0.0
 10
112.1037515995782
 20
-132.3559176643936
 30
0.0
 10
112.0403618426496
 20
-132.2225924691145
 30
0.0
 10
111.9959201108899
 20
-132.2246595264056
 30
0.0
 10
111.9132378192439
 20
-132.2289658957622
 30
0.0
 10
111.8753417689061
 20
-132.2310329530533
 30
0.0
 10
111.8753417689061
 20
-132.2310329530533
 30
0.0
 10
111.8753417689061
 20
-132.0511989687233
 30
0.0
 10
111.8753417689061
 20
-132.0511989687233
 30
0.0
 10
112.0000542254722
 20
-132.0596394526621
 30
0.0
 10
112.1736870379288
 20
-132.0639458220187
 30
0.0
 10
112.2560248200263
 20
-132.0639458220187
 30
0.0
 10
112.2560248200263
 20
-132.0639458220187
 30
0.0
 10
112.3387071116723
 20
-132.0639458220187
 30
0.0
 10
112.3387071116723
 20
-132.0639458220187
 30
0.0
 10
112.3387071116723
 20
-131.9009928055664
 30
0.0
 10
112.3387071116723
 20
-131.8904852643364
 30
0.0
 10
112.3362955448326
 20
-131.8355359913467
 30
0.0
 10
112.3362955448326
 20
-131.8355359913467
 30
0.0
 10
112.5605712609223
 20
-131.8608574431632
 30
0.0
 10
112.5605712609223
 20
-131.8608574431632
 30
0.0
 10
112.5650498850532
 20
-131.8608574431632
 30
0.0
 10
112.5860649675132
 20
-131.8629245004544
 30
0.0
 10
112.5860649675132
 20
-131.8798054683321
 30
0.0
 10
112.5860649675132
 20
-131.8946193789187
 30
0.0
 10
112.5753851715089
 20
-131.9032321176318
 30
0.0
 10
112.5478244076269
 20
-131.9180460282184
 30
0.0
 10
112.5416232357535
 20
-131.9835028424381
 30
0.0
 10
112.5395561784623
 20
-132.0046901796724
 30
0.0
 10
112.5395561784623
 20
-132.0639458220187
 30
0.0
 10
112.5395561784623
 20
-132.0639458220187
 30
0.0
 10
112.6346408138552
 20
-132.0639458220187
 30
0.0
 10
112.6346408138552
 20
-132.0639458220187
 30
0.0
 10
112.7173231055012
 20
-132.0639458220187
 30
0.0
 10
112.8906114084093
 20
-132.0596394526621
 30
0.0
 10
113.0156683745239
 20
-132.0511989687233
 30
0.0
 10
113.0156683745239
 20
-132.0511989687233
 30
0.0
 10
113.0156683745239
 20
-132.2310329530533
 30
0.0
 10
113.0156683745239
 20
-132.2310329530533
 30
0.0
 10
112.9860405533507
 20
-132.2289658957622
 30
0.0
 10
112.8675292686581
 20
-132.2246595264056
 30
0.0
 10
112.8272216514807
 20
-132.2225924691145
 30
0.0
 10
112.8124077408941
 20
-132.2734076275219
 30
0.0
 10
112.7786458051386
 20
-132.3855454855668
 30
0.0
 10
112.7128444813704
 20
-132.5250718527194
 30
0.0
 10
112.7552191558389
 20
-132.5250718527194
 30
0.0
 10
113.0325493424016
 20
-132.5061238275505
 30
0.0
 10
113.093872042039
 20
-132.5038845154851
 30
0.0
 10
113.093872042039
 20
-132.5038845154851
 30
0.0
 10
113.093872042039
 20
-132.6880248691717
 30
0.0
 10
113.093872042039
 20
-132.6880248691717
 30
0.0
 10
113.0642442208659
 20
-132.6880248691717
 30
0.0
 10
113.0473632529881
 20
-132.6837184998152
 30
0.0
 10
112.8844102365358
 20
-132.6837184998152
 30
0.0
  0
HATCH
  5
E7
330
E0
100
AcDbEntity
  8
レイヤー 1
 62
   250
420
  2299925
440
 33554687
100
AcDbHatch
 10
0.0
 20
0.0
 30
0.0
210
0.0
220
0.0
230
1.0
  2
SOLID
 70
     1
 71
     1
 91
        3
 92
        1
 93
        1
 72
     4
 94
        3
 73
     0
 74
     0
 95
       17
 96
       13
 40
0.0
 40
0.0
 40
0.0
 40
0.0
 40
1.0
 40
1.0
 40
1.0
 40
2.0
 40
2.0
 40
2.0
 40
3.0
 40
3.0
 40
3.0
 40
4.0
 40
4.0
 40
4.0
 40
4.0
 10
112.3194145769548
 20
-133.0688801750661
 10
112.3025336090771
 20
-133.098335741465
 10
112.251890705444
 20
-133.191525574341
 10
112.2412109094397
 20
-133.2104735995099
 10
112.431724689774
 20
-133.2697292418562
 10
112.452739772234
 20
-133.2761026685039
 10
112.5247422678757
 20
-133.3036634323859
 10
112.5798637956398
 20
-133.2168470261576
 10
112.6029459353909
 20
-133.1427774732247
 10
112.6177598459775
 20
-133.0688801750661
 10
112.6177598459775
 20
-133.0688801750661
 10
112.3194145769548
 20
-133.0688801750661
 10
112.3194145769548
 20
-133.0688801750661
 97
        0
 97
        1
330
E4
 92
        1
 93
        1
 72
     4
 94
        3
 73
     0
 74
     0
 95
       20
 96
       16
 40
0.0
 40
0.0
 40
0.0
 40
0.0
 40
1.0
 40
1.0
 40
1.0
 40
2.0
 40
2.0
 40
2.0
 40
3.0
 40
3.0
 40
3.0
 40
4.0
 40
4.0
 40
4.0
 40
5.0
 40
5.0
 40
5.0
 40
5.0
 10
112.2560248200263
 20
-132.2184583545322
 10
112.2560248200263
 20
-132.2184583545322
 10
112.2243299415619
 20
-132.2184583545322
 10
112.2243299415619
 20
-132.2184583545322
 10
112.2708387306128
 20
-132.3178493592816
 10
112.3025336090771
 20
-132.3981200840879
 10
112.3362955448326
 20
-132.5250718527194
 10
112.3362955448326
 20
-132.5250718527194
 10
112.5436902930446
 20
-132.5250718527194
 10
112.5436902930446
 20
-132.5250718527194
 10
112.5753851715089
 20
-132.4320542746177
 10
112.5988118208086
 20
-132.3474771804548
 10
112.6218939605598
 20
-132.2184583545322
 10
112.6218939605598
 20
-132.2184583545322
 10
112.2560248200263
 20
-132.2184583545322
 10
112.2560248200263
 20
-132.2184583545322
 97
        0
 97
        1
330
E5
 92
        1
 93
        1
 72
     4
 94
        3
 73
     0
 74
     0
 95
      242
 96
      238
 40
0.0
 40
0.0
 40
0.0
 40
0.0
 40
1.0
 40
1.0
 40
1.0
 40
2.0
 40
2.0
 40
2.0
 40
3.0
 40
3.0
 40
3.0
 40
4.0
 40
4.0
 40
4.0
 40
5.0
 40
5.0
 40
5.0
 40
6.0
 40
6.0
 40
6.0
 40
7.0
 40
7.0
 40
7.0
 40
8.0
 40
8.0
 40
8.0
 40
9.0
 40
9.0
 40
9.0
 40
10.0
 40
10.0
 40
10.0
 40
11.0
 40
11.0
 40
11.0
 40
12.0
 40
12.0
 40
12.0
 40
13.0
 40
13.0
 40
13.0
 40
14.0
 40
14.0
 40
14.0
 40
15.0
 40
15.0
 40
15.0
 40
16.0
 40
16.0
 40
16.0
 40
17.0
 40
17.0
 40
17.0
 40
18.0
 40
18.0
 40
18.0
 40
19.0
 40
19.0
 40
19.0
 40
20.0
 40
20.0
 40
20.0
 40
21.0
 40
21.0
 40
21.0
 40
22.0
 40
22.0
 40
22.0
 40
23.0
 40
23.0
 40
23.0
 40
24.0
 40
24.0
 40
24.0
 40
25.0
 40
25.0
 40
25.0
 40
26.0
 40
26.0
 40
26.0
 40
27.0
 40
27.0
 40
27.0
 40
28.0
 40
28.0
 40
28.0
 40
29.0
 40
29.0
 40
29.0
 40
30.0
 40
30.0
 40
30.0
 40
31.0
 40
31.0
 40
31.0
 40
32.0
 40
32.0
 40
32.0
 40
33.0
 40
33.0
 40
33.0
 40
34.0
 40
34.0
 40
34.0
 40
35.0
 40
35.0
 40
35.0
 40
36.0
 40
36.0
 40
36.0
 40
37.0
 40
37.0
 40
37.0
 40
38.0
 40
38.0
 40
38.0
 40
39.0
 40
39.0
 40
39.0
 40
40.0
 40
40.0
 40
40.0
 40
41.0
 40
41.0
 40
41.0
 40
42.0
 40
42.0
 40
42.0
 40
43.0
 40
43.0
 40
43.0
 40
44.0
 40
44.0
 40
44.0
 40
45.0
 40
45.0
 40
45.0
 40
46.0
 40
46.0
 40
46.0
 40
47.0
 40
47.0
 40
47.0
 40
48.0
 40
48.0
 40
48.0
 40
49.0
 40
49.0
 40
49.0
 40
50.0
 40
50.0
 40
50.0
 40
51.0
 40
51.0
 40
51.0
 40
52.0
 40
52.0
 40
52.0
 40
53.0
 40
53.0
 40
53.0
 40
54.0
 40
54.0
 40
54.0
 40
55.0
 40
55.0
 40
55.0
 40
56.0
 40
56.0
 40
56.0
 40
57.0
 40
57.0
 40
57.0
 40
58.0
 40
58.0
 40
58.0
 40
59.0
 40
59.0
 40
59.0
 40
60.0
 40
60.0
 40
60.0
 40
61.0
 40
61.0
 40
61.0
 40
62.0
 40
62.0
 40
62.0
 40
63.0
 40
63.0
 40
63.0
 40
64.0
 40
64.0
 40
64.0
 40
65.0
 40
65.0
 40
65.0
 40
66.0
 40
66.0
 40
66.0
 40
67.0
 40
67.0
 40
67.0
 40
68.0
 40
68.0
 40
68.0
 40
69.0
 40
69.0
 40
69.0
 40
70.0
 40
70.0
 40
70.0
 40
71.0
 40
71.0
 40
71.0
 40
72.0
 40
72.0
 40
72.0
 40
73.0
 40
73.0
 40
73.0
 40
74.0
 40
74.0
 40
74.0
 40
75.0
 40
75.0
 40
75.0
 40
76.0
 40
76.0
 40
76.0
 40
77.0
 40
77.0
 40
77.0
 40
78.0
 40
78.0
 40
78.0
 40
79.0
 40
79.0
 40
79.0
 40
79.0
 10
112.8844102365358
 20
-132.6837184998152
 10
112.8844102365358
 20
-132.6837184998152
 10
112.6305066992729
 20
-132.6837184998152
 10
112.6305066992729
 20
-132.6837184998152
 10
112.6305066992729
 20
-132.6837184998152
 10
112.3535210222588
 20
-132.6837184998152
 10
112.3535210222588
 20
-132.6837184998152
 10
112.3535210222588
 20
-132.6837184998152
 10
112.480300536116
 20
-132.7260931742837
 10
112.480300536116
 20
-132.7260931742837
 10
112.4909803321203
 20
-132.7303995436403
 10
112.5037271854157
 20
-132.7366007155137
 10
112.5037271854157
 20
-132.7493475688092
 10
112.5037271854157
 20
-132.7705349060435
 10
112.4716877974029
 20
-132.7769083326912
 10
112.4506727149429
 20
-132.7810424472735
 10
112.4399929189386
 20
-132.8042968417989
 10
112.4103650977654
 20
-132.8699259107929
 10
112.3914170725966
 20
-132.9143676425526
 10
112.3914170725966
 20
-132.9143676425526
 10
112.6622015777372
 20
-132.9143676425526
 10
112.6622015777372
 20
-132.9143676425526
 10
112.7531520985478
 20
-132.9143676425526
 10
112.9498670507556
 20
-132.9100612731961
 10
113.0918049847479
 20
-132.9016207892572
 10
113.0918049847479
 20
-132.9016207892572
 10
113.0918049847479
 20
-133.0793877162961
 10
113.0918049847479
 20
-133.0793877162961
 10
113.0091226931019
 20
-133.0750813469395
 10
112.9881076106418
 20
-133.0750813469395
 10
112.8082736263118
 20
-133.0709472323572
 10
112.7765787478475
 20
-133.2252875100964
 10
112.7321370160878
 20
-133.305730489677
 10
112.6876952843281
 20
-133.3754936732533
 10
112.8082736263118
 20
-133.4347493155996
 10
112.914038057709
 20
-133.5024454418848
 10
113.017735431815
 20
-133.5849554787565
 10
113.017735431815
 20
-133.5849554787565
 10
112.8992241471224
 20
-133.7520426097912
 10
112.8992241471224
 20
-133.7520426097912
 10
112.8757974978227
 20
-133.7330945846223
 10
112.8630506445273
 20
-133.7246541006834
 10
112.7510850412567
 20
-133.6399047517463
 10
112.7025091949146
 20
-133.6018364466343
 10
112.6432535525683
 20
-133.5660074535876
 10
112.5626383182135
 20
-133.5215657218279
 10
112.3511094554191
 20
-133.7077731328057
 10
112.1461262740468
 20
-133.7310275273311
 10
111.8560492341887
 20
-133.7606553485043
 10
111.8560492341887
 20
-133.7606553485043
 10
111.7526963696312
 20
-133.5808213641742
 10
111.7526963696312
 20
-133.5808213641742
 10
112.0699896638227
 20
-133.5765149948176
 10
112.245345024022
 20
-133.5511935430011
 10
112.39761824447
 20
-133.4411227422473
 10
112.279451469326
 20
-133.3903075838399
 10
112.1905680058065
 20
-133.3629190747322
 10
112.1543945032114
 20
-133.3501722214367
 10
112.1354464780425
 20
-133.3777329853187
 10
112.1206325674559
 20
-133.3966810104876
 10
112.0930718035739
 20
-133.4306152010173
 10
112.0930718035739
 20
-133.4306152010173
 10
111.8963568513662
 20
-133.3481051641456
 10
111.8963568513662
 20
-133.3481051641456
 10
111.9790391430122
 20
-133.267662184565
 10
112.0403618426496
 20
-133.1724052943979
 10
112.0972059181562
 20
-133.0709472323572
 10
111.9070366473704
 20
-133.0750813469395
 10
111.8856770553619
 20
-133.0750813469395
 10
111.8033392732644
 20
-133.0793877162961
 10
111.8033392732644
 20
-133.0793877162961
 10
111.8033392732644
 20
-132.9016207892572
 10
111.8033392732644
 20
-132.9016207892572
 10
111.942865640417
 20
-132.9079942159049
 10
112.1523274459202
 20
-132.9123005852615
 10
112.1778211525111
 20
-132.9123005852615
 10
112.1947021203888
 20
-132.8783663947318
 10
112.2498236481528
 20
-132.757788052748
 10
112.2687716733217
 20
-132.6837184998152
 10
112.2498236481528
 20
-132.6837184998152
 10
112.0720567211139
 20
-132.6900919264629
 10
111.8774088261973
 20
-132.7028387797583
 10
111.8774088261973
 20
-132.7028387797583
 10
111.8774088261973
 20
-132.8361639750375
 10
111.8774088261973
 20
-132.8361639750375
 10
111.8288329798553
 20
-132.861485426854
 10
111.769577337509
 20
-132.8931803053183
 10
111.6362521422298
 20
-132.9588093743124
 10
111.6362521422298
 20
-132.9588093743124
 10
111.6362521422298
 20
-133.1047091681127
 10
111.6362521422298
 20
-133.1047091681127
 10
111.6362521422298
 20
-133.1047091681127
 10
111.6362521422298
 20
-133.5723808802354
 10
111.6362521422298
 20
-133.5723808802354
 10
111.6362521422298
 20
-133.6991603940926
 10
111.6000786396347
 20
-133.7584160364389
 10
111.3168917907471
 20
-133.7499755525
 10
111.3168917907471
 20
-133.7499755525
 10
111.2131944166411
 20
-133.5427530590622
 10
111.2131944166411
 20
-133.5427530590622
 10
111.2765841735697
 20
-133.5553276575834
 10
111.3251600199117
 20
-133.5596340269399
 10
111.3654676370892
 20
-133.5596340269399
 10
111.4416042473132
 20
-133.5596340269399
 10
111.4522840433175
 20
-133.5363796324145
 10
111.4522840433175
 20
-133.4707505634205
 10
111.4522840433175
 20
-133.4707505634205
 10
111.4522840433175
 20
-133.0413194111841
 10
111.4522840433175
 20
-133.0413194111841
 10
111.3547878410849
 20
-133.0814547735872
 10
111.3379068732072
 20
-133.087828200235
 10
111.2913980841563
 20
-133.1069484801781
 10
111.287263969574
 20
-133.1279635626381
 10
111.2827853454432
 20
-133.1575913838113
 10
111.2638373202743
 20
-133.1575913838113
 10
111.2555690911097
 20
-133.1575913838113
 10
111.2448892951054
 20
-133.153457269229
 10
111.2383436136834
 20
-133.1302028747035
 10
111.2383436136834
 20
-133.1302028747035
 10
111.1856336527591
 20
-132.9376220370781
 10
111.1856336527591
 20
-132.9376220370781
 10
111.3317057013337
 20
-132.8911132480272
 10
111.3971625155535
 20
-132.8678588535018
 10
111.4522840433175
 20
-132.8466715162675
 10
111.4522840433175
 20
-132.8466715162675
 10
111.4522840433175
 20
-132.4341213319088
 10
111.4522840433175
 20
-132.4341213319088
 10
111.4522840433175
 20
-132.4341213319088
 10
111.3992295728446
 20
-132.4341213319088
 10
111.3992295728446
 20
-132.4341213319088
 10
111.3992295728446
 20
-132.4341213319088
 10
111.3210259053295
 20
-132.4341213319088
 10
111.3210259053295
 20
-132.4341213319088
 10
111.25315752427
 20
-132.4341213319088
 10
111.2448892951054
 20
-132.4341213319088
 10
111.2087157925103
 20
-132.4404947585565
 10
111.2087157925103
 20
-132.4404947585565
 10
111.2087157925103
 20
-132.2458468636399
 10
111.2087157925103
 20
-132.2458468636399
 10
111.2362765563923
 20
-132.2522202902876
 10
111.2448892951054
 20
-132.2522202902876
 10
111.3144802239075
 20
-132.2522202902876
 10
111.3144802239075
 20
-132.2522202902876
 10
111.4478054191866
 20
-132.2522202902876
 10
111.4478054191866
 20
-132.2522202902876
 10
111.4478054191866
 20
-132.1824571067113
 10
111.4478054191866
 20
-132.0999470698396
 10
111.4457383618955
 20
-132.095640700483
 10
111.4374701327309
 20
-131.915806716153
 10
111.4374701327309
 20
-131.8968586909841
 10
111.4350585658912
 20
-131.8503499019332
 10
111.4350585658912
 20
-131.8503499019332
 10
111.6510660528164
 20
-131.8587903858721
 10
111.6510660528164
 20
-131.8587903858721
 10
111.6617458488207
 20
-131.8587903858721
 10
111.6827609312807
 20
-131.8608574431632
 10
111.6827609312807
 20
-131.877738411041
 10
111.6827609312807
 20
-131.8968586909841
 10
111.6679470206941
 20
-131.9073662322141
 10
111.6424533141032
 20
-131.9264865121573
 10
111.6424533141032
 20
-131.9771294157904
 10
111.6362521422298
 20
-132.2057115012368
 10
111.638319199521
 20
-132.2522202902876
 10
111.7675102802178
 20
-132.2522202902876
 10
111.7799126239647
 20
-132.2522202902876
 10
111.8774088261973
 20
-132.2437798063488
 10
111.8774088261973
 20
-132.2437798063488
 10
111.8774088261973
 20
-132.4384277012654
 10
111.8774088261973
 20
-132.4384277012654
 10
111.839168266311
 20
-132.4361883892
 10
111.7716443948001
 20
-132.4320542746177
 10
111.6362521422298
 20
-132.4341213319088
 10
111.6362521422298
 20
-132.4341213319088
 10
111.6362521422298
 20
-132.7726019633346
 10
111.6362521422298
 20
-132.7726019633346
 10
111.6913736699938
 20
-132.7493475688092
 10
111.7568304842136
 20
-132.7217868049272
 10
111.8054063305556
 20
-132.6985324104017
 10
111.8054063305556
 20
-132.6985324104017
 10
111.8054063305556
 20
-132.5209377381371
 10
111.8054063305556
 20
-132.5209377381371
 10
111.9197835006659
 20
-132.5335123366583
 10
112.0382947853585
 20
-132.5335123366583
 10
112.1543945032114
 20
-132.5335123366583
 10
112.1313123634602
 20
-132.4384277012654
 10
112.1037515995782
 20
-132.3559176643936
 10
112.0403618426496
 20
-132.2225924691145
 10
111.9959201108899
 20
-132.2246595264056
 10
111.9132378192439
 20
-132.2289658957622
 10
111.8753417689061
 20
-132.2310329530533
 10
111.8753417689061
 20
-132.2310329530533
 10
111.8753417689061
 20
-132.0511989687233
 10
111.8753417689061
 20
-132.0511989687233
 10
112.0000542254722
 20
-132.0596394526621
 10
112.1736870379288
 20
-132.0639458220187
 10
112.2560248200263
 20
-132.0639458220187
 10
112.2560248200263
 20
-132.0639458220187
 10
112.3387071116723
 20
-132.0639458220187
 10
112.3387071116723
 20
-132.0639458220187
 10
112.3387071116723
 20
-131.9009928055664
 10
112.3387071116723
 20
-131.8904852643364
 10
112.3362955448326
 20
-131.8355359913467
 10
112.3362955448326
 20
-131.8355359913467
 10
112.5605712609223
 20
-131.8608574431632
 10
112.5605712609223
 20
-131.8608574431632
 10
112.5650498850532
 20
-131.8608574431632
 10
112.5860649675132
 20
-131.8629245004544
 10
112.5860649675132
 20
-131.8798054683321
 10
112.5860649675132
 20
-131.8946193789187
 10
112.5753851715089
 20
-131.9032321176318
 10
112.5478244076269
 20
-131.9180460282184
 10
112.5416232357535
 20
-131.9835028424381
 10
112.5395561784623
 20
-132.0046901796724
 10
112.5395561784623
 20
-132.0639458220187
 10
112.5395561784623
 20
-132.0639458220187
 10
112.6346408138552
 20
-132.0639458220187
 10
112.6346408138552
 20
-132.0639458220187
 10
112.7173231055012
 20
-132.0639458220187
 10
112.8906114084093
 20
-132.0596394526621
 10
113.0156683745239
 20
-132.0511989687233
 10
113.0156683745239
 20
-132.0511989687233
 10
113.0156683745239
 20
-132.2310329530533
 10
113.0156683745239
 20
-132.2310329530533
 10
112.9860405533507
 20
-132.2289658957622
 10
112.8675292686581
 20
-132.2246595264056
 10
112.8272216514807
 20
-132.2225924691145
 10
112.8124077408941
 20
-132.2734076275219
 10
112.7786458051386
 20
-132.3855454855668
 10
112.7128444813704
 20
-132.5250718527194
 10
112.7552191558389
 20
-132.5250718527194
 10
113.0325493424016
 20
-132.5061238275505
 10
113.093872042039
 20
-132.5038845154851
 10
113.093872042039
 20
-132.5038845154851
 10
113.093872042039
 20
-132.6880248691717
 10
113.093872042039
 20
-132.6880248691717
 10
113.0642442208659
 20
-132.6880248691717
 10
113.0473632529881
 20
-132.6837184998152
 10
112.8844102365358
 20
-132.6837184998152
 97
        0
 97
        1
330
E6
 75
     2
 76
     1
 98
        1
 10
0.0
 20
0.0
450
        0
451
        0
460
0.0
461
0.0
452
        0
462
0.0
453
        0
470

  0
SPLINE
  5
E8
330
E0
100
AcDbEntity
  8
レイヤー 1
100
AcDbSpline
210
0.0
220
0.0
230
1.0
 70
    11
 71
     3
 72
    17
 73
    13
 74
     0
 42
0.0000000001
 43
0.0000000001
 40
0.0
 40
0.0
 40
0.0
 40
0.0
 40
1.0
 40
1.0
 40
1.0
 40
2.0
 40
2.0
 40
2.0
 40
3.0
 40
3.0
 40
3.0
 40
4.0
 40
4.0
 40
4.0
 40
4.0
 10
114.740972193537
 20
-133.4834974167159
 30
0.0
 10
114.740972193537
 20
-133.4834974167159
 30
0.0
 10
114.0343831095122
 20
-133.4834974167159
 30
0.0
 10
114.0343831095122
 20
-133.4834974167159
 30
0.0
 10
114.0343831095122
 20
-133.4834974167159
 30
0.0
 10
114.0343831095122
 20
-133.5977023320519
 30
0.0
 10
114.0343831095122
 20
-133.5977023320519
 30
0.0
 10
114.0343831095122
 20
-133.5977023320519
 30
0.0
 10
114.740972193537
 20
-133.5977023320519
 30
0.0
 10
114.740972193537
 20
-133.5977023320519
 30
0.0
 10
114.740972193537
 20
-133.5977023320519
 30
0.0
 10
114.740972193537
 20
-133.4834974167159
 30
0.0
 10
114.740972193537
 20
-133.4834974167159
 30
0.0
  0
SPLINE
  5
E9
330
E0
100
AcDbEntity
  8
レイヤー 1
100
AcDbSpline
210
0.0
220
0.0
230
1.0
 70
    11
 71
     3
 72
    17
 73
    13
 74
     0
 42
0.0000000001
 43
0.0000000001
 40
0.0
 40
0.0
 40
0.0
 40
0.0
 40
1.0
 40
1.0
 40
1.0
 40
2.0
 40
2.0
 40
2.0
 40
3.0
 40
3.0
 40
3.0
 40
4.0
 40
4.0
 40
4.0
 40
4.0
 10
114.740972193537
 20
-133.240101420683
 30
0.0
 10
114.740972193537
 20
-133.240101420683
 30
0.0
 10
114.0343831095122
 20
-133.240101420683
 30
0.0
 10
114.0343831095122
 20
-133.240101420683
 30
0.0
 10
114.0343831095122
 20
-133.240101420683
 30
0.0
 10
114.0343831095122
 20
-133.3544785907933
 30
0.0
 10
114.0343831095122
 20
-133.3544785907933
 30
0.0
 10
114.0343831095122
 20
-133.3544785907933
 30
0.0
 10
114.740972193537
 20
-133.3544785907933
 30
0.0
 10
114.740972193537
 20
-133.3544785907933
 30
0.0
 10
114.740972193537
 20
-133.3544785907933
 30
0.0
 10
114.740972193537
 20
-133.240101420683
 30
0.0
 10
114.740972193537
 20
-133.240101420683
 30
0.0
  0
SPLINE
  5
EA
330
E0
100
AcDbEntity
  8
レイヤー 1
100
AcDbSpline
210
0.0
220
0.0
230
1.0
 70
    11
 71
     3
 72
    17
 73
    13
 74
     0
 42
0.0000000001
 43
0.0000000001
 40
0.0
 40
0.0
 40
0.0
 40
0.0
 40
1.0
 40
1.0
 40
1.0
 40
2.0
 40
2.0
 40
2.0
 40
3.0
 40
3.0
 40
3.0
 40
4.0
 40
4.0
 40
4.0
 40
4.0
 10
114.740972193537
 20
-133.0073852206544
 30
0.0
 10
114.740972193537
 20
-133.0073852206544
 30
0.0
 10
114.0343831095122
 20
-133.0073852206544
 30
0.0
 10
114.0343831095122
 20
-133.0073852206544
 30
0.0
 10
114.0343831095122
 20
-133.0073852206544
 30
0.0
 10
114.0343831095122
 20
-133.115388964117
 30
0.0
 10
114.0343831095122
 20
-133.115388964117
 30
0.0
 10
114.0343831095122
 20
-133.115388964117
 30
0.0
 10
114.740972193537
 20
-133.115388964117
 30
0.0
 10
114.740972193537
 20
-133.115388964117
 30
0.0
 10
114.740972193537
 20
-133.115388964117
 30
0.0
 10
114.740972193537
 20
-133.0073852206544
 30
0.0
 10
114.740972193537
 20
-133.0073852206544
 30
0.0
  0
SPLINE
  5
EB
330
E0
100
AcDbEntity
  8
レイヤー 1
100
AcDbSpline
210
0.0
220
0.0
230
1.0
 70
     9
 71
     3
 72
   203
 73
   199
 74
     0
 42
0.0000000001
 43
0.0000000001
 40
0.0
 40
0.0
 40
0.0
 40
0.0
 40
1.0
 40
1.0
 40
1.0
 40
2.0
 40
2.0
 40
2.0
 40
3.0
 40
3.0
 40
3.0
 40
4.0
 40
4.0
 40
4.0
 40
5.0
 40
5.0
 40
5.0
 40
6.0
 40
6.0
 40
6.0
 40
7.0
 40
7.0
 40
7.0
 40
8.0
 40
8.0
 40
8.0
 40
9.0
 40
9.0
 40
9.0
 40
10.0
 40
10.0
 40
10.0
 40
11.0
 40
11.0
 40
11.0
 40
12.0
 40
12.0
 40
12.0
 40
13.0
 40
13.0
 40
13.0
 40
14.0
 40
14.0
 40
14.0
 40
15.0
 40
15.0
 40
15.0
 40
16.0
 40
16.0
 40
16.0
 40
17.0
 40
17.0
 40
17.0
 40
18.0
 40
18.0
 40
18.0
 40
19.0
 40
19.0
 40
19.0
 40
20.0
 40
20.0
 40
20.0
 40
21.0
 40
21.0
 40
21.0
 40
22.0
 40
22.0
 40
22.0
 40
23.0
 40
23.0
 40
23.0
 40
24.0
 40
24.0
 40
24.0
 40
25.0
 40
25.0
 40
25.0
 40
26.0
 40
26.0
 40
26.0
 40
27.0
 40
27.0
 40
27.0
 40
28.0
 40
28.0
 40
28.0
 40
29.0
 40
29.0
 40
29.0
 40
30.0
 40
30.0
 40
30.0
 40
31.0
 40
31.0
 40
31.0
 40
32.0
 40
32.0
 40
32.0
 40
33.0
 40
33.0
 40
33.0
 40
34.0
 40
34.0
 40
34.0
 40
35.0
 40
35.0
 40
35.0
 40
36.0
 40
36.0
 40
36.0
 40
37.0
 40
37.0
 40
37.0
 40
38.0
 40
38.0
 40
38.0
 40
39.0
 40
39.0
 40
39.0
 40
40.0
 40
40.0
 40
40.0
 40
41.0
 40
41.0
 40
41.0
 40
42.0
 40
42.0
 40
42.0
 40
43.0
 40
43.0
 40
43.0
 40
44.0
 40
44.0
 40
44.0
 40
45.0
 40
45.0
 40
45.0
 40
46.0
 40
46.0
 40
46.0
 40
47.0
 40
47.0
 40
47.0
 40
48.0
 40
48.0
 40
48.0
 40
49.0
 40
49.0
 40
49.0
 40
50.0
 40
50.0
 40
50.0
 40
51.0
 40
51.0
 40
51.0
 40
52.0
 40
52.0
 40
52.0
 40
53.0
 40
53.0
 40
53.0
 40
54.0
 40
54.0
 40
54.0
 40
55.0
 40
55.0
 40
55.0
 40
56.0
 40
56.0
 40
56.0
 40
57.0
 40
57.0
 40
57.0
 40
58.0
 40
58.0
 40
58.0
 40
59.0
 40
59.0
 40
59.0
 40
60.0
 40
60.0
 40
60.0
 40
61.0
 40
61.0
 40
61.0
 40
62.0
 40
62.0
 40
62.0
 40
63.0
 40
63.0
 40
63.0
 40
64.0
 40
64.0
 40
64.0
 40
65.0
 40
65.0
 40
65.0
 40
66.0
 40
66.0
 40
66.0
 40
66.0
 10
114.5759521197935
 20
-132.7514146261003
 30
0.0
 10
114.5759521197935
 20
-132.7514146261003
 30
0.0
 10
114.017157632086
 20
-132.7514146261003
 30
0.0
 10
114.017157632086
 20
-132.7514146261003
 30
0.0
 10
114.0068223456302
 20
-132.79585635786
 30
0.0
 10
113.9982096069171
 20
-132.8275512363244
 30
0.0
 10
113.9854627536217
 20
-132.8657917962106
 30
0.0
 10
114.0109564602125
 20
-132.8657917962106
 30
0.0
 10
114.0257703707991
 20
-132.8678588535018
 30
0.0
 10
114.0319715426725
 20
-132.8678588535018
 30
0.0
 10
114.0319715426725
 20
-132.8678588535018
 30
0.0
 10
114.2204182657157
 20
-132.8678588535018
 30
0.0
 10
114.2204182657157
 20
-132.8678588535018
 30
0.0
 10
114.2204182657157
 20
-132.8678588535018
 30
0.0
 10
114.5949001449624
 20
-132.8678588535018
 30
0.0
 10
114.5949001449624
 20
-132.8678588535018
 30
0.0
 10
114.6455430485955
 20
-132.8678588535018
 30
0.0
 10
114.9290744070316
 20
-132.8551120002063
 30
0.0
 10
114.9607692854959
 20
-132.8551120002063
 30
0.0
 10
114.9587022282047
 20
-132.8826727640883
 30
0.0
 10
114.9566351709136
 20
-132.9016207892572
 30
0.0
 10
114.9566351709136
 20
-132.9312486104304
 30
0.0
 10
114.9545681136225
 20
-132.9629434888947
 30
0.0
 10
114.9545681136225
 20
-133.098335741465
 30
0.0
 10
114.9545681136225
 20
-133.125896505347
 30
0.0
 10
114.9545681136225
 20
-133.125896505347
 30
0.0
 10
114.9545681136225
 20
-133.371359558671
 30
0.0
 10
114.9545681136225
 20
-133.371359558671
 30
0.0
 10
114.9545681136225
 20
-133.4158012904308
 30
0.0
 10
114.9587022282047
 20
-133.6125162426385
 30
0.0
 10
114.9628363427871
 20
-133.7647894630866
 30
0.0
 10
114.9628363427871
 20
-133.7647894630866
 30
0.0
 10
114.7364935694061
 20
-133.7647894630866
 30
0.0
 10
114.7364935694061
 20
-133.7647894630866
 30
0.0
 10
114.7364935694061
 20
-133.7647894630866
 30
0.0
 10
114.7385606266973
 20
-133.7310275273311
 30
0.0
 10
114.7385606266973
 20
-133.7310275273311
 30
0.0
 10
114.7385606266973
 20
-133.7310275273311
 30
0.0
 10
114.0364501668034
 20
-133.7310275273311
 30
0.0
 10
114.0364501668034
 20
-133.7310275273311
 30
0.0
 10
114.0364501668034
 20
-133.7310275273311
 30
0.0
 10
114.0385172240945
 20
-133.7647894630866
 30
0.0
 10
114.0385172240945
 20
-133.7647894630866
 30
0.0
 10
114.0385172240945
 20
-133.7647894630866
 30
0.0
 10
113.8204426798782
 20
-133.7647894630866
 30
0.0
 10
113.8204426798782
 20
-133.7647894630866
 30
0.0
 10
113.824921304009
 20
-133.7098401900968
 30
0.0
 10
113.824921304009
 20
-133.6970933368014
 30
0.0
 10
113.8311224758825
 20
-133.5828884214654
 30
0.0
 10
113.8331895331736
 20
-133.5553276575834
 30
0.0
 10
113.8352565904648
 20
-133.4221747170785
 30
0.0
 10
113.8352565904648
 20
-133.4030544371353
 30
0.0
 10
113.8352565904648
 20
-133.4030544371353
 30
0.0
 10
113.8352565904648
 20
-133.1999660582798
 30
0.0
 10
113.8352565904648
 20
-133.1999660582798
 30
0.0
 10
113.6957302233122
 20
-133.4495632261862
 30
0.0
 10
113.5265760349864
 20
-133.5808213641742
 30
0.0
 10
113.4208116035892
 20
-133.646278178394
 30
0.0
 10
113.4208116035892
 20
-133.646278178394
 30
0.0
 10
113.2471787911326
 20
-133.5067518112413
 30
0.0
 10
113.2471787911326
 20
-133.5067518112413
 30
0.0
 10
113.3360622546521
 20
-133.4559366528339
 30
0.0
 10
113.4800672459355
 20
-133.3691202466056
 30
0.0
 10
113.617526555797
 20
-133.1746446064633
 30
0.0
 10
113.7084770766076
 20
-133.0476928378318
 30
0.0
 10
113.7739338908273
 20
-132.9038601013226
 30
0.0
 10
113.8080403361313
 20
-132.7514146261003
 30
0.0
 10
113.5792859959107
 20
-132.7536539381657
 30
0.0
 10
113.3994520115807
 20
-132.7600273648135
 30
0.0
 10
113.3043673761878
 20
-132.7620944221046
 30
0.0
 10
113.3043673761878
 20
-132.7620944221046
 30
0.0
 10
113.3043673761878
 20
-132.5843274950657
 30
0.0
 10
113.3043673761878
 20
-132.5843274950657
 30
0.0
 10
113.5010823283955
 20
-132.5907009217134
 30
0.0
 10
113.7846136868316
 20
-132.59500729107
 30
0.0
 10
113.9348198499885
 20
-132.59500729107
 30
0.0
 10
113.9348198499885
 20
-132.59500729107
 30
0.0
 10
114.148415770074
 20
-132.59500729107
 30
0.0
 10
114.148415770074
 20
-132.59500729107
 30
0.0
 10
114.148415770074
 20
-132.59500729107
 30
0.0
 10
114.148415770074
 20
-132.4870035476074
 30
0.0
 10
114.148415770074
 20
-132.4870035476074
 30
0.0
 10
114.148415770074
 20
-132.4870035476074
 30
0.0
 10
114.0023437214994
 20
-132.4870035476074
 30
0.0
 10
114.0023437214994
 20
-132.4870035476074
 30
0.0
 10
113.8331895331736
 20
-132.4870035476074
 30
0.0
 10
113.6640353448479
 20
-132.491309916964
 30
0.0
 10
113.4969482138132
 20
-132.4976833436117
 30
0.0
 10
113.4969482138132
 20
-132.4976833436117
 30
0.0
 10
113.4969482138132
 20
-132.3262898432205
 30
0.0
 10
113.4969482138132
 20
-132.3262898432205
 30
0.0
 10
113.6512884915524
 20
-132.3367973844505
 30
0.0
 10
113.8373236477559
 20
-132.3367973844505
 30
0.0
 10
114.0023437214994
 20
-132.3367973844505
 30
0.0
 10
114.0023437214994
 20
-132.3367973844505
 30
0.0
 10
114.148415770074
 20
-132.3367973844505
 30
0.0
 10
114.148415770074
 20
-132.3367973844505
 30
0.0
 10
114.148415770074
 20
-132.3367973844505
 30
0.0
 10
114.148415770074
 20
-132.2184583545322
 30
0.0
 10
114.148415770074
 20
-132.2184583545322
 30
0.0
 10
114.148415770074
 20
-132.2184583545322
 30
0.0
 10
114.017157632086
 20
-132.2184583545322
 30
0.0
 10
114.017157632086
 20
-132.2184583545322
 30
0.0
 10
113.9706488430351
 20
-132.2184583545322
 30
0.0
 10
113.7677327189539
 20
-132.226898838471
 30
0.0
 10
113.7253580444853
 20
-132.226898838471
 30
0.0
 10
113.5224419204041
 20
-132.2310329530533
 30
0.0
 10
113.4459608006315
 20
-132.2331000103445
 30
0.0
 10
113.3677571331164
 20
-132.2353393224099
 30
0.0
 10
113.3677571331164
 20
-132.2353393224099
 30
0.0
 10
113.3677571331164
 20
-132.0511989687233
 30
0.0
 10
113.3677571331164
 20
-132.0511989687233
 30
0.0
 10
113.4821343032267
 20
-132.0596394526621
 30
0.0
 10
113.5265760349864
 20
-132.0596394526621
 30
0.0
 10
113.9093261433977
 20
-132.0682521913753
 30
0.0
 10
113.845936386469
 20
-131.9729953012081
 30
0.0
 10
113.818375622587
 20
-131.9454345373261
 30
0.0
 10
113.7825466295405
 20
-131.9094332895053
 30
0.0
 10
113.7825466295405
 20
-131.9094332895053
 30
0.0
 10
113.9579019897397
 20
-131.8269232526335
 30
0.0
 10
113.9579019897397
 20
-131.8269232526335
 30
0.0
 10
113.9982096069171
 20
-131.8629245004544
 30
0.0
 10
114.0426513386768
 20
-131.905299174923
 30
0.0
 10
114.1167208916097
 20
-132.0151977209024
 30
0.0
 10
114.1167208916097
 20
-132.0151977209024
 30
0.0
 10
114.0023437214994
 20
-132.0703192486664
 30
0.0
 10
114.0023437214994
 20
-132.0703192486664
 30
0.0
 10
114.0023437214994
 20
-132.0703192486664
 30
0.0
 10
114.0130235175037
 20
-132.0703192486664
 30
0.0
 10
114.0130235175037
 20
-132.0703192486664
 30
0.0
 10
114.0130235175037
 20
-132.0703192486664
 30
0.0
 10
114.5356445026161
 20
-132.0703192486664
 30
0.0
 10
114.5356445026161
 20
-132.0703192486664
 30
0.0
 10
114.5356445026161
 20
-132.0703192486664
 30
0.0
 10
114.4405598672232
 20
-132.0258775169067
 30
0.0
 10
114.4405598672232
 20
-132.0258775169067
 30
0.0
 10
114.4677761215566
 20
-131.9878092117947
 30
0.0
 10
114.5249647066118
 20
-131.9073662322141
 30
0.0
 10
114.5397786171984
 20
-131.8332966792812
 30
0.0
 10
114.5397786171984
 20
-131.8332966792812
 30
0.0
 10
114.7533745372839
 20
-131.8968586909841
 30
0.0
 10
114.7533745372839
 20
-131.8968586909841
 30
0.0
 10
114.761987275997
 20
-131.8989257482753
 30
0.0
 10
114.783002358457
 20
-131.9094332895053
 30
0.0
 10
114.783002358457
 20
-131.9306206267395
 30
0.0
 10
114.783002358457
 20
-131.9686889318516
 30
0.0
 10
114.7175455442372
 20
-131.9686889318516
 30
0.0
 10
114.6985975190684
 20
-131.9686889318516
 30
0.0
 10
114.6879177230641
 20
-131.9878092117947
 30
0.0
 10
114.6644910737644
 20
-132.0279445741979
 30
0.0
 10
114.6348632525913
 20
-132.0682521913753
 30
0.0
 10
115.0348388384288
 20
-132.0618787647276
 30
0.0
 10
115.0644666596019
 20
-132.0596394526621
 30
0.0
 10
115.1406032698259
 20
-132.0534382807887
 30
0.0
 10
115.1406032698259
 20
-132.0534382807887
 30
0.0
 10
115.1406032698259
 20
-132.2353393224099
 30
0.0
 10
115.1406032698259
 20
-132.2353393224099
 30
0.0
 10
115.1216552446571
 20
-132.2353393224099
 30
0.0
 10
115.0961615380662
 20
-132.2331000103445
 30
0.0
 10
114.8763644461073
 20
-132.2246595264056
 30
0.0
 10
114.8253770329256
 20
-132.2225924691145
 30
0.0
 10
114.6055799409666
 20
-132.2184583545322
 30
0.0
 10
114.5611382092069
 20
-132.2184583545322
 30
0.0
 10
114.5611382092069
 20
-132.2184583545322
 30
0.0
 10
114.3451307222818
 20
-132.2184583545322
 30
0.0
 10
114.3451307222818
 20
-132.2184583545322
 30
0.0
 10
114.3451307222818
 20
-132.2184583545322
 30
0.0
 10
114.3451307222818
 20
-132.3367973844505
 30
0.0
 10
114.3451307222818
 20
-132.3367973844505
 30
0.0
 10
114.3451307222818
 20
-132.3367973844505
 30
0.0
 10
114.5187635347383
 20
-132.3367973844505
 30
0.0
 10
114.5187635347383
 20
-132.3367973844505
 30
0.0
 10
114.6817165511907
 20
-132.3367973844505
 30
0.0
 10
114.8718858219764
 20
-132.3367973844505
 30
0.0
 10
115.0286376665553
 20
-132.3262898432205
 30
0.0
 10
115.0286376665553
 20
-132.3262898432205
 30
0.0
 10
115.0286376665553
 20
-132.4976833436117
 30
0.0
 10
115.0286376665553
 20
-132.4976833436117
 30
0.0
 10
114.8191758610521
 20
-132.4892428596728
 30
0.0
 10
114.6224609088444
 20
-132.4870035476074
 30
0.0
 10
114.5187635347383
 20
-132.4870035476074
 30
0.0
 10
114.5187635347383
 20
-132.4870035476074
 30
0.0
 10
114.3451307222818
 20
-132.4870035476074
 30
0.0
 10
114.3451307222818
 20
-132.4870035476074
 30
0.0
 10
114.3451307222818
 20
-132.4870035476074
 30
0.0
 10
114.3451307222818
 20
-132.59500729107
 30
0.0
 10
114.3451307222818
 20
-132.59500729107
 30
0.0
 10
114.3451307222818
 20
-132.59500729107
 30
0.0
 10
114.5759521197935
 20
-132.59500729107
 30
0.0
 10
114.5759521197935
 20
-132.59500729107
 30
0.0
 10
114.7089328055241
 20
-132.59500729107
 30
0.0
 10
114.996942788091
 20
-132.5907009217134
 30
0.0
 10
115.2060600840457
 20
-132.5843274950657
 30
0.0
 10
115.2060600840457
 20
-132.5843274950657
 30
0.0
 10
115.2060600840457
 20
-132.7620944221046
 30
0.0
 10
115.2060600840457
 20
-132.7620944221046
 30
0.0
 10
115.0138237559688
 20
-132.7557209954569
 30
0.0
 10
114.7006645763595
 20
-132.7514146261003
 30
0.0
 10
114.5759521197935
 20
-132.7514146261003
 30
0.0
  0
HATCH
  5
EC
330
E0
100
AcDbEntity
  8
レイヤー 1
 62
   250
420
  2299925
440
 33554687
100
AcDbHatch
 10
0.0
 20
0.0
 30
0.0
210
0.0
220
0.0
230
1.0
  2
SOLID
 70
     1
 71
     1
 91
        4
 92
        1
 93
        1
 72
     4
 94
        3
 73
     0
 74
     0
 95
       17
 96
       13
 40
0.0
 40
0.0
 40
0.0
 40
0.0
 40
1.0
 40
1.0
 40
1.0
 40
2.0
 40
2.0
 40
2.0
 40
3.0
 40
3.0
 40
3.0
 40
4.0
 40
4.0
 40
4.0
 40
4.0
 10
114.740972193537
 20
-133.4834974167159
 10
114.740972193537
 20
-133.4834974167159
 10
114.0343831095122
 20
-133.4834974167159
 10
114.0343831095122
 20
-133.4834974167159
 10
114.0343831095122
 20
-133.4834974167159
 10
114.0343831095122
 20
-133.5977023320519
 10
114.0343831095122
 20
-133.5977023320519
 10
114.0343831095122
 20
-133.5977023320519
 10
114.740972193537
 20
-133.5977023320519
 10
114.740972193537
 20
-133.5977023320519
 10
114.740972193537
 20
-133.5977023320519
 10
114.740972193537
 20
-133.4834974167159
 10
114.740972193537
 20
-133.4834974167159
 97
        0
 97
        1
330
E8
 92
        1
 93
        1
 72
     4
 94
        3
 73
     0
 74
     0
 95
       17
 96
       13
 40
0.0
 40
0.0
 40
0.0
 40
0.0
 40
1.0
 40
1.0
 40
1.0
 40
2.0
 40
2.0
 40
2.0
 40
3.0
 40
3.0
 40
3.0
 40
4.0
 40
4.0
 40
4.0
 40
4.0
 10
114.740972193537
 20
-133.240101420683
 10
114.740972193537
 20
-133.240101420683
 10
114.0343831095122
 20
-133.240101420683
 10
114.0343831095122
 20
-133.240101420683
 10
114.0343831095122
 20
-133.240101420683
 10
114.0343831095122
 20
-133.3544785907933
 10
114.0343831095122
 20
-133.3544785907933
 10
114.0343831095122
 20
-133.3544785907933
 10
114.740972193537
 20
-133.3544785907933
 10
114.740972193537
 20
-133.3544785907933
 10
114.740972193537
 20
-133.3544785907933
 10
114.740972193537
 20
-133.240101420683
 10
114.740972193537
 20
-133.240101420683
 97
        0
 97
        1
330
E9
 92
        1
 93
        1
 72
     4
 94
        3
 73
     0
 74
     0
 95
       17
 96
       13
 40
0.0
 40
0.0
 40
0.0
 40
0.0
 40
1.0
 40
1.0
 40
1.0
 40
2.0
 40
2.0
 40
2.0
 40
3.0
 40
3.0
 40
3.0
 40
4.0
 40
4.0
 40
4.0
 40
4.0
 10
114.740972193537
 20
-133.0073852206544
 10
114.740972193537
 20
-133.0073852206544
 10
114.0343831095122
 20
-133.0073852206544
 10
114.0343831095122
 20
-133.0073852206544
 10
114.0343831095122
 20
-133.0073852206544
 10
114.0343831095122
 20
-133.115388964117
 10
114.0343831095122
 20
-133.115388964117
 10
114.0343831095122
 20
-133.115388964117
 10
114.740972193537
 20
-133.115388964117
 10
114.740972193537
 20
-133.115388964117
 10
114.740972193537
 20
-133.115388964117
 10
114.740972193537
 20
-133.0073852206544
 10
114.740972193537
 20
-133.0073852206544
 97
        0
 97
        1
330
EA
 92
        1
 93
        1
 72
     4
 94
        3
 73
     0
 74
     0
 95
      203
 96
      199
 40
0.0
 40
0.0
 40
0.0
 40
0.0
 40
1.0
 40
1.0
 40
1.0
 40
2.0
 40
2.0
 40
2.0
 40
3.0
 40
3.0
 40
3.0
 40
4.0
 40
4.0
 40
4.0
 40
5.0
 40
5.0
 40
5.0
 40
6.0
 40
6.0
 40
6.0
 40
7.0
 40
7.0
 40
7.0
 40
8.0
 40
8.0
 40
8.0
 40
9.0
 40
9.0
 40
9.0
 40
10.0
 40
10.0
 40
10.0
 40
11.0
 40
11.0
 40
11.0
 40
12.0
 40
12.0
 40
12.0
 40
13.0
 40
13.0
 40
13.0
 40
14.0
 40
14.0
 40
14.0
 40
15.0
 40
15.0
 40
15.0
 40
16.0
 40
16.0
 40
16.0
 40
17.0
 40
17.0
 40
17.0
 40
18.0
 40
18.0
 40
18.0
 40
19.0
 40
19.0
 40
19.0
 40
20.0
 40
20.0
 40
20.0
 40
21.0
 40
21.0
 40
21.0
 40
22.0
 40
22.0
 40
22.0
 40
23.0
 40
23.0
 40
23.0
 40
24.0
 40
24.0
 40
24.0
 40
25.0
 40
25.0
 40
25.0
 40
26.0
 40
26.0
 40
26.0
 40
27.0
 40
27.0
 40
27.0
 40
28.0
 40
28.0
 40
28.0
 40
29.0
 40
29.0
 40
29.0
 40
30.0
 40
30.0
 40
30.0
 40
31.0
 40
31.0
 40
31.0
 40
32.0
 40
32.0
 40
32.0
 40
33.0
 40
33.0
 40
33.0
 40
34.0
 40
34.0
 40
34.0
 40
35.0
 40
35.0
 40
35.0
 40
36.0
 40
36.0
 40
36.0
 40
37.0
 40
37.0
 40
37.0
 40
38.0
 40
38.0
 40
38.0
 40
39.0
 40
39.0
 40
39.0
 40
40.0
 40
40.0
 40
40.0
 40
41.0
 40
41.0
 40
41.0
 40
42.0
 40
42.0
 40
42.0
 40
43.0
 40
43.0
 40
43.0
 40
44.0
 40
44.0
 40
44.0
 40
45.0
 40
45.0
 40
45.0
 40
46.0
 40
46.0
 40
46.0
 40
47.0
 40
47.0
 40
47.0
 40
48.0
 40
48.0
 40
48.0
 40
49.0
 40
49.0
 40
49.0
 40
50.0
 40
50.0
 40
50.0
 40
51.0
 40
51.0
 40
51.0
 40
52.0
 40
52.0
 40
52.0
 40
53.0
 40
53.0
 40
53.0
 40
54.0
 40
54.0
 40
54.0
 40
55.0
 40
55.0
 40
55.0
 40
56.0
 40
56.0
 40
56.0
 40
57.0
 40
57.0
 40
57.0
 40
58.0
 40
58.0
 40
58.0
 40
59.0
 40
59.0
 40
59.0
 40
60.0
 40
60.0
 40
60.0
 40
61.0
 40
61.0
 40
61.0
 40
62.0
 40
62.0
 40
62.0
 40
63.0
 40
63.0
 40
63.0
 40
64.0
 40
64.0
 40
64.0
 40
65.0
 40
65.0
 40
65.0
 40
66.0
 40
66.0
 40
66.0
 40
66.0
 10
114.5759521197935
 20
-132.7514146261003
 10
114.5759521197935
 20
-132.7514146261003
 10
114.017157632086
 20
-132.7514146261003
 10
114.017157632086
 20
-132.7514146261003
 10
114.0068223456302
 20
-132.79585635786
 10
113.9982096069171
 20
-132.8275512363244
 10
113.9854627536217
 20
-132.8657917962106
 10
114.0109564602125
 20
-132.8657917962106
 10
114.0257703707991
 20
-132.8678588535018
 10
114.0319715426725
 20
-132.8678588535018
 10
114.0319715426725
 20
-132.8678588535018
 10
114.2204182657157
 20
-132.8678588535018
 10
114.2204182657157
 20
-132.8678588535018
 10
114.2204182657157
 20
-132.8678588535018
 10
114.5949001449624
 20
-132.8678588535018
 10
114.5949001449624
 20
-132.8678588535018
 10
114.6455430485955
 20
-132.8678588535018
 10
114.9290744070316
 20
-132.8551120002063
 10
114.9607692854959
 20
-132.8551120002063
 10
114.9587022282047
 20
-132.8826727640883
 10
114.9566351709136
 20
-132.9016207892572
 10
114.9566351709136
 20
-132.9312486104304
 10
114.9545681136225
 20
-132.9629434888947
 10
114.9545681136225
 20
-133.098335741465
 10
114.9545681136225
 20
-133.125896505347
 10
114.9545681136225
 20
-133.125896505347
 10
114.9545681136225
 20
-133.371359558671
 10
114.9545681136225
 20
-133.371359558671
 10
114.9545681136225
 20
-133.4158012904308
 10
114.9587022282047
 20
-133.6125162426385
 10
114.9628363427871
 20
-133.7647894630866
 10
114.9628363427871
 20
-133.7647894630866
 10
114.7364935694061
 20
-133.7647894630866
 10
114.7364935694061
 20
-133.7647894630866
 10
114.7364935694061
 20
-133.7647894630866
 10
114.7385606266973
 20
-133.7310275273311
 10
114.7385606266973
 20
-133.7310275273311
 10
114.7385606266973
 20
-133.7310275273311
 10
114.0364501668034
 20
-133.7310275273311
 10
114.0364501668034
 20
-133.7310275273311
 10
114.0364501668034
 20
-133.7310275273311
 10
114.0385172240945
 20
-133.7647894630866
 10
114.0385172240945
 20
-133.7647894630866
 10
114.0385172240945
 20
-133.7647894630866
 10
113.8204426798782
 20
-133.7647894630866
 10
113.8204426798782
 20
-133.7647894630866
 10
113.824921304009
 20
-133.7098401900968
 10
113.824921304009
 20
-133.6970933368014
 10
113.8311224758825
 20
-133.5828884214654
 10
113.8331895331736
 20
-133.5553276575834
 10
113.8352565904648
 20
-133.4221747170785
 10
113.8352565904648
 20
-133.4030544371353
 10
113.8352565904648
 20
-133.4030544371353
 10
113.8352565904648
 20
-133.1999660582798
 10
113.8352565904648
 20
-133.1999660582798
 10
113.6957302233122
 20
-133.4495632261862
 10
113.5265760349864
 20
-133.5808213641742
 10
113.4208116035892
 20
-133.646278178394
 10
113.4208116035892
 20
-133.646278178394
 10
113.2471787911326
 20
-133.5067518112413
 10
113.2471787911326
 20
-133.5067518112413
 10
113.3360622546521
 20
-133.4559366528339
 10
113.4800672459355
 20
-133.3691202466056
 10
113.617526555797
 20
-133.1746446064633
 10
113.7084770766076
 20
-133.0476928378318
 10
113.7739338908273
 20
-132.9038601013226
 10
113.8080403361313
 20
-132.7514146261003
 10
113.5792859959107
 20
-132.7536539381657
 10
113.3994520115807
 20
-132.7600273648135
 10
113.3043673761878
 20
-132.7620944221046
 10
113.3043673761878
 20
-132.7620944221046
 10
113.3043673761878
 20
-132.5843274950657
 10
113.3043673761878
 20
-132.5843274950657
 10
113.5010823283955
 20
-132.5907009217134
 10
113.7846136868316
 20
-132.59500729107
 10
113.9348198499885
 20
-132.59500729107
 10
113.9348198499885
 20
-132.59500729107
 10
114.148415770074
 20
-132.59500729107
 10
114.148415770074
 20
-132.59500729107
 10
114.148415770074
 20
-132.59500729107
 10
114.148415770074
 20
-132.4870035476074
 10
114.148415770074
 20
-132.4870035476074
 10
114.148415770074
 20
-132.4870035476074
 10
114.0023437214994
 20
-132.4870035476074
 10
114.0023437214994
 20
-132.4870035476074
 10
113.8331895331736
 20
-132.4870035476074
 10
113.6640353448479
 20
-132.491309916964
 10
113.4969482138132
 20
-132.4976833436117
 10
113.4969482138132
 20
-132.4976833436117
 10
113.4969482138132
 20
-132.3262898432205
 10
113.4969482138132
 20
-132.3262898432205
 10
113.6512884915524
 20
-132.3367973844505
 10
113.8373236477559
 20
-132.3367973844505
 10
114.0023437214994
 20
-132.3367973844505
 10
114.0023437214994
 20
-132.3367973844505
 10
114.148415770074
 20
-132.3367973844505
 10
114.148415770074
 20
-132.3367973844505
 10
114.148415770074
 20
-132.3367973844505
 10
114.148415770074
 20
-132.2184583545322
 10
114.148415770074
 20
-132.2184583545322
 10
114.148415770074
 20
-132.2184583545322
 10
114.017157632086
 20
-132.2184583545322
 10
114.017157632086
 20
-132.2184583545322
 10
113.9706488430351
 20
-132.2184583545322
 10
113.7677327189539
 20
-132.226898838471
 10
113.7253580444853
 20
-132.226898838471
 10
113.5224419204041
 20
-132.2310329530533
 10
113.4459608006315
 20
-132.2331000103445
 10
113.3677571331164
 20
-132.2353393224099
 10
113.3677571331164
 20
-132.2353393224099
 10
113.3677571331164
 20
-132.0511989687233
 10
113.3677571331164
 20
-132.0511989687233
 10
113.4821343032267
 20
-132.0596394526621
 10
113.5265760349864
 20
-132.0596394526621
 10
113.9093261433977
 20
-132.0682521913753
 10
113.845936386469
 20
-131.9729953012081
 10
113.818375622587
 20
-131.9454345373261
 10
113.7825466295405
 20
-131.9094332895053
 10
113.7825466295405
 20
-131.9094332895053
 10
113.9579019897397
 20
-131.8269232526335
 10
113.9579019897397
 20
-131.8269232526335
 10
113.9982096069171
 20
-131.8629245004544
 10
114.0426513386768
 20
-131.905299174923
 10
114.1167208916097
 20
-132.0151977209024
 10
114.1167208916097
 20
-132.0151977209024
 10
114.0023437214994
 20
-132.0703192486664
 10
114.0023437214994
 20
-132.0703192486664
 10
114.0023437214994
 20
-132.0703192486664
 10
114.0130235175037
 20
-132.0703192486664
 10
114.0130235175037
 20
-132.0703192486664
 10
114.0130235175037
 20
-132.0703192486664
 10
114.5356445026161
 20
-132.0703192486664
 10
114.5356445026161
 20
-132.0703192486664
 10
114.5356445026161
 20
-132.0703192486664
 10
114.4405598672232
 20
-132.0258775169067
 10
114.4405598672232
 20
-132.0258775169067
 10
114.4677761215566
 20
-131.9878092117947
 10
114.5249647066118
 20
-131.9073662322141
 10
114.5397786171984
 20
-131.8332966792812
 10
114.5397786171984
 20
-131.8332966792812
 10
114.7533745372839
 20
-131.8968586909841
 10
114.7533745372839
 20
-131.8968586909841
 10
114.761987275997
 20
-131.8989257482753
 10
114.783002358457
 20
-131.9094332895053
 10
114.783002358457
 20
-131.9306206267395
 10
114.783002358457
 20
-131.9686889318516
 10
114.7175455442372
 20
-131.9686889318516
 10
114.6985975190684
 20
-131.9686889318516
 10
114.6879177230641
 20
-131.9878092117947
 10
114.6644910737644
 20
-132.0279445741979
 10
114.6348632525913
 20
-132.0682521913753
 10
115.0348388384288
 20
-132.0618787647276
 10
115.0644666596019
 20
-132.0596394526621
 10
115.1406032698259
 20
-132.0534382807887
 10
115.1406032698259
 20
-132.0534382807887
 10
115.1406032698259
 20
-132.2353393224099
 10
115.1406032698259
 20
-132.2353393224099
 10
115.1216552446571
 20
-132.2353393224099
 10
115.0961615380662
 20
-132.2331000103445
 10
114.8763644461073
 20
-132.2246595264056
 10
114.8253770329256
 20
-132.2225924691145
 10
114.6055799409666
 20
-132.2184583545322
 10
114.5611382092069
 20
-132.2184583545322
 10
114.5611382092069
 20
-132.2184583545322
 10
114.3451307222818
 20
-132.2184583545322
 10
114.3451307222818
 20
-132.2184583545322
 10
114.3451307222818
 20
-132.2184583545322
 10
114.3451307222818
 20
-132.3367973844505
 10
114.3451307222818
 20
-132.3367973844505
 10
114.3451307222818
 20
-132.3367973844505
 10
114.5187635347383
 20
-132.3367973844505
 10
114.5187635347383
 20
-132.3367973844505
 10
114.6817165511907
 20
-132.3367973844505
 10
114.8718858219764
 20
-132.3367973844505
 10
115.0286376665553
 20
-132.3262898432205
 10
115.0286376665553
 20
-132.3262898432205
 10
115.0286376665553
 20
-132.4976833436117
 10
115.0286376665553
 20
-132.4976833436117
 10
114.8191758610521
 20
-132.4892428596728
 10
114.6224609088444
 20
-132.4870035476074
 10
114.5187635347383
 20
-132.4870035476074
 10
114.5187635347383
 20
-132.4870035476074
 10
114.3451307222818
 20
-132.4870035476074
 10
114.3451307222818
 20
-132.4870035476074
 10
114.3451307222818
 20
-132.4870035476074
 10
114.3451307222818
 20
-132.59500729107
 10
114.3451307222818
 20
-132.59500729107
 10
114.3451307222818
 20
-132.59500729107
 10
114.5759521197935
 20
-132.59500729107
 10
114.5759521197935
 20
-132.59500729107
 10
114.7089328055241
 20
-132.59500729107
 10
114.996942788091
 20
-132.5907009217134
 10
115.2060600840457
 20
-132.5843274950657
 10
115.2060600840457
 20
-132.5843274950657
 10
115.2060600840457
 20
-132.7620944221046
 10
115.2060600840457
 20
-132.7620944221046
 10
115.0138237559688
 20
-132.7557209954569
 10
114.7006645763595
 20
-132.7514146261003
 10
114.5759521197935
 20
-132.7514146261003
 97
        0
 97
        1
330
EB
 75
     2
 76
     1
 98
        1
 10
0.0
 20
0.0
450
        0
451
        0
460
0.0
461
0.0
452
        0
462
0.0
453
        0
470

  0
SPLINE
  5
ED
330
E0
100
AcDbEntity
  8
レイヤー 1
100
AcDbSpline
210
0.0
220
0.0
230
1.0
 70
     9
 71
     3
 72
    29
 73
    25
 74
     0
 42
0.0000000001
 43
0.0000000001
 40
0.0
 40
0.0
 40
0.0
 40
0.0
 40
1.0
 40
1.0
 40
1.0
 40
2.0
 40
2.0
 40
2.0
 40
3.0
 40
3.0
 40
3.0
 40
4.0
 40
4.0
 40
4.0
 40
5.0
 40
5.0
 40
5.0
 40
6.0
 40
6.0
 40
6.0
 40
7.0
 40
7.0
 40
7.0
 40
8.0
 40
8.0
 40
8.0
 40
8.0
 10
116.451117592415
 20
-132.199338074589
 30
0.0
 10
116.451117592415
 20
-132.199338074589
 30
0.0
 10
116.0976507956283
 20
-132.199338074589
 30
0.0
 10
116.0976507956283
 20
-132.199338074589
 30
0.0
 10
115.9856851923577
 20
-132.199338074589
 30
0.0
 10
115.8461588252051
 20
-132.2057115012368
 30
0.0
 10
115.7383273365168
 20
-132.2184583545322
 30
0.0
 10
115.7383273365168
 20
-132.2184583545322
 30
0.0
 10
115.7383273365168
 20
-131.9835028424381
 30
0.0
 10
115.7383273365168
 20
-131.9835028424381
 30
0.0
 10
115.8564941116609
 20
-131.9983167530247
 30
0.0
 10
116.0408067201217
 20
-132.0026231223813
 30
0.0
 10
116.0976507956283
 20
-132.0026231223813
 30
0.0
 10
116.0976507956283
 20
-132.0026231223813
 30
0.0
 10
116.451117592415
 20
-132.0026231223813
 30
0.0
 10
116.451117592415
 20
-132.0026231223813
 30
0.0
 10
116.4700656175839
 20
-132.0026231223813
 30
0.0
 10
116.6733262512136
 20
-132.0026231223813
 30
0.0
 10
116.8149196756574
 20
-131.9835028424381
 30
0.0
 10
116.8149196756574
 20
-131.9835028424381
 30
0.0
 10
116.8149196756574
 20
-132.2184583545322
 30
0.0
 10
116.8149196756574
 20
-132.2184583545322
 30
0.0
 10
116.658512340627
 20
-132.199338074589
 30
0.0
 10
116.4679985602927
 20
-132.199338074589
 30
0.0
 10
116.451117592415
 20
-132.199338074589
 30
0.0
  0
SPLINE
  5
EE
330
E0
100
AcDbEntity
  8
レイヤー 1
100
AcDbSpline
210
0.0
220
0.0
230
1.0
 70
     9
 71
     3
 72
    47
 73
    43
 74
     0
 42
0.0000000001
 43
0.0000000001
 40
0.0
 40
0.0
 40
0.0
 40
0.0
 40
1.0
 40
1.0
 40
1.0
 40
2.0
 40
2.0
 40
2.0
 40
3.0
 40
3.0
 40
3.0
 40
4.0
 40
4.0
 40
4.0
 40
5.0
 40
5.0
 40
5.0
 40
6.0
 40
6.0
 40
6.0
 40
7.0
 40
7.0
 40
7.0
 40
8.0
 40
8.0
 40
8.0
 40
9.0
 40
9.0
 40
9.0
 40
10.0
 40
10.0
 40
10.0
 40
11.0
 40
11.0
 40
11.0
 40
12.0
 40
12.0
 40
12.0
 40
13.0
 40
13.0
 40
13.0
 40
14.0
 40
14.0
 40
14.0
 40
14.0
 10
116.5527479092299
 20
-132.7281602315749
 30
0.0
 10
116.5527479092299
 20
-132.7281602315749
 30
0.0
 10
116.451117592415
 20
-132.7281602315749
 30
0.0
 10
116.451117592415
 20
-132.7281602315749
 30
0.0
 10
116.451117592415
 20
-132.8149766378032
 30
0.0
 10
116.430102509955
 20
-133.2042724276364
 30
0.0
 10
116.2333875577472
 20
-133.4242417743696
 30
0.0
 10
116.0807698277506
 20
-133.5933959626954
 30
0.0
 10
115.8737195890871
 20
-133.663331401046
 30
0.0
 10
115.78897024015
 20
-133.6907199101537
 30
0.0
 10
115.78897024015
 20
-133.6907199101537
 30
0.0
 10
115.5943223452333
 20
-133.5236327791191
 30
0.0
 10
115.5943223452333
 20
-133.5236327791191
 30
0.0
 10
115.6918185474659
 20
-133.5108859258237
 30
0.0
 10
115.8671739076651
 20
-133.4876315312982
 30
0.0
 10
116.0556206307083
 20
-133.2993570630293
 30
0.0
 10
116.1296901836412
 20
-133.2275268221619
 30
0.0
 10
116.2333875577472
 20
-133.087828200235
 30
0.0
 10
116.2333875577472
 20
-132.7281602315749
 30
0.0
 10
116.2333875577472
 20
-132.7281602315749
 30
0.0
 10
116.0025661602354
 20
-132.7281602315749
 30
0.0
 10
116.0025661602354
 20
-132.7281602315749
 30
0.0
 10
115.816531004032
 20
-132.7281602315749
 30
0.0
 10
115.63015133828
 20
-132.7324666009314
 30
0.0
 10
115.4441161820765
 20
-132.747280511518
 30
0.0
 10
115.4441161820765
 20
-132.747280511518
 30
0.0
 10
115.4441161820765
 20
-132.5273111647848
 30
0.0
 10
115.4441161820765
 20
-132.5273111647848
 30
0.0
 10
115.6325629051196
 20
-132.5421250753714
 30
0.0
 10
115.9181613208468
 20
-132.5462591899537
 30
0.0
 10
116.0025661602354
 20
-132.5462591899537
 30
0.0
 10
116.0025661602354
 20
-132.5462591899537
 30
0.0
 10
116.5527479092299
 20
-132.5462591899537
 30
0.0
 10
116.5527479092299
 20
-132.5462591899537
 30
0.0
 10
116.5716959343987
 20
-132.5462591899537
 30
0.0
 10
116.8889892285902
 20
-132.5462591899537
 30
0.0
 10
117.1173990592623
 20
-132.5273111647848
 30
0.0
 10
117.1173990592623
 20
-132.5273111647848
 30
0.0
 10
117.1173990592623
 20
-132.747280511518
 30
0.0
 10
117.1173990592623
 20
-132.747280511518
 30
0.0
 10
116.9292968457677
 20
-132.7324666009314
 30
0.0
 10
116.7408501227245
 20
-132.7281602315749
 30
0.0
 10
116.5527479092299
 20
-132.7281602315749
 30
0.0
  0
HATCH
  5
EF
330
E0
100
AcDbEntity
  8
レイヤー 1
 62
   250
420
  2299925
440
 33554687
100
AcDbHatch
 10
0.0
 20
0.0
 30
0.0
210
0.0
220
0.0
230
1.0
  2
SOLID
 70
     1
 71
     1
 91
        2
 92
        1
 93
        1
 72
     4
 94
        3
 73
     0
 74
     0
 95
       29
 96
       25
 40
0.0
 40
0.0
 40
0.0
 40
0.0
 40
1.0
 40
1.0
 40
1.0
 40
2.0
 40
2.0
 40
2.0
 40
3.0
 40
3.0
 40
3.0
 40
4.0
 40
4.0
 40
4.0
 40
5.0
 40
5.0
 40
5.0
 40
6.0
 40
6.0
 40
6.0
 40
7.0
 40
7.0
 40
7.0
 40
8.0
 40
8.0
 40
8.0
 40
8.0
 10
116.451117592415
 20
-132.199338074589
 10
116.451117592415
 20
-132.199338074589
 10
116.0976507956283
 20
-132.199338074589
 10
116.0976507956283
 20
-132.199338074589
 10
115.9856851923577
 20
-132.199338074589
 10
115.8461588252051
 20
-132.2057115012368
 10
115.7383273365168
 20
-132.2184583545322
 10
115.7383273365168
 20
-132.2184583545322
 10
115.7383273365168
 20
-131.9835028424381
 10
115.7383273365168
 20
-131.9835028424381
 10
115.8564941116609
 20
-131.9983167530247
 10
116.0408067201217
 20
-132.0026231223813
 10
116.0976507956283
 20
-132.0026231223813
 10
116.0976507956283
 20
-132.0026231223813
 10
116.451117592415
 20
-132.0026231223813
 10
116.451117592415
 20
-132.0026231223813
 10
116.4700656175839
 20
-132.0026231223813
 10
116.6733262512136
 20
-132.0026231223813
 10
116.8149196756574
 20
-131.9835028424381
 10
116.8149196756574
 20
-131.9835028424381
 10
116.8149196756574
 20
-132.2184583545322
 10
116.8149196756574
 20
-132.2184583545322
 10
116.658512340627
 20
-132.199338074589
 10
116.4679985602927
 20
-132.199338074589
 10
116.451117592415
 20
-132.199338074589
 97
        0
 97
        1
330
ED
 92
        1
 93
        1
 72
     4
 94
        3
 73
     0
 74
     0
 95
       47
 96
       43
 40
0.0
 40
0.0
 40
0.0
 40
0.0
 40
1.0
 40
1.0
 40
1.0
 40
2.0
 40
2.0
 40
2.0
 40
3.0
 40
3.0
 40
3.0
 40
4.0
 40
4.0
 40
4.0
 40
5.0
 40
5.0
 40
5.0
 40
6.0
 40
6.0
 40
6.0
 40
7.0
 40
7.0
 40
7.0
 40
8.0
 40
8.0
 40
8.0
 40
9.0
 40
9.0
 40
9.0
 40
10.0
 40
10.0
 40
10.0
 40
11.0
 40
11.0
 40
11.0
 40
12.0
 40
12.0
 40
12.0
 40
13.0
 40
13.0
 40
13.0
 40
14.0
 40
14.0
 40
14.0
 40
14.0
 10
116.5527479092299
 20
-132.7281602315749
 10
116.5527479092299
 20
-132.7281602315749
 10
116.451117592415
 20
-132.7281602315749
 10
116.451117592415
 20
-132.7281602315749
 10
116.451117592415
 20
-132.8149766378032
 10
116.430102509955
 20
-133.2042724276364
 10
116.2333875577472
 20
-133.4242417743696
 10
116.0807698277506
 20
-133.5933959626954
 10
115.8737195890871
 20
-133.663331401046
 10
115.78897024015
 20
-133.6907199101537
 10
115.78897024015
 20
-133.6907199101537
 10
115.5943223452333
 20
-133.5236327791191
 10
115.5943223452333
 20
-133.5236327791191
 10
115.6918185474659
 20
-133.5108859258237
 10
115.8671739076651
 20
-133.4876315312982
 10
116.0556206307083
 20
-133.2993570630293
 10
116.1296901836412
 20
-133.2275268221619
 10
116.2333875577472
 20
-133.087828200235
 10
116.2333875577472
 20
-132.7281602315749
 10
116.2333875577472
 20
-132.7281602315749
 10
116.0025661602354
 20
-132.7281602315749
 10
116.0025661602354
 20
-132.7281602315749
 10
115.816531004032
 20
-132.7281602315749
 10
115.63015133828
 20
-132.7324666009314
 10
115.4441161820765
 20
-132.747280511518
 10
115.4441161820765
 20
-132.747280511518
 10
115.4441161820765
 20
-132.5273111647848
 10
115.4441161820765
 20
-132.5273111647848
 10
115.6325629051196
 20
-132.5421250753714
 10
115.9181613208468
 20
-132.5462591899537
 10
116.0025661602354
 20
-132.5462591899537
 10
116.0025661602354
 20
-132.5462591899537
 10
116.5527479092299
 20
-132.5462591899537
 10
116.5527479092299
 20
-132.5462591899537
 10
116.5716959343987
 20
-132.5462591899537
 10
116.8889892285902
 20
-132.5462591899537
 10
117.1173990592623
 20
-132.5273111647848
 10
117.1173990592623
 20
-132.5273111647848
 10
117.1173990592623
 20
-132.747280511518
 10
117.1173990592623
 20
-132.747280511518
 10
116.9292968457677
 20
-132.7324666009314
 10
116.7408501227245
 20
-132.7281602315749
 10
116.5527479092299
 20
-132.7281602315749
 97
        0
 97
        1
330
EE
 75
     2
 76
     1
 98
        1
 10
0.0
 20
0.0
450
        0
451
        0
460
0.0
461
0.0
452
        0
462
0.0
453
        0
470

  0
SPLINE
  5
F0
330
E0
100
AcDbEntity
  8
レイヤー 1
100
AcDbSpline
210
0.0
220
0.0
230
1.0
 70
     9
 71
     3
 72
    29
 73
    25
 74
     0
 42
0.0000000001
 43
0.0000000001
 40
0.0
 40
0.0
 40
0.0
 40
0.0
 40
1.0
 40
1.0
 40
1.0
 40
2.0
 40
2.0
 40
2.0
 40
3.0
 40
3.0
 40
3.0
 40
4.0
 40
4.0
 40
4.0
 40
5.0
 40
5.0
 40
5.0
 40
6.0
 40
6.0
 40
6.0
 40
7.0
 40
7.0
 40
7.0
 40
8.0
 40
8.0
 40
8.0
 40
8.0
 10
118.3986300702267
 20
-132.8911132480272
 30
0.0
 10
118.3986300702267
 20
-132.8911132480272
 30
0.0
 10
117.9142496450006
 20
-132.8911132480272
 30
0.0
 10
117.9142496450006
 20
-132.8911132480272
 30
0.0
 10
117.8866888811186
 20
-132.8911132480272
 30
0.0
 10
117.5693955869271
 20
-132.8911132480272
 30
0.0
 10
117.3578667241327
 20
-132.9164346998438
 30
0.0
 10
117.3578667241327
 20
-132.9164346998438
 30
0.0
 10
117.3578667241327
 20
-132.6859578118806
 30
0.0
 10
117.3578667241327
 20
-132.6859578118806
 30
0.0
 10
117.5163411164542
 20
-132.709212206406
 30
0.0
 10
117.7068548967886
 20
-132.7112792636972
 30
0.0
 10
117.9142496450006
 20
-132.7112792636972
 30
0.0
 10
117.9142496450006
 20
-132.7112792636972
 30
0.0
 10
118.3986300702267
 20
-132.7112792636972
 30
0.0
 10
118.3986300702267
 20
-132.7112792636972
 30
0.0
 10
118.5846652264302
 20
-132.7112792636972
 30
0.0
 10
118.7710448921822
 20
-132.709212206406
 30
0.0
 10
118.9550129910946
 20
-132.6859578118806
 30
0.0
 10
118.9550129910946
 20
-132.6859578118806
 30
0.0
 10
118.9550129910946
 20
-132.9164346998438
 30
0.0
 10
118.9550129910946
 20
-132.9164346998438
 30
0.0
 10
118.7710448921822
 20
-132.8931803053183
 30
0.0
 10
118.5233425267927
 20
-132.8911132480272
 30
0.0
 10
118.3986300702267
 20
-132.8911132480272
 30
0.0
  0
HATCH
  5
F1
330
E0
100
AcDbEntity
  8
レイヤー 1
 62
   250
420
  2299925
440
 33554687
100
AcDbHatch
 10
0.0
 20
0.0
 30
0.0
210
0.0
220
0.0
230
1.0
  2
SOLID
 70
     1
 71
     1
 91
        1
 92
        1
 93
        1
 72
     4
 94
        3
 73
     0
 74
     0
 95
       29
 96
       25
 40
0.0
 40
0.0
 40
0.0
 40
0.0
 40
1.0
 40
1.0
 40
1.0
 40
2.0
 40
2.0
 40
2.0
 40
3.0
 40
3.0
 40
3.0
 40
4.0
 40
4.0
 40
4.0
 40
5.0
 40
5.0
 40
5.0
 40
6.0
 40
6.0
 40
6.0
 40
7.0
 40
7.0
 40
7.0
 40
8.0
 40
8.0
 40
8.0
 40
8.0
 10
118.3986300702267
 20
-132.8911132480272
 10
118.3986300702267
 20
-132.8911132480272
 10
117.9142496450006
 20
-132.8911132480272
 10
117.9142496450006
 20
-132.8911132480272
 10
117.8866888811186
 20
-132.8911132480272
 10
117.5693955869271
 20
-132.8911132480272
 10
117.3578667241327
 20
-132.9164346998438
 10
117.3578667241327
 20
-132.9164346998438
 10
117.3578667241327
 20
-132.6859578118806
 10
117.3578667241327
 20
-132.6859578118806
 10
117.5163411164542
 20
-132.709212206406
 10
117.7068548967886
 20
-132.7112792636972
 10
117.9142496450006
 20
-132.7112792636972
 10
117.9142496450006
 20
-132.7112792636972
 10
118.3986300702267
 20
-132.7112792636972
 10
118.3986300702267
 20
-132.7112792636972
 10
118.5846652264302
 20
-132.7112792636972
 10
118.7710448921822
 20
-132.709212206406
 10
118.9550129910946
 20
-132.6859578118806
 10
118.9550129910946
 20
-132.6859578118806
 10
118.9550129910946
 20
-132.9164346998438
 10
118.9550129910946
 20
-132.9164346998438
 10
118.7710448921822
 20
-132.8931803053183
 10
118.5233425267927
 20
-132.8911132480272
 10
118.3986300702267
 20
-132.8911132480272
 97
        0
 97
        1
330
F0
 75
     2
 76
     1
 98
        1
 10
0.0
 20
0.0
450
        0
451
        0
460
0.0
461
0.0
452
        0
462
0.0
453
        0
470

  0
SPLINE
  5
F2
330
E0
100
AcDbEntity
  8
レイヤー 1
100
AcDbSpline
210
0.0
220
0.0
230
1.0
 70
     9
 71
     3
 72
    17
 73
    13
 74
     0
 42
0.0000000001
 43
0.0000000001
 40
0.0
 40
0.0
 40
0.0
 40
0.0
 40
1.0
 40
1.0
 40
1.0
 40
2.0
 40
2.0
 40
2.0
 40
3.0
 40
3.0
 40
3.0
 40
4.0
 40
4.0
 40
4.0
 40
4.0
 10
120.8174316104206
 20
-131.9242472000918
 30
0.0
 10
120.7626545922052
 20
-131.9242472000918
 30
0.0
 10
120.7182128604454
 20
-131.9686889318516
 30
0.0
 10
120.7182128604454
 20
-132.0238104596156
 30
0.0
 10
120.7182128604454
 20
-132.0808267898964
 30
0.0
 10
120.7626545922052
 20
-132.1295748910127
 30
0.0
 10
120.8215657250029
 20
-132.1295748910127
 30
0.0
 10
120.8808213673492
 20
-132.1295748910127
 30
0.0
 10
120.9211289845266
 20
-132.0787597326053
 30
0.0
 10
120.9211289845266
 20
-132.0258775169067
 30
0.0
 10
120.9211289845266
 20
-131.9686889318516
 30
0.0
 10
120.8746201954758
 20
-131.9242472000918
 30
0.0
 10
120.8174316104206
 20
-131.9242472000918
 30
0.0
  0
SPLINE
  5
F3
330
E0
100
AcDbEntity
  8
レイヤー 1
100
AcDbSpline
210
0.0
220
0.0
230
1.0
 70
     9
 71
     3
 72
    17
 73
    13
 74
     0
 42
0.0000000001
 43
0.0000000001
 40
0.0
 40
0.0
 40
0.0
 40
0.0
 40
1.0
 40
1.0
 40
1.0
 40
2.0
 40
2.0
 40
2.0
 40
3.0
 40
3.0
 40
3.0
 40
4.0
 40
4.0
 40
4.0
 40
4.0
 10
120.8194986677118
 20
-132.2542873475788
 30
0.0
 10
120.6927191538546
 20
-132.2542873475788
 30
0.0
 10
120.5910888370397
 20
-132.1528292855382
 30
0.0
 10
120.5910888370397
 20
-132.0258775169067
 30
0.0
 10
120.5910888370397
 20
-131.8989257482753
 30
0.0
 10
120.6927191538546
 20
-131.7952283741692
 30
0.0
 10
120.8194986677118
 20
-131.7952283741692
 30
0.0
 10
120.9466226911175
 20
-131.7952283741692
 30
0.0
 10
121.0503200652235
 20
-131.8989257482753
 30
0.0
 10
121.0503200652235
 20
-132.0258775169067
 30
0.0
 10
121.0503200652235
 20
-132.1528292855382
 30
0.0
 10
120.9466226911175
 20
-132.2542873475788
 30
0.0
 10
120.8194986677118
 20
-132.2542873475788
 30
0.0
  0
SPLINE
  5
F4
330
E0
100
AcDbEntity
  8
レイヤー 1
100
AcDbSpline
210
0.0
220
0.0
230
1.0
 70
     9
 71
     3
 72
    44
 73
    40
 74
     0
 42
0.0000000001
 43
0.0000000001
 40
0.0
 40
0.0
 40
0.0
 40
0.0
 40
1.0
 40
1.0
 40
1.0
 40
2.0
 40
2.0
 40
2.0
 40
3.0
 40
3.0
 40
3.0
 40
4.0
 40
4.0
 40
4.0
 40
5.0
 40
5.0
 40
5.0
 40
6.0
 40
6.0
 40
6.0
 40
7.0
 40
7.0
 40
7.0
 40
8.0
 40
8.0
 40
8.0
 40
9.0
 40
9.0
 40
9.0
 40
10.0
 40
10.0
 40
10.0
 40
11.0
 40
11.0
 40
11.0
 40
12.0
 40
12.0
 40
12.0
 40
13.0
 40
13.0
 40
13.0
 40
13.0
 10
120.6100368622086
 20
-132.453241611852
 30
0.0
 10
120.498071258938
 20
-132.8213500644509
 30
0.0
 10
120.4474283553048
 20
-132.9799967115466
 30
0.0
 10
120.250713403097
 20
-133.229593879453
 30
0.0
 10
120.0664007946361
 20
-133.4602430221905
 30
0.0
 10
119.8297227347995
 20
-133.646278178394
 30
0.0
 10
119.5503254909457
 20
-133.73946801127
 30
0.0
 10
119.5503254909457
 20
-133.73946801127
 30
0.0
 10
119.3577446533203
 20
-133.5596340269399
 30
0.0
 10
119.3577446533203
 20
-133.5596340269399
 30
0.0
 10
119.9988769231252
 20
-133.4073608064919
 30
0.0
 10
120.3289170706122
 20
-132.850977885624
 30
0.0
 10
120.3923068275408
 20
-132.4108669373834
 30
0.0
 10
120.3923068275408
 20
-132.4108669373834
 30
0.0
 10
119.6264621011698
 20
-132.4108669373834
 30
0.0
 10
119.6264621011698
 20
-132.4108669373834
 30
0.0
 10
119.533444523068
 20
-132.4108669373834
 30
0.0
 10
119.3494764241557
 20
-132.4151733067399
 30
0.0
 10
119.1927245795768
 20
-132.4341213319088
 30
0.0
 10
119.1927245795768
 20
-132.4341213319088
 30
0.0
 10
119.1927245795768
 20
-132.2141519851756
 30
0.0
 10
119.1927245795768
 20
-132.2141519851756
 30
0.0
 10
119.2795409858051
 20
-132.2353393224099
 30
0.0
 10
119.5313774657769
 20
-132.2353393224099
 30
0.0
 10
119.630596215752
 20
-132.2353393224099
 30
0.0
 10
119.630596215752
 20
-132.2353393224099
 30
0.0
 10
120.0622666800539
 20
-132.2353393224099
 30
0.0
 10
120.0622666800539
 20
-132.2353393224099
 30
0.0
 10
120.1046413545224
 20
-132.2353393224099
 30
0.0
 10
120.3392523570679
 20
-132.2331000103445
 30
0.0
 10
120.3774929169542
 20
-132.226898838471
 30
0.0
 10
120.4198675914228
 20
-132.2205254118233
 30
0.0
 10
120.421934648714
 20
-132.2184583545322
 30
0.0
 10
120.4832573483514
 20
-132.1781507373547
 30
0.0
 10
120.4832573483514
 20
-132.1781507373547
 30
0.0
 10
120.671359561846
 20
-132.3326632698682
 30
0.0
 10
120.671359561846
 20
-132.3326632698682
 30
0.0
 10
120.6420762502214
 20
-132.3622910910414
 30
0.0
 10
120.6272623396348
 20
-132.3939859695057
 30
0.0
 10
120.6100368622086
 20
-132.453241611852
 30
0.0
  0
HATCH
  5
F5
330
E0
100
AcDbEntity
  8
レイヤー 1
 62
   250
420
  2299925
440
 33554687
100
AcDbHatch
 10
0.0
 20
0.0
 30
0.0
210
0.0
220
0.0
230
1.0
  2
SOLID
 70
     1
 71
     1
 91
        3
 92
        1
 93
        1
 72
     4
 94
        3
 73
     0
 74
     0
 95
       17
 96
       13
 40
0.0
 40
0.0
 40
0.0
 40
0.0
 40
1.0
 40
1.0
 40
1.0
 40
2.0
 40
2.0
 40
2.0
 40
3.0
 40
3.0
 40
3.0
 40
4.0
 40
4.0
 40
4.0
 40
4.0
 10
120.8174316104206
 20
-131.9242472000918
 10
120.7626545922052
 20
-131.9242472000918
 10
120.7182128604454
 20
-131.9686889318516
 10
120.7182128604454
 20
-132.0238104596156
 10
120.7182128604454
 20
-132.0808267898964
 10
120.7626545922052
 20
-132.1295748910127
 10
120.8215657250029
 20
-132.1295748910127
 10
120.8808213673492
 20
-132.1295748910127
 10
120.9211289845266
 20
-132.0787597326053
 10
120.9211289845266
 20
-132.0258775169067
 10
120.9211289845266
 20
-131.9686889318516
 10
120.8746201954758
 20
-131.9242472000918
 10
120.8174316104206
 20
-131.9242472000918
 97
        0
 97
        1
330
F2
 92
        1
 93
        1
 72
     4
 94
        3
 73
     0
 74
     0
 95
       17
 96
       13
 40
0.0
 40
0.0
 40
0.0
 40
0.0
 40
1.0
 40
1.0
 40
1.0
 40
2.0
 40
2.0
 40
2.0
 40
3.0
 40
3.0
 40
3.0
 40
4.0
 40
4.0
 40
4.0
 40
4.0
 10
120.8194986677118
 20
-132.2542873475788
 10
120.6927191538546
 20
-132.2542873475788
 10
120.5910888370397
 20
-132.1528292855382
 10
120.5910888370397
 20
-132.0258775169067
 10
120.5910888370397
 20
-131.8989257482753
 10
120.6927191538546
 20
-131.7952283741692
 10
120.8194986677118
 20
-131.7952283741692
 10
120.9466226911175
 20
-131.7952283741692
 10
121.0503200652235
 20
-131.8989257482753
 10
121.0503200652235
 20
-132.0258775169067
 10
121.0503200652235
 20
-132.1528292855382
 10
120.9466226911175
 20
-132.2542873475788
 10
120.8194986677118
 20
-132.2542873475788
 97
        0
 97
        1
330
F3
 92
        1
 93
        1
 72
     4
 94
        3
 73
     0
 74
     0
 95
       44
 96
       40
 40
0.0
 40
0.0
 40
0.0
 40
0.0
 40
1.0
 40
1.0
 40
1.0
 40
2.0
 40
2.0
 40
2.0
 40
3.0
 40
3.0
 40
3.0
 40
4.0
 40
4.0
 40
4.0
 40
5.0
 40
5.0
 40
5.0
 40
6.0
 40
6.0
 40
6.0
 40
7.0
 40
7.0
 40
7.0
 40
8.0
 40
8.0
 40
8.0
 40
9.0
 40
9.0
 40
9.0
 40
10.0
 40
10.0
 40
10.0
 40
11.0
 40
11.0
 40
11.0
 40
12.0
 40
12.0
 40
12.0
 40
13.0
 40
13.0
 40
13.0
 40
13.0
 10
120.6100368622086
 20
-132.453241611852
 10
120.498071258938
 20
-132.8213500644509
 10
120.4474283553048
 20
-132.9799967115466
 10
120.250713403097
 20
-133.229593879453
 10
120.0664007946361
 20
-133.4602430221905
 10
119.8297227347995
 20
-133.646278178394
 10
119.5503254909457
 20
-133.73946801127
 10
119.5503254909457
 20
-133.73946801127
 10
119.3577446533203
 20
-133.5596340269399
 10
119.3577446533203
 20
-133.5596340269399
 10
119.9988769231252
 20
-133.4073608064919
 10
120.3289170706122
 20
-132.850977885624
 10
120.3923068275408
 20
-132.4108669373834
 10
120.3923068275408
 20
-132.4108669373834
 10
119.6264621011698
 20
-132.4108669373834
 10
119.6264621011698
 20
-132.4108669373834
 10
119.533444523068
 20
-132.4108669373834
 10
119.3494764241557
 20
-132.4151733067399
 10
119.1927245795768
 20
-132.4341213319088
 10
119.1927245795768
 20
-132.4341213319088
 10
119.1927245795768
 20
-132.2141519851756
 10
119.1927245795768
 20
-132.2141519851756
 10
119.2795409858051
 20
-132.2353393224099
 10
119.5313774657769
 20
-132.2353393224099
 10
119.630596215752
 20
-132.2353393224099
 10
119.630596215752
 20
-132.2353393224099
 10
120.0622666800539
 20
-132.2353393224099
 10
120.0622666800539
 20
-132.2353393224099
 10
120.1046413545224
 20
-132.2353393224099
 10
120.3392523570679
 20
-132.2331000103445
 10
120.3774929169542
 20
-132.226898838471
 10
120.4198675914228
 20
-132.2205254118233
 10
120.421934648714
 20
-132.2184583545322
 10
120.4832573483514
 20
-132.1781507373547
 10
120.4832573483514
 20
-132.1781507373547
 10
120.671359561846
 20
-132.3326632698682
 10
120.671359561846
 20
-132.3326632698682
 10
120.6420762502214
 20
-132.3622910910414
 10
120.6272623396348
 20
-132.3939859695057
 10
120.6100368622086
 20
-132.453241611852
 97
        0
 97
        1
330
F4
 75
     2
 76
     1
 98
        1
 10
0.0
 20
0.0
450
        0
451
        0
460
0.0
461
0.0
452
        0
462
0.0
453
        0
470

  0
ENDBLK
  5
E3
330
E0
100
AcDbEntity
  8
0
100
AcDbBlockEnd
  0
ENDSEC
  0
SECTION
  2
ENTITIES
  0
INSERT
  5
7A
330
70
100
AcDbEntity
  8
レイヤー 1
100
AcDbBlockReference
  2
Block_0
 10
0.0
 20
0.0
 30
0.0
  0
LINE
  5
D4
330
70
100
AcDbEntity
  8
レイヤー 1
  6
AI-Linetype-0
 62
   154
420
    23468
370
    25
100
AcDbLine
 10
115.7879049298412
 20
-135.3631392854231
 30
0.0
 11
101.0879049335163
 21
-135.3631392854231
 31
0.0
  0
INSERT
  5
D7
330
70
100
AcDbEntity
  8
レイヤー 1
100
AcDbBlockReference
  2
Block_9
 10
0.0
 20
0.0
 30
0.0
  0
INSERT
  5
DD
330
70
100
AcDbEntity
  8
レイヤー 1
100
AcDbBlockReference
  2
Block_10
 10
0.0
 20
0.0
 30
0.0
  0
ENDSEC
  0
SECTION
  2
OBJECTS
  0
DICTIONARY
  5
C
330
0
100
AcDbDictionary
281
     1
  3
ACAD_COLOR
350
63
  3
ACAD_DETAILVIEWSTYLE
350
6A
  3
ACAD_GROUP
350
D
  3
ACAD_LAYOUT
350
62
  3
ACAD_MATERIAL
350
10
  3
ACAD_MLEADERSTYLE
350
66
  3
ACAD_MLINESTYLE
350
5F
  3
ACAD_PLOTSETTINGS
350
61
  3
ACAD_PLOTSTYLENAME
350
E
  3
ACAD_SCALELIST
350
42
  3
ACAD_SECTIONVIEWSTYLE
350
68
  3
ACAD_TABLESTYLE
350
64
  3
ACAD_VISUALSTYLE
350
29
  3
ACDB_RECOMPOSE_DATA
350
FE
  3
AcDbVariableDictionary
350
F6
  0
DICTIONARY
  5
63
102
{ACAD_REACTORS
330
C
102
}
330
C
100
AcDbDictionary
281
     1
  0
DICTIONARY
  5
6A
102
{ACAD_REACTORS
330
C
102
}
330
C
100
AcDbDictionary
281
     1
  3
Imperial24
350
6B
  0
DICTIONARY
  5
D
102
{ACAD_REACTORS
330
C
102
}
330
C
100
AcDbDictionary
281
     1
  0
DICTIONARY
  5
62
102
{ACAD_REACTORS
330
C
102
}
330
C
100
AcDbDictionary
281
     1
  3
Layout1
350
6F
  3
Layout2
350
77
  3
Model
350
73
  0
DICTIONARY
  5
10
102
{ACAD_REACTORS
330
C
102
}
330
C
100
AcDbDictionary
281
     1
  3
ByBlock
350
19
  3
ByLayer
350
11
  3
Global
350
21
  0
DICTIONARY
  5
66
102
{ACAD_REACTORS
330
C
102
}
330
C
100
AcDbDictionary
281
     1
  3
Standard
350
67
  0
DICTIONARY
  5
5F
102
{ACAD_REACTORS
330
C
102
}
330
C
100
AcDbDictionary
281
     1
  3
Standard
350
60
  0
DICTIONARY
  5
61
102
{ACAD_REACTORS
330
C
102
}
330
C
100
AcDbDictionary
281
     1
  0
ACDBDICTIONARYWDFLT
  5
E
102
{ACAD_REACTORS
330
C
102
}
330
C
100
AcDbDictionary
281
     1
  3
Normal
350
F
100
AcDbDictionaryWithDefault
340
F
  0
DICTIONARY
  5
42
102
{ACAD_REACTORS
330
C
102
}
330
C
100
AcDbDictionary
281
     1
  3
A0
350
43
  3
A1
350
44
  3
A2
350
45
  3
A3
350
46
  3
A4
350
47
  3
A5
350
48
  3
A6
350
49
  3
A7
350
4A
  3
A8
350
4B
  3
A9
350
4C
  3
B0
350
4D
  3
B1
350
4E
  3
B2
350
4F
  3
B3
350
50
  3
B4
350
51
  3
B5
350
52
  3
B6
350
53
  0
DICTIONARY
  5
68
102
{ACAD_REACTORS
330
C
102
}
330
C
100
AcDbDictionary
281
     1
  3
Imperial24
350
69
  0
DICTIONARY
  5
64
102
{ACAD_REACTORS
330
C
102
}
330
C
100
AcDbDictionary
281
     1
  3
Standard
350
65
  0
DICTIONARY
  5
29
102
{ACAD_REACTORS
330
C
102
}
330
C
100
AcDbDictionary
281
     1
  3
2dWireframe
350
2F
  3
Basic
350
2E
  3
Brighten
350
35
  3
ColorChange
350
39
  3
Conceptual
350
32
  3
Dim
350
34
  3
EdgeColorOff
350
41
  3
Facepattern
350
38
  3
Flat
350
2A
  3
FlatWithEdges
350
2B
  3
Gouraud
350
2C
  3
GouraudWithEdges
350
2D
  3
Hidden
350
31
  3
JitterOff
350
3F
  3
Linepattern
350
37
  3
OverhangOff
350
40
  3
Realistic
350
33
  3
Shaded
350
3E
  3
Shaded with edges
350
3D
  3
Shades of Gray
350
3A
  3
Sketchy
350
3B
  3
Thicken
350
36
  3
Wireframe
350
30
  3
X-Ray
350
3C
  0
XRECORD
  5
FE
102
{ACAD_REACTORS
330
C
102
}
330
C
100
AcDbXrecord
280
     1
 90
        1
330
65
  0
DICTIONARY
  5
F6
102
{ACAD_REACTORS
330
C
102
}
330
C
100
AcDbDictionary
281
     1
  3
CANNOSCALE
350
FB
  3
CMLEADERSTYLE
350
F8
  3
CTABLESTYLE
350
F7
  3
CVIEWDETAILSTYLE
350
F9
  3
CVIEWSECTIONSTYLE
350
FA
  0
ACDBDETAILVIEWSTYLE
  5
6B
102
{ACAD_XDICTIONARY
360
133
102
}
102
{ACAD_REACTORS
330
6A
102
}
330
6A
100
AcDbModelDocViewStyle
 70
     0
  3
Imperial24
290
     0
100
AcDbDetailViewStyle
 70
     0
 71
     0
 90
        3
 71
     1
340
55
 62
   256
 40
0.24
340
0
 62
   256
 40
0.24
300

 40
0.36
280
     3
 71
     2
340
5D
 90
       25
 62
   256
 71
     3
340
55
 62
   256
 40
0.24
 90
        1
 40
0.75
 90
        1
300
%<\AcVar ViewType \f "%tc1">% %<\AcVar ViewDetailId>%\PSCALE %<\AcVar ViewScale \f "%sn">%
 71
     4
340
5D
 90
       25
 62
   256
340
5D
 90
       25
 62
   256
280
     0
  0
LAYOUT
  5
6F
102
{ACAD_REACTORS
330
62
102
}
330
62
100
AcDbPlotSettings
  1

  2

  4

  6

 40
0.0
 41
0.0
 42
0.0
 43
0.0
 44
0.0
 45
0.0
 46
0.0
 47
0.0
 48
0.0
 49
0.0
140
0.0
141
0.0
142
1.0
143
1.0
 70
   688
 72
     0
 73
     0
 74
     5
  7

 75
    16
147
1.0
 76
     0
 77
     2
 78
   300
148
0.0
149
0.0
100
AcDbLayout
  1
Layout1
 70
     1
 71
     1
 10
0.0
 20
0.0
 11
12.0
 21
9.0
 12
0.0
 22
0.0
 32
0.0
 14
0.0
 24
0.0
 34
0.0
 15
0.0
 25
0.0
 35
0.0
146
0.0
 13
0.0
 23
0.0
 33
0.0
 16
1.0
 26
0.0
 36
0.0
 17
0.0
 27
1.0
 37
0.0
 76
     0
330
6C
  0
LAYOUT
  5
77
102
{ACAD_REACTORS
330
62
102
}
330
62
100
AcDbPlotSettings
  1

  2

  4

  6

 40
0.0
 41
0.0
 42
0.0
 43
0.0
 44
0.0
 45
0.0
 46
0.0
 47
0.0
 48
0.0
 49
0.0
140
0.0
141
0.0
142
1.0
143
1.0
 70
   688
 72
     0
 73
     0
 74
     5
  7

 75
    16
147
1.0
 76
     0
 77
     2
 78
   300
148
0.0
149
0.0
100
AcDbLayout
  1
Layout2
 70
     1
 71
     2
 10
0.0
 20
0.0
 11
12.0
 21
9.0
 12
0.0
 22
0.0
 32
0.0
 14
0.0
 24
0.0
 34
0.0
 15
0.0
 25
0.0
 35
0.0
146
0.0
 13
0.0
 23
0.0
 33
0.0
 16
1.0
 26
0.0
 36
0.0
 17
0.0
 27
1.0
 37
0.0
 76
     0
330
74
  0
LAYOUT
  5
73
102
{ACAD_REACTORS
330
62
102
}
330
62
100
AcDbPlotSettings
  1

  2

  4

  6

 40
0.0
 41
0.0
 42
0.0
 43
0.0
 44
0.0
 45
0.0
 46
0.0
 47
0.0
 48
0.0
 49
0.0
140
0.0
141
0.0
142
1.0
143
1.0
 70
  1712
 72
     0
 73
     0
 74
     0
  7

 75
     0
147
1.0
 76
     0
 77
     2
 78
   300
148
0.0
149
0.0
100
AcDbLayout
  1
Model
 70
     1
 71
     0
 10
0.0
 20
0.0
 11
12.0
 21
9.0
 12
0.0
 22
0.0
 32
0.0
 14
0.0
 24
0.0
 34
0.0
 15
0.0
 25
0.0
 35
0.0
146
0.0
 13
0.0
 23
0.0
 33
0.0
 16
1.0
 26
0.0
 36
0.0
 17
0.0
 27
1.0
 37
0.0
 76
     0
330
70
  0
MATERIAL
  5
19
102
{ACAD_XDICTIONARY
360
1A
102
}
102
{ACAD_REACTORS
330
10
102
}
330
10
100
AcDbMaterial
  1
ByBlock
 72
     0
 43
0.0208333333333333
 43
0.0
 43
0.0
 43
0.0
 43
0.0
 43
0.0208333333333333
 43
0.0
 43
0.0
 43
0.0
 43
0.0
 43
1.0
 43
0.0
 43
0.0
 43
0.0
 43
0.0
 43
1.0
 77
     0
 47
0.0208333333333333
 47
0.0
 47
0.0
 47
0.0
 47
0.0
 47
0.0208333333333333
 47
0.0
 47
0.0
 47
0.0
 47
0.0
 47
1.0
 47
0.0
 47
0.0
 47
0.0
 47
0.0
 47
1.0
171
     0
 49
0.0208333333333333
 49
0.0
 49
0.0
 49
0.0
 49
0.0
 49
0.0208333333333333
 49
0.0
 49
0.0
 49
0.0
 49
0.0
 49
1.0
 49
0.0
 49
0.0
 49
0.0
 49
0.0
 49
1.0
175
     0
142
0.0208333333333333
142
0.0
142
0.0
142
0.0
142
0.0
142
0.0208333333333333
142
0.0
142
0.0
142
0.0
142
0.0
142
1.0
142
0.0
142
0.0
142
0.0
142
0.0
142
1.0
179
     0
144
0.0208333333333333
144
0.0
144
0.0
144
0.0
144
0.0
144
0.0208333333333333
144
0.0
144
0.0
144
0.0
144
0.0
144
1.0
144
0.0
144
0.0
144
0.0
144
0.0
144
1.0
147
0.0208333333333333
147
0.0
147
0.0
147
0.0
147
0.0
147
0.0208333333333333
147
0.0
147
0.0
147
0.0
147
0.0
147
1.0
147
0.0
147
0.0
147
0.0
147
0.0
147
1.0
  0
MATERIAL
  5
11
102
{ACAD_XDICTIONARY
360
12
102
}
102
{ACAD_REACTORS
330
10
102
}
330
10
100
AcDbMaterial
  1
ByLayer
 72
     0
 43
0.0208333333333333
 43
0.0
 43
0.0
 43
0.0
 43
0.0
 43
0.0208333333333333
 43
0.0
 43
0.0
 43
0.0
 43
0.0
 43
1.0
 43
0.0
 43
0.0
 43
0.0
 43
0.0
 43
1.0
 77
     0
 47
0.0208333333333333
 47
0.0
 47
0.0
 47
0.0
 47
0.0
 47
0.0208333333333333
 47
0.0
 47
0.0
 47
0.0
 47
0.0
 47
1.0
 47
0.0
 47
0.0
 47
0.0
 47
0.0
 47
1.0
171
     0
 49
0.0208333333333333
 49
0.0
 49
0.0
 49
0.0
 49
0.0
 49
0.0208333333333333
 49
0.0
 49
0.0
 49
0.0
 49
0.0
 49
1.0
 49
0.0
 49
0.0
 49
0.0
 49
0.0
 49
1.0
175
     0
142
0.0208333333333333
142
0.0
142
0.0
142
0.0
142
0.0
142
0.0208333333333333
142
0.0
142
0.0
142
0.0
142
0.0
142
1.0
142
0.0
142
0.0
142
0.0
142
0.0
142
1.0
179
     0
144
0.0208333333333333
144
0.0
144
0.0
144
0.0
144
0.0
144
0.0208333333333333
144
0.0
144
0.0
144
0.0
144
0.0
144
1.0
144
0.0
144
0.0
144
0.0
144
0.0
144
1.0
147
0.0208333333333333
147
0.0
147
0.0
147
0.0
147
0.0
147
0.0208333333333333
147
0.0
147
0.0
147
0.0
147
0.0
147
1.0
147
0.0
147
0.0
147
0.0
147
0.0
147
1.0
  0
MATERIAL
  5
21
102
{ACAD_XDICTIONARY
360
22
102
}
102
{ACAD_REACTORS
330
10
102
}
330
10
100
AcDbMaterial
  1
Global
 72
     0
 43
0.0208333333333333
 43
0.0
 43
0.0
 43
0.0
 43
0.0
 43
0.0208333333333333
 43
0.0
 43
0.0
 43
0.0
 43
0.0
 43
1.0
 43
0.0
 43
0.0
 43
0.0
 43
0.0
 43
1.0
 77
     0
 47
0.0208333333333333
 47
0.0
 47
0.0
 47
0.0
 47
0.0
 47
0.0208333333333333
 47
0.0
 47
0.0
 47
0.0
 47
0.0
 47
1.0
 47
0.0
 47
0.0
 47
0.0
 47
0.0
 47
1.0
171
     0
 49
0.0208333333333333
 49
0.0
 49
0.0
 49
0.0
 49
0.0
 49
0.0208333333333333
 49
0.0
 49
0.0
 49
0.0
 49
0.0
 49
1.0
 49
0.0
 49
0.0
 49
0.0
 49
0.0
 49
1.0
175
     0
142
0.0208333333333333
142
0.0
142
0.0
142
0.0
142
0.0
142
0.0208333333333333
142
0.0
142
0.0
142
0.0
142
0.0
142
1.0
142
0.0
142
0.0
142
0.0
142
0.0
142
1.0
179
     0
144
0.0208333333333333
144
0.0
144
0.0
144
0.0
144
0.0
144
0.0208333333333333
144
0.0
144
0.0
144
0.0
144
0.0
144
1.0
144
0.0
144
0.0
144
0.0
144
0.0
144
1.0
147
0.0208333333333333
147
0.0
147
0.0
147
0.0
147
0.0
147
0.0208333333333333
147
0.0
147
0.0
147
0.0
147
0.0
147
1.0
147
0.0
147
0.0
147
0.0
147
0.0
147
1.0
  0
MLEADERSTYLE
  5
67
102
{ACAD_XDICTIONARY
360
12F
102
}
102
{ACAD_REACTORS
330
66
102
}
330
66
100
AcDbMLeaderStyle
179
     2
170
     2
171
     1
172
     0
 90
        2
 40
0.0
 41
0.0
173
     1
 91
-1056964608
340
5B
 92
       -2
290
     1
 42
0.09
291
     1
 43
0.36
  3
Standard
 44
0.18
300

342
55
174
     1
178
     6
175
     1
176
     0
 93
-1056964608
 45
0.18
292
     0
297
     0
 46
0.18
 94
-1056964608
 47
1.0
 49
1.0
140
1.0
293
     1
141
0.0
294
     1
177
     0
142
1.0
295
     0
296
     0
143
0.125
271
     0
272
     9
273
     9
  0
MLINESTYLE
  5
60
102
{ACAD_REACTORS
330
5F
102
}
330
5F
100
AcDbMlineStyle
  2
STANDARD
 70
     0
  3

 62
   256
 51
90.0
 52
90.0
 71
     2
 49
0.5
 62
   256
  6
BYLAYER
 49
-0.5
 62
   256
  6
BYLAYER
  0
ACDBPLACEHOLDER
  5
F
102
{ACAD_REACTORS
330
E
102
}
330
E
  0
SCALE
  5
43
102
{ACAD_REACTORS
330
42
102
}
330
42
100
AcDbScale
 70
     0
300
1:1
140
1.0
141
1.0
290
     1
  0
SCALE
  5
44
102
{ACAD_REACTORS
330
42
102
}
330
42
100
AcDbScale
 70
     0
300
1/128" = 1'-0"
140
0.0078125
141
12.0
290
     0
  0
SCALE
  5
45
102
{ACAD_REACTORS
330
42
102
}
330
42
100
AcDbScale
 70
     0
300
1/64" = 1'-0"
140
0.015625
141
12.0
290
     0
  0
SCALE
  5
46
102
{ACAD_REACTORS
330
42
102
}
330
42
100
AcDbScale
 70
     0
300
1/32" = 1'-0"
140
0.03125
141
12.0
290
     0
  0
SCALE
  5
47
102
{ACAD_REACTORS
330
42
102
}
330
42
100
AcDbScale
 70
     0
300
1/16" = 1'-0"
140
0.0625
141
12.0
290
     0
  0
SCALE
  5
48
102
{ACAD_REACTORS
330
42
102
}
330
42
100
AcDbScale
 70
     0
300
3/32" = 1'-0"
140
0.09375
141
12.0
290
     0
  0
SCALE
  5
49
102
{ACAD_REACTORS
330
42
102
}
330
42
100
AcDbScale
 70
     0
300
1/8" = 1'-0"
140
0.125
141
12.0
290
     0
  0
SCALE
  5
4A
102
{ACAD_REACTORS
330
42
102
}
330
42
100
AcDbScale
 70
     0
300
3/16" = 1'-0"
140
0.1875
141
12.0
290
     0
  0
SCALE
  5
4B
102
{ACAD_REACTORS
330
42
102
}
330
42
100
AcDbScale
 70
     0
300
1/4" = 1'-0"
140
0.25
141
12.0
290
     0
  0
SCALE
  5
4C
102
{ACAD_REACTORS
330
42
102
}
330
42
100
AcDbScale
 70
     0
300
3/8" = 1'-0"
140
0.375
141
12.0
290
     0
  0
SCALE
  5
4D
102
{ACAD_REACTORS
330
42
102
}
330
42
100
AcDbScale
 70
     0
300
1/2" = 1'-0"
140
0.5
141
12.0
290
     0
  0
SCALE
  5
4E
102
{ACAD_REACTORS
330
42
102
}
330
42
100
AcDbScale
 70
     0
300
3/4" = 1'-0"
140
0.75
141
12.0
290
     0
  0
SCALE
  5
4F
102
{ACAD_REACTORS
330
42
102
}
330
42
100
AcDbScale
 70
     0
300
1" = 1'-0"
140
1.0
141
12.0
290
     0
  0
SCALE
  5
50
102
{ACAD_REACTORS
330
42
102
}
330
42
100
AcDbScale
 70
     0
300
1-1/2" = 1'-0"
140
1.5
141
12.0
290
     0
  0
SCALE
  5
51
102
{ACAD_REACTORS
330
42
102
}
330
42
100
AcDbScale
 70
     0
300
3" = 1'-0"
140
3.0
141
12.0
290
     0
  0
SCALE
  5
52
102
{ACAD_REACTORS
330
42
102
}
330
42
100
AcDbScale
 70
     0
300
6" = 1'-0"
140
6.0
141
12.0
290
     0
  0
SCALE
  5
53
102
{ACAD_REACTORS
330
42
102
}
330
42
100
AcDbScale
 70
     0
300
1'-0" = 1'-0"
140
12.0
141
12.0
290
     0
  0
ACDBSECTIONVIEWSTYLE
  5
69
102
{ACAD_XDICTIONARY
360
131
102
}
102
{ACAD_REACTORS
330
68
102
}
330
68
100
AcDbModelDocViewStyle
 70
     0
  3
Imperial24
290
     0
100
AcDbSectionViewStyle
 70
     0
 71
     0
 90
       78
 71
     1
340
55
 62
   256
 40
0.24
340
0
340
0
 62
   256
 40
0.24
300
I, O, Q, S, X, Z
 40
0.48
 90
        3
 40
0.18
 90
        1
 71
     2
340
5D
 90
       25
 62
   256
340
5D
 90
       50
 62
   256
 40
0.24
 40
0.0
 40
0.24
 71
     3
340
55
 62
   256
 40
0.24
 90
        1
 40
0.75
 90
        1
300
%<\AcVar ViewType \f "%tc1">% %<\AcVar ViewSectionStartId>%-%<\AcVar ViewSectionEndId>%\PSCALE %<\AcVar ViewScale \f "%sn">%
 71
     4
 62
   256
 62
   257
300
ANSI31
 40
1.0
 90
        0
290
     0
290
     0
 90
        6
 40
0.0
 40
1.570796326794896
 40
0.2617993877991494
 40
1.308996938995747
 40
-0.2617993877991494
 40
1.832595714594046
  0
TABLESTYLE
  5
65
102
{ACAD_XDICTIONARY
360
FC
102
}
102
{ACAD_REACTORS
330
64
102
}
330
64
100
AcDbTableStyle
280
     0
  3
Standard
 70
     0
 71
     0
 40
0.06
 41
0.06
280
     0
281
     0
  7
Standard
140
0.18
170
     2
 62
     0
 63
     7
283
     0
 90
      512
 91
        0
  1

274
    -2
284
     1
 64
     0
275
    -2
285
     1
 65
     0
276
    -2
286
     1
 66
     0
277
    -2
287
     1
 67
     0
278
    -2
288
     1
 68
     0
279
    -2
289
     1
 69
     0
  7
Standard
140
0.25
170
     5
 62
     0
 63
     7
283
     0
 90
      512
 91
        0
  1

274
    -2
284
     1
 64
     0
275
    -2
285
     1
 65
     0
276
    -2
286
     1
 66
     0
277
    -2
287
     1
 67
     0
278
    -2
288
     1
 68
     0
279
    -2
289
     1
 69
     0
  7
Standard
140
0.18
170
     5
 62
     0
 63
     7
283
     0
 90
      512
 91
        0
  1

274
    -2
284
     1
 64
     0
275
    -2
285
     1
 65
     0
276
    -2
286
     1
 66
     0
277
    -2
287
     1
 67
     0
278
    -2
288
     1
 68
     0
279
    -2
289
     1
 69
     0
  0
VISUALSTYLE
  5
2F
102
{ACAD_XDICTIONARY
360
109
102
}
102
{ACAD_REACTORS
330
29
102
}
330
29
100
AcDbVisualStyle
  2
2dWireframe
 70
     4
177
     2
291
     0
 71
     0
176
     1
 72
     2
176
     1
 73
     0
176
     1
 90
        0
176
     1
 40
0.6
176
     1
 41
30.0
176
     1
 63
     7
421
 16777215
176
     1
 74
     1
176
     1
 91
        4
176
     1
 64
     7
176
     1
 65
   257
176
     1
 75
     1
176
     1
175
     1
176
     1
 42
1.0
176
     1
 92
        0
176
     1
 66
   257
176
     1
 43
1.0
176
     1
 76
     1
176
     1
 77
     6
176
     1
 78
     2
176
     1
 67
     7
176
     1
 79
     5
176
     1
170
     0
176
     1
171
     0
176
     1
290
     0
176
     1
 93
        1
176
     1
 44
0.0
176
     1
173
     0
176
     1
1001
ACAD
1000
AcDbSavedByObjectVersion
1070
     0
  0
VISUALSTYLE
  5
2E
102
{ACAD_XDICTIONARY
360
107
102
}
102
{ACAD_REACTORS
330
29
102
}
330
29
100
AcDbVisualStyle
  2
Basic
 70
     7
177
     2
291
     1
 71
     1
176
     1
 72
     0
176
     1
 73
     1
176
     1
 90
        0
176
     1
 40
0.6
176
     1
 41
30.0
176
     1
 63
     7
421
 16777215
176
     1
 74
     0
176
     1
 91
        4
176
     1
 64
     7
176
     1
 65
   257
176
     1
 75
     1
176
     1
175
     1
176
     1
 42
1.0
176
     1
 92
        8
176
     1
 66
     7
176
     1
 43
1.0
176
     1
 76
     1
176
     1
 77
     6
176
     1
 78
     2
176
     1
 67
     7
176
     1
 79
     5
176
     1
170
     0
176
     1
171
     0
176
     1
290
     0
176
     1
 93
        1
176
     1
 44
0.0
176
     1
173
     0
176
     1
1001
ACAD
1000
AcDbSavedByObjectVersion
1070
     0
  0
VISUALSTYLE
  5
35
102
{ACAD_XDICTIONARY
360
115
102
}
102
{ACAD_REACTORS
330
29
102
}
330
29
100
AcDbVisualStyle
  2
Brighten
 70
    12
177
     2
291
     1
 71
     2
176
     1
 72
     2
176
     1
 73
     0
176
     1
 90
        0
176
     1
 40
0.6
176
     1
 41
30.0
176
     1
 63
     7
421
 16777215
176
     1
 74
     1
176
     1
 91
        4
176
     1
 64
     7
176
     1
 65
   257
176
     1
 75
     1
176
     1
175
     1
176
     1
 42
1.0
176
     1
 92
        8
176
     1
 66
     7
176
     1
 43
1.0
176
     1
 76
     1
176
     1
 77
     6
176
     1
 78
     2
176
     1
 67
     7
176
     1
 79
     5
176
     1
170
     0
176
     1
171
     0
176
     1
290
     0
176
     1
 93
        1
176
     1
 44
50.0
176
     1
173
     0
176
     1
1001
ACAD
1000
AcDbSavedByObjectVersion
1070
     0
  0
VISUALSTYLE
  5
39
102
{ACAD_XDICTIONARY
360
11D
102
}
102
{ACAD_REACTORS
330
29
102
}
330
29
100
AcDbVisualStyle
  2
ColorChange
 70
    16
177
     2
291
     1
 71
     2
176
     1
 72
     2
176
     1
 73
     3
176
     1
 90
        0
176
     1
 40
0.6
176
     1
 41
30.0
176
     1
 63
     8
421
  8421504
176
     1
 74
     1
176
     1
 91
        4
176
     1
 64
     7
176
     1
 65
   257
176
     1
 75
     1
176
     1
175
     1
176
     1
 42
1.0
176
     1
 92
        8
176
     1
 66
     8
424
  8421504
176
     1
 43
1.0
176
     1
 76
     1
176
     1
 77
     6
176
     1
 78
     2
176
     1
 67
     7
176
     1
 79
     5
176
     1
170
     0
176
     1
171
     0
176
     1
290
     0
176
     1
 93
        1
176
     1
 44
0.0
176
     1
173
     0
176
     1
1001
ACAD
1000
AcDbSavedByObjectVersion
1070
     0
  0
VISUALSTYLE
  5
32
102
{ACAD_XDICTIONARY
360
10F
102
}
102
{ACAD_REACTORS
330
29
102
}
330
29
100
AcDbVisualStyle
  2
Conceptual
 70
     9
177
     2
291
     0
 71
     3
176
     1
 72
     2
176
     1
 73
     0
176
     1
 90
        0
176
     1
 40
0.6
176
     1
 41
30.0
176
     1
 63
     7
421
 16777215
176
     1
 74
     2
176
     1
 91
        2
176
     1
 64
     7
176
     1
 65
   257
176
     1
 75
     1
176
     1
175
     1
176
     1
 42
179.0
176
     1
 92
        8
176
     1
 66
     7
176
     1
 43
1.0
176
     1
 76
     1
176
     1
 77
     6
176
     1
 78
     2
176
     1
 67
     7
176
     1
 79
     3
176
     1
170
     0
176
     1
171
     0
176
     1
290
     0
176
     1
 93
        1
176
     1
 44
0.0
176
     1
173
     0
176
     1
1001
ACAD
1000
AcDbSavedByObjectVersion
1070
     0
  0
VISUALSTYLE
  5
34
102
{ACAD_XDICTIONARY
360
113
102
}
102
{ACAD_REACTORS
330
29
102
}
330
29
100
AcDbVisualStyle
  2
Dim
 70
    11
177
     2
291
     1
 71
     2
176
     1
 72
     2
176
     1
 73
     0
176
     1
 90
        0
176
     1
 40
0.6
176
     1
 41
30.0
176
     1
 63
     7
421
 16777215
176
     1
 74
     1
176
     1
 91
        4
176
     1
 64
     7
176
     1
 65
   257
176
     1
 75
     1
176
     1
175
     1
176
     1
 42
1.0
176
     1
 92
        8
176
     1
 66
     7
176
     1
 43
1.0
176
     1
 76
     1
176
     1
 77
     6
176
     1
 78
     2
176
     1
 67
     7
176
     1
 79
     5
176
     1
170
     0
176
     1
171
     0
176
     1
290
     0
176
     1
 93
        1
176
     1
 44
-50.0
176
     1
173
     0
176
     1
1001
ACAD
1000
AcDbSavedByObjectVersion
1070
     0
  0
VISUALSTYLE
  5
41
102
{ACAD_XDICTIONARY
360
12D
102
}
102
{ACAD_REACTORS
330
29
102
}
330
29
100
AcDbVisualStyle
  2
EdgeColorOff
 70
    22
177
     2
291
     1
 71
     2
176
     0
 72
     2
176
     0
 73
     0
176
     0
 90
        0
176
     0
 40
0.6
176
     0
 41
30.0
176
     0
 63
     7
421
 16777215
176
     0
 74
     1
176
     0
 91
        4
176
     0
 64
     7
176
     0
 65
   257
176
     0
 75
     1
176
     0
175
     1
176
     0
 42
1.0
176
     0
 92
        8
176
     2
 66
     7
176
     0
 43
1.0
176
     0
 76
     1
176
     0
 77
     6
176
     0
 78
     2
176
     0
 67
     7
176
     0
 79
     5
176
     0
170
     0
176
     0
171
     0
176
     0
290
     0
176
     0
 93
        1
176
     0
 44
0.0
176
     0
173
     0
176
     0
1001
ACAD
1000
AcDbSavedByObjectVersion
1070
     0
  0
VISUALSTYLE
  5
38
102
{ACAD_XDICTIONARY
360
11B
102
}
102
{ACAD_REACTORS
330
29
102
}
330
29
100
AcDbVisualStyle
  2
Facepattern
 70
    15
177
     2
291
     1
 71
     2
176
     1
 72
     2
176
     1
 73
     0
176
     1
 90
        0
176
     1
 40
0.6
176
     1
 41
30.0
176
     1
 63
     7
421
 16777215
176
     1
 74
     1
176
     1
 91
        4
176
     1
 64
     7
176
     1
 65
   257
176
     1
 75
     1
176
     1
175
     1
176
     1
 42
1.0
176
     1
 92
        8
176
     1
 66
     7
176
     1
 43
1.0
176
     1
 76
     1
176
     1
 77
     6
176
     1
 78
     2
176
     1
 67
     7
176
     1
 79
     5
176
     1
170
     0
176
     1
171
     0
176
     1
290
     0
176
     1
 93
        1
176
     1
 44
0.0
176
     1
173
     0
176
     1
1001
ACAD
1000
AcDbSavedByObjectVersion
1070
     0
  0
VISUALSTYLE
  5
2A
102
{ACAD_XDICTIONARY
360
FF
102
}
102
{ACAD_REACTORS
330
29
102
}
330
29
100
AcDbVisualStyle
  2
Flat
 70
     0
177
     2
291
     1
 71
     2
176
     1
 72
     1
176
     1
 73
     1
176
     1
 90
        2
176
     1
 40
0.6
176
     1
 41
30.0
176
     1
 63
     7
421
 16777215
176
     1
 74
     0
176
     1
 91
        0
176
     1
 64
     7
176
     1
 65
   257
176
     1
 75
     1
176
     1
175
     1
176
     1
 42
1.0
176
     1
 92
        8
176
     1
 66
     7
176
     1
 43
1.0
176
     1
 76
     1
176
     1
 77
     6
176
     1
 78
     2
176
     1
 67
     7
176
     1
 79
     5
176
     1
170
     0
176
     1
171
     0
176
     1
290
     0
176
     1
 93
       13
176
     1
 44
0.0
176
     1
173
     0
176
     1
1001
ACAD
1000
AcDbSavedByObjectVersion
1070
     0
  0
VISUALSTYLE
  5
2B
102
{ACAD_XDICTIONARY
360
101
102
}
102
{ACAD_REACTORS
330
29
102
}
330
29
100
AcDbVisualStyle
  2
FlatWithEdges
 70
     1
177
     2
291
     1
 71
     2
176
     1
 72
     1
176
     1
 73
     1
176
     1
 90
        2
176
     1
 40
0.6
176
     1
 41
30.0
176
     1
 63
     7
421
 16777215
176
     1
 74
     1
176
     1
 91
        0
176
     1
 64
     7
176
     1
 65
   257
176
     1
 75
     1
176
     1
175
     1
176
     1
 42
1.0
176
     1
 92
        0
176
     1
 66
   257
176
     1
 43
1.0
176
     1
 76
     1
176
     1
 77
     6
176
     1
 78
     2
176
     1
 67
     7
176
     1
 79
     5
176
     1
170
     0
176
     1
171
     0
176
     1
290
     0
176
     1
 93
       13
176
     1
 44
0.0
176
     1
173
     0
176
     1
1001
ACAD
1000
AcDbSavedByObjectVersion
1070
     0
  0
VISUALSTYLE
  5
2C
102
{ACAD_XDICTIONARY
360
103
102
}
102
{ACAD_REACTORS
330
29
102
}
330
29
100
AcDbVisualStyle
  2
Gouraud
 70
     2
177
     2
291
     1
 71
     2
176
     1
 72
     2
176
     1
 73
     1
176
     1
 90
        2
176
     1
 40
0.6
176
     1
 41
30.0
176
     1
 63
     7
421
 16777215
176
     1
 74
     0
176
     1
 91
        0
176
     1
 64
     7
176
     1
 65
   257
176
     1
 75
     1
176
     1
175
     1
176
     1
 42
1.0
176
     1
 92
        0
176
     1
 66
     7
176
     1
 43
1.0
176
     1
 76
     1
176
     1
 77
     6
176
     1
 78
     2
176
     1
 67
     7
176
     1
 79
     5
176
     1
170
     0
176
     1
171
     0
176
     1
290
     0
176
     1
 93
       13
176
     1
 44
0.0
176
     1
173
     0
176
     1
1001
ACAD
1000
AcDbSavedByObjectVersion
1070
     0
  0
VISUALSTYLE
  5
2D
102
{ACAD_XDICTIONARY
360
105
102
}
102
{ACAD_REACTORS
330
29
102
}
330
29
100
AcDbVisualStyle
  2
GouraudWithEdges
 70
     3
177
     2
291
     1
 71
     2
176
     1
 72
     2
176
     1
 73
     1
176
     1
 90
        2
176
     1
 40
0.6
176
     1
 41
30.0
176
     1
 63
     7
421
 16777215
176
     1
 74
     1
176
     1
 91
        0
176
     1
 64
     7
176
     1
 65
   257
176
     1
 75
     1
176
     1
175
     1
176
     1
 42
1.0
176
     1
 92
        0
176
     1
 66
   257
176
     1
 43
1.0
176
     1
 76
     1
176
     1
 77
     6
176
     1
 78
     2
176
     1
 67
     7
176
     1
 79
     5
176
     1
170
     0
176
     1
171
     0
176
     1
290
     0
176
     1
 93
       13
176
     1
 44
0.0
176
     1
173
     0
176
     1
1001
ACAD
1000
AcDbSavedByObjectVersion
1070
     0
  0
VISUALSTYLE
  5
31
102
{ACAD_XDICTIONARY
360
10D
102
}
102
{ACAD_REACTORS
330
29
102
}
330
29
100
AcDbVisualStyle
  2
Hidden
 70
     6
177
     2
291
     0
 71
     1
176
     1
 72
     2
176
     1
 73
     2
176
     1
 90
        0
176
     1
 40
0.6
176
     1
 41
30.0
176
     1
 63
     7
421
 16777215
176
     1
 74
     2
176
     1
 91
        2
176
     1
 64
     7
176
     1
 65
   257
176
     1
 75
     2
176
     1
175
     1
176
     1
 42
40.0
176
     1
 92
        0
176
     1
 66
   257
176
     1
 43
1.0
176
     1
 76
     1
176
     1
 77
     6
176
     1
 78
     2
176
     1
 67
     7
176
     1
 79
     3
176
     1
170
     0
176
     1
171
     0
176
     1
290
     0
176
     1
 93
        1
176
     1
 44
0.0
176
     1
173
     0
176
     1
1001
ACAD
1000
AcDbSavedByObjectVersion
1070
     0
  0
VISUALSTYLE
  5
3F
102
{ACAD_XDICTIONARY
360
129
102
}
102
{ACAD_REACTORS
330
29
102
}
330
29
100
AcDbVisualStyle
  2
JitterOff
 70
    20
177
     2
291
     1
 71
     2
176
     0
 72
     2
176
     0
 73
     0
176
     0
 90
        0
176
     0
 40
0.6
176
     0
 41
30.0
176
     0
 63
     7
421
 16777215
176
     0
 74
     1
176
     0
 91
        4
176
     0
 64
     7
176
     0
 65
   257
176
     0
 75
     1
176
     0
175
     1
176
     0
 42
1.0
176
     0
 92
       10
176
     2
 66
     7
176
     0
 43
1.0
176
     0
 76
     1
176
     0
 77
     6
176
     0
 78
     2
176
     0
 67
     7
176
     0
 79
     5
176
     0
170
     0
176
     0
171
     0
176
     0
290
     0
176
     0
 93
        1
176
     0
 44
0.0
176
     0
173
     0
176
     0
1001
ACAD
1000
AcDbSavedByObjectVersion
1070
     0
  0
VISUALSTYLE
  5
37
102
{ACAD_XDICTIONARY
360
119
102
}
102
{ACAD_REACTORS
330
29
102
}
330
29
100
AcDbVisualStyle
  2
Linepattern
 70
    14
177
     2
291
     1
 71
     2
176
     1
 72
     2
176
     1
 73
     0
176
     1
 90
        0
176
     1
 40
0.6
176
     1
 41
30.0
176
     1
 63
     7
421
 16777215
176
     1
 74
     1
176
     1
 91
        4
176
     1
 64
     7
176
     1
 65
   257
176
     1
 75
     7
176
     1
175
     7
176
     1
 42
1.0
176
     1
 92
        8
176
     1
 66
     7
176
     1
 43
1.0
176
     1
 76
     1
176
     1
 77
     6
176
     1
 78
     2
176
     1
 67
     7
176
     1
 79
     5
176
     1
170
     0
176
     1
171
     0
176
     1
290
     0
176
     1
 93
        1
176
     1
 44
0.0
176
     1
173
     0
176
     1
1001
ACAD
1000
AcDbSavedByObjectVersion
1070
     0
  0
VISUALSTYLE
  5
40
102
{ACAD_XDICTIONARY
360
12B
102
}
102
{ACAD_REACTORS
330
29
102
}
330
29
100
AcDbVisualStyle
  2
OverhangOff
 70
    21
177
     2
291
     1
 71
     2
176
     0
 72
     2
176
     0
 73
     0
176
     0
 90
        0
176
     0
 40
0.6
176
     0
 41
30.0
176
     0
 63
     7
421
 16777215
176
     0
 74
     1
176
     0
 91
        4
176
     0
 64
     7
176
     0
 65
   257
176
     0
 75
     1
176
     0
175
     1
176
     0
 42
1.0
176
     0
 92
        9
176
     2
 66
     7
176
     0
 43
1.0
176
     0
 76
     1
176
     0
 77
     6
176
     0
 78
     2
176
     0
 67
     7
176
     0
 79
     5
176
     0
170
     0
176
     0
171
     0
176
     0
290
     0
176
     0
 93
        1
176
     0
 44
0.0
176
     0
173
     0
176
     0
1001
ACAD
1000
AcDbSavedByObjectVersion
1070
     0
  0
VISUALSTYLE
  5
33
102
{ACAD_XDICTIONARY
360
111
102
}
102
{ACAD_REACTORS
330
29
102
}
330
29
100
AcDbVisualStyle
  2
Realistic
 70
     8
177
     2
291
     0
 71
     2
176
     1
 72
     3
176
     1
 73
     0
176
     1
 90
        2
176
     1
 40
0.6
176
     1
 41
30.0
176
     1
 63
     7
421
 16777215
176
     1
 74
     0
176
     1
 91
        0
176
     1
 64
     7
176
     1
 65
   257
176
     1
 75
     1
176
     1
175
     1
176
     1
 42
1.0
176
     1
 92
        8
176
     1
 66
   257
176
     1
 43
1.0
176
     1
 76
     1
176
     1
 77
     6
176
     1
 78
     2
176
     1
 67
     7
176
     1
 79
     3
176
     1
170
     0
176
     1
171
     0
176
     1
290
     0
176
     1
 93
       13
176
     1
 44
0.0
176
     1
173
     0
176
     1
1001
ACAD
1000
AcDbSavedByObjectVersion
1070
     0
  0
VISUALSTYLE
  5
3E
102
{ACAD_XDICTIONARY
360
127
102
}
102
{ACAD_REACTORS
330
29
102
}
330
29
100
AcDbVisualStyle
  2
Shaded
 70
    27
177
     2
291
     0
 71
     2
176
     1
 72
     2
176
     1
 73
     1
176
     1
 90
        2
176
     1
 40
0.6
176
     1
 41
30.0
176
     1
 63
     7
421
 16777215
176
     1
 74
     0
176
     1
 91
        4
176
     1
 64
     7
176
     1
 65
   257
176
     1
 75
     1
176
     1
175
     1
176
     1
 42
1.0
176
     1
 92
        8
176
     1
 66
   257
176
     1
 43
1.0
176
     1
 76
     1
176
     1
 77
     6
176
     1
 78
     2
176
     1
 67
     8
425
  7895160
176
     1
 79
     3
176
     1
170
     0
176
     1
171
     0
176
     1
290
     0
176
     1
 93
        5
176
     1
 44
0.0
176
     1
173
     0
176
     1
1001
ACAD
1000
AcDbSavedByObjectVersion
1070
     0
  0
VISUALSTYLE
  5
3D
102
{ACAD_XDICTIONARY
360
125
102
}
102
{ACAD_REACTORS
330
29
102
}
330
29
100
AcDbVisualStyle
  2
Shaded with edges
 70
    26
177
     2
291
     0
 71
     2
176
     1
 72
     2
176
     1
 73
     1
176
     1
 90
        2
176
     1
 40
0.6
176
     1
 41
30.0
176
     1
 63
     7
421
 16777215
176
     1
 74
     1
176
     1
 91
        2
176
     1
 64
     7
176
     1
 65
   257
176
     1
 75
     2
176
     1
175
     1
176
     1
 42
1.0
176
     1
 92
        8
176
     1
 66
   257
176
     1
 43
1.0
176
     1
 76
     1
176
     1
 77
     6
176
     1
 78
     2
176
     1
 67
     7
176
     1
 79
     3
176
     1
170
     0
176
     1
171
     0
176
     1
290
     0
176
     1
 93
        5
176
     1
 44
0.0
176
     1
173
     0
176
     1
1001
ACAD
1000
AcDbSavedByObjectVersion
1070
     0
  0
VISUALSTYLE
  5
3A
102
{ACAD_XDICTIONARY
360
11F
102
}
102
{ACAD_REACTORS
330
29
102
}
330
29
100
AcDbVisualStyle
  2
Shades of Gray
 70
    23
177
     2
291
     0
 71
     2
176
     1
 72
     2
176
     1
 73
     3
176
     1
 90
        0
176
     1
 40
0.6
176
     1
 41
30.0
176
     1
 63
     7
421
 16777215
176
     1
 74
     2
176
     1
 91
        2
176
     1
 64
     7
176
     1
 65
     7
176
     1
 75
     1
176
     1
175
     1
176
     1
 42
40.0
176
     1
 92
        8
176
     1
 66
     7
176
     1
 43
1.0
176
     1
 76
     1
176
     1
 77
     6
176
     1
 78
     2
176
     1
 67
     7
176
     1
 79
     3
176
     1
170
     0
176
     1
171
     0
176
     1
290
     0
176
     1
 93
        1
176
     1
 44
0.0
176
     1
173
     0
176
     1
1001
ACAD
1000
AcDbSavedByObjectVersion
1070
     0
  0
VISUALSTYLE
  5
3B
102
{ACAD_XDICTIONARY
360
121
102
}
102
{ACAD_REACTORS
330
29
102
}
330
29
100
AcDbVisualStyle
  2
Sketchy
 70
    24
177
     2
291
     0
 71
     1
176
     1
 72
     2
176
     1
 73
     2
176
     1
 90
        0
176
     1
 40
0.6
176
     1
 41
30.0
176
     1
 63
     7
421
 16777215
176
     1
 74
     2
176
     1
 91
        2
176
     1
 64
     7
176
     1
 65
     7
176
     1
 75
     1
176
     1
175
     1
176
     1
 42
40.0
176
     1
 92
       11
176
     1
 66
     7
176
     1
 43
1.0
176
     1
 76
     1
176
     1
 77
     6
176
     1
 78
     2
176
     1
 67
     7
176
     1
 79
     6
176
     1
170
     0
176
     1
171
     0
176
     1
290
     0
176
     1
 93
        1
176
     1
 44
0.0
176
     1
173
     0
176
     1
1001
ACAD
1000
AcDbSavedByObjectVersion
1070
     0
  0
VISUALSTYLE
  5
36
102
{ACAD_XDICTIONARY
360
117
102
}
102
{ACAD_REACTORS
330
29
102
}
330
29
100
AcDbVisualStyle
  2
Thicken
 70
    13
177
     2
291
     1
 71
     2
176
     1
 72
     2
176
     1
 73
     0
176
     1
 90
        0
176
     1
 40
0.6
176
     1
 41
30.0
176
     1
 63
     7
421
 16777215
176
     1
 74
     1
176
     1
 91
        4
176
     1
 64
     7
176
     1
 65
   257
176
     1
 75
     1
176
     1
175
     1
176
     1
 42
1.0
176
     1
 92
       12
176
     1
 66
     7
176
     1
 43
1.0
176
     1
 76
     1
176
     1
 77
     6
176
     1
 78
     2
176
     1
 67
     7
176
     1
 79
     5
176
     1
170
     0
176
     1
171
     0
176
     1
290
     0
176
     1
 93
        1
176
     1
 44
0.0
176
     1
173
     0
176
     1
1001
ACAD
1000
AcDbSavedByObjectVersion
1070
     0
  0
VISUALSTYLE
  5
30
102
{ACAD_XDICTIONARY
360
10B
102
}
102
{ACAD_REACTORS
330
29
102
}
330
29
100
AcDbVisualStyle
  2
Wireframe
 70
     5
177
     2
291
     0
 71
     0
176
     1
 72
     2
176
     1
 73
     0
176
     1
 90
        0
176
     1
 40
0.6
176
     1
 41
30.0
176
     1
 63
     7
421
 16777215
176
     1
 74
     1
176
     1
 91
        4
176
     1
 64
     7
176
     1
 65
   257
176
     1
 75
     1
176
     1
175
     1
176
     1
 42
1.0
176
     1
 92
        0
176
     1
 66
   257
176
     1
 43
1.0
176
     1
 76
     1
176
     1
 77
     6
176
     1
 78
     2
176
     1
 67
     7
176
     1
 79
     3
176
     1
170
     0
176
     1
171
     0
176
     1
290
     0
176
     1
 93
        1
176
     1
 44
0.0
176
     1
173
     0
176
     1
1001
ACAD
1000
AcDbSavedByObjectVersion
1070
     0
  0
VISUALSTYLE
  5
3C
102
{ACAD_XDICTIONARY
360
123
102
}
102
{ACAD_REACTORS
330
29
102
}
330
29
100
AcDbVisualStyle
  2
X-Ray
 70
    25
177
     2
291
     0
 71
     2
176
     1
 72
     2
176
     1
 73
     1
176
     1
 90
        1
176
     1
 40
0.5
176
     1
 41
30.0
176
     1
 63
     7
421
 16777215
176
     1
 74
     1
176
     1
 91
        0
176
     1
 64
     7
176
     1
 65
   257
176
     1
 75
     1
176
     1
175
     1
176
     1
 42
1.0
176
     1
 92
        8
176
     1
 66
     7
176
     1
 43
1.0
176
     1
 76
     1
176
     1
 77
     6
176
     1
 78
     2
176
     1
 67
     7
176
     1
 79
     3
176
     1
170
     0
176
     1
171
     0
176
     1
290
     0
176
     1
 93
       13
176
     1
 44
0.0
176
     1
173
     0
176
     1
1001
ACAD
1000
AcDbSavedByObjectVersion
1070
     0
  0
DICTIONARYVAR
  5
FB
102
{ACAD_REACTORS
330
F6
102
}
330
F6
100
DictionaryVariables
280
     0
  1
1:1
  0
DICTIONARYVAR
  5
F8
102
{ACAD_REACTORS
330
F6
102
}
330
F6
100
DictionaryVariables
280
     0
  1
STANDARD
  0
DICTIONARYVAR
  5
F7
102
{ACAD_REACTORS
330
F6
102
}
330
F6
100
DictionaryVariables
280
     0
  1
STANDARD
  0
DICTIONARYVAR
  5
F9
102
{ACAD_REACTORS
330
F6
102
}
330
F6
100
DictionaryVariables
280
     0
  1
Imperial24
  0
DICTIONARYVAR
  5
FA
102
{ACAD_REACTORS
330
F6
102
}
330
F6
100
DictionaryVariables
280
     0
  1
Imperial24
  0
DICTIONARY
  5
133
330
6B
100
AcDbDictionary
280
     1
281
     1
  3
ACAD_XREC_ROUNDTRIP
360
134
  0
DICTIONARY
  5
1A
330
19
100
AcDbDictionary
280
     1
281
     1
  3
BUMPTILE
360
1C
  3
DIFFUSETILE
360
1B
  3
OPACITYTILE
360
1F
  3
REFLECTIONTILE
360
1E
  3
REFRACTIONTILE
360
20
  3
SPECULARTILE
360
1D
  0
DICTIONARY
  5
12
330
11
100
AcDbDictionary
280
     1
281
     1
  3
BUMPTILE
360
14
  3
DIFFUSETILE
360
13
  3
OPACITYTILE
360
17
  3
REFLECTIONTILE
360
16
  3
REFRACTIONTILE
360
18
  3
SPECULARTILE
360
15
  0
DICTIONARY
  5
22
330
21
100
AcDbDictionary
280
     1
281
     1
  3
BUMPTILE
360
24
  3
DIFFUSETILE
360
23
  3
OPACITYTILE
360
27
  3
REFLECTIONTILE
360
26
  3
REFRACTIONTILE
360
28
  3
SPECULARTILE
360
25
  0
DICTIONARY
  5
12F
330
67
100
AcDbDictionary
280
     1
281
     1
  3
ACAD_XREC_ROUNDTRIP
360
130
  0
DICTIONARY
  5
131
330
69
100
AcDbDictionary
280
     1
281
     1
  3
ACAD_XREC_ROUNDTRIP
360
132
  0
DICTIONARY
  5
FC
330
65
100
AcDbDictionary
280
     1
281
     1
  3
ACAD_ROUNDTRIP_2008_TABLESTYLE_CELLSTYLEMAP
360
FD
  0
DICTIONARY
  5
109
330
2F
100
AcDbDictionary
280
     1
281
     1
  3
ACAD_XREC_ROUNDTRIP
360
10A
  0
DICTIONARY
  5
107
330
2E
100
AcDbDictionary
280
     1
281
     1
  3
ACAD_XREC_ROUNDTRIP
360
108
  0
DICTIONARY
  5
115
330
35
100
AcDbDictionary
280
     1
281
     1
  3
ACAD_XREC_ROUNDTRIP
360
116
  0
DICTIONARY
  5
11D
330
39
100
AcDbDictionary
280
     1
281
     1
  3
ACAD_XREC_ROUNDTRIP
360
11E
  0
DICTIONARY
  5
10F
330
32
100
AcDbDictionary
280
     1
281
     1
  3
ACAD_XREC_ROUNDTRIP
360
110
  0
DICTIONARY
  5
113
330
34
100
AcDbDictionary
280
     1
281
     1
  3
ACAD_XREC_ROUNDTRIP
360
114
  0
DICTIONARY
  5
12D
330
41
100
AcDbDictionary
280
     1
281
     1
  3
ACAD_XREC_ROUNDTRIP
360
12E
  0
DICTIONARY
  5
11B
330
38
100
AcDbDictionary
280
     1
281
     1
  3
ACAD_XREC_ROUNDTRIP
360
11C
  0
DICTIONARY
  5
FF
330
2A
100
AcDbDictionary
280
     1
281
     1
  3
ACAD_XREC_ROUNDTRIP
360
100
  0
DICTIONARY
  5
101
330
2B
100
AcDbDictionary
280
     1
281
     1
  3
ACAD_XREC_ROUNDTRIP
360
102
  0
DICTIONARY
  5
103
330
2C
100
AcDbDictionary
280
     1
281
     1
  3
ACAD_XREC_ROUNDTRIP
360
104
  0
DICTIONARY
  5
105
330
2D
100
AcDbDictionary
280
     1
281
     1
  3
ACAD_XREC_ROUNDTRIP
360
106
  0
DICTIONARY
  5
10D
330
31
100
AcDbDictionary
280
     1
281
     1
  3
ACAD_XREC_ROUNDTRIP
360
10E
  0
DICTIONARY
  5
129
330
3F
100
AcDbDictionary
280
     1
281
     1
  3
ACAD_XREC_ROUNDTRIP
360
12A
  0
DICTIONARY
  5
119
330
37
100
AcDbDictionary
280
     1
281
     1
  3
ACAD_XREC_ROUNDTRIP
360
11A
  0
DICTIONARY
  5
12B
330
40
100
AcDbDictionary
280
     1
281
     1
  3
ACAD_XREC_ROUNDTRIP
360
12C
  0
DICTIONARY
  5
111
330
33
100
AcDbDictionary
280
     1
281
     1
  3
ACAD_XREC_ROUNDTRIP
360
112
  0
DICTIONARY
  5
127
330
3E
100
AcDbDictionary
280
     1
281
     1
  3
ACAD_XREC_ROUNDTRIP
360
128
  0
DICTIONARY
  5
125
330
3D
100
AcDbDictionary
280
     1
281
     1
  3
ACAD_XREC_ROUNDTRIP
360
126
  0
DICTIONARY
  5
11F
330
3A
100
AcDbDictionary
280
     1
281
     1
  3
ACAD_XREC_ROUNDTRIP
360
120
  0
DICTIONARY
  5
121
330
3B
100
AcDbDictionary
280
     1
281
     1
  3
ACAD_XREC_ROUNDTRIP
360
122
  0
DICTIONARY
  5
117
330
36
100
AcDbDictionary
280
     1
281
     1
  3
ACAD_XREC_ROUNDTRIP
360
118
  0
DICTIONARY
  5
10B
330
30
100
AcDbDictionary
280
     1
281
     1
  3
ACAD_XREC_ROUNDTRIP
360
10C
  0
DICTIONARY
  5
123
330
3C
100
AcDbDictionary
280
     1
281
     1
  3
ACAD_XREC_ROUNDTRIP
360
124
  0
XRECORD
  5
134
102
{ACAD_REACTORS
330
133
102
}
330
133
100
AcDbXrecord
280
     1
102
DISPLAYNAME
  1
Imperial24
102
FLAGS
 90
        0
  0
XRECORD
  5
1C
102
{ACAD_REACTORS
330
1A
102
}
330
1A
100
AcDbXrecord
280
     1
270
     1
271
     1
  0
XRECORD
  5
1B
102
{ACAD_REACTORS
330
1A
102
}
330
1A
100
AcDbXrecord
280
     1
270
     1
271
     1
  0
XRECORD
  5
1F
102
{ACAD_REACTORS
330
1A
102
}
330
1A
100
AcDbXrecord
280
     1
270
     1
271
     1
  0
XRECORD
  5
1E
102
{ACAD_REACTORS
330
1A
102
}
330
1A
100
AcDbXrecord
280
     1
270
     1
271
     1
  0
XRECORD
  5
20
102
{ACAD_REACTORS
330
1A
102
}
330
1A
100
AcDbXrecord
280
     1
270
     1
271
     1
  0
XRECORD
  5
1D
102
{ACAD_REACTORS
330
1A
102
}
330
1A
100
AcDbXrecord
280
     1
270
     1
271
     1
  0
XRECORD
  5
14
102
{ACAD_REACTORS
330
12
102
}
330
12
100
AcDbXrecord
280
     1
270
     1
271
     1
  0
XRECORD
  5
13
102
{ACAD_REACTORS
330
12
102
}
330
12
100
AcDbXrecord
280
     1
270
     1
271
     1
  0
XRECORD
  5
17
102
{ACAD_REACTORS
330
12
102
}
330
12
100
AcDbXrecord
280
     1
270
     1
271
     1
  0
XRECORD
  5
16
102
{ACAD_REACTORS
330
12
102
}
330
12
100
AcDbXrecord
280
     1
270
     1
271
     1
  0
XRECORD
  5
18
102
{ACAD_REACTORS
330
12
102
}
330
12
100
AcDbXrecord
280
     1
270
     1
271
     1
  0
XRECORD
  5
15
102
{ACAD_REACTORS
330
12
102
}
330
12
100
AcDbXrecord
280
     1
270
     1
271
     1
  0
XRECORD
  5
24
102
{ACAD_REACTORS
330
22
102
}
330
22
100
AcDbXrecord
280
     1
270
     1
271
     1
  0
XRECORD
  5
23
102
{ACAD_REACTORS
330
22
102
}
330
22
100
AcDbXrecord
280
     1
270
     1
271
     1
  0
XRECORD
  5
27
102
{ACAD_REACTORS
330
22
102
}
330
22
100
AcDbXrecord
280
     1
270
     1
271
     1
  0
XRECORD
  5
26
102
{ACAD_REACTORS
330
22
102
}
330
22
100
AcDbXrecord
280
     1
270
     1
271
     1
  0
XRECORD
  5
28
102
{ACAD_REACTORS
330
22
102
}
330
22
100
AcDbXrecord
280
     1
270
     1
271
     1
  0
XRECORD
  5
25
102
{ACAD_REACTORS
330
22
102
}
330
22
100
AcDbXrecord
280
     1
270
     1
271
     1
  0
XRECORD
  5
130
102
{ACAD_REACTORS
330
12F
102
}
330
12F
100
AcDbXrecord
280
     1
102
ACAD_ROUNDTRIP_2012_MLEADER_STYLE
298
     1
  0
XRECORD
  5
132
102
{ACAD_REACTORS
330
131
102
}
330
131
100
AcDbXrecord
280
     1
102
DISPLAYNAME
  1
Imperial24
102
FLAGS
 90
        0
  0
CELLSTYLEMAP
  5
FD
102
{ACAD_REACTORS
330
FC
102
}
330
FC
100
AcDbCellStyleMap
 90
        3
300
CELLSTYLE
  1
TABLEFORMAT_BEGIN
 90
        5
170
     1
 91
        0
 92
    32768
 62
   257
 93
        1
300
CONTENTFORMAT
  1
CONTENTFORMAT_BEGIN
 90
        0
 91
        0
 92
      512
 93
        0
300

 40
0.0
140
1.0
 94
        5
 62
     0
340
55
144
0.25
309
CONTENTFORMAT_END
171
     0
 94
        0
309
TABLEFORMAT_END
  1
CELLSTYLE_BEGIN
 90
        1
 91
        1
300
_TITLE
309
CELLSTYLE_END
300
CELLSTYLE
  1
TABLEFORMAT_BEGIN
 90
        5
170
     1
 91
        0
 92
        0
 62
   257
 93
        1
300
CONTENTFORMAT
  1
CONTENTFORMAT_BEGIN
 90
        0
 91
        0
 92
      512
 93
        0
300

 40
0.0
140
1.0
 94
        5
 62
     0
340
55
144
0.18
309
CONTENTFORMAT_END
171
     0
 94
        0
309
TABLEFORMAT_END
  1
CELLSTYLE_BEGIN
 90
        2
 91
        1
300
_HEADER
309
CELLSTYLE_END
300
CELLSTYLE
  1
TABLEFORMAT_BEGIN
 90
        5
170
     1
 91
        0
 92
        0
 62
   257
 93
        1
300
CONTENTFORMAT
  1
CONTENTFORMAT_BEGIN
 90
        0
 91
        0
 92
      512
 93
        0
300

 40
0.0
140
1.0
 94
        2
 62
     0
340
55
144
0.18
309
CONTENTFORMAT_END
171
     0
 94
        0
309
TABLEFORMAT_END
  1
CELLSTYLE_BEGIN
 90
        3
 91
        2
300
_DATA
309
CELLSTYLE_END
  0
XRECORD
  5
10A
102
{ACAD_REACTORS
330
109
102
}
330
109
100
AcDbXrecord
280
     1
102
RTVSPost2010Prop28
280
     1
102
RTVSPost2010PropOp28
 70
     1
102
RTVSPost2010Prop29
280
     1
102
RTVSPost2010PropOp29
 70
     1
102
RTVSPost2010Prop30
280
     0
102
RTVSPost2010PropOp30
 70
     1
102
RTVSPost2010Prop31
280
     0
102
RTVSPost2010PropOp31
 70
     1
102
RTVSPost2010Prop32
280
     0
102
RTVSPost2010PropOp32
 70
     1
102
RTVSPost2010Prop33
280
     0
102
RTVSPost2010PropOp33
 70
     1
102
RTVSPost2010Prop34
280
     0
102
RTVSPost2010PropOp34
 70
     1
102
RTVSPost2010Prop35
280
     0
102
RTVSPost2010PropOp35
 70
     1
102
RTVSPost2010Prop36
280
     0
102
RTVSPost2010PropOp36
 70
     1
102
RTVSPost2010Prop37
 90
       50
102
RTVSPost2010PropOp37
 70
     1
102
RTVSPost2010Prop38
140
0.0
102
RTVSPost2010PropOp38
 70
     1
102
RTVSPost2010Prop39
140
1.0
102
RTVSPost2010PropOp39
 70
     1
102
RTVSPost2010Prop40
 90
        0
102
RTVSPost2010PropOp40
 70
     1
102
RTVSPost2010Prop41ColorIndex
 90
       18
102
RTVSPost2010Prop41ColorRGB
 90
        0
102
RTVSPost2010PropOp41
 70
     1
102
RTVSPost2010Prop42
 90
       50
102
RTVSPost2010PropOp42
 70
     1
102
RTVSPost2010Prop43
 90
        3
102
RTVSPost2010PropOp43
 70
     1
102
RTVSPost2010Prop44ColorIndex
 90
        5
102
RTVSPost2010Prop44ColorRGB
 90
      255
102
RTVSPost2010PropOp44
 70
     1
102
RTVSPost2010Prop45
280
     0
102
RTVSPost2010PropOp45
 70
     1
102
RTVSPost2010Prop46
 90
       50
102
RTVSPost2010PropOp46
 70
     1
102
RTVSPost2010Prop47
 90
       50
102
RTVSPost2010PropOp47
 70
     1
102
RTVSPost2010Prop48
 90
       50
102
RTVSPost2010PropOp48
 70
     1
102
RTVSPost2010Prop49
280
     0
102
RTVSPost2010PropOp49
 70
     1
102
RTVSPost2010Prop50
 90
       50
102
RTVSPost2010PropOp50
 70
     1
102
RTVSPost2010Prop51ColorIndex
 90
      256
102
RTVSPost2010Prop51ColorRGB
 90
-16777216
102
RTVSPost2010PropOp51
 70
     0
102
RTVSPost2010Prop52
140
1.0
102
RTVSPost2010PropOp52
 70
     0
102
RTVSPost2010Prop53
 90
        2
102
RTVSPost2010PropOp53
 70
     1
102
RTVSPost2010Prop54
  1
strokes_ogs.tif
102
RTVSPost2010PropOp54
 70
     1
102
RTVSPost2010Prop55
280
     0
102
RTVSPost2010PropOp55
 70
     1
102
RTVSPost2010Prop56
140
1.0
102
RTVSPost2010PropOp56
 70
     1
102
RTVSPost2010Prop57
140
1.0
102
RTVSPost2010PropOp57
 70
     1
  0
XRECORD
  5
108
102
{ACAD_REACTORS
330
107
102
}
330
107
100
AcDbXrecord
280
     1
102
RTVSPost2010Prop28
280
     0
102
RTVSPost2010PropOp28
 70
     1
102
RTVSPost2010Prop29
280
     1
102
RTVSPost2010PropOp29
 70
     1
102
RTVSPost2010Prop30
280
     1
102
RTVSPost2010PropOp30
 70
     1
102
RTVSPost2010Prop31
280
     0
102
RTVSPost2010PropOp31
 70
     1
102
RTVSPost2010Prop32
280
     0
102
RTVSPost2010PropOp32
 70
     1
102
RTVSPost2010Prop33
280
     0
102
RTVSPost2010PropOp33
 70
     1
102
RTVSPost2010Prop34
280
     0
102
RTVSPost2010PropOp34
 70
     1
102
RTVSPost2010Prop35
280
     0
102
RTVSPost2010PropOp35
 70
     1
102
RTVSPost2010Prop36
280
     0
102
RTVSPost2010PropOp36
 70
     1
102
RTVSPost2010Prop37
 90
       50
102
RTVSPost2010PropOp37
 70
     1
102
RTVSPost2010Prop38
140
0.0
102
RTVSPost2010PropOp38
 70
     1
102
RTVSPost2010Prop39
140
1.0
102
RTVSPost2010PropOp39
 70
     1
102
RTVSPost2010Prop40
 90
        0
102
RTVSPost2010PropOp40
 70
     1
102
RTVSPost2010Prop41ColorIndex
 90
       18
102
RTVSPost2010Prop41ColorRGB
 90
        0
102
RTVSPost2010PropOp41
 70
     1
102
RTVSPost2010Prop42
 90
       50
102
RTVSPost2010PropOp42
 70
     1
102
RTVSPost2010Prop43
 90
        3
102
RTVSPost2010PropOp43
 70
     1
102
RTVSPost2010Prop44ColorIndex
 90
        5
102
RTVSPost2010Prop44ColorRGB
 90
      255
102
RTVSPost2010PropOp44
 70
     1
102
RTVSPost2010Prop45
280
     0
102
RTVSPost2010PropOp45
 70
     1
102
RTVSPost2010Prop46
 90
       50
102
RTVSPost2010PropOp46
 70
     1
102
RTVSPost2010Prop47
 90
       50
102
RTVSPost2010PropOp47
 70
     1
102
RTVSPost2010Prop48
 90
       50
102
RTVSPost2010PropOp48
 70
     1
102
RTVSPost2010Prop49
280
     0
102
RTVSPost2010PropOp49
 70
     1
102
RTVSPost2010Prop50
 90
       50
102
RTVSPost2010PropOp50
 70
     1
102
RTVSPost2010Prop51ColorIndex
 90
      256
102
RTVSPost2010Prop51ColorRGB
 90
-16777216
102
RTVSPost2010PropOp51
 70
     0
102
RTVSPost2010Prop52
140
1.0
102
RTVSPost2010PropOp52
 70
     0
102
RTVSPost2010Prop53
 90
        2
102
RTVSPost2010PropOp53
 70
     1
102
RTVSPost2010Prop54
  1
strokes_ogs.tif
102
RTVSPost2010PropOp54
 70
     1
102
RTVSPost2010Prop55
280
     0
102
RTVSPost2010PropOp55
 70
     1
102
RTVSPost2010Prop56
140
1.0
102
RTVSPost2010PropOp56
 70
     1
102
RTVSPost2010Prop57
140
1.0
102
RTVSPost2010PropOp57
 70
     1
  0
XRECORD
  5
116
102
{ACAD_REACTORS
330
115
102
}
330
115
100
AcDbXrecord
280
     1
102
RTVSPost2010Prop28
280
     0
102
RTVSPost2010PropOp28
 70
     1
102
RTVSPost2010Prop29
280
     1
102
RTVSPost2010PropOp29
 70
     1
102
RTVSPost2010Prop30
280
     1
102
RTVSPost2010PropOp30
 70
     1
102
RTVSPost2010Prop31
280
     0
102
RTVSPost2010PropOp31
 70
     1
102
RTVSPost2010Prop32
280
     0
102
RTVSPost2010PropOp32
 70
     1
102
RTVSPost2010Prop33
280
     0
102
RTVSPost2010PropOp33
 70
     1
102
RTVSPost2010Prop34
280
     0
102
RTVSPost2010PropOp34
 70
     1
102
RTVSPost2010Prop35
280
     0
102
RTVSPost2010PropOp35
 70
     1
102
RTVSPost2010Prop36
280
     0
102
RTVSPost2010PropOp36
 70
     1
102
RTVSPost2010Prop37
 90
       50
102
RTVSPost2010PropOp37
 70
     1
102
RTVSPost2010Prop38
140
0.0
102
RTVSPost2010PropOp38
 70
     1
102
RTVSPost2010Prop39
140
1.0
102
RTVSPost2010PropOp39
 70
     1
102
RTVSPost2010Prop40
 90
        0
102
RTVSPost2010PropOp40
 70
     1
102
RTVSPost2010Prop41ColorIndex
 90
       18
102
RTVSPost2010Prop41ColorRGB
 90
        0
102
RTVSPost2010PropOp41
 70
     1
102
RTVSPost2010Prop42
 90
       50
102
RTVSPost2010PropOp42
 70
     1
102
RTVSPost2010Prop43
 90
        3
102
RTVSPost2010PropOp43
 70
     1
102
RTVSPost2010Prop44ColorIndex
 90
        5
102
RTVSPost2010Prop44ColorRGB
 90
      255
102
RTVSPost2010PropOp44
 70
     1
102
RTVSPost2010Prop45
280
     0
102
RTVSPost2010PropOp45
 70
     1
102
RTVSPost2010Prop46
 90
       50
102
RTVSPost2010PropOp46
 70
     1
102
RTVSPost2010Prop47
 90
       50
102
RTVSPost2010PropOp47
 70
     1
102
RTVSPost2010Prop48
 90
       50
102
RTVSPost2010PropOp48
 70
     1
102
RTVSPost2010Prop49
280
     0
102
RTVSPost2010PropOp49
 70
     1
102
RTVSPost2010Prop50
 90
       50
102
RTVSPost2010PropOp50
 70
     1
102
RTVSPost2010Prop51ColorIndex
 90
      256
102
RTVSPost2010Prop51ColorRGB
 90
-16777216
102
RTVSPost2010PropOp51
 70
     0
102
RTVSPost2010Prop52
140
1.0
102
RTVSPost2010PropOp52
 70
     0
102
RTVSPost2010Prop53
 90
        2
102
RTVSPost2010PropOp53
 70
     1
102
RTVSPost2010Prop54
  1
strokes_ogs.tif
102
RTVSPost2010PropOp54
 70
     1
102
RTVSPost2010Prop55
280
     0
102
RTVSPost2010PropOp55
 70
     1
102
RTVSPost2010Prop56
140
1.0
102
RTVSPost2010PropOp56
 70
     1
102
RTVSPost2010Prop57
140
1.0
102
RTVSPost2010PropOp57
 70
     1
  0
XRECORD
  5
11E
102
{ACAD_REACTORS
330
11D
102
}
330
11D
100
AcDbXrecord
280
     1
102
RTVSPost2010Prop28
280
     0
102
RTVSPost2010PropOp28
 70
     1
102
RTVSPost2010Prop29
280
     1
102
RTVSPost2010PropOp29
 70
     1
102
RTVSPost2010Prop30
280
     1
102
RTVSPost2010PropOp30
 70
     1
102
RTVSPost2010Prop31
280
     0
102
RTVSPost2010PropOp31
 70
     1
102
RTVSPost2010Prop32
280
     0
102
RTVSPost2010PropOp32
 70
     1
102
RTVSPost2010Prop33
280
     0
102
RTVSPost2010PropOp33
 70
     1
102
RTVSPost2010Prop34
280
     0
102
RTVSPost2010PropOp34
 70
     1
102
RTVSPost2010Prop35
280
     0
102
RTVSPost2010PropOp35
 70
     1
102
RTVSPost2010Prop36
280
     0
102
RTVSPost2010PropOp36
 70
     1
102
RTVSPost2010Prop37
 90
       50
102
RTVSPost2010PropOp37
 70
     1
102
RTVSPost2010Prop38
140
0.0
102
RTVSPost2010PropOp38
 70
     1
102
RTVSPost2010Prop39
140
1.0
102
RTVSPost2010PropOp39
 70
     1
102
RTVSPost2010Prop40
 90
        0
102
RTVSPost2010PropOp40
 70
     1
102
RTVSPost2010Prop41ColorIndex
 90
       18
102
RTVSPost2010Prop41ColorRGB
 90
        0
102
RTVSPost2010PropOp41
 70
     1
102
RTVSPost2010Prop42
 90
       50
102
RTVSPost2010PropOp42
 70
     1
102
RTVSPost2010Prop43
 90
        3
102
RTVSPost2010PropOp43
 70
     1
102
RTVSPost2010Prop44ColorIndex
 90
        5
102
RTVSPost2010Prop44ColorRGB
 90
      255
102
RTVSPost2010PropOp44
 70
     1
102
RTVSPost2010Prop45
280
     0
102
RTVSPost2010PropOp45
 70
     1
102
RTVSPost2010Prop46
 90
       50
102
RTVSPost2010PropOp46
 70
     1
102
RTVSPost2010Prop47
 90
       50
102
RTVSPost2010PropOp47
 70
     1
102
RTVSPost2010Prop48
 90
       50
102
RTVSPost2010PropOp48
 70
     1
102
RTVSPost2010Prop49
280
     0
102
RTVSPost2010PropOp49
 70
     1
102
RTVSPost2010Prop50
 90
       50
102
RTVSPost2010PropOp50
 70
     1
102
RTVSPost2010Prop51ColorIndex
 90
      256
102
RTVSPost2010Prop51ColorRGB
 90
-16777216
102
RTVSPost2010PropOp51
 70
     0
102
RTVSPost2010Prop52
140
1.0
102
RTVSPost2010PropOp52
 70
     0
102
RTVSPost2010Prop53
 90
        2
102
RTVSPost2010PropOp53
 70
     1
102
RTVSPost2010Prop54
  1
strokes_ogs.tif
102
RTVSPost2010PropOp54
 70
     1
102
RTVSPost2010Prop55
280
     0
102
RTVSPost2010PropOp55
 70
     1
102
RTVSPost2010Prop56
140
1.0
102
RTVSPost2010PropOp56
 70
     1
102
RTVSPost2010Prop57
140
1.0
102
RTVSPost2010PropOp57
 70
     1
  0
XRECORD
  5
110
102
{ACAD_REACTORS
330
10F
102
}
330
10F
100
AcDbXrecord
280
     1
102
RTVSPost2010Prop28
280
     0
102
RTVSPost2010PropOp28
 70
     1
102
RTVSPost2010Prop29
280
     1
102
RTVSPost2010PropOp29
 70
     1
102
RTVSPost2010Prop30
280
     1
102
RTVSPost2010PropOp30
 70
     1
102
RTVSPost2010Prop31
280
     0
102
RTVSPost2010PropOp31
 70
     1
102
RTVSPost2010Prop32
280
     0
102
RTVSPost2010PropOp32
 70
     1
102
RTVSPost2010Prop33
280
     0
102
RTVSPost2010PropOp33
 70
     1
102
RTVSPost2010Prop34
280
     0
102
RTVSPost2010PropOp34
 70
     1
102
RTVSPost2010Prop35
280
     0
102
RTVSPost2010PropOp35
 70
     1
102
RTVSPost2010Prop36
280
     0
102
RTVSPost2010PropOp36
 70
     1
102
RTVSPost2010Prop37
 90
       50
102
RTVSPost2010PropOp37
 70
     1
102
RTVSPost2010Prop38
140
0.0
102
RTVSPost2010PropOp38
 70
     1
102
RTVSPost2010Prop39
140
1.0
102
RTVSPost2010PropOp39
 70
     1
102
RTVSPost2010Prop40
 90
        0
102
RTVSPost2010PropOp40
 70
     1
102
RTVSPost2010Prop41ColorIndex
 90
       18
102
RTVSPost2010Prop41ColorRGB
 90
        0
102
RTVSPost2010PropOp41
 70
     1
102
RTVSPost2010Prop42
 90
       50
102
RTVSPost2010PropOp42
 70
     1
102
RTVSPost2010Prop43
 90
        3
102
RTVSPost2010PropOp43
 70
     1
102
RTVSPost2010Prop44ColorIndex
 90
        5
102
RTVSPost2010Prop44ColorRGB
 90
      255
102
RTVSPost2010PropOp44
 70
     1
102
RTVSPost2010Prop45
280
     0
102
RTVSPost2010PropOp45
 70
     1
102
RTVSPost2010Prop46
 90
       50
102
RTVSPost2010PropOp46
 70
     1
102
RTVSPost2010Prop47
 90
       50
102
RTVSPost2010PropOp47
 70
     1
102
RTVSPost2010Prop48
 90
       50
102
RTVSPost2010PropOp48
 70
     1
102
RTVSPost2010Prop49
280
     0
102
RTVSPost2010PropOp49
 70
     1
102
RTVSPost2010Prop50
 90
       50
102
RTVSPost2010PropOp50
 70
     1
102
RTVSPost2010Prop51ColorIndex
 90
      256
102
RTVSPost2010Prop51ColorRGB
 90
-16777216
102
RTVSPost2010PropOp51
 70
     0
102
RTVSPost2010Prop52
140
1.0
102
RTVSPost2010PropOp52
 70
     0
102
RTVSPost2010Prop53
 90
        2
102
RTVSPost2010PropOp53
 70
     1
102
RTVSPost2010Prop54
  1
strokes_ogs.tif
102
RTVSPost2010PropOp54
 70
     1
102
RTVSPost2010Prop55
280
     0
102
RTVSPost2010PropOp55
 70
     1
102
RTVSPost2010Prop56
140
1.0
102
RTVSPost2010PropOp56
 70
     1
102
RTVSPost2010Prop57
140
1.0
102
RTVSPost2010PropOp57
 70
     1
  0
XRECORD
  5
114
102
{ACAD_REACTORS
330
113
102
}
330
113
100
AcDbXrecord
280
     1
102
RTVSPost2010Prop28
280
     0
102
RTVSPost2010PropOp28
 70
     1
102
RTVSPost2010Prop29
280
     1
102
RTVSPost2010PropOp29
 70
     1
102
RTVSPost2010Prop30
280
     1
102
RTVSPost2010PropOp30
 70
     1
102
RTVSPost2010Prop31
280
     0
102
RTVSPost2010PropOp31
 70
     1
102
RTVSPost2010Prop32
280
     0
102
RTVSPost2010PropOp32
 70
     1
102
RTVSPost2010Prop33
280
     0
102
RTVSPost2010PropOp33
 70
     1
102
RTVSPost2010Prop34
280
     0
102
RTVSPost2010PropOp34
 70
     1
102
RTVSPost2010Prop35
280
     0
102
RTVSPost2010PropOp35
 70
     1
102
RTVSPost2010Prop36
280
     0
102
RTVSPost2010PropOp36
 70
     1
102
RTVSPost2010Prop37
 90
       50
102
RTVSPost2010PropOp37
 70
     1
102
RTVSPost2010Prop38
140
0.0
102
RTVSPost2010PropOp38
 70
     1
102
RTVSPost2010Prop39
140
1.0
102
RTVSPost2010PropOp39
 70
     1
102
RTVSPost2010Prop40
 90
        0
102
RTVSPost2010PropOp40
 70
     1
102
RTVSPost2010Prop41ColorIndex
 90
       18
102
RTVSPost2010Prop41ColorRGB
 90
        0
102
RTVSPost2010PropOp41
 70
     1
102
RTVSPost2010Prop42
 90
       50
102
RTVSPost2010PropOp42
 70
     1
102
RTVSPost2010Prop43
 90
        3
102
RTVSPost2010PropOp43
 70
     1
102
RTVSPost2010Prop44ColorIndex
 90
        5
102
RTVSPost2010Prop44ColorRGB
 90
      255
102
RTVSPost2010PropOp44
 70
     1
102
RTVSPost2010Prop45
280
     0
102
RTVSPost2010PropOp45
 70
     1
102
RTVSPost2010Prop46
 90
       50
102
RTVSPost2010PropOp46
 70
     1
102
RTVSPost2010Prop47
 90
       50
102
RTVSPost2010PropOp47
 70
     1
102
RTVSPost2010Prop48
 90
       50
102
RTVSPost2010PropOp48
 70
     1
102
RTVSPost2010Prop49
280
     0
102
RTVSPost2010PropOp49
 70
     1
102
RTVSPost2010Prop50
 90
       50
102
RTVSPost2010PropOp50
 70
     1
102
RTVSPost2010Prop51ColorIndex
 90
      256
102
RTVSPost2010Prop51ColorRGB
 90
-16777216
102
RTVSPost2010PropOp51
 70
     0
102
RTVSPost2010Prop52
140
1.0
102
RTVSPost2010PropOp52
 70
     0
102
RTVSPost2010Prop53
 90
        2
102
RTVSPost2010PropOp53
 70
     1
102
RTVSPost2010Prop54
  1
strokes_ogs.tif
102
RTVSPost2010PropOp54
 70
     1
102
RTVSPost2010Prop55
280
     0
102
RTVSPost2010PropOp55
 70
     1
102
RTVSPost2010Prop56
140
1.0
102
RTVSPost2010PropOp56
 70
     1
102
RTVSPost2010Prop57
140
1.0
102
RTVSPost2010PropOp57
 70
     1
  0
XRECORD
  5
12E
102
{ACAD_REACTORS
330
12D
102
}
330
12D
100
AcDbXrecord
280
     1
102
RTVSPost2010Prop28
280
     0
102
RTVSPost2010PropOp28
 70
     0
102
RTVSPost2010Prop29
280
     1
102
RTVSPost2010PropOp29
 70
     0
102
RTVSPost2010Prop30
280
     1
102
RTVSPost2010PropOp30
 70
     0
102
RTVSPost2010Prop31
280
     0
102
RTVSPost2010PropOp31
 70
     0
102
RTVSPost2010Prop32
280
     0
102
RTVSPost2010PropOp32
 70
     0
102
RTVSPost2010Prop33
280
     0
102
RTVSPost2010PropOp33
 70
     0
102
RTVSPost2010Prop34
280
     0
102
RTVSPost2010PropOp34
 70
     0
102
RTVSPost2010Prop35
280
     0
102
RTVSPost2010PropOp35
 70
     0
102
RTVSPost2010Prop36
280
     0
102
RTVSPost2010PropOp36
 70
     0
102
RTVSPost2010Prop37
 90
       50
102
RTVSPost2010PropOp37
 70
     0
102
RTVSPost2010Prop38
140
0.0
102
RTVSPost2010PropOp38
 70
     0
102
RTVSPost2010Prop39
140
1.0
102
RTVSPost2010PropOp39
 70
     0
102
RTVSPost2010Prop40
 90
        0
102
RTVSPost2010PropOp40
 70
     0
102
RTVSPost2010Prop41ColorIndex
 90
       18
102
RTVSPost2010Prop41ColorRGB
 90
        0
102
RTVSPost2010PropOp41
 70
     0
102
RTVSPost2010Prop42
 90
       50
102
RTVSPost2010PropOp42
 70
     0
102
RTVSPost2010Prop43
 90
        3
102
RTVSPost2010PropOp43
 70
     0
102
RTVSPost2010Prop44ColorIndex
 90
        5
102
RTVSPost2010Prop44ColorRGB
 90
      255
102
RTVSPost2010PropOp44
 70
     0
102
RTVSPost2010Prop45
280
     0
102
RTVSPost2010PropOp45
 70
     0
102
RTVSPost2010Prop46
 90
       50
102
RTVSPost2010PropOp46
 70
     0
102
RTVSPost2010Prop47
 90
       50
102
RTVSPost2010PropOp47
 70
     0
102
RTVSPost2010Prop48
 90
       50
102
RTVSPost2010PropOp48
 70
     0
102
RTVSPost2010Prop49
280
     0
102
RTVSPost2010PropOp49
 70
     0
102
RTVSPost2010Prop50
 90
       50
102
RTVSPost2010PropOp50
 70
     0
102
RTVSPost2010Prop51ColorIndex
 90
      256
102
RTVSPost2010Prop51ColorRGB
 90
-16777216
102
RTVSPost2010PropOp51
 70
     0
102
RTVSPost2010Prop52
140
1.0
102
RTVSPost2010PropOp52
 70
     0
102
RTVSPost2010Prop53
 90
        2
102
RTVSPost2010PropOp53
 70
     0
102
RTVSPost2010Prop54
  1
strokes_ogs.tif
102
RTVSPost2010PropOp54
 70
     0
102
RTVSPost2010Prop55
280
     0
102
RTVSPost2010PropOp55
 70
     0
102
RTVSPost2010Prop56
140
1.0
102
RTVSPost2010PropOp56
 70
     0
102
RTVSPost2010Prop57
140
1.0
102
RTVSPost2010PropOp57
 70
     0
  0
XRECORD
  5
11C
102
{ACAD_REACTORS
330
11B
102
}
330
11B
100
AcDbXrecord
280
     1
102
RTVSPost2010Prop28
280
     0
102
RTVSPost2010PropOp28
 70
     1
102
RTVSPost2010Prop29
280
     1
102
RTVSPost2010PropOp29
 70
     1
102
RTVSPost2010Prop30
280
     1
102
RTVSPost2010PropOp30
 70
     1
102
RTVSPost2010Prop31
280
     0
102
RTVSPost2010PropOp31
 70
     1
102
RTVSPost2010Prop32
280
     0
102
RTVSPost2010PropOp32
 70
     1
102
RTVSPost2010Prop33
280
     0
102
RTVSPost2010PropOp33
 70
     1
102
RTVSPost2010Prop34
280
     0
102
RTVSPost2010PropOp34
 70
     1
102
RTVSPost2010Prop35
280
     0
102
RTVSPost2010PropOp35
 70
     1
102
RTVSPost2010Prop36
280
     0
102
RTVSPost2010PropOp36
 70
     1
102
RTVSPost2010Prop37
 90
       50
102
RTVSPost2010PropOp37
 70
     1
102
RTVSPost2010Prop38
140
0.0
102
RTVSPost2010PropOp38
 70
     1
102
RTVSPost2010Prop39
140
1.0
102
RTVSPost2010PropOp39
 70
     1
102
RTVSPost2010Prop40
 90
        0
102
RTVSPost2010PropOp40
 70
     1
102
RTVSPost2010Prop41ColorIndex
 90
       18
102
RTVSPost2010Prop41ColorRGB
 90
        0
102
RTVSPost2010PropOp41
 70
     1
102
RTVSPost2010Prop42
 90
       50
102
RTVSPost2010PropOp42
 70
     1
102
RTVSPost2010Prop43
 90
        3
102
RTVSPost2010PropOp43
 70
     1
102
RTVSPost2010Prop44ColorIndex
 90
        5
102
RTVSPost2010Prop44ColorRGB
 90
      255
102
RTVSPost2010PropOp44
 70
     1
102
RTVSPost2010Prop45
280
     0
102
RTVSPost2010PropOp45
 70
     1
102
RTVSPost2010Prop46
 90
       50
102
RTVSPost2010PropOp46
 70
     1
102
RTVSPost2010Prop47
 90
       50
102
RTVSPost2010PropOp47
 70
     1
102
RTVSPost2010Prop48
 90
       50
102
RTVSPost2010PropOp48
 70
     1
102
RTVSPost2010Prop49
280
     0
102
RTVSPost2010PropOp49
 70
     1
102
RTVSPost2010Prop50
 90
       50
102
RTVSPost2010PropOp50
 70
     1
102
RTVSPost2010Prop51ColorIndex
 90
      256
102
RTVSPost2010Prop51ColorRGB
 90
-16777216
102
RTVSPost2010PropOp51
 70
     0
102
RTVSPost2010Prop52
140
1.0
102
RTVSPost2010PropOp52
 70
     0
102
RTVSPost2010Prop53
 90
        2
102
RTVSPost2010PropOp53
 70
     1
102
RTVSPost2010Prop54
  1
strokes_ogs.tif
102
RTVSPost2010PropOp54
 70
     1
102
RTVSPost2010Prop55
280
     0
102
RTVSPost2010PropOp55
 70
     1
102
RTVSPost2010Prop56
140
1.0
102
RTVSPost2010PropOp56
 70
     1
102
RTVSPost2010Prop57
140
1.0
102
RTVSPost2010PropOp57
 70
     1
  0
XRECORD
  5
100
102
{ACAD_REACTORS
330
FF
102
}
330
FF
100
AcDbXrecord
280
     1
102
RTVSPost2010Prop28
280
     0
102
RTVSPost2010PropOp28
 70
     1
102
RTVSPost2010Prop29
280
     1
102
RTVSPost2010PropOp29
 70
     1
102
RTVSPost2010Prop30
280
     1
102
RTVSPost2010PropOp30
 70
     1
102
RTVSPost2010Prop31
280
     0
102
RTVSPost2010PropOp31
 70
     1
102
RTVSPost2010Prop32
280
     0
102
RTVSPost2010PropOp32
 70
     1
102
RTVSPost2010Prop33
280
     0
102
RTVSPost2010PropOp33
 70
     1
102
RTVSPost2010Prop34
280
     0
102
RTVSPost2010PropOp34
 70
     1
102
RTVSPost2010Prop35
280
     0
102
RTVSPost2010PropOp35
 70
     1
102
RTVSPost2010Prop36
280
     0
102
RTVSPost2010PropOp36
 70
     1
102
RTVSPost2010Prop37
 90
       50
102
RTVSPost2010PropOp37
 70
     1
102
RTVSPost2010Prop38
140
0.0
102
RTVSPost2010PropOp38
 70
     1
102
RTVSPost2010Prop39
140
1.0
102
RTVSPost2010PropOp39
 70
     1
102
RTVSPost2010Prop40
 90
        0
102
RTVSPost2010PropOp40
 70
     1
102
RTVSPost2010Prop41ColorIndex
 90
       18
102
RTVSPost2010Prop41ColorRGB
 90
        0
102
RTVSPost2010PropOp41
 70
     1
102
RTVSPost2010Prop42
 90
       50
102
RTVSPost2010PropOp42
 70
     1
102
RTVSPost2010Prop43
 90
        3
102
RTVSPost2010PropOp43
 70
     1
102
RTVSPost2010Prop44ColorIndex
 90
        5
102
RTVSPost2010Prop44ColorRGB
 90
      255
102
RTVSPost2010PropOp44
 70
     1
102
RTVSPost2010Prop45
280
     0
102
RTVSPost2010PropOp45
 70
     1
102
RTVSPost2010Prop46
 90
       50
102
RTVSPost2010PropOp46
 70
     1
102
RTVSPost2010Prop47
 90
       50
102
RTVSPost2010PropOp47
 70
     1
102
RTVSPost2010Prop48
 90
       50
102
RTVSPost2010PropOp48
 70
     1
102
RTVSPost2010Prop49
280
     0
102
RTVSPost2010PropOp49
 70
     1
102
RTVSPost2010Prop50
 90
       50
102
RTVSPost2010PropOp50
 70
     1
102
RTVSPost2010Prop51ColorIndex
 90
      256
102
RTVSPost2010Prop51ColorRGB
 90
-16777216
102
RTVSPost2010PropOp51
 70
     0
102
RTVSPost2010Prop52
140
1.0
102
RTVSPost2010PropOp52
 70
     0
102
RTVSPost2010Prop53
 90
        2
102
RTVSPost2010PropOp53
 70
     1
102
RTVSPost2010Prop54
  1
strokes_ogs.tif
102
RTVSPost2010PropOp54
 70
     1
102
RTVSPost2010Prop55
280
     0
102
RTVSPost2010PropOp55
 70
     1
102
RTVSPost2010Prop56
140
1.0
102
RTVSPost2010PropOp56
 70
     1
102
RTVSPost2010Prop57
140
1.0
102
RTVSPost2010PropOp57
 70
     1
  0
XRECORD
  5
102
102
{ACAD_REACTORS
330
101
102
}
330
101
100
AcDbXrecord
280
     1
102
RTVSPost2010Prop28
280
     0
102
RTVSPost2010PropOp28
 70
     1
102
RTVSPost2010Prop29
280
     1
102
RTVSPost2010PropOp29
 70
     1
102
RTVSPost2010Prop30
280
     1
102
RTVSPost2010PropOp30
 70
     1
102
RTVSPost2010Prop31
280
     0
102
RTVSPost2010PropOp31
 70
     1
102
RTVSPost2010Prop32
280
     0
102
RTVSPost2010PropOp32
 70
     1
102
RTVSPost2010Prop33
280
     0
102
RTVSPost2010PropOp33
 70
     1
102
RTVSPost2010Prop34
280
     0
102
RTVSPost2010PropOp34
 70
     1
102
RTVSPost2010Prop35
280
     0
102
RTVSPost2010PropOp35
 70
     1
102
RTVSPost2010Prop36
280
     0
102
RTVSPost2010PropOp36
 70
     1
102
RTVSPost2010Prop37
 90
       50
102
RTVSPost2010PropOp37
 70
     1
102
RTVSPost2010Prop38
140
0.0
102
RTVSPost2010PropOp38
 70
     1
102
RTVSPost2010Prop39
140
1.0
102
RTVSPost2010PropOp39
 70
     1
102
RTVSPost2010Prop40
 90
        0
102
RTVSPost2010PropOp40
 70
     1
102
RTVSPost2010Prop41ColorIndex
 90
       18
102
RTVSPost2010Prop41ColorRGB
 90
        0
102
RTVSPost2010PropOp41
 70
     1
102
RTVSPost2010Prop42
 90
       50
102
RTVSPost2010PropOp42
 70
     1
102
RTVSPost2010Prop43
 90
        3
102
RTVSPost2010PropOp43
 70
     1
102
RTVSPost2010Prop44ColorIndex
 90
        5
102
RTVSPost2010Prop44ColorRGB
 90
      255
102
RTVSPost2010PropOp44
 70
     1
102
RTVSPost2010Prop45
280
     0
102
RTVSPost2010PropOp45
 70
     1
102
RTVSPost2010Prop46
 90
       50
102
RTVSPost2010PropOp46
 70
     1
102
RTVSPost2010Prop47
 90
       50
102
RTVSPost2010PropOp47
 70
     1
102
RTVSPost2010Prop48
 90
       50
102
RTVSPost2010PropOp48
 70
     1
102
RTVSPost2010Prop49
280
     0
102
RTVSPost2010PropOp49
 70
     1
102
RTVSPost2010Prop50
 90
       50
102
RTVSPost2010PropOp50
 70
     1
102
RTVSPost2010Prop51ColorIndex
 90
      256
102
RTVSPost2010Prop51ColorRGB
 90
-16777216
102
RTVSPost2010PropOp51
 70
     0
102
RTVSPost2010Prop52
140
1.0
102
RTVSPost2010PropOp52
 70
     0
102
RTVSPost2010Prop53
 90
        2
102
RTVSPost2010PropOp53
 70
     1
102
RTVSPost2010Prop54
  1
strokes_ogs.tif
102
RTVSPost2010PropOp54
 70
     1
102
RTVSPost2010Prop55
280
     0
102
RTVSPost2010PropOp55
 70
     1
102
RTVSPost2010Prop56
140
1.0
102
RTVSPost2010PropOp56
 70
     1
102
RTVSPost2010Prop57
140
1.0
102
RTVSPost2010PropOp57
 70
     1
  0
XRECORD
  5
104
102
{ACAD_REACTORS
330
103
102
}
330
103
100
AcDbXrecord
280
     1
102
RTVSPost2010Prop28
280
     0
102
RTVSPost2010PropOp28
 70
     1
102
RTVSPost2010Prop29
280
     1
102
RTVSPost2010PropOp29
 70
     1
102
RTVSPost2010Prop30
280
     1
102
RTVSPost2010PropOp30
 70
     1
102
RTVSPost2010Prop31
280
     0
102
RTVSPost2010PropOp31
 70
     1
102
RTVSPost2010Prop32
280
     0
102
RTVSPost2010PropOp32
 70
     1
102
RTVSPost2010Prop33
280
     0
102
RTVSPost2010PropOp33
 70
     1
102
RTVSPost2010Prop34
280
     0
102
RTVSPost2010PropOp34
 70
     1
102
RTVSPost2010Prop35
280
     0
102
RTVSPost2010PropOp35
 70
     1
102
RTVSPost2010Prop36
280
     0
102
RTVSPost2010PropOp36
 70
     1
102
RTVSPost2010Prop37
 90
       50
102
RTVSPost2010PropOp37
 70
     1
102
RTVSPost2010Prop38
140
0.0
102
RTVSPost2010PropOp38
 70
     1
102
RTVSPost2010Prop39
140
1.0
102
RTVSPost2010PropOp39
 70
     1
102
RTVSPost2010Prop40
 90
        0
102
RTVSPost2010PropOp40
 70
     1
102
RTVSPost2010Prop41ColorIndex
 90
       18
102
RTVSPost2010Prop41ColorRGB
 90
        0
102
RTVSPost2010PropOp41
 70
     1
102
RTVSPost2010Prop42
 90
       50
102
RTVSPost2010PropOp42
 70
     1
102
RTVSPost2010Prop43
 90
        3
102
RTVSPost2010PropOp43
 70
     1
102
RTVSPost2010Prop44ColorIndex
 90
        5
102
RTVSPost2010Prop44ColorRGB
 90
      255
102
RTVSPost2010PropOp44
 70
     1
102
RTVSPost2010Prop45
280
     0
102
RTVSPost2010PropOp45
 70
     1
102
RTVSPost2010Prop46
 90
       50
102
RTVSPost2010PropOp46
 70
     1
102
RTVSPost2010Prop47
 90
       50
102
RTVSPost2010PropOp47
 70
     1
102
RTVSPost2010Prop48
 90
       50
102
RTVSPost2010PropOp48
 70
     1
102
RTVSPost2010Prop49
280
     0
102
RTVSPost2010PropOp49
 70
     1
102
RTVSPost2010Prop50
 90
       50
102
RTVSPost2010PropOp50
 70
     1
102
RTVSPost2010Prop51ColorIndex
 90
      256
102
RTVSPost2010Prop51ColorRGB
 90
-16777216
102
RTVSPost2010PropOp51
 70
     0
102
RTVSPost2010Prop52
140
1.0
102
RTVSPost2010PropOp52
 70
     0
102
RTVSPost2010Prop53
 90
        2
102
RTVSPost2010PropOp53
 70
     1
102
RTVSPost2010Prop54
  1
strokes_ogs.tif
102
RTVSPost2010PropOp54
 70
     1
102
RTVSPost2010Prop55
280
     0
102
RTVSPost2010PropOp55
 70
     1
102
RTVSPost2010Prop56
140
1.0
102
RTVSPost2010PropOp56
 70
     1
102
RTVSPost2010Prop57
140
1.0
102
RTVSPost2010PropOp57
 70
     1
  0
XRECORD
  5
106
102
{ACAD_REACTORS
330
105
102
}
330
105
100
AcDbXrecord
280
     1
102
RTVSPost2010Prop28
280
     0
102
RTVSPost2010PropOp28
 70
     1
102
RTVSPost2010Prop29
280
     1
102
RTVSPost2010PropOp29
 70
     1
102
RTVSPost2010Prop30
280
     1
102
RTVSPost2010PropOp30
 70
     1
102
RTVSPost2010Prop31
280
     0
102
RTVSPost2010PropOp31
 70
     1
102
RTVSPost2010Prop32
280
     0
102
RTVSPost2010PropOp32
 70
     1
102
RTVSPost2010Prop33
280
     0
102
RTVSPost2010PropOp33
 70
     1
102
RTVSPost2010Prop34
280
     0
102
RTVSPost2010PropOp34
 70
     1
102
RTVSPost2010Prop35
280
     0
102
RTVSPost2010PropOp35
 70
     1
102
RTVSPost2010Prop36
280
     0
102
RTVSPost2010PropOp36
 70
     1
102
RTVSPost2010Prop37
 90
       50
102
RTVSPost2010PropOp37
 70
     1
102
RTVSPost2010Prop38
140
0.0
102
RTVSPost2010PropOp38
 70
     1
102
RTVSPost2010Prop39
140
1.0
102
RTVSPost2010PropOp39
 70
     1
102
RTVSPost2010Prop40
 90
        0
102
RTVSPost2010PropOp40
 70
     1
102
RTVSPost2010Prop41ColorIndex
 90
       18
102
RTVSPost2010Prop41ColorRGB
 90
        0
102
RTVSPost2010PropOp41
 70
     1
102
RTVSPost2010Prop42
 90
       50
102
RTVSPost2010PropOp42
 70
     1
102
RTVSPost2010Prop43
 90
        3
102
RTVSPost2010PropOp43
 70
     1
102
RTVSPost2010Prop44ColorIndex
 90
        5
102
RTVSPost2010Prop44ColorRGB
 90
      255
102
RTVSPost2010PropOp44
 70
     1
102
RTVSPost2010Prop45
280
     0
102
RTVSPost2010PropOp45
 70
     1
102
RTVSPost2010Prop46
 90
       50
102
RTVSPost2010PropOp46
 70
     1
102
RTVSPost2010Prop47
 90
       50
102
RTVSPost2010PropOp47
 70
     1
102
RTVSPost2010Prop48
 90
       50
102
RTVSPost2010PropOp48
 70
     1
102
RTVSPost2010Prop49
280
     0
102
RTVSPost2010PropOp49
 70
     1
102
RTVSPost2010Prop50
 90
       50
102
RTVSPost2010PropOp50
 70
     1
102
RTVSPost2010Prop51ColorIndex
 90
      256
102
RTVSPost2010Prop51ColorRGB
 90
-16777216
102
RTVSPost2010PropOp51
 70
     0
102
RTVSPost2010Prop52
140
1.0
102
RTVSPost2010PropOp52
 70
     0
102
RTVSPost2010Prop53
 90
        2
102
RTVSPost2010PropOp53
 70
     1
102
RTVSPost2010Prop54
  1
strokes_ogs.tif
102
RTVSPost2010PropOp54
 70
     1
102
RTVSPost2010Prop55
280
     0
102
RTVSPost2010PropOp55
 70
     1
102
RTVSPost2010Prop56
140
1.0
102
RTVSPost2010PropOp56
 70
     1
102
RTVSPost2010Prop57
140
1.0
102
RTVSPost2010PropOp57
 70
     1
  0
XRECORD
  5
10E
102
{ACAD_REACTORS
330
10D
102
}
330
10D
100
AcDbXrecord
280
     1
102
RTVSPost2010Prop28
280
     0
102
RTVSPost2010PropOp28
 70
     1
102
RTVSPost2010Prop29
280
     1
102
RTVSPost2010PropOp29
 70
     1
102
RTVSPost2010Prop30
280
     1
102
RTVSPost2010PropOp30
 70
     1
102
RTVSPost2010Prop31
280
     0
102
RTVSPost2010PropOp31
 70
     1
102
RTVSPost2010Prop32
280
     0
102
RTVSPost2010PropOp32
 70
     1
102
RTVSPost2010Prop33
280
     0
102
RTVSPost2010PropOp33
 70
     1
102
RTVSPost2010Prop34
280
     0
102
RTVSPost2010PropOp34
 70
     1
102
RTVSPost2010Prop35
280
     0
102
RTVSPost2010PropOp35
 70
     1
102
RTVSPost2010Prop36
280
     0
102
RTVSPost2010PropOp36
 70
     1
102
RTVSPost2010Prop37
 90
       50
102
RTVSPost2010PropOp37
 70
     1
102
RTVSPost2010Prop38
140
0.0
102
RTVSPost2010PropOp38
 70
     1
102
RTVSPost2010Prop39
140
1.0
102
RTVSPost2010PropOp39
 70
     1
102
RTVSPost2010Prop40
 90
        0
102
RTVSPost2010PropOp40
 70
     1
102
RTVSPost2010Prop41ColorIndex
 90
       18
102
RTVSPost2010Prop41ColorRGB
 90
        0
102
RTVSPost2010PropOp41
 70
     1
102
RTVSPost2010Prop42
 90
       50
102
RTVSPost2010PropOp42
 70
     1
102
RTVSPost2010Prop43
 90
        3
102
RTVSPost2010PropOp43
 70
     1
102
RTVSPost2010Prop44ColorIndex
 90
        5
102
RTVSPost2010Prop44ColorRGB
 90
      255
102
RTVSPost2010PropOp44
 70
     1
102
RTVSPost2010Prop45
280
     0
102
RTVSPost2010PropOp45
 70
     1
102
RTVSPost2010Prop46
 90
       50
102
RTVSPost2010PropOp46
 70
     1
102
RTVSPost2010Prop47
 90
       50
102
RTVSPost2010PropOp47
 70
     1
102
RTVSPost2010Prop48
 90
       50
102
RTVSPost2010PropOp48
 70
     1
102
RTVSPost2010Prop49
280
     0
102
RTVSPost2010PropOp49
 70
     1
102
RTVSPost2010Prop50
 90
       50
102
RTVSPost2010PropOp50
 70
     1
102
RTVSPost2010Prop51ColorIndex
 90
      256
102
RTVSPost2010Prop51ColorRGB
 90
-16777216
102
RTVSPost2010PropOp51
 70
     0
102
RTVSPost2010Prop52
140
1.0
102
RTVSPost2010PropOp52
 70
     0
102
RTVSPost2010Prop53
 90
        2
102
RTVSPost2010PropOp53
 70
     1
102
RTVSPost2010Prop54
  1
strokes_ogs.tif
102
RTVSPost2010PropOp54
 70
     1
102
RTVSPost2010Prop55
280
     0
102
RTVSPost2010PropOp55
 70
     1
102
RTVSPost2010Prop56
140
1.0
102
RTVSPost2010PropOp56
 70
     1
102
RTVSPost2010Prop57
140
1.0
102
RTVSPost2010PropOp57
 70
     1
  0
XRECORD
  5
12A
102
{ACAD_REACTORS
330
129
102
}
330
129
100
AcDbXrecord
280
     1
102
RTVSPost2010Prop28
280
     0
102
RTVSPost2010PropOp28
 70
     0
102
RTVSPost2010Prop29
280
     1
102
RTVSPost2010PropOp29
 70
     0
102
RTVSPost2010Prop30
280
     1
102
RTVSPost2010PropOp30
 70
     0
102
RTVSPost2010Prop31
280
     0
102
RTVSPost2010PropOp31
 70
     0
102
RTVSPost2010Prop32
280
     0
102
RTVSPost2010PropOp32
 70
     0
102
RTVSPost2010Prop33
280
     0
102
RTVSPost2010PropOp33
 70
     0
102
RTVSPost2010Prop34
280
     0
102
RTVSPost2010PropOp34
 70
     0
102
RTVSPost2010Prop35
280
     0
102
RTVSPost2010PropOp35
 70
     0
102
RTVSPost2010Prop36
280
     0
102
RTVSPost2010PropOp36
 70
     0
102
RTVSPost2010Prop37
 90
       50
102
RTVSPost2010PropOp37
 70
     0
102
RTVSPost2010Prop38
140
0.0
102
RTVSPost2010PropOp38
 70
     0
102
RTVSPost2010Prop39
140
1.0
102
RTVSPost2010PropOp39
 70
     0
102
RTVSPost2010Prop40
 90
        0
102
RTVSPost2010PropOp40
 70
     0
102
RTVSPost2010Prop41ColorIndex
 90
       18
102
RTVSPost2010Prop41ColorRGB
 90
        0
102
RTVSPost2010PropOp41
 70
     0
102
RTVSPost2010Prop42
 90
       50
102
RTVSPost2010PropOp42
 70
     0
102
RTVSPost2010Prop43
 90
        3
102
RTVSPost2010PropOp43
 70
     0
102
RTVSPost2010Prop44ColorIndex
 90
        5
102
RTVSPost2010Prop44ColorRGB
 90
      255
102
RTVSPost2010PropOp44
 70
     0
102
RTVSPost2010Prop45
280
     0
102
RTVSPost2010PropOp45
 70
     0
102
RTVSPost2010Prop46
 90
       50
102
RTVSPost2010PropOp46
 70
     0
102
RTVSPost2010Prop47
 90
       50
102
RTVSPost2010PropOp47
 70
     0
102
RTVSPost2010Prop48
 90
       50
102
RTVSPost2010PropOp48
 70
     0
102
RTVSPost2010Prop49
280
     0
102
RTVSPost2010PropOp49
 70
     0
102
RTVSPost2010Prop50
 90
       50
102
RTVSPost2010PropOp50
 70
     0
102
RTVSPost2010Prop51ColorIndex
 90
      256
102
RTVSPost2010Prop51ColorRGB
 90
-16777216
102
RTVSPost2010PropOp51
 70
     0
102
RTVSPost2010Prop52
140
1.0
102
RTVSPost2010PropOp52
 70
     0
102
RTVSPost2010Prop53
 90
        2
102
RTVSPost2010PropOp53
 70
     0
102
RTVSPost2010Prop54
  1
strokes_ogs.tif
102
RTVSPost2010PropOp54
 70
     0
102
RTVSPost2010Prop55
280
     0
102
RTVSPost2010PropOp55
 70
     0
102
RTVSPost2010Prop56
140
1.0
102
RTVSPost2010PropOp56
 70
     0
102
RTVSPost2010Prop57
140
1.0
102
RTVSPost2010PropOp57
 70
     0
  0
XRECORD
  5
11A
102
{ACAD_REACTORS
330
119
102
}
330
119
100
AcDbXrecord
280
     1
102
RTVSPost2010Prop28
280
     0
102
RTVSPost2010PropOp28
 70
     1
102
RTVSPost2010Prop29
280
     1
102
RTVSPost2010PropOp29
 70
     1
102
RTVSPost2010Prop30
280
     1
102
RTVSPost2010PropOp30
 70
     1
102
RTVSPost2010Prop31
280
     0
102
RTVSPost2010PropOp31
 70
     1
102
RTVSPost2010Prop32
280
     0
102
RTVSPost2010PropOp32
 70
     1
102
RTVSPost2010Prop33
280
     0
102
RTVSPost2010PropOp33
 70
     1
102
RTVSPost2010Prop34
280
     0
102
RTVSPost2010PropOp34
 70
     1
102
RTVSPost2010Prop35
280
     0
102
RTVSPost2010PropOp35
 70
     1
102
RTVSPost2010Prop36
280
     0
102
RTVSPost2010PropOp36
 70
     1
102
RTVSPost2010Prop37
 90
       50
102
RTVSPost2010PropOp37
 70
     1
102
RTVSPost2010Prop38
140
0.0
102
RTVSPost2010PropOp38
 70
     1
102
RTVSPost2010Prop39
140
1.0
102
RTVSPost2010PropOp39
 70
     1
102
RTVSPost2010Prop40
 90
        0
102
RTVSPost2010PropOp40
 70
     1
102
RTVSPost2010Prop41ColorIndex
 90
       18
102
RTVSPost2010Prop41ColorRGB
 90
        0
102
RTVSPost2010PropOp41
 70
     1
102
RTVSPost2010Prop42
 90
       50
102
RTVSPost2010PropOp42
 70
     1
102
RTVSPost2010Prop43
 90
        3
102
RTVSPost2010PropOp43
 70
     1
102
RTVSPost2010Prop44ColorIndex
 90
        5
102
RTVSPost2010Prop44ColorRGB
 90
      255
102
RTVSPost2010PropOp44
 70
     1
102
RTVSPost2010Prop45
280
     0
102
RTVSPost2010PropOp45
 70
     1
102
RTVSPost2010Prop46
 90
       50
102
RTVSPost2010PropOp46
 70
     1
102
RTVSPost2010Prop47
 90
       50
102
RTVSPost2010PropOp47
 70
     1
102
RTVSPost2010Prop48
 90
       50
102
RTVSPost2010PropOp48
 70
     1
102
RTVSPost2010Prop49
280
     0
102
RTVSPost2010PropOp49
 70
     1
102
RTVSPost2010Prop50
 90
       50
102
RTVSPost2010PropOp50
 70
     1
102
RTVSPost2010Prop51ColorIndex
 90
      256
102
RTVSPost2010Prop51ColorRGB
 90
-16777216
102
RTVSPost2010PropOp51
 70
     0
102
RTVSPost2010Prop52
140
1.0
102
RTVSPost2010PropOp52
 70
     0
102
RTVSPost2010Prop53
 90
        2
102
RTVSPost2010PropOp53
 70
     1
102
RTVSPost2010Prop54
  1
strokes_ogs.tif
102
RTVSPost2010PropOp54
 70
     1
102
RTVSPost2010Prop55
280
     0
102
RTVSPost2010PropOp55
 70
     1
102
RTVSPost2010Prop56
140
1.0
102
RTVSPost2010PropOp56
 70
     1
102
RTVSPost2010Prop57
140
1.0
102
RTVSPost2010PropOp57
 70
     1
  0
XRECORD
  5
12C
102
{ACAD_REACTORS
330
12B
102
}
330
12B
100
AcDbXrecord
280
     1
102
RTVSPost2010Prop28
280
     0
102
RTVSPost2010PropOp28
 70
     0
102
RTVSPost2010Prop29
280
     1
102
RTVSPost2010PropOp29
 70
     0
102
RTVSPost2010Prop30
280
     1
102
RTVSPost2010PropOp30
 70
     0
102
RTVSPost2010Prop31
280
     0
102
RTVSPost2010PropOp31
 70
     0
102
RTVSPost2010Prop32
280
     0
102
RTVSPost2010PropOp32
 70
     0
102
RTVSPost2010Prop33
280
     0
102
RTVSPost2010PropOp33
 70
     0
102
RTVSPost2010Prop34
280
     0
102
RTVSPost2010PropOp34
 70
     0
102
RTVSPost2010Prop35
280
     0
102
RTVSPost2010PropOp35
 70
     0
102
RTVSPost2010Prop36
280
     0
102
RTVSPost2010PropOp36
 70
     0
102
RTVSPost2010Prop37
 90
       50
102
RTVSPost2010PropOp37
 70
     0
102
RTVSPost2010Prop38
140
0.0
102
RTVSPost2010PropOp38
 70
     0
102
RTVSPost2010Prop39
140
1.0
102
RTVSPost2010PropOp39
 70
     0
102
RTVSPost2010Prop40
 90
        0
102
RTVSPost2010PropOp40
 70
     0
102
RTVSPost2010Prop41ColorIndex
 90
       18
102
RTVSPost2010Prop41ColorRGB
 90
        0
102
RTVSPost2010PropOp41
 70
     0
102
RTVSPost2010Prop42
 90
       50
102
RTVSPost2010PropOp42
 70
     0
102
RTVSPost2010Prop43
 90
        3
102
RTVSPost2010PropOp43
 70
     0
102
RTVSPost2010Prop44ColorIndex
 90
        5
102
RTVSPost2010Prop44ColorRGB
 90
      255
102
RTVSPost2010PropOp44
 70
     0
102
RTVSPost2010Prop45
280
     0
102
RTVSPost2010PropOp45
 70
     0
102
RTVSPost2010Prop46
 90
       50
102
RTVSPost2010PropOp46
 70
     0
102
RTVSPost2010Prop47
 90
       50
102
RTVSPost2010PropOp47
 70
     0
102
RTVSPost2010Prop48
 90
       50
102
RTVSPost2010PropOp48
 70
     0
102
RTVSPost2010Prop49
280
     0
102
RTVSPost2010PropOp49
 70
     0
102
RTVSPost2010Prop50
 90
       50
102
RTVSPost2010PropOp50
 70
     0
102
RTVSPost2010Prop51ColorIndex
 90
      256
102
RTVSPost2010Prop51ColorRGB
 90
-16777216
102
RTVSPost2010PropOp51
 70
     0
102
RTVSPost2010Prop52
140
1.0
102
RTVSPost2010PropOp52
 70
     0
102
RTVSPost2010Prop53
 90
        2
102
RTVSPost2010PropOp53
 70
     0
102
RTVSPost2010Prop54
  1
strokes_ogs.tif
102
RTVSPost2010PropOp54
 70
     0
102
RTVSPost2010Prop55
280
     0
102
RTVSPost2010PropOp55
 70
     0
102
RTVSPost2010Prop56
140
1.0
102
RTVSPost2010PropOp56
 70
     0
102
RTVSPost2010Prop57
140
1.0
102
RTVSPost2010PropOp57
 70
     0
  0
XRECORD
  5
112
102
{ACAD_REACTORS
330
111
102
}
330
111
100
AcDbXrecord
280
     1
102
RTVSPost2010Prop28
280
     0
102
RTVSPost2010PropOp28
 70
     1
102
RTVSPost2010Prop29
280
     1
102
RTVSPost2010PropOp29
 70
     1
102
RTVSPost2010Prop30
280
     1
102
RTVSPost2010PropOp30
 70
     1
102
RTVSPost2010Prop31
280
     0
102
RTVSPost2010PropOp31
 70
     1
102
RTVSPost2010Prop32
280
     0
102
RTVSPost2010PropOp32
 70
     1
102
RTVSPost2010Prop33
280
     0
102
RTVSPost2010PropOp33
 70
     1
102
RTVSPost2010Prop34
280
     0
102
RTVSPost2010PropOp34
 70
     1
102
RTVSPost2010Prop35
280
     0
102
RTVSPost2010PropOp35
 70
     1
102
RTVSPost2010Prop36
280
     0
102
RTVSPost2010PropOp36
 70
     1
102
RTVSPost2010Prop37
 90
       50
102
RTVSPost2010PropOp37
 70
     1
102
RTVSPost2010Prop38
140
0.0
102
RTVSPost2010PropOp38
 70
     1
102
RTVSPost2010Prop39
140
1.0
102
RTVSPost2010PropOp39
 70
     1
102
RTVSPost2010Prop40
 90
        0
102
RTVSPost2010PropOp40
 70
     1
102
RTVSPost2010Prop41ColorIndex
 90
       18
102
RTVSPost2010Prop41ColorRGB
 90
        0
102
RTVSPost2010PropOp41
 70
     1
102
RTVSPost2010Prop42
 90
       50
102
RTVSPost2010PropOp42
 70
     1
102
RTVSPost2010Prop43
 90
        3
102
RTVSPost2010PropOp43
 70
     1
102
RTVSPost2010Prop44ColorIndex
 90
        5
102
RTVSPost2010Prop44ColorRGB
 90
      255
102
RTVSPost2010PropOp44
 70
     1
102
RTVSPost2010Prop45
280
     0
102
RTVSPost2010PropOp45
 70
     1
102
RTVSPost2010Prop46
 90
       50
102
RTVSPost2010PropOp46
 70
     1
102
RTVSPost2010Prop47
 90
       50
102
RTVSPost2010PropOp47
 70
     1
102
RTVSPost2010Prop48
 90
       50
102
RTVSPost2010PropOp48
 70
     1
102
RTVSPost2010Prop49
280
     0
102
RTVSPost2010PropOp49
 70
     1
102
RTVSPost2010Prop50
 90
       50
102
RTVSPost2010PropOp50
 70
     1
102
RTVSPost2010Prop51ColorIndex
 90
      256
102
RTVSPost2010Prop51ColorRGB
 90
-16777216
102
RTVSPost2010PropOp51
 70
     0
102
RTVSPost2010Prop52
140
1.0
102
RTVSPost2010PropOp52
 70
     0
102
RTVSPost2010Prop53
 90
        2
102
RTVSPost2010PropOp53
 70
     1
102
RTVSPost2010Prop54
  1
strokes_ogs.tif
102
RTVSPost2010PropOp54
 70
     1
102
RTVSPost2010Prop55
280
     0
102
RTVSPost2010PropOp55
 70
     1
102
RTVSPost2010Prop56
140
1.0
102
RTVSPost2010PropOp56
 70
     1
102
RTVSPost2010Prop57
140
1.0
102
RTVSPost2010PropOp57
 70
     1
  0
XRECORD
  5
128
102
{ACAD_REACTORS
330
127
102
}
330
127
100
AcDbXrecord
280
     1
102
RTVSPost2010Prop28
280
     0
102
RTVSPost2010PropOp28
 70
     1
102
RTVSPost2010Prop29
280
     1
102
RTVSPost2010PropOp29
 70
     1
102
RTVSPost2010Prop30
280
     1
102
RTVSPost2010PropOp30
 70
     1
102
RTVSPost2010Prop31
280
     0
102
RTVSPost2010PropOp31
 70
     1
102
RTVSPost2010Prop32
280
     0
102
RTVSPost2010PropOp32
 70
     1
102
RTVSPost2010Prop33
280
     0
102
RTVSPost2010PropOp33
 70
     1
102
RTVSPost2010Prop34
280
     0
102
RTVSPost2010PropOp34
 70
     1
102
RTVSPost2010Prop35
280
     0
102
RTVSPost2010PropOp35
 70
     1
102
RTVSPost2010Prop36
280
     0
102
RTVSPost2010PropOp36
 70
     1
102
RTVSPost2010Prop37
 90
       50
102
RTVSPost2010PropOp37
 70
     1
102
RTVSPost2010Prop38
140
0.0
102
RTVSPost2010PropOp38
 70
     1
102
RTVSPost2010Prop39
140
1.0
102
RTVSPost2010PropOp39
 70
     1
102
RTVSPost2010Prop40
 90
        0
102
RTVSPost2010PropOp40
 70
     1
102
RTVSPost2010Prop41ColorIndex
 90
       18
102
RTVSPost2010Prop41ColorRGB
 90
        0
102
RTVSPost2010PropOp41
 70
     1
102
RTVSPost2010Prop42
 90
       50
102
RTVSPost2010PropOp42
 70
     1
102
RTVSPost2010Prop43
 90
        3
102
RTVSPost2010PropOp43
 70
     1
102
RTVSPost2010Prop44ColorIndex
 90
        5
102
RTVSPost2010Prop44ColorRGB
 90
      255
102
RTVSPost2010PropOp44
 70
     1
102
RTVSPost2010Prop45
280
     0
102
RTVSPost2010PropOp45
 70
     1
102
RTVSPost2010Prop46
 90
       50
102
RTVSPost2010PropOp46
 70
     1
102
RTVSPost2010Prop47
 90
       50
102
RTVSPost2010PropOp47
 70
     1
102
RTVSPost2010Prop48
 90
       50
102
RTVSPost2010PropOp48
 70
     1
102
RTVSPost2010Prop49
280
     0
102
RTVSPost2010PropOp49
 70
     1
102
RTVSPost2010Prop50
 90
       50
102
RTVSPost2010PropOp50
 70
     1
102
RTVSPost2010Prop51ColorIndex
 90
      256
102
RTVSPost2010Prop51ColorRGB
 90
-16777216
102
RTVSPost2010PropOp51
 70
     0
102
RTVSPost2010Prop52
140
1.0
102
RTVSPost2010PropOp52
 70
     0
102
RTVSPost2010Prop53
 90
        2
102
RTVSPost2010PropOp53
 70
     1
102
RTVSPost2010Prop54
  1
strokes_ogs.tif
102
RTVSPost2010PropOp54
 70
     1
102
RTVSPost2010Prop55
280
     0
102
RTVSPost2010PropOp55
 70
     1
102
RTVSPost2010Prop56
140
1.0
102
RTVSPost2010PropOp56
 70
     1
102
RTVSPost2010Prop57
140
1.0
102
RTVSPost2010PropOp57
 70
     1
  0
XRECORD
  5
126
102
{ACAD_REACTORS
330
125
102
}
330
125
100
AcDbXrecord
280
     1
102
RTVSPost2010Prop28
280
     0
102
RTVSPost2010PropOp28
 70
     1
102
RTVSPost2010Prop29
280
     1
102
RTVSPost2010PropOp29
 70
     1
102
RTVSPost2010Prop30
280
     1
102
RTVSPost2010PropOp30
 70
     1
102
RTVSPost2010Prop31
280
     0
102
RTVSPost2010PropOp31
 70
     1
102
RTVSPost2010Prop32
280
     0
102
RTVSPost2010PropOp32
 70
     1
102
RTVSPost2010Prop33
280
     0
102
RTVSPost2010PropOp33
 70
     1
102
RTVSPost2010Prop34
280
     0
102
RTVSPost2010PropOp34
 70
     1
102
RTVSPost2010Prop35
280
     0
102
RTVSPost2010PropOp35
 70
     1
102
RTVSPost2010Prop36
280
     0
102
RTVSPost2010PropOp36
 70
     1
102
RTVSPost2010Prop37
 90
       50
102
RTVSPost2010PropOp37
 70
     1
102
RTVSPost2010Prop38
140
0.0
102
RTVSPost2010PropOp38
 70
     1
102
RTVSPost2010Prop39
140
1.0
102
RTVSPost2010PropOp39
 70
     1
102
RTVSPost2010Prop40
 90
        0
102
RTVSPost2010PropOp40
 70
     1
102
RTVSPost2010Prop41ColorIndex
 90
       18
102
RTVSPost2010Prop41ColorRGB
 90
        0
102
RTVSPost2010PropOp41
 70
     1
102
RTVSPost2010Prop42
 90
       50
102
RTVSPost2010PropOp42
 70
     1
102
RTVSPost2010Prop43
 90
        3
102
RTVSPost2010PropOp43
 70
     1
102
RTVSPost2010Prop44ColorIndex
 90
        5
102
RTVSPost2010Prop44ColorRGB
 90
      255
102
RTVSPost2010PropOp44
 70
     1
102
RTVSPost2010Prop45
280
     0
102
RTVSPost2010PropOp45
 70
     1
102
RTVSPost2010Prop46
 90
       50
102
RTVSPost2010PropOp46
 70
     1
102
RTVSPost2010Prop47
 90
       50
102
RTVSPost2010PropOp47
 70
     1
102
RTVSPost2010Prop48
 90
       50
102
RTVSPost2010PropOp48
 70
     1
102
RTVSPost2010Prop49
280
     0
102
RTVSPost2010PropOp49
 70
     1
102
RTVSPost2010Prop50
 90
       50
102
RTVSPost2010PropOp50
 70
     1
102
RTVSPost2010Prop51ColorIndex
 90
      256
102
RTVSPost2010Prop51ColorRGB
 90
-16777216
102
RTVSPost2010PropOp51
 70
     0
102
RTVSPost2010Prop52
140
1.0
102
RTVSPost2010PropOp52
 70
     0
102
RTVSPost2010Prop53
 90
        2
102
RTVSPost2010PropOp53
 70
     1
102
RTVSPost2010Prop54
  1
strokes_ogs.tif
102
RTVSPost2010PropOp54
 70
     1
102
RTVSPost2010Prop55
280
     0
102
RTVSPost2010PropOp55
 70
     1
102
RTVSPost2010Prop56
140
1.0
102
RTVSPost2010PropOp56
 70
     1
102
RTVSPost2010Prop57
140
1.0
102
RTVSPost2010PropOp57
 70
     1
  0
XRECORD
  5
120
102
{ACAD_REACTORS
330
11F
102
}
330
11F
100
AcDbXrecord
280
     1
102
RTVSPost2010Prop28
280
     0
102
RTVSPost2010PropOp28
 70
     1
102
RTVSPost2010Prop29
280
     1
102
RTVSPost2010PropOp29
 70
     1
102
RTVSPost2010Prop30
280
     1
102
RTVSPost2010PropOp30
 70
     1
102
RTVSPost2010Prop31
280
     0
102
RTVSPost2010PropOp31
 70
     1
102
RTVSPost2010Prop32
280
     0
102
RTVSPost2010PropOp32
 70
     1
102
RTVSPost2010Prop33
280
     0
102
RTVSPost2010PropOp33
 70
     1
102
RTVSPost2010Prop34
280
     0
102
RTVSPost2010PropOp34
 70
     1
102
RTVSPost2010Prop35
280
     0
102
RTVSPost2010PropOp35
 70
     1
102
RTVSPost2010Prop36
280
     0
102
RTVSPost2010PropOp36
 70
     1
102
RTVSPost2010Prop37
 90
       50
102
RTVSPost2010PropOp37
 70
     1
102
RTVSPost2010Prop38
140
0.0
102
RTVSPost2010PropOp38
 70
     1
102
RTVSPost2010Prop39
140
1.0
102
RTVSPost2010PropOp39
 70
     1
102
RTVSPost2010Prop40
 90
        0
102
RTVSPost2010PropOp40
 70
     1
102
RTVSPost2010Prop41ColorIndex
 90
       18
102
RTVSPost2010Prop41ColorRGB
 90
        0
102
RTVSPost2010PropOp41
 70
     1
102
RTVSPost2010Prop42
 90
       50
102
RTVSPost2010PropOp42
 70
     1
102
RTVSPost2010Prop43
 90
        3
102
RTVSPost2010PropOp43
 70
     1
102
RTVSPost2010Prop44ColorIndex
 90
        5
102
RTVSPost2010Prop44ColorRGB
 90
      255
102
RTVSPost2010PropOp44
 70
     1
102
RTVSPost2010Prop45
280
     0
102
RTVSPost2010PropOp45
 70
     1
102
RTVSPost2010Prop46
 90
       50
102
RTVSPost2010PropOp46
 70
     1
102
RTVSPost2010Prop47
 90
       50
102
RTVSPost2010PropOp47
 70
     1
102
RTVSPost2010Prop48
 90
       50
102
RTVSPost2010PropOp48
 70
     1
102
RTVSPost2010Prop49
280
     0
102
RTVSPost2010PropOp49
 70
     1
102
RTVSPost2010Prop50
 90
       50
102
RTVSPost2010PropOp50
 70
     1
102
RTVSPost2010Prop51ColorIndex
 90
      256
102
RTVSPost2010Prop51ColorRGB
 90
-16777216
102
RTVSPost2010PropOp51
 70
     0
102
RTVSPost2010Prop52
140
1.0
102
RTVSPost2010PropOp52
 70
     0
102
RTVSPost2010Prop53
 90
        2
102
RTVSPost2010PropOp53
 70
     1
102
RTVSPost2010Prop54
  1
strokes_ogs.tif
102
RTVSPost2010PropOp54
 70
     1
102
RTVSPost2010Prop55
280
     0
102
RTVSPost2010PropOp55
 70
     1
102
RTVSPost2010Prop56
140
1.0
102
RTVSPost2010PropOp56
 70
     1
102
RTVSPost2010Prop57
140
1.0
102
RTVSPost2010PropOp57
 70
     1
  0
XRECORD
  5
122
102
{ACAD_REACTORS
330
121
102
}
330
121
100
AcDbXrecord
280
     1
102
RTVSPost2010Prop28
280
     0
102
RTVSPost2010PropOp28
 70
     1
102
RTVSPost2010Prop29
280
     1
102
RTVSPost2010PropOp29
 70
     1
102
RTVSPost2010Prop30
280
     1
102
RTVSPost2010PropOp30
 70
     1
102
RTVSPost2010Prop31
280
     0
102
RTVSPost2010PropOp31
 70
     1
102
RTVSPost2010Prop32
280
     0
102
RTVSPost2010PropOp32
 70
     1
102
RTVSPost2010Prop33
280
     0
102
RTVSPost2010PropOp33
 70
     1
102
RTVSPost2010Prop34
280
     0
102
RTVSPost2010PropOp34
 70
     1
102
RTVSPost2010Prop35
280
     0
102
RTVSPost2010PropOp35
 70
     1
102
RTVSPost2010Prop36
280
     0
102
RTVSPost2010PropOp36
 70
     1
102
RTVSPost2010Prop37
 90
       50
102
RTVSPost2010PropOp37
 70
     1
102
RTVSPost2010Prop38
140
0.0
102
RTVSPost2010PropOp38
 70
     1
102
RTVSPost2010Prop39
140
1.0
102
RTVSPost2010PropOp39
 70
     1
102
RTVSPost2010Prop40
 90
        0
102
RTVSPost2010PropOp40
 70
     1
102
RTVSPost2010Prop41ColorIndex
 90
       18
102
RTVSPost2010Prop41ColorRGB
 90
        0
102
RTVSPost2010PropOp41
 70
     1
102
RTVSPost2010Prop42
 90
       50
102
RTVSPost2010PropOp42
 70
     1
102
RTVSPost2010Prop43
 90
        3
102
RTVSPost2010PropOp43
 70
     1
102
RTVSPost2010Prop44ColorIndex
 90
        5
102
RTVSPost2010Prop44ColorRGB
 90
      255
102
RTVSPost2010PropOp44
 70
     1
102
RTVSPost2010Prop45
280
     0
102
RTVSPost2010PropOp45
 70
     1
102
RTVSPost2010Prop46
 90
       50
102
RTVSPost2010PropOp46
 70
     1
102
RTVSPost2010Prop47
 90
       50
102
RTVSPost2010PropOp47
 70
     1
102
RTVSPost2010Prop48
 90
       50
102
RTVSPost2010PropOp48
 70
     1
102
RTVSPost2010Prop49
280
     0
102
RTVSPost2010PropOp49
 70
     1
102
RTVSPost2010Prop50
 90
       50
102
RTVSPost2010PropOp50
 70
     1
102
RTVSPost2010Prop51ColorIndex
 90
      256
102
RTVSPost2010Prop51ColorRGB
 90
-16777216
102
RTVSPost2010PropOp51
 70
     0
102
RTVSPost2010Prop52
140
1.0
102
RTVSPost2010PropOp52
 70
     0
102
RTVSPost2010Prop53
 90
        2
102
RTVSPost2010PropOp53
 70
     1
102
RTVSPost2010Prop54
  1
strokes_ogs.tif
102
RTVSPost2010PropOp54
 70
     1
102
RTVSPost2010Prop55
280
     0
102
RTVSPost2010PropOp55
 70
     1
102
RTVSPost2010Prop56
140
1.0
102
RTVSPost2010PropOp56
 70
     1
102
RTVSPost2010Prop57
140
1.0
102
RTVSPost2010PropOp57
 70
     1
  0
XRECORD
  5
118
102
{ACAD_REACTORS
330
117
102
}
330
117
100
AcDbXrecord
280
     1
102
RTVSPost2010Prop28
280
     0
102
RTVSPost2010PropOp28
 70
     1
102
RTVSPost2010Prop29
280
     1
102
RTVSPost2010PropOp29
 70
     1
102
RTVSPost2010Prop30
280
     1
102
RTVSPost2010PropOp30
 70
     1
102
RTVSPost2010Prop31
280
     0
102
RTVSPost2010PropOp31
 70
     1
102
RTVSPost2010Prop32
280
     0
102
RTVSPost2010PropOp32
 70
     1
102
RTVSPost2010Prop33
280
     0
102
RTVSPost2010PropOp33
 70
     1
102
RTVSPost2010Prop34
280
     0
102
RTVSPost2010PropOp34
 70
     1
102
RTVSPost2010Prop35
280
     0
102
RTVSPost2010PropOp35
 70
     1
102
RTVSPost2010Prop36
280
     0
102
RTVSPost2010PropOp36
 70
     1
102
RTVSPost2010Prop37
 90
       50
102
RTVSPost2010PropOp37
 70
     1
102
RTVSPost2010Prop38
140
0.0
102
RTVSPost2010PropOp38
 70
     1
102
RTVSPost2010Prop39
140
1.0
102
RTVSPost2010PropOp39
 70
     1
102
RTVSPost2010Prop40
 90
        0
102
RTVSPost2010PropOp40
 70
     1
102
RTVSPost2010Prop41ColorIndex
 90
       18
102
RTVSPost2010Prop41ColorRGB
 90
        0
102
RTVSPost2010PropOp41
 70
     1
102
RTVSPost2010Prop42
 90
       50
102
RTVSPost2010PropOp42
 70
     1
102
RTVSPost2010Prop43
 90
        3
102
RTVSPost2010PropOp43
 70
     1
102
RTVSPost2010Prop44ColorIndex
 90
        5
102
RTVSPost2010Prop44ColorRGB
 90
      255
102
RTVSPost2010PropOp44
 70
     1
102
RTVSPost2010Prop45
280
     0
102
RTVSPost2010PropOp45
 70
     1
102
RTVSPost2010Prop46
 90
       50
102
RTVSPost2010PropOp46
 70
     1
102
RTVSPost2010Prop47
 90
       50
102
RTVSPost2010PropOp47
 70
     1
102
RTVSPost2010Prop48
 90
       50
102
RTVSPost2010PropOp48
 70
     1
102
RTVSPost2010Prop49
280
     0
102
RTVSPost2010PropOp49
 70
     1
102
RTVSPost2010Prop50
 90
       50
102
RTVSPost2010PropOp50
 70
     1
102
RTVSPost2010Prop51ColorIndex
 90
      256
102
RTVSPost2010Prop51ColorRGB
 90
-16777216
102
RTVSPost2010PropOp51
 70
     0
102
RTVSPost2010Prop52
140
1.0
102
RTVSPost2010PropOp52
 70
     0
102
RTVSPost2010Prop53
 90
        2
102
RTVSPost2010PropOp53
 70
     1
102
RTVSPost2010Prop54
  1
strokes_ogs.tif
102
RTVSPost2010PropOp54
 70
     1
102
RTVSPost2010Prop55
280
     0
102
RTVSPost2010PropOp55
 70
     1
102
RTVSPost2010Prop56
140
1.0
102
RTVSPost2010PropOp56
 70
     1
102
RTVSPost2010Prop57
140
1.0
102
RTVSPost2010PropOp57
 70
     1
  0
XRECORD
  5
10C
102
{ACAD_REACTORS
330
10B
102
}
330
10B
100
AcDbXrecord
280
     1
102
RTVSPost2010Prop28
280
     0
102
RTVSPost2010PropOp28
 70
     1
102
RTVSPost2010Prop29
280
     1
102
RTVSPost2010PropOp29
 70
     1
102
RTVSPost2010Prop30
280
     1
102
RTVSPost2010PropOp30
 70
     1
102
RTVSPost2010Prop31
280
     0
102
RTVSPost2010PropOp31
 70
     1
102
RTVSPost2010Prop32
280
     0
102
RTVSPost2010PropOp32
 70
     1
102
RTVSPost2010Prop33
280
     0
102
RTVSPost2010PropOp33
 70
     1
102
RTVSPost2010Prop34
280
     0
102
RTVSPost2010PropOp34
 70
     1
102
RTVSPost2010Prop35
280
     0
102
RTVSPost2010PropOp35
 70
     1
102
RTVSPost2010Prop36
280
     0
102
RTVSPost2010PropOp36
 70
     1
102
RTVSPost2010Prop37
 90
       50
102
RTVSPost2010PropOp37
 70
     1
102
RTVSPost2010Prop38
140
0.0
102
RTVSPost2010PropOp38
 70
     1
102
RTVSPost2010Prop39
140
1.0
102
RTVSPost2010PropOp39
 70
     1
102
RTVSPost2010Prop40
 90
        0
102
RTVSPost2010PropOp40
 70
     1
102
RTVSPost2010Prop41ColorIndex
 90
       18
102
RTVSPost2010Prop41ColorRGB
 90
        0
102
RTVSPost2010PropOp41
 70
     1
102
RTVSPost2010Prop42
 90
       50
102
RTVSPost2010PropOp42
 70
     1
102
RTVSPost2010Prop43
 90
        3
102
RTVSPost2010PropOp43
 70
     1
102
RTVSPost2010Prop44ColorIndex
 90
        5
102
RTVSPost2010Prop44ColorRGB
 90
      255
102
RTVSPost2010PropOp44
 70
     1
102
RTVSPost2010Prop45
280
     0
102
RTVSPost2010PropOp45
 70
     1
102
RTVSPost2010Prop46
 90
       50
102
RTVSPost2010PropOp46
 70
     1
102
RTVSPost2010Prop47
 90
       50
102
RTVSPost2010PropOp47
 70
     1
102
RTVSPost2010Prop48
 90
       50
102
RTVSPost2010PropOp48
 70
     1
102
RTVSPost2010Prop49
280
     0
102
RTVSPost2010PropOp49
 70
     1
102
RTVSPost2010Prop50
 90
       50
102
RTVSPost2010PropOp50
 70
     1
102
RTVSPost2010Prop51ColorIndex
 90
      256
102
RTVSPost2010Prop51ColorRGB
 90
-16777216
102
RTVSPost2010PropOp51
 70
     0
102
RTVSPost2010Prop52
140
1.0
102
RTVSPost2010PropOp52
 70
     0
102
RTVSPost2010Prop53
 90
        2
102
RTVSPost2010PropOp53
 70
     1
102
RTVSPost2010Prop54
  1
strokes_ogs.tif
102
RTVSPost2010PropOp54
 70
     1
102
RTVSPost2010Prop55
280
     0
102
RTVSPost2010PropOp55
 70
     1
102
RTVSPost2010Prop56
140
1.0
102
RTVSPost2010PropOp56
 70
     1
102
RTVSPost2010Prop57
140
1.0
102
RTVSPost2010PropOp57
 70
     1
  0
XRECORD
  5
124
102
{ACAD_REACTORS
330
123
102
}
330
123
100
AcDbXrecord
280
     1
102
RTVSPost2010Prop28
280
     0
102
RTVSPost2010PropOp28
 70
     1
102
RTVSPost2010Prop29
280
     1
102
RTVSPost2010PropOp29
 70
     1
102
RTVSPost2010Prop30
280
     1
102
RTVSPost2010PropOp30
 70
     1
102
RTVSPost2010Prop31
280
     0
102
RTVSPost2010PropOp31
 70
     1
102
RTVSPost2010Prop32
280
     0
102
RTVSPost2010PropOp32
 70
     1
102
RTVSPost2010Prop33
280
     0
102
RTVSPost2010PropOp33
 70
     1
102
RTVSPost2010Prop34
280
     0
102
RTVSPost2010PropOp34
 70
     1
102
RTVSPost2010Prop35
280
     0
102
RTVSPost2010PropOp35
 70
     1
102
RTVSPost2010Prop36
280
     0
102
RTVSPost2010PropOp36
 70
     1
102
RTVSPost2010Prop37
 90
       50
102
RTVSPost2010PropOp37
 70
     1
102
RTVSPost2010Prop38
140
0.0
102
RTVSPost2010PropOp38
 70
     1
102
RTVSPost2010Prop39
140
1.0
102
RTVSPost2010PropOp39
 70
     1
102
RTVSPost2010Prop40
 90
        0
102
RTVSPost2010PropOp40
 70
     1
102
RTVSPost2010Prop41ColorIndex
 90
       18
102
RTVSPost2010Prop41ColorRGB
 90
        0
102
RTVSPost2010PropOp41
 70
     1
102
RTVSPost2010Prop42
 90
       50
102
RTVSPost2010PropOp42
 70
     1
102
RTVSPost2010Prop43
 90
        3
102
RTVSPost2010PropOp43
 70
     1
102
RTVSPost2010Prop44ColorIndex
 90
        5
102
RTVSPost2010Prop44ColorRGB
 90
      255
102
RTVSPost2010PropOp44
 70
     1
102
RTVSPost2010Prop45
280
     0
102
RTVSPost2010PropOp45
 70
     1
102
RTVSPost2010Prop46
 90
       50
102
RTVSPost2010PropOp46
 70
     1
102
RTVSPost2010Prop47
 90
       50
102
RTVSPost2010PropOp47
 70
     1
102
RTVSPost2010Prop48
 90
       50
102
RTVSPost2010PropOp48
 70
     1
102
RTVSPost2010Prop49
280
     0
102
RTVSPost2010PropOp49
 70
     1
102
RTVSPost2010Prop50
 90
       50
102
RTVSPost2010PropOp50
 70
     1
102
RTVSPost2010Prop51ColorIndex
 90
      256
102
RTVSPost2010Prop51ColorRGB
 90
-16777216
102
RTVSPost2010PropOp51
 70
     0
102
RTVSPost2010Prop52
140
1.0
102
RTVSPost2010PropOp52
 70
     0
102
RTVSPost2010Prop53
 90
        2
102
RTVSPost2010PropOp53
 70
     1
102
RTVSPost2010Prop54
  1
strokes_ogs.tif
102
RTVSPost2010PropOp54
 70
     1
102
RTVSPost2010Prop55
280
     0
102
RTVSPost2010PropOp55
 70
     1
102
RTVSPost2010Prop56
140
1.0
102
RTVSPost2010PropOp56
 70
     1
102
RTVSPost2010Prop57
140
1.0
102
RTVSPost2010PropOp57
 70
     1
  0
ENDSEC
  0
EOF
