  0
SECTION
  2
HEADER
  9
$ACADVER
  1
AC1024
  9
$ACADMAINTVER
 70
     6
  9
$DWGCODEPAGE
  3
UNDEFINED
  9
$INSBASE
 10
0.0
 20
0.0
 30
0.0
  9
$EXTMIN
 10
1.000000000000000E+20
 20
1.000000000000000E+20
 30
1.000000000000000E+20
  9
$EXTMAX
 10
-1.000000000000000E+20
 20
-1.000000000000000E+20
 30
-1.000000000000000E+20
  9
$LIMMIN
 10
0.0
 20
0.0
  9
$LIMMAX
 10
12.0
 20
9.0
  9
$ORTHOMODE
 70
     0
  9
$REGENMODE
 70
     1
  9
$FILLMODE
 70
     1
  9
$QTEXTMODE
 70
     0
  9
$MIRRTEXT
 70
     1
  9
$LTSCALE
 40
1.0
  9
$ATTMODE
 70
     1
  9
$TEXTSIZE
 40
0.2
  9
$TRACEWID
 40
0.05
  9
$TEXTSTYLE
  7
Standard
  9
$CLAYER
  8
0
  9
$CELTYPE
  6
ByLayer
  9
$CECOLOR
 62
   256
  9
$CELTSCALE
 40
1.0
  9
$DISPSILH
 70
     0
  9
$DIMSCALE
 40
1.0
  9
$DIMASZ
 40
0.18
  9
$DIMEXO
 40
0.0625
  9
$DIMDLI
 40
0.38
  9
$DIMRND
 40
0.0
  9
$DIMDLE
 40
0.0
  9
$DIMEXE
 40
0.18
  9
$DIMTP
 40
0.0
  9
$DIMTM
 40
0.0
  9
$DIMTXT
 40
0.18
  9
$DIMCEN
 40
0.09
  9
$DIMTSZ
 40
0.0
  9
$DIMTOL
 70
     0
  9
$DIMLIM
 70
     0
  9
$DIMTIH
 70
     1
  9
$DIMTOH
 70
     1
  9
$DIMSE1
 70
     0
  9
$DIMSE2
 70
     0
  9
$DIMTAD
 70
     0
  9
$DIMZIN
 70
     0
  9
$DIMBLK
  1

  9
$DIMASO
 70
     1
  9
$DIMSHO
 70
     1
  9
$DIMPOST
  1

  9
$DIMAPOST
  1

  9
$DIMALT
 70
     0
  9
$DIMALTD
 70
     2
  9
$DIMALTF
 40
25.4
  9
$DIMLFAC
 40
1.0
  9
$DIMTOFL
 70
     0
  9
$DIMTVP
 40
0.0
  9
$DIMTIX
 70
     0
  9
$DIMSOXD
 70
     0
  9
$DIMSAH
 70
     0
  9
$DIMBLK1
  1

  9
$DIMBLK2
  1

  9
$DIMSTYLE
  2
Standard
  9
$DIMCLRD
 70
     0
  9
$DIMCLRE
 70
     0
  9
$DIMCLRT
 70
     0
  9
$DIMTFAC
 40
1.0
  9
$DIMGAP
 40
0.09
  9
$DIMJUST
 70
     0
  9
$DIMSD1
 70
     0
  9
$DIMSD2
 70
     0
  9
$DIMTOLJ
 70
     1
  9
$DIMTZIN
 70
     0
  9
$DIMALTZ
 70
     0
  9
$DIMALTTZ
 70
     0
  9
$DIMUPT
 70
     0
  9
$DIMDEC
 70
     4
  9
$DIMTDEC
 70
     4
  9
$DIMALTU
 70
     2
  9
$DIMALTTD
 70
     2
  9
$DIMTXSTY
  7
Standard
  9
$DIMAUNIT
 70
     0
  9
$DIMADEC
 70
     0
  9
$DIMALTRND
 40
0.0
  9
$DIMAZIN
 70
     0
  9
$DIMDSEP
 70
    46
  9
$DIMATFIT
 70
     3
  9
$DIMFRAC
 70
     0
  9
$DIMLDRBLK
  1

  9
$DIMLUNIT
 70
     2
  9
$DIMLWD
 70
    -2
  9
$DIMLWE
 70
    -2
  9
$DIMTMOVE
 70
     0
  9
$DIMFXL
 40
1.0
  9
$DIMFXLON
 70
     0
  9
$DIMJOGANG
 40
0.7853981633974483
  9
$DIMTFILL
 70
     0
  9
$DIMTFILLCLR
 70
     0
  9
$DIMARCSYM
 70
     0
  9
$DIMLTYPE
  6

  9
$DIMLTEX1
  6

  9
$DIMLTEX2
  6

  9
$DIMTXTDIRECTION
 70
     0
  9
$LUNITS
 70
     2
  9
$LUPREC
 70
     4
  9
$SKETCHINC
 40
0.1
  9
$FILLETRAD
 40
0.5
  9
$AUNITS
 70
     0
  9
$AUPREC
 70
     0
  9
$MENU
  1
.
  9
$ELEVATION
 40
0.0
  9
$PELEVATION
 40
0.0
  9
$THICKNESS
 40
0.0
  9
$LIMCHECK
 70
     0
  9
$CHAMFERA
 40
0.5
  9
$CHAMFERB
 40
0.5
  9
$CHAMFERC
 40
1.0
  9
$CHAMFERD
 40
0.0
  9
$SKPOLY
 70
     0
  9
$TDCREATE
 40
2457917.592337963
  9
$TDUCREATE
 40
2457917.217337963
  9
$TDUPDATE
 40
2457917.592337963
  9
$TDUUPDATE
 40
2457917.217337963
  9
$TDINDWG
 40
0.0000000116
  9
$TDUSRTIMER
 40
0.0000000116
  9
$USRTIMER
 70
     1
  9
$ANGBASE
 50
0.0
  9
$ANGDIR
 70
     0
  9
$PDMODE
 70
     0
  9
$PDSIZE
 40
0.0
  9
$PLINEWID
 40
0.0
  9
$SPLFRAME
 70
     0
  9
$SPLINETYPE
 70
     6
  9
$SPLINESEGS
 70
     8
  9
$HANDSEED
  5
105
  9
$SURFTAB1
 70
     6
  9
$SURFTAB2
 70
     6
  9
$SURFTYPE
 70
     6
  9
$SURFU
 70
     6
  9
$SURFV
 70
     6
  9
$UCSBASE
  2

  9
$UCSNAME
  2

  9
$UCSORG
 10
0.0
 20
0.0
 30
0.0
  9
$UCSXDIR
 10
1.0
 20
0.0
 30
0.0
  9
$UCSYDIR
 10
0.0
 20
1.0
 30
0.0
  9
$UCSORTHOREF
  2

  9
$UCSORTHOVIEW
 70
     0
  9
$UCSORGTOP
 10
0.0
 20
0.0
 30
0.0
  9
$UCSORGBOTTOM
 10
0.0
 20
0.0
 30
0.0
  9
$UCSORGLEFT
 10
0.0
 20
0.0
 30
0.0
  9
$UCSORGRIGHT
 10
0.0
 20
0.0
 30
0.0
  9
$UCSORGFRONT
 10
0.0
 20
0.0
 30
0.0
  9
$UCSORGBACK
 10
0.0
 20
0.0
 30
0.0
  9
$PUCSBASE
  2

  9
$PUCSNAME
  2

  9
$PUCSORG
 10
0.0
 20
0.0
 30
0.0
  9
$PUCSXDIR
 10
1.0
 20
0.0
 30
0.0
  9
$PUCSYDIR
 10
0.0
 20
1.0
 30
0.0
  9
$PUCSORTHOREF
  2

  9
$PUCSORTHOVIEW
 70
     0
  9
$PUCSORGTOP
 10
0.0
 20
0.0
 30
0.0
  9
$PUCSORGBOTTOM
 10
0.0
 20
0.0
 30
0.0
  9
$PUCSORGLEFT
 10
0.0
 20
0.0
 30
0.0
  9
$PUCSORGRIGHT
 10
0.0
 20
0.0
 30
0.0
  9
$PUCSORGFRONT
 10
0.0
 20
0.0
 30
0.0
  9
$PUCSORGBACK
 10
0.0
 20
0.0
 30
0.0
  9
$USERI1
 70
     0
  9
$USERI2
 70
     0
  9
$USERI3
 70
     0
  9
$USERI4
 70
     0
  9
$USERI5
 70
     0
  9
$USERR1
 40
0.0
  9
$USERR2
 40
0.0
  9
$USERR3
 40
0.0
  9
$USERR4
 40
0.0
  9
$USERR5
 40
0.0
  9
$WORLDVIEW
 70
     1
  9
$SHADEDGE
 70
     3
  9
$SHADEDIF
 70
    70
  9
$TILEMODE
 70
     1
  9
$MAXACTVP
 70
    64
  9
$PINSBASE
 10
0.0
 20
0.0
 30
0.0
  9
$PLIMCHECK
 70
     0
  9
$PEXTMIN
 10
1.000000000000000E+20
 20
1.000000000000000E+20
 30
1.000000000000000E+20
  9
$PEXTMAX
 10
-1.000000000000000E+20
 20
-1.000000000000000E+20
 30
-1.000000000000000E+20
  9
$PLIMMIN
 10
0.0
 20
0.0
  9
$PLIMMAX
 10
12.0
 20
9.0
  9
$UNITMODE
 70
     0
  9
$VISRETAIN
 70
     1
  9
$PLINEGEN
 70
     0
  9
$PSLTSCALE
 70
     1
  9
$TREEDEPTH
 70
  3020
  9
$CMLSTYLE
  2
Standard
  9
$CMLJUST
 70
     0
  9
$CMLSCALE
 40
1.0
  9
$PROXYGRAPHICS
 70
     1
  9
$MEASUREMENT
 70
     0
  9
$CELWEIGHT
370
    -1
  9
$ENDCAPS
280
     0
  9
$JOINSTYLE
280
     0
  9
$LWDISPLAY
290
     1
  9
$INSUNITS
 70
     1
  9
$HYPERLINKBASE
  1

  9
$STYLESHEET
  1

  9
$XEDIT
290
     1
  9
$CEPSNTYPE
380
     0
  9
$PSTYLEMODE
290
     1
  9
$FINGERPRINTGUID
  2
{DA0228C5-CBC8-1DF1-4F30-76EA44F55D1D}
  9
$VERSIONGUID
  2
{FAEB1C32-E019-11D5-929B-00C0DF256EC4}
  9
$EXTNAMES
290
     1
  9
$PSVPSCALE
 40
0.0
  9
$OLESTARTUP
290
     0
  9
$SORTENTS
280
   127
  9
$INDEXCTL
280
     0
  9
$HIDETEXT
280
     1
  9
$XCLIPFRAME
280
     2
  9
$HALOGAP
280
     0
  9
$OBSCOLOR
 70
   257
  9
$OBSLTYPE
280
     0
  9
$INTERSECTIONDISPLAY
280
     0
  9
$INTERSECTIONCOLOR
 70
   257
  9
$DIMASSOC
280
     2
  9
$PROJECTNAME
  1

  9
$CAMERADISPLAY
290
     0
  9
$LENSLENGTH
 40
50.0
  9
$CAMERAHEIGHT
 40
0.0
  9
$STEPSPERSEC
 40
2.0
  9
$STEPSIZE
 40
6.0
  9
$3DDWFPREC
 40
2.0
  9
$PSOLWIDTH
 40
0.25
  9
$PSOLHEIGHT
 40
4.0
  9
$LOFTANG1
 40
1.570796326794897
  9
$LOFTANG2
 40
1.570796326794897
  9
$LOFTMAG1
 40
0.0
  9
$LOFTMAG2
 40
0.0
  9
$LOFTPARAM
 70
     7
  9
$LOFTNORMALS
280
     1
  9
$LATITUDE
 40
37.795
  9
$LONGITUDE
 40
-122.394
  9
$NORTHDIRECTION
 40
0.0
  9
$TIMEZONE
 70
 -8000
  9
$LIGHTGLYPHDISPLAY
280
     1
  9
$TILEMODELIGHTSYNCH
280
     1
  9
$CMATERIAL
347
3C
  9
$SOLIDHIST
280
     1
  9
$SHOWHIST
280
     1
  9
$DWFFRAME
280
     2
  9
$DGNFRAME
280
     2
  9
$REALWORLDSCALE
290
     1
  9
$INTERFERECOLOR
 62
   256
  9
$CSHADOW
280
     0
  9
$SHADOWPLANELOCATION
 40
0.0
  0
ENDSEC
  0
SECTION
  2
CLASSES
  0
CLASS
  1
ACDBDICTIONARYWDFLT
  2
AcDbDictionaryWithDefault
  3
ObjectDBX Classes
 90
        0
 91
        4
280
     0
281
     0
  0
CLASS
  1
VISUALSTYLE
  2
AcDbVisualStyle
  3
ObjectDBX Classes
 90
     4095
 91
        4
280
     0
281
     0
  0
CLASS
  1
MATERIAL
  2
AcDbMaterial
  3
ObjectDBX Classes
 90
     1153
 91
        4
280
     0
281
     0
  0
CLASS
  1
SUN
  2
AcDbSun
  3
SCENEOE
 90
     1024
 91
        4
280
     0
281
     0
  0
ENDSEC
  0
SECTION
  2
TABLES
  0
TABLE
  2
VPORT
  5
8
330
0
100
AcDbSymbolTable
 70
     1
  0
VPORT
  5
29
330
8
100
AcDbSymbolTableRecord
100
AcDbViewportTableRecord
  2
*Active
 70
     0
 10
0.0
 20
0.0
 11
1.0
 21
1.0
 12
0.0
 22
0.0
 13
0.0
 23
0.0
 14
0.5
 24
0.5
 15
0.5
 25
0.5
 16
0.0
 26
0.0
 36
1.0
 17
91.00082462281999
 27
-128.4993055234307
 37
0.0
 40
256.9986110468615
 41
0.7081814508812795
 42
50.0
 43
0.0
 44
0.0
 50
0.0
 51
0.0
 71
     0
 72
   100
 73
     1
 74
     3
 75
     0
 76
     0
 77
     0
 78
     0
281
     0
 65
     1
110
0.0
120
0.0
130
0.0
111
1.0
121
0.0
131
0.0
112
0.0
122
1.0
132
0.0
 79
     0
146
0.0
 60
     3
 61
     5
292
     1
282
     1
141
0.0
142
0.0
 63
   250
361
3F
  0
ENDTAB
  0
TABLE
  2
LTYPE
  5
5
330
0
100
AcDbSymbolTable
 70
     1
  0
LTYPE
  5
14
330
5
100
AcDbSymbolTableRecord
100
AcDbLinetypeTableRecord
  2
ByBlock
 70
     0
  3

 72
    65
 73
     0
 40
0.0
  0
LTYPE
  5
15
330
5
100
AcDbSymbolTableRecord
100
AcDbLinetypeTableRecord
  2
ByLayer
 70
     0
  3

 72
    65
 73
     0
 40
0.0
  0
LTYPE
  5
16
330
5
100
AcDbSymbolTableRecord
100
AcDbLinetypeTableRecord
  2
Continuous
 70
     0
  3
Solid line
 72
    65
 73
     0
 40
0.0
  0
ENDTAB
  0
TABLE
  2
LAYER
  5
2
330
0
100
AcDbSymbolTable
 70
     2
  0
LAYER
  5
10
330
2
100
AcDbSymbolTableRecord
100
AcDbLayerTableRecord
  2
0
 70
     0
 62
     7
  6
Continuous
370
    -3
390
F
347
3E
  0
LAYER
  5
40
330
2
100
AcDbSymbolTableRecord
100
AcDbLayerTableRecord
  2
_U+30EC_U+30A4_U+30E4_U+30FC 1
 70
     0
 62
     7
  6
Continuous
370
    -3
390
F
347
3E
  0
ENDTAB
  0
TABLE
  2
STYLE
  5
3
330
0
100
AcDbSymbolTable
 70
     1
  0
STYLE
  5
11
330
3
100
AcDbSymbolTableRecord
100
AcDbTextStyleTableRecord
  2
Standard
 70
     0
 40
0.0
 41
1.0
 50
0.0
 71
     0
 42
0.2
  3
txt
  4

  0
ENDTAB
  0
TABLE
  2
VIEW
  5
6
330
0
100
AcDbSymbolTable
 70
     0
  0
ENDTAB
  0
TABLE
  2
UCS
  5
7
330
0
100
AcDbSymbolTable
 70
     0
  0
ENDTAB
  0
TABLE
  2
APPID
  5
9
330
0
100
AcDbSymbolTable
 70
     1
  0
APPID
  5
12
330
9
100
AcDbSymbolTableRecord
100
AcDbRegAppTableRecord
  2
ACAD
 70
     0
  0
ENDTAB
  0
TABLE
  2
DIMSTYLE
  5
A
330
0
100
AcDbSymbolTable
 70
     1
100
AcDbDimStyleTable
  0
DIMSTYLE
105
27
330
A
100
AcDbSymbolTableRecord
100
AcDbDimStyleTableRecord
  2
Standard
 70
     0
178
     0
340
11
  0
ENDTAB
  0
TABLE
  2
BLOCK_RECORD
  5
1
330
0
100
AcDbSymbolTable
 70
     8
  0
BLOCK_RECORD
  5
1F
330
1
100
AcDbSymbolTableRecord
100
AcDbBlockTableRecord
  2
*Model_Space
340
22
 70
     0
280
     1
281
     0
  0
BLOCK_RECORD
  5
1B
330
1
100
AcDbSymbolTableRecord
100
AcDbBlockTableRecord
  2
*Paper_Space
340
1E
 70
     0
280
     1
281
     0
  0
BLOCK_RECORD
  5
23
330
1
100
AcDbSymbolTableRecord
100
AcDbBlockTableRecord
  2
*Paper_Space0
340
26
 70
     0
280
     1
281
     0
  0
BLOCK_RECORD
  5
9D
330
1
100
AcDbSymbolTableRecord
100
AcDbBlockTableRecord
  2
block 2
340
0
102
{BLKREFS
331
9E
102
}
 70
     0
280
     1
281
     0
  0
BLOCK_RECORD
  5
A3
330
1
100
AcDbSymbolTableRecord
100
AcDbBlockTableRecord
  2
block 3
340
0
102
{BLKREFS
331
A4
102
}
 70
     0
280
     1
281
     0
  0
BLOCK_RECORD
  5
A9
330
1
100
AcDbSymbolTableRecord
100
AcDbBlockTableRecord
  2
block 4
340
0
102
{BLKREFS
331
AA
102
}
 70
     0
280
     1
281
     0
  0
BLOCK_RECORD
  5
B2
330
1
100
AcDbSymbolTableRecord
100
AcDbBlockTableRecord
  2
block 5
340
0
102
{BLKREFS
331
B3
102
}
 70
     0
280
     1
281
     0
  0
BLOCK_RECORD
  5
CE
330
1
100
AcDbSymbolTableRecord
100
AcDbBlockTableRecord
  2
block 6
340
0
102
{BLKREFS
331
CF
102
}
 70
     0
280
     1
281
     0
  0
BLOCK_RECORD
  5
D4
330
1
100
AcDbSymbolTableRecord
100
AcDbBlockTableRecord
  2
block 7
340
0
102
{BLKREFS
331
D5
102
}
 70
     0
280
     1
281
     0
  0
BLOCK_RECORD
  5
E5
330
1
100
AcDbSymbolTableRecord
100
AcDbBlockTableRecord
  2
block 8
340
0
102
{BLKREFS
331
E6
102
}
 70
     0
280
     1
281
     0
  0
ENDTAB
  0
ENDSEC
  0
SECTION
  2
BLOCKS
  0
BLOCK
  5
20
330
1F
100
AcDbEntity
  8
0
100
AcDbBlockBegin
  2
*Model_Space
 70
     0
 10
0.0
 20
0.0
 30
0.0
  3
*Model_Space
  1

  0
ENDBLK
  5
21
330
1F
100
AcDbEntity
  8
0
100
AcDbBlockEnd
  0
BLOCK
  5
1C
330
1B
100
AcDbEntity
 67
     1
  8
0
100
AcDbBlockBegin
  2
*Paper_Space
 70
     0
 10
0.0
 20
0.0
 30
0.0
  3
*Paper_Space
  1

  0
ENDBLK
  5
1D
330
1B
100
AcDbEntity
 67
     1
  8
0
100
AcDbBlockEnd
  0
BLOCK
  5
24
330
23
100
AcDbEntity
  8
0
100
AcDbBlockBegin
  2
*Paper_Space0
 70
     0
 10
0.0
 20
0.0
 30
0.0
  3
*Paper_Space0
  1

  0
ENDBLK
  5
25
330
23
100
AcDbEntity
  8
0
100
AcDbBlockEnd
  0
BLOCK
  5
9F
330
9D
100
AcDbEntity
  8
0
100
AcDbBlockBegin
  2
block 2
 70
     0
 10
0.0
 20
0.0
 30
0.0
  3
block 2
  1

  0
SPLINE
  5
A1
330
9D
100
AcDbEntity
  8
_U+30EC_U+30A4_U+30E4_U+30FC 1
370
     0
100
AcDbSpline
210
0.0
220
0.0
230
1.0
 70
    11
 71
     3
 72
    26
 73
    22
 74
     0
 42
0.0000000001
 43
0.0000000001
 12
1.0
 22
0.0
 32
0.0
 13
1.0
 23
0.0
 33
0.0
 40
0.0
 40
0.0
 40
0.0
 40
0.0
 40
1.0
 40
1.0
 40
1.0
 40
2.0
 40
2.0
 40
2.0
 40
3.0
 40
3.0
 40
3.0
 40
4.0
 40
4.0
 40
4.0
 40
5.0
 40
5.0
 40
5.0
 40
6.0
 40
6.0
 40
6.0
 40
7.0
 40
7.0
 40
7.0
 40
7.0
 10
117.6475992544423
 20
-127.4135836812543
 30
0.0
 10
117.6475992544423
 20
-127.4135836812543
 30
0.0
 10
116.5434461514197
 20
-127.4135836812543
 30
0.0
 10
116.5434461514197
 20
-127.4135836812543
 30
0.0
 10
116.5434461514197
 20
-127.4135836812543
 30
0.0
 10
116.5434461514197
 20
-127.7663614589438
 30
0.0
 10
116.5434461514197
 20
-127.7663614589438
 30
0.0
 10
116.5434461514197
 20
-127.7663614589438
 30
0.0
 10
116.395307045554
 20
-127.7663614589438
 30
0.0
 10
116.395307045554
 20
-127.7663614589438
 30
0.0
 10
116.3804931349674
 20
-127.4113443691888
 30
0.0
 10
116.2175401185151
 20
-127.361562739427
 30
0.0
 10
116.1031629484048
 20
-127.3300401157369
 30
0.0
 10
116.1031629484048
 20
-127.3300401157369
 30
0.0
 10
116.1031629484048
 20
-127.1739772902551
 30
0.0
 10
116.1031629484048
 20
-127.1739772902551
 30
0.0
 10
116.1031629484048
 20
-127.1739772902551
 30
0.0
 10
117.6475992544423
 20
-127.1739772902551
 30
0.0
 10
117.6475992544423
 20
-127.1739772902551
 30
0.0
 10
117.6475992544423
 20
-127.1739772902551
 30
0.0
 10
117.6475992544423
 20
-127.4135836812543
 30
0.0
 10
117.6475992544423
 20
-127.4135836812543
 30
0.0
  0
HATCH
  5
A2
330
9D
100
AcDbEntity
  8
_U+30EC_U+30A4_U+30E4_U+30FC 1
 62
     7
420
 16777215
100
AcDbHatch
 10
0.0
 20
0.0
 30
0.0
210
0.0
220
0.0
230
1.0
  2
SOLID
 70
     1
 71
     0
 91
        1
 92
        1
 93
        1
 72
     4
 94
        3
 73
     0
 74
     1
 95
       26
 96
       22
 40
0.0
 40
0.0
 40
0.0
 40
0.0
 40
1.0
 40
1.0
 40
1.0
 40
2.0
 40
2.0
 40
2.0
 40
3.0
 40
3.0
 40
3.0
 40
4.0
 40
4.0
 40
4.0
 40
5.0
 40
5.0
 40
5.0
 40
6.0
 40
6.0
 40
6.0
 40
7.0
 40
7.0
 40
7.0
 40
7.0
 10
117.6475992544423
 20
-127.4135836812543
 10
117.6475992544423
 20
-127.4135836812543
 10
116.5434461514197
 20
-127.4135836812543
 10
116.5434461514197
 20
-127.4135836812543
 10
116.5434461514197
 20
-127.4135836812543
 10
116.5434461514197
 20
-127.7663614589438
 10
116.5434461514197
 20
-127.7663614589438
 10
116.5434461514197
 20
-127.7663614589438
 10
116.395307045554
 20
-127.7663614589438
 10
116.395307045554
 20
-127.7663614589438
 10
116.3804931349674
 20
-127.4113443691888
 10
116.2175401185151
 20
-127.361562739427
 10
116.1031629484048
 20
-127.3300401157369
 10
116.1031629484048
 20
-127.3300401157369
 10
116.1031629484048
 20
-127.1739772902551
 10
116.1031629484048
 20
-127.1739772902551
 10
116.1031629484048
 20
-127.1739772902551
 10
117.6475992544423
 20
-127.1739772902551
 10
117.6475992544423
 20
-127.1739772902551
 10
117.6475992544423
 20
-127.1739772902551
 10
117.6475992544423
 20
-127.4135836812543
 10
117.6475992544423
 20
-127.4135836812543
 97
        0
 97
        0
 75
     2
 76
     1
 98
        0
  0
ENDBLK
  5
A0
330
9D
100
AcDbEntity
  8
0
100
AcDbBlockEnd
  0
BLOCK
  5
A5
330
A3
100
AcDbEntity
  8
0
100
AcDbBlockBegin
  2
block 3
 70
     0
 10
0.0
 20
0.0
 30
0.0
  3
block 3
  1

  0
SPLINE
  5
A7
330
A3
100
AcDbEntity
  8
_U+30EC_U+30A4_U+30E4_U+30FC 1
370
     0
100
AcDbSpline
210
0.0
220
0.0
230
1.0
 70
    11
 71
     3
 72
    62
 73
    58
 74
     0
 42
0.0000000001
 43
0.0000000001
 12
1.0
 22
0.0
 32
0.0
 13
1.0
 23
0.0
 33
0.0
 40
0.0
 40
0.0
 40
0.0
 40
0.0
 40
1.0
 40
1.0
 40
1.0
 40
2.0
 40
2.0
 40
2.0
 40
3.0
 40
3.0
 40
3.0
 40
4.0
 40
4.0
 40
4.0
 40
5.0
 40
5.0
 40
5.0
 40
6.0
 40
6.0
 40
6.0
 40
7.0
 40
7.0
 40
7.0
 40
8.0
 40
8.0
 40
8.0
 40
9.0
 40
9.0
 40
9.0
 40
10.0
 40
10.0
 40
10.0
 40
11.0
 40
11.0
 40
11.0
 40
12.0
 40
12.0
 40
12.0
 40
13.0
 40
13.0
 40
13.0
 40
14.0
 40
14.0
 40
14.0
 40
15.0
 40
15.0
 40
15.0
 40
16.0
 40
16.0
 40
16.0
 40
17.0
 40
17.0
 40
17.0
 40
18.0
 40
18.0
 40
18.0
 40
19.0
 40
19.0
 40
19.0
 40
19.0
 10
114.4574408351009
 20
-137.2546711896447
 30
0.0
 10
114.4574408351009
 20
-137.3563015064595
 30
0.0
 10
114.4364257526409
 20
-137.5891899612624
 30
0.0
 10
114.2503905964374
 20
-137.7225151565416
 30
0.0
 10
114.1380804836183
 20
-137.8017523527024
 30
0.0
 10
114.0388617336431
 20
-137.8062309768332
 30
0.0
 10
113.9541123847059
 20
-137.810709600964
 30
0.0
 10
113.9541123847059
 20
-137.810709600964
 30
0.0
 10
113.9541123847059
 20
-137.57575408887
 30
0.0
 10
113.9541123847059
 20
-137.57575408887
 30
0.0
 10
114.0281819376388
 20
-137.5733425220303
 30
0.0
 10
114.2627929401843
 20
-137.561973706929
 30
0.0
 10
114.2627929401843
 20
-137.2591498137755
 30
0.0
 10
114.2627929401843
 20
-137.1120442365553
 30
0.0
 10
114.1932020113823
 20
-136.9494357296515
 30
0.0
 10
113.9647921807102
 20
-136.9494357296515
 30
0.0
 10
113.8483479533087
 20
-136.9494357296515
 30
0.0
 10
113.7997721069667
 20
-136.9900878563775
 30
0.0
 10
113.7680772285024
 20
-137.0238497921329
 30
0.0
 10
113.6940076755696
 20
-137.1030869882937
 30
0.0
 10
113.6812608222741
 20
-137.2274549353112
 30
0.0
 10
113.6812608222741
 20
-137.286366068109
 30
0.0
 10
113.6812608222741
 20
-137.3066921314719
 30
0.0
 10
113.6833278795653
 20
-137.3449326913582
 30
0.0
 10
113.6874619941476
 20
-137.3745605125314
 30
0.0
 10
113.6874619941476
 20
-137.3745605125314
 30
0.0
 10
113.492814099231
 20
-137.3745605125314
 30
0.0
 10
113.492814099231
 20
-137.3745605125314
 30
0.0
 10
113.4993597806529
 20
-137.3339083858054
 30
0.0
 10
113.5014268379441
 20
-137.2884331254001
 30
0.0
 10
113.5014268379441
 20
-137.2818874439781
 30
0.0
 10
113.5014268379441
 20
-137.211607496079
 30
0.0
 10
113.4800672459355
 20
-136.9990451046391
 30
0.0
 10
113.2433891860989
 20
-136.9990451046391
 30
0.0
 10
113.06562225906
 20
-136.9990451046391
 30
0.0
 10
113.010500731296
 20
-137.1392604908888
 30
0.0
 10
113.010500731296
 20
-137.2567382469358
 30
0.0
 10
113.010500731296
 20
-137.5395805862748
 30
0.0
 10
113.2433891860989
 20
-137.5485378345365
 30
0.0
 10
113.3150471721921
 20
-137.5530164586673
 30
0.0
 10
113.3150471721921
 20
-137.5530164586673
 30
0.0
 10
113.3150471721921
 20
-137.7700574742381
 30
0.0
 10
113.3150471721921
 20
-137.7700574742381
 30
0.0
 10
113.190334715626
 20
-137.7611002259764
 30
0.0
 10
112.8137857790882
 20
-137.7318169143518
 30
0.0
 10
112.8137857790882
 20
-137.2433023745433
 30
0.0
 10
112.8137857790882
 20
-137.0035237287699
 30
0.0
 10
112.9409098024939
 20
-136.7458305864733
 30
0.0
 10
113.2368435046769
 20
-136.7458305864733
 30
0.0
 10
113.4232231704289
 20
-136.7458305864733
 30
0.0
 10
113.5055609525264
 20
-136.8478054128367
 30
0.0
 10
113.5668836521638
 20
-136.9539143537824
 30
0.0
 10
113.5944444160458
 20
-136.8884575395626
 30
0.0
 10
113.6747151408522
 20
-136.693809644646
 30
0.0
 10
113.9520453274148
 20
-136.693809644646
 30
0.0
 10
114.2903537040663
 20
-136.693809644646
 30
0.0
 10
114.4574408351009
 20
-136.9583929779132
 30
0.0
 10
114.4574408351009
 20
-137.2546711896447
 30
0.0
  0
HATCH
  5
A8
330
A3
100
AcDbEntity
  8
_U+30EC_U+30A4_U+30E4_U+30FC 1
 62
     7
420
 16777215
100
AcDbHatch
 10
0.0
 20
0.0
 30
0.0
210
0.0
220
0.0
230
1.0
  2
SOLID
 70
     1
 71
     0
 91
        1
 92
        1
 93
        1
 72
     4
 94
        3
 73
     0
 74
     1
 95
       62
 96
       58
 40
0.0
 40
0.0
 40
0.0
 40
0.0
 40
1.0
 40
1.0
 40
1.0
 40
2.0
 40
2.0
 40
2.0
 40
3.0
 40
3.0
 40
3.0
 40
4.0
 40
4.0
 40
4.0
 40
5.0
 40
5.0
 40
5.0
 40
6.0
 40
6.0
 40
6.0
 40
7.0
 40
7.0
 40
7.0
 40
8.0
 40
8.0
 40
8.0
 40
9.0
 40
9.0
 40
9.0
 40
10.0
 40
10.0
 40
10.0
 40
11.0
 40
11.0
 40
11.0
 40
12.0
 40
12.0
 40
12.0
 40
13.0
 40
13.0
 40
13.0
 40
14.0
 40
14.0
 40
14.0
 40
15.0
 40
15.0
 40
15.0
 40
16.0
 40
16.0
 40
16.0
 40
17.0
 40
17.0
 40
17.0
 40
18.0
 40
18.0
 40
18.0
 40
19.0
 40
19.0
 40
19.0
 40
19.0
 10
114.4574408351009
 20
-137.2546711896447
 10
114.4574408351009
 20
-137.3563015064595
 10
114.4364257526409
 20
-137.5891899612624
 10
114.2503905964374
 20
-137.7225151565416
 10
114.1380804836183
 20
-137.8017523527024
 10
114.0388617336431
 20
-137.8062309768332
 10
113.9541123847059
 20
-137.810709600964
 10
113.9541123847059
 20
-137.810709600964
 10
113.9541123847059
 20
-137.57575408887
 10
113.9541123847059
 20
-137.57575408887
 10
114.0281819376388
 20
-137.5733425220303
 10
114.2627929401843
 20
-137.561973706929
 10
114.2627929401843
 20
-137.2591498137755
 10
114.2627929401843
 20
-137.1120442365553
 10
114.1932020113823
 20
-136.9494357296515
 10
113.9647921807102
 20
-136.9494357296515
 10
113.8483479533087
 20
-136.9494357296515
 10
113.7997721069667
 20
-136.9900878563775
 10
113.7680772285024
 20
-137.0238497921329
 10
113.6940076755696
 20
-137.1030869882937
 10
113.6812608222741
 20
-137.2274549353112
 10
113.6812608222741
 20
-137.286366068109
 10
113.6812608222741
 20
-137.3066921314719
 10
113.6833278795653
 20
-137.3449326913582
 10
113.6874619941476
 20
-137.3745605125314
 10
113.6874619941476
 20
-137.3745605125314
 10
113.492814099231
 20
-137.3745605125314
 10
113.492814099231
 20
-137.3745605125314
 10
113.4993597806529
 20
-137.3339083858054
 10
113.5014268379441
 20
-137.2884331254001
 10
113.5014268379441
 20
-137.2818874439781
 10
113.5014268379441
 20
-137.211607496079
 10
113.4800672459355
 20
-136.9990451046391
 10
113.2433891860989
 20
-136.9990451046391
 10
113.06562225906
 20
-136.9990451046391
 10
113.010500731296
 20
-137.1392604908888
 10
113.010500731296
 20
-137.2567382469358
 10
113.010500731296
 20
-137.5395805862748
 10
113.2433891860989
 20
-137.5485378345365
 10
113.3150471721921
 20
-137.5530164586673
 10
113.3150471721921
 20
-137.5530164586673
 10
113.3150471721921
 20
-137.7700574742381
 10
113.3150471721921
 20
-137.7700574742381
 10
113.190334715626
 20
-137.7611002259764
 10
112.8137857790882
 20
-137.7318169143518
 10
112.8137857790882
 20
-137.2433023745433
 10
112.8137857790882
 20
-137.0035237287699
 10
112.9409098024939
 20
-136.7458305864733
 10
113.2368435046769
 20
-136.7458305864733
 10
113.4232231704289
 20
-136.7458305864733
 10
113.5055609525264
 20
-136.8478054128367
 10
113.5668836521638
 20
-136.9539143537824
 10
113.5944444160458
 20
-136.8884575395626
 10
113.6747151408522
 20
-136.693809644646
 10
113.9520453274148
 20
-136.693809644646
 10
114.2903537040663
 20
-136.693809644646
 10
114.4574408351009
 20
-136.9583929779132
 10
114.4574408351009
 20
-137.2546711896447
 97
        0
 97
        0
 75
     2
 76
     1
 98
        0
  0
ENDBLK
  5
A6
330
A3
100
AcDbEntity
  8
0
100
AcDbBlockEnd
  0
BLOCK
  5
AB
330
A9
100
AcDbEntity
  8
0
100
AcDbBlockBegin
  2
block 4
 70
     0
 10
0.0
 20
0.0
 30
0.0
  3
block 4
  1

  0
SPLINE
  5
AD
330
A9
100
AcDbEntity
  8
_U+30EC_U+30A4_U+30E4_U+30FC 1
370
     0
100
AcDbSpline
210
0.0
220
0.0
230
1.0
 70
    11
 71
     3
 72
    26
 73
    22
 74
     0
 42
0.0000000001
 43
0.0000000001
 12
1.0
 22
0.0
 32
0.0
 13
1.0
 23
0.0
 33
0.0
 40
0.0
 40
0.0
 40
0.0
 40
0.0
 40
1.0
 40
1.0
 40
1.0
 40
2.0
 40
2.0
 40
2.0
 40
3.0
 40
3.0
 40
3.0
 40
4.0
 40
4.0
 40
4.0
 40
5.0
 40
5.0
 40
5.0
 40
6.0
 40
6.0
 40
6.0
 40
7.0
 40
7.0
 40
7.0
 40
7.0
 10
75.43691133096716
 20
-145.4167914132986
 30
0.0
 10
75.43691133096716
 20
-145.4167914132986
 30
0.0
 10
75.43691133096716
 20
-144.3122938007275
 30
0.0
 10
75.43691133096716
 20
-144.3122938007275
 30
0.0
 10
75.43691133096716
 20
-144.3122938007275
 30
0.0
 10
75.08447806282611
 20
-144.3122938007275
 30
0.0
 10
75.08447806282611
 20
-144.3122938007275
 30
0.0
 10
75.08447806282611
 20
-144.3122938007275
 30
0.0
 10
75.08447806282611
 20
-144.1644992044103
 30
0.0
 10
75.08447806282611
 20
-144.1644992044103
 30
0.0
 10
75.43932289780685
 20
-144.1496852938237
 30
0.0
 10
75.48893227279444
 20
-143.9867322773714
 30
0.0
 10
75.52062715125874
 20
-143.8726996168096
 30
0.0
 10
75.52062715125874
 20
-143.8726996168096
 30
0.0
 10
75.67668997674055
 20
-143.8726996168096
 30
0.0
 10
75.67668997674055
 20
-143.8726996168096
 30
0.0
 10
75.67668997674055
 20
-143.8726996168096
 30
0.0
 10
75.67668997674055
 20
-145.4167914132986
 30
0.0
 10
75.67668997674055
 20
-145.4167914132986
 30
0.0
 10
75.67668997674055
 20
-145.4167914132986
 30
0.0
 10
75.43691133096716
 20
-145.4167914132986
 30
0.0
 10
75.43691133096716
 20
-145.4167914132986
 30
0.0
  0
HATCH
  5
AE
330
A9
100
AcDbEntity
  8
_U+30EC_U+30A4_U+30E4_U+30FC 1
 62
     7
420
 16777215
100
AcDbHatch
 10
0.0
 20
0.0
 30
0.0
210
0.0
220
0.0
230
1.0
  2
SOLID
 70
     1
 71
     0
 91
        1
 92
        1
 93
        1
 72
     4
 94
        3
 73
     0
 74
     1
 95
       26
 96
       22
 40
0.0
 40
0.0
 40
0.0
 40
0.0
 40
1.0
 40
1.0
 40
1.0
 40
2.0
 40
2.0
 40
2.0
 40
3.0
 40
3.0
 40
3.0
 40
4.0
 40
4.0
 40
4.0
 40
5.0
 40
5.0
 40
5.0
 40
6.0
 40
6.0
 40
6.0
 40
7.0
 40
7.0
 40
7.0
 40
7.0
 10
75.43691133096716
 20
-145.4167914132986
 10
75.43691133096716
 20
-145.4167914132986
 10
75.43691133096716
 20
-144.3122938007275
 10
75.43691133096716
 20
-144.3122938007275
 10
75.43691133096716
 20
-144.3122938007275
 10
75.08447806282611
 20
-144.3122938007275
 10
75.08447806282611
 20
-144.3122938007275
 10
75.08447806282611
 20
-144.3122938007275
 10
75.08447806282611
 20
-144.1644992044103
 10
75.08447806282611
 20
-144.1644992044103
 10
75.43932289780685
 20
-144.1496852938237
 10
75.48893227279444
 20
-143.9867322773714
 10
75.52062715125874
 20
-143.8726996168096
 10
75.52062715125874
 20
-143.8726996168096
 10
75.67668997674055
 20
-143.8726996168096
 10
75.67668997674055
 20
-143.8726996168096
 10
75.67668997674055
 20
-143.8726996168096
 10
75.67668997674055
 20
-145.4167914132986
 10
75.67668997674055
 20
-145.4167914132986
 10
75.67668997674055
 20
-145.4167914132986
 10
75.43691133096716
 20
-145.4167914132986
 10
75.43691133096716
 20
-145.4167914132986
 97
        0
 97
        0
 75
     2
 76
     1
 98
        0
  0
SPLINE
  5
AF
330
A9
100
AcDbEntity
  8
_U+30EC_U+30A4_U+30E4_U+30FC 1
370
     0
100
AcDbSpline
210
0.0
220
0.0
230
1.0
 70
    11
 71
     3
 72
    29
 73
    25
 74
     0
 42
0.0000000001
 43
0.0000000001
 12
1.0
 22
0.0
 32
0.0
 13
1.0
 23
0.0
 33
0.0
 40
0.0
 40
0.0
 40
0.0
 40
0.0
 40
1.0
 40
1.0
 40
1.0
 40
2.0
 40
2.0
 40
2.0
 40
3.0
 40
3.0
 40
3.0
 40
4.0
 40
4.0
 40
4.0
 40
5.0
 40
5.0
 40
5.0
 40
6.0
 40
6.0
 40
6.0
 40
7.0
 40
7.0
 40
7.0
 40
8.0
 40
8.0
 40
8.0
 40
8.0
 10
77.17186141733899
 20
-145.2390244862597
 30
0.0
 10
77.05645071858311
 20
-145.4484862917629
 30
0.0
 10
76.87110458147667
 20
-145.4677788264803
 30
0.0
 10
76.74673663445915
 20
-145.4677788264803
 30
0.0
 10
76.57517087929371
 20
-145.4677788264803
 30
0.0
 10
76.42358667794272
 20
-145.4209255278809
 30
0.0
 10
76.32195636112785
 20
-145.2390244862597
 30
0.0
 10
76.2110242865028
 20
-145.0443765913431
 30
0.0
 10
76.19069822313983
 20
-144.8076985315064
 30
0.0
 10
76.19069822313983
 20
-144.6444010055056
 30
0.0
 10
76.19069822313983
 20
-144.5007405237706
 30
0.0
 10
76.20895722921165
 20
-144.2489040437989
 30
0.0
 10
76.32195636112785
 20
-144.0501220343
 30
0.0
 10
76.43702255033519
 20
-143.8472059102187
 30
0.0
 10
76.60893281504916
 20
-143.8237792609191
 30
0.0
 10
76.74673663445915
 20
-143.8237792609191
 30
0.0
 10
76.91657984188197
 20
-143.8237792609191
 30
0.0
 10
77.07023110052411
 20
-143.8682209926788
 30
0.0
 10
77.17186141733899
 20
-144.0501220343
 30
0.0
 10
77.2783148678332
 20
-144.2427028719254
 30
0.0
 10
77.303119555327
 20
-144.4711127025975
 30
0.0
 10
77.303119555327
 20
-144.6444010055056
 30
0.0
 10
77.303119555327
 20
-144.815966760671
 30
0.0
 10
77.28038192512436
 20
-145.0467881581827
 30
0.0
 10
77.17186141733899
 20
-145.2390244862597
 30
0.0
  0
SPLINE
  5
B0
330
A9
100
AcDbEntity
  8
_U+30EC_U+30A4_U+30E4_U+30FC 1
370
     0
100
AcDbSpline
210
0.0
220
0.0
230
1.0
 70
    11
 71
     3
 72
    17
 73
    13
 74
     0
 42
0.0000000001
 43
0.0000000001
 12
1.0
 22
0.0
 32
0.0
 13
1.0
 23
0.0
 33
0.0
 40
0.0
 40
0.0
 40
0.0
 40
0.0
 40
1.0
 40
1.0
 40
1.0
 40
2.0
 40
2.0
 40
2.0
 40
3.0
 40
3.0
 40
3.0
 40
4.0
 40
4.0
 40
4.0
 40
4.0
 10
76.74673663445915
 20
-144.0163600985445
 30
0.0
 10
76.48008624390081
 20
-144.0163600985445
 30
0.0
 10
76.43047686891322
 20
-144.2998914569806
 30
0.0
 10
76.43047686891322
 20
-144.6444010055056
 30
0.0
 10
76.43047686891322
 20
-144.9641058665368
 30
0.0
 10
76.4687174287995
 20
-145.2727864220151
 30
0.0
 10
76.74673663445915
 20
-145.2727864220151
 30
0.0
 10
77.01131996772634
 20
-145.2727864220151
 30
0.0
 10
77.06334090955362
 20
-144.9916666304188
 30
0.0
 10
77.06334090955362
 20
-144.6444010055056
 30
0.0
 10
77.06334090955362
 20
-144.3253851635714
 30
0.0
 10
77.02268878282767
 20
-144.0163600985445
 30
0.0
 10
76.74673663445915
 20
-144.0163600985445
 30
0.0
  0
HATCH
  5
B1
330
A9
100
AcDbEntity
  8
_U+30EC_U+30A4_U+30E4_U+30FC 1
 62
     7
420
 16777215
100
AcDbHatch
 10
0.0
 20
0.0
 30
0.0
210
0.0
220
0.0
230
1.0
  2
SOLID
 70
     1
 71
     0
 91
        2
 92
        1
 93
        1
 72
     4
 94
        3
 73
     0
 74
     1
 95
       29
 96
       25
 40
0.0
 40
0.0
 40
0.0
 40
0.0
 40
1.0
 40
1.0
 40
1.0
 40
2.0
 40
2.0
 40
2.0
 40
3.0
 40
3.0
 40
3.0
 40
4.0
 40
4.0
 40
4.0
 40
5.0
 40
5.0
 40
5.0
 40
6.0
 40
6.0
 40
6.0
 40
7.0
 40
7.0
 40
7.0
 40
8.0
 40
8.0
 40
8.0
 40
8.0
 10
77.17186141733899
 20
-145.2390244862597
 10
77.05645071858311
 20
-145.4484862917629
 10
76.87110458147667
 20
-145.4677788264803
 10
76.74673663445915
 20
-145.4677788264803
 10
76.57517087929371
 20
-145.4677788264803
 10
76.42358667794272
 20
-145.4209255278809
 10
76.32195636112785
 20
-145.2390244862597
 10
76.2110242865028
 20
-145.0443765913431
 10
76.19069822313983
 20
-144.8076985315064
 10
76.19069822313983
 20
-144.6444010055056
 10
76.19069822313983
 20
-144.5007405237706
 10
76.20895722921165
 20
-144.2489040437989
 10
76.32195636112785
 20
-144.0501220343
 10
76.43702255033519
 20
-143.8472059102187
 10
76.60893281504916
 20
-143.8237792609191
 10
76.74673663445915
 20
-143.8237792609191
 10
76.91657984188197
 20
-143.8237792609191
 10
77.07023110052411
 20
-143.8682209926788
 10
77.17186141733899
 20
-144.0501220343
 10
77.2783148678332
 20
-144.2427028719254
 10
77.303119555327
 20
-144.4711127025975
 10
77.303119555327
 20
-144.6444010055056
 10
77.303119555327
 20
-144.815966760671
 10
77.28038192512436
 20
-145.0467881581827
 10
77.17186141733899
 20
-145.2390244862597
 97
        0
 97
        0
 92
        1
 93
        1
 72
     4
 94
        3
 73
     0
 74
     1
 95
       17
 96
       13
 40
0.0
 40
0.0
 40
0.0
 40
0.0
 40
1.0
 40
1.0
 40
1.0
 40
2.0
 40
2.0
 40
2.0
 40
3.0
 40
3.0
 40
3.0
 40
4.0
 40
4.0
 40
4.0
 40
4.0
 10
76.74673663445915
 20
-144.0163600985445
 10
76.48008624390081
 20
-144.0163600985445
 10
76.43047686891322
 20
-144.2998914569806
 10
76.43047686891322
 20
-144.6444010055056
 10
76.43047686891322
 20
-144.9641058665368
 10
76.4687174287995
 20
-145.2727864220151
 10
76.74673663445915
 20
-145.2727864220151
 10
77.01131996772634
 20
-145.2727864220151
 10
77.06334090955362
 20
-144.9916666304188
 10
77.06334090955362
 20
-144.6444010055056
 10
77.06334090955362
 20
-144.3253851635714
 10
77.02268878282767
 20
-144.0163600985445
 10
76.74673663445915
 20
-144.0163600985445
 97
        0
 97
        0
 75
     2
 76
     1
 98
        0
  0
ENDBLK
  5
AC
330
A9
100
AcDbEntity
  8
0
100
AcDbBlockEnd
  0
BLOCK
  5
B4
330
B2
100
AcDbEntity
  8
0
100
AcDbBlockBegin
  2
block 5
 70
     0
 10
0.0
 20
0.0
 30
0.0
  3
block 5
  1

  0
POLYLINE
  5
B6
330
B2
100
AcDbEntity
  8
_U+30EC_U+30A4_U+30E4_U+30FC 1
370
     0
100
AcDb2dPolyline
 66
     1
 10
0.0
 20
0.0
 30
0.0
  0
VERTEX
  5
B7
330
B6
100
AcDbEntity
  8
_U+30EC_U+30A4_U+30E4_U+30FC 1
370
     0
100
AcDbVertex
100
AcDb2dVertex
 10
90.84372285055296
 20
-115.3700466291436
 30
0.0
  0
VERTEX
  5
B8
330
B6
100
AcDbEntity
  8
_U+30EC_U+30A4_U+30E4_U+30FC 1
370
     0
100
AcDbVertex
100
AcDb2dVertex
 10
90.84372285055296
 20
-115.7169677445083
 30
0.0
  0
VERTEX
  5
B9
330
B6
100
AcDbEntity
  8
_U+30EC_U+30A4_U+30E4_U+30FC 1
370
     0
100
AcDbVertex
100
AcDb2dVertex
 10
90.61083439575008
 20
-115.7169677445083
 30
0.0
  0
VERTEX
  5
BA
330
B6
100
AcDbEntity
  8
_U+30EC_U+30A4_U+30E4_U+30FC 1
370
     0
100
AcDbVertex
100
AcDb2dVertex
 10
90.61083439575008
 20
-115.3700466291436
 30
0.0
  0
VERTEX
  5
BB
330
B6
100
AcDbEntity
  8
_U+30EC_U+30A4_U+30E4_U+30FC 1
370
     0
100
AcDbVertex
100
AcDb2dVertex
 10
89.90975746450174
 20
-115.3700466291436
 30
0.0
  0
VERTEX
  5
BC
330
B6
100
AcDbEntity
  8
_U+30EC_U+30A4_U+30E4_U+30FC 1
370
     0
100
AcDbVertex
100
AcDb2dVertex
 10
89.90975746450174
 20
-115.1457709130538
 30
0.0
  0
VERTEX
  5
BD
330
B6
100
AcDbEntity
  8
_U+30EC_U+30A4_U+30E4_U+30FC 1
370
     0
100
AcDbVertex
100
AcDb2dVertex
 10
90.63563908324387
 20
-114.1725314384708
 30
0.0
  0
VERTEX
  5
BE
330
B6
100
AcDbEntity
  8
_U+30EC_U+30A4_U+30E4_U+30FC 1
370
     0
100
AcDbVertex
100
AcDb2dVertex
 10
90.84372285055296
 20
-114.1725314384708
 30
0.0
  0
VERTEX
  5
BF
330
B6
100
AcDbEntity
  8
_U+30EC_U+30A4_U+30E4_U+30FC 1
370
     0
100
AcDbVertex
100
AcDb2dVertex
 10
90.84372285055296
 20
-115.1712646196447
 30
0.0
  0
VERTEX
  5
C0
330
B6
100
AcDbEntity
  8
_U+30EC_U+30A4_U+30E4_U+30FC 1
370
     0
100
AcDbVertex
100
AcDb2dVertex
 10
91.06524249025453
 20
-115.1712646196447
 30
0.0
  0
VERTEX
  5
C1
330
B6
100
AcDbEntity
  8
_U+30EC_U+30A4_U+30E4_U+30FC 1
370
     0
100
AcDbVertex
100
AcDb2dVertex
 10
91.06524249025453
 20
-115.3700466291436
 30
0.0
  0
VERTEX
  5
C2
330
B6
100
AcDbEntity
  8
_U+30EC_U+30A4_U+30E4_U+30FC 1
370
     0
100
AcDbVertex
100
AcDb2dVertex
 10
90.84372285055296
 20
-115.3700466291436
 30
0.0
  0
SEQEND
  5
C3
330
B6
100
AcDbEntity
  8
_U+30EC_U+30A4_U+30E4_U+30FC 1
370
     0
  0
POLYLINE
  5
C4
330
B2
100
AcDbEntity
  8
_U+30EC_U+30A4_U+30E4_U+30FC 1
370
     0
100
AcDb2dPolyline
 66
     1
 10
0.0
 20
0.0
 30
0.0
  0
VERTEX
  5
C5
330
C4
100
AcDbEntity
  8
_U+30EC_U+30A4_U+30E4_U+30FC 1
370
     0
100
AcDbVertex
100
AcDb2dVertex
 10
90.61083439575008
 20
-114.5153184392531
 30
0.0
  0
VERTEX
  5
C6
330
C4
100
AcDbEntity
  8
_U+30EC_U+30A4_U+30E4_U+30FC 1
370
     0
100
AcDbVertex
100
AcDb2dVertex
 10
90.12231985594164
 20
-115.1712646196447
 30
0.0
  0
VERTEX
  5
C7
330
C4
100
AcDbEntity
  8
_U+30EC_U+30A4_U+30E4_U+30FC 1
370
     0
100
AcDbVertex
100
AcDb2dVertex
 10
90.61083439575008
 20
-115.1712646196447
 30
0.0
  0
VERTEX
  5
C8
330
C4
100
AcDbEntity
  8
_U+30EC_U+30A4_U+30E4_U+30FC 1
370
     0
100
AcDbVertex
100
AcDb2dVertex
 10
90.61083439575008
 20
-114.5153184392531
 30
0.0
  0
SEQEND
  5
C9
330
C4
100
AcDbEntity
  8
_U+30EC_U+30A4_U+30E4_U+30FC 1
370
     0
  0
HATCH
  5
CA
330
B2
100
AcDbEntity
  8
_U+30EC_U+30A4_U+30E4_U+30FC 1
 62
     7
420
 16777215
100
AcDbHatch
 10
0.0
 20
0.0
 30
0.0
210
0.0
220
0.0
230
1.0
  2
SOLID
 70
     1
 71
     0
 91
        2
 92
        1
 93
       11
 72
     1
 10
90.84372285055296
 20
-115.3700466291436
 11
90.84372285055296
 21
-115.7169677445083
 72
     1
 10
90.84372285055296
 20
-115.7169677445083
 11
90.61083439575008
 21
-115.7169677445083
 72
     1
 10
90.61083439575008
 20
-115.7169677445083
 11
90.61083439575008
 21
-115.3700466291436
 72
     1
 10
90.61083439575008
 20
-115.3700466291436
 11
89.90975746450174
 21
-115.3700466291436
 72
     1
 10
89.90975746450174
 20
-115.3700466291436
 11
89.90975746450174
 21
-115.1457709130538
 72
     1
 10
89.90975746450174
 20
-115.1457709130538
 11
90.63563908324387
 21
-114.1725314384708
 72
     1
 10
90.63563908324387
 20
-114.1725314384708
 11
90.84372285055296
 21
-114.1725314384708
 72
     1
 10
90.84372285055296
 20
-114.1725314384708
 11
90.84372285055296
 21
-115.1712646196447
 72
     1
 10
90.84372285055296
 20
-115.1712646196447
 11
91.06524249025453
 21
-115.1712646196447
 72
     1
 10
91.06524249025453
 20
-115.1712646196447
 11
91.06524249025453
 21
-115.3700466291436
 72
     1
 10
91.06524249025453
 20
-115.3700466291436
 11
90.84372285055296
 21
-115.3700466291436
 97
        0
 92
        1
 93
        3
 72
     1
 10
90.61083439575008
 20
-114.5153184392531
 11
90.12231985594164
 21
-115.1712646196447
 72
     1
 10
90.12231985594164
 20
-115.1712646196447
 11
90.61083439575008
 21
-115.1712646196447
 72
     1
 10
90.61083439575008
 20
-115.1712646196447
 11
90.61083439575008
 21
-114.5153184392531
 97
        0
 75
     2
 76
     1
 98
        0
  0
SPLINE
  5
CB
330
B2
100
AcDbEntity
  8
_U+30EC_U+30A4_U+30E4_U+30FC 1
370
     0
100
AcDbSpline
210
0.0
220
0.0
230
1.0
 70
    11
 71
     3
 72
    29
 73
    25
 74
     0
 42
0.0000000001
 43
0.0000000001
 12
1.0
 22
0.0
 32
0.0
 13
1.0
 23
0.0
 33
0.0
 40
0.0
 40
0.0
 40
0.0
 40
0.0
 40
1.0
 40
1.0
 40
1.0
 40
2.0
 40
2.0
 40
2.0
 40
3.0
 40
3.0
 40
3.0
 40
4.0
 40
4.0
 40
4.0
 40
5.0
 40
5.0
 40
5.0
 40
6.0
 40
6.0
 40
6.0
 40
7.0
 40
7.0
 40
7.0
 40
8.0
 40
8.0
 40
8.0
 40
8.0
 10
92.17146265056824
 20
-115.5392008174694
 30
0.0
 10
92.05605195181238
 20
-115.7486626229726
 30
0.0
 10
91.87070581470594
 20
-115.7676106481414
 30
0.0
 10
91.74633786768842
 20
-115.7676106481414
 30
0.0
 10
91.57477211252298
 20
-115.7676106481414
 30
0.0
 10
91.42318791117198
 20
-115.7211018590906
 30
0.0
 10
91.32155759435712
 20
-115.5392008174694
 30
0.0
 10
91.21062551973208
 20
-115.3445529225528
 30
0.0
 10
91.19029945636909
 20
-115.1075303531676
 30
0.0
 10
91.19029945636909
 20
-114.9449218462638
 30
0.0
 10
91.19029945636909
 20
-114.8009168549803
 30
0.0
 10
91.2082139528924
 20
-114.5490803750086
 30
0.0
 10
91.32155759435712
 20
-114.3502983655097
 30
0.0
 10
91.43662378356446
 20
-114.1473822414284
 30
0.0
 10
91.60853404827843
 20
-114.1239555921287
 30
0.0
 10
91.74633786768842
 20
-114.1239555921287
 30
0.0
 10
91.91618107511124
 20
-114.1239555921287
 30
0.0
 10
92.06983233375338
 20
-114.1683973238885
 30
0.0
 10
92.17146265056824
 20
-114.3502983655097
 30
0.0
 10
92.27791610106247
 20
-114.5428792031351
 30
0.0
 10
92.30272078855627
 20
-114.7712890338072
 30
0.0
 10
92.30272078855627
 20
-114.9449218462638
 30
0.0
 10
92.30272078855627
 20
-115.1161430918807
 30
0.0
 10
92.27998315835362
 20
-115.3466199798439
 30
0.0
 10
92.17146265056824
 20
-115.5392008174694
 30
0.0
  0
SPLINE
  5
CC
330
B2
100
AcDbEntity
  8
_U+30EC_U+30A4_U+30E4_U+30FC 1
370
     0
100
AcDbSpline
210
0.0
220
0.0
230
1.0
 70
    11
 71
     3
 72
    17
 73
    13
 74
     0
 42
0.0000000001
 43
0.0000000001
 12
1.0
 22
0.0
 32
0.0
 13
1.0
 23
0.0
 33
0.0
 40
0.0
 40
0.0
 40
0.0
 40
0.0
 40
1.0
 40
1.0
 40
1.0
 40
2.0
 40
2.0
 40
2.0
 40
3.0
 40
3.0
 40
3.0
 40
4.0
 40
4.0
 40
4.0
 40
4.0
 10
91.74633786768842
 20
-114.3165364297542
 30
0.0
 10
91.47968747713008
 20
-114.3165364297542
 30
0.0
 10
91.43007810214249
 20
-114.6000677881903
 30
0.0
 10
91.43007810214249
 20
-114.9449218462638
 30
0.0
 10
91.43007810214249
 20
-115.2642821977464
 30
0.0
 10
91.46831866202876
 20
-115.5729627532248
 30
0.0
 10
91.74633786768842
 20
-115.5729627532248
 30
0.0
 10
92.01092120095561
 20
-115.5729627532248
 30
0.0
 10
92.06294214278287
 20
-115.2918429616284
 30
0.0
 10
92.06294214278287
 20
-114.9449218462638
 30
0.0
 10
92.06294214278287
 20
-114.6252169852326
 30
0.0
 10
92.02229001605693
 20
-114.3165364297542
 30
0.0
 10
91.74633786768842
 20
-114.3165364297542
 30
0.0
  0
HATCH
  5
CD
330
B2
100
AcDbEntity
  8
_U+30EC_U+30A4_U+30E4_U+30FC 1
 62
     7
420
 16777215
100
AcDbHatch
 10
0.0
 20
0.0
 30
0.0
210
0.0
220
0.0
230
1.0
  2
SOLID
 70
     1
 71
     0
 91
        2
 92
        1
 93
        1
 72
     4
 94
        3
 73
     0
 74
     1
 95
       29
 96
       25
 40
0.0
 40
0.0
 40
0.0
 40
0.0
 40
1.0
 40
1.0
 40
1.0
 40
2.0
 40
2.0
 40
2.0
 40
3.0
 40
3.0
 40
3.0
 40
4.0
 40
4.0
 40
4.0
 40
5.0
 40
5.0
 40
5.0
 40
6.0
 40
6.0
 40
6.0
 40
7.0
 40
7.0
 40
7.0
 40
8.0
 40
8.0
 40
8.0
 40
8.0
 10
92.17146265056824
 20
-115.5392008174694
 10
92.05605195181238
 20
-115.7486626229726
 10
91.87070581470594
 20
-115.7676106481414
 10
91.74633786768842
 20
-115.7676106481414
 10
91.57477211252298
 20
-115.7676106481414
 10
91.42318791117198
 20
-115.7211018590906
 10
91.32155759435712
 20
-115.5392008174694
 10
91.21062551973208
 20
-115.3445529225528
 10
91.19029945636909
 20
-115.1075303531676
 10
91.19029945636909
 20
-114.9449218462638
 10
91.19029945636909
 20
-114.8009168549803
 10
91.2082139528924
 20
-114.5490803750086
 10
91.32155759435712
 20
-114.3502983655097
 10
91.43662378356446
 20
-114.1473822414284
 10
91.60853404827843
 20
-114.1239555921287
 10
91.74633786768842
 20
-114.1239555921287
 10
91.91618107511124
 20
-114.1239555921287
 10
92.06983233375338
 20
-114.1683973238885
 10
92.17146265056824
 20
-114.3502983655097
 10
92.27791610106247
 20
-114.5428792031351
 10
92.30272078855627
 20
-114.7712890338072
 10
92.30272078855627
 20
-114.9449218462638
 10
92.30272078855627
 20
-115.1161430918807
 10
92.27998315835362
 20
-115.3466199798439
 10
92.17146265056824
 20
-115.5392008174694
 97
        0
 97
        0
 92
        1
 93
        1
 72
     4
 94
        3
 73
     0
 74
     1
 95
       17
 96
       13
 40
0.0
 40
0.0
 40
0.0
 40
0.0
 40
1.0
 40
1.0
 40
1.0
 40
2.0
 40
2.0
 40
2.0
 40
3.0
 40
3.0
 40
3.0
 40
4.0
 40
4.0
 40
4.0
 40
4.0
 10
91.74633786768842
 20
-114.3165364297542
 10
91.47968747713008
 20
-114.3165364297542
 10
91.43007810214249
 20
-114.6000677881903
 10
91.43007810214249
 20
-114.9449218462638
 10
91.43007810214249
 20
-115.2642821977464
 10
91.46831866202876
 20
-115.5729627532248
 10
91.74633786768842
 20
-115.5729627532248
 10
92.01092120095561
 20
-115.5729627532248
 10
92.06294214278287
 20
-115.2918429616284
 10
92.06294214278287
 20
-114.9449218462638
 10
92.06294214278287
 20
-114.6252169852326
 10
92.02229001605693
 20
-114.3165364297542
 10
91.74633786768842
 20
-114.3165364297542
 97
        0
 97
        0
 75
     2
 76
     1
 98
        0
  0
ENDBLK
  5
B5
330
B2
100
AcDbEntity
  8
0
100
AcDbBlockEnd
  0
BLOCK
  5
D0
330
CE
100
AcDbEntity
  8
0
100
AcDbBlockBegin
  2
block 6
 70
     0
 10
0.0
 20
0.0
 30
0.0
  3
block 6
  1

  0
SPLINE
  5
D2
330
CE
100
AcDbEntity
  8
_U+30EC_U+30A4_U+30E4_U+30FC 1
370
     0
100
AcDbSpline
210
0.0
220
0.0
230
1.0
 70
    11
 71
     3
 72
    62
 73
    58
 74
     0
 42
0.0000000001
 43
0.0000000001
 12
1.0
 22
0.0
 32
0.0
 13
1.0
 23
0.0
 33
0.0
 40
0.0
 40
0.0
 40
0.0
 40
0.0
 40
1.0
 40
1.0
 40
1.0
 40
2.0
 40
2.0
 40
2.0
 40
3.0
 40
3.0
 40
3.0
 40
4.0
 40
4.0
 40
4.0
 40
5.0
 40
5.0
 40
5.0
 40
6.0
 40
6.0
 40
6.0
 40
7.0
 40
7.0
 40
7.0
 40
8.0
 40
8.0
 40
8.0
 40
9.0
 40
9.0
 40
9.0
 40
10.0
 40
10.0
 40
10.0
 40
11.0
 40
11.0
 40
11.0
 40
12.0
 40
12.0
 40
12.0
 40
13.0
 40
13.0
 40
13.0
 40
14.0
 40
14.0
 40
14.0
 40
15.0
 40
15.0
 40
15.0
 40
16.0
 40
16.0
 40
16.0
 40
17.0
 40
17.0
 40
17.0
 40
18.0
 40
18.0
 40
18.0
 40
19.0
 40
19.0
 40
19.0
 40
19.0
 10
72.66791583469761
 20
-113.3000610068312
 30
0.0
 10
72.56628551788273
 20
-113.3000610068312
 30
0.0
 10
72.33339706307984
 20
-113.2788736695969
 30
0.0
 10
72.19989961302642
 20
-113.0926662586192
 30
0.0
 10
72.12083467163994
 20
-112.9805284005743
 30
0.0
 10
72.11635604750911
 20
-112.8811373958249
 30
0.0
 10
72.11170516860402
 20
-112.796560301662
 30
0.0
 10
72.11170516860402
 20
-112.796560301662
 30
0.0
 10
72.34700519024659
 20
-112.796560301662
 30
0.0
 10
72.34700519024659
 20
-112.796560301662
 30
0.0
 10
72.349244502312
 20
-112.8706298545949
 30
0.0
 10
72.36044106263905
 20
-113.1054131119146
 30
0.0
 10
72.66343721056678
 20
-113.1054131119146
 30
0.0
 10
72.81037053301269
 20
-113.1054131119146
 30
0.0
 10
72.97315129469074
 20
-113.0356499283383
 30
0.0
 10
72.97315129469074
 20
-112.807067842892
 30
0.0
 10
72.97315129469074
 20
-112.6907958702648
 30
0.0
 10
72.93249916796479
 20
-112.6420477691485
 30
0.0
 10
72.89856497743509
 20
-112.6103528906842
 30
0.0
 10
72.8195000360486
 20
-112.5362833377514
 30
0.0
 10
72.69513208903108
 20
-112.5237087392302
 30
0.0
 10
72.63639321100757
 20
-112.5237087392302
 30
0.0
 10
72.61589489287033
 20
-112.5237087392302
 30
0.0
 10
72.5774820782098
 20
-112.5257757965213
 30
0.0
 10
72.54819876658517
 20
-112.5299099111036
 30
0.0
 10
72.54819876658517
 20
-112.5299099111036
 30
0.0
 10
72.54819876658517
 20
-112.335262016187
 30
0.0
 10
72.54819876658517
 20
-112.335262016187
 30
0.0
 10
72.58885089331112
 20
-112.3416354428347
 30
0.0
 10
72.6339816441679
 20
-112.3438747549001
 30
0.0
 10
72.6408718351384
 20
-112.3438747549001
 30
0.0
 10
72.71097952826324
 20
-112.3438747549001
 30
0.0
 10
72.92336966492888
 20
-112.3226874176659
 30
0.0
 10
72.92336966492888
 20
-112.0856648482807
 30
0.0
 10
72.92336966492888
 20
-111.908070176016
 30
0.0
 10
72.78332653345348
 20
-111.8529486482521
 30
0.0
 10
72.6656765226322
 20
-111.8529486482521
 30
0.0
 10
72.38317869284171
 20
-111.8529486482521
 30
0.0
 10
72.3740491898058
 20
-112.0856648482807
 30
0.0
 10
72.36957056567498
 20
-112.1576673439224
 30
0.0
 10
72.36957056567498
 20
-112.1576673439224
 30
0.0
 10
72.15252955010423
 20
-112.1576673439224
 30
0.0
 10
72.15252955010423
 20
-112.1576673439224
 30
0.0
 10
72.16148679836589
 20
-112.0327826325821
 30
0.0
 10
72.19094236476477
 20
-111.6562336960443
 30
0.0
 10
72.67928464979893
 20
-111.6562336960443
 30
0.0
 10
72.91889104079806
 20
-111.6562336960443
 30
0.0
 10
73.17658418309475
 20
-111.7831854646757
 30
0.0
 10
73.17658418309475
 20
-112.079291421633
 30
0.0
 10
73.17658418309475
 20
-112.2654988326107
 30
0.0
 10
73.07495386627987
 20
-112.3480088694824
 30
0.0
 10
72.96867267055993
 20
-112.4093315691199
 30
0.0
 10
73.03430173955392
 20
-112.4368923330019
 30
0.0
 10
73.22860512492201
 20
-112.5173353125825
 30
0.0
 10
73.22860512492201
 20
-112.7944932443708
 30
0.0
 10
73.22860512492201
 20
-113.1329738757966
 30
0.0
 10
72.9641940464291
 20
-113.3000610068312
 30
0.0
 10
72.66791583469761
 20
-113.3000610068312
 30
0.0
  0
HATCH
  5
D3
330
CE
100
AcDbEntity
  8
_U+30EC_U+30A4_U+30E4_U+30FC 1
 62
     7
420
 16777215
100
AcDbHatch
 10
0.0
 20
0.0
 30
0.0
210
0.0
220
0.0
230
1.0
  2
SOLID
 70
     1
 71
     0
 91
        1
 92
        1
 93
        1
 72
     4
 94
        3
 73
     0
 74
     1
 95
       62
 96
       58
 40
0.0
 40
0.0
 40
0.0
 40
0.0
 40
1.0
 40
1.0
 40
1.0
 40
2.0
 40
2.0
 40
2.0
 40
3.0
 40
3.0
 40
3.0
 40
4.0
 40
4.0
 40
4.0
 40
5.0
 40
5.0
 40
5.0
 40
6.0
 40
6.0
 40
6.0
 40
7.0
 40
7.0
 40
7.0
 40
8.0
 40
8.0
 40
8.0
 40
9.0
 40
9.0
 40
9.0
 40
10.0
 40
10.0
 40
10.0
 40
11.0
 40
11.0
 40
11.0
 40
12.0
 40
12.0
 40
12.0
 40
13.0
 40
13.0
 40
13.0
 40
14.0
 40
14.0
 40
14.0
 40
15.0
 40
15.0
 40
15.0
 40
16.0
 40
16.0
 40
16.0
 40
17.0
 40
17.0
 40
17.0
 40
18.0
 40
18.0
 40
18.0
 40
19.0
 40
19.0
 40
19.0
 40
19.0
 10
72.66791583469761
 20
-113.3000610068312
 10
72.56628551788273
 20
-113.3000610068312
 10
72.33339706307984
 20
-113.2788736695969
 10
72.19989961302642
 20
-113.0926662586192
 10
72.12083467163994
 20
-112.9805284005743
 10
72.11635604750911
 20
-112.8811373958249
 10
72.11170516860402
 20
-112.796560301662
 10
72.11170516860402
 20
-112.796560301662
 10
72.34700519024659
 20
-112.796560301662
 10
72.34700519024659
 20
-112.796560301662
 10
72.349244502312
 20
-112.8706298545949
 10
72.36044106263905
 20
-113.1054131119146
 10
72.66343721056678
 20
-113.1054131119146
 10
72.81037053301269
 20
-113.1054131119146
 10
72.97315129469074
 20
-113.0356499283383
 10
72.97315129469074
 20
-112.807067842892
 10
72.97315129469074
 20
-112.6907958702648
 10
72.93249916796479
 20
-112.6420477691485
 10
72.89856497743509
 20
-112.6103528906842
 10
72.8195000360486
 20
-112.5362833377514
 10
72.69513208903108
 20
-112.5237087392302
 10
72.63639321100757
 20
-112.5237087392302
 10
72.61589489287033
 20
-112.5237087392302
 10
72.5774820782098
 20
-112.5257757965213
 10
72.54819876658517
 20
-112.5299099111036
 10
72.54819876658517
 20
-112.5299099111036
 10
72.54819876658517
 20
-112.335262016187
 10
72.54819876658517
 20
-112.335262016187
 10
72.58885089331112
 20
-112.3416354428347
 10
72.6339816441679
 20
-112.3438747549001
 10
72.6408718351384
 20
-112.3438747549001
 10
72.71097952826324
 20
-112.3438747549001
 10
72.92336966492888
 20
-112.3226874176659
 10
72.92336966492888
 20
-112.0856648482807
 10
72.92336966492888
 20
-111.908070176016
 10
72.78332653345348
 20
-111.8529486482521
 10
72.6656765226322
 20
-111.8529486482521
 10
72.38317869284171
 20
-111.8529486482521
 10
72.3740491898058
 20
-112.0856648482807
 10
72.36957056567498
 20
-112.1576673439224
 10
72.36957056567498
 20
-112.1576673439224
 10
72.15252955010423
 20
-112.1576673439224
 10
72.15252955010423
 20
-112.1576673439224
 10
72.16148679836589
 20
-112.0327826325821
 10
72.19094236476477
 20
-111.6562336960443
 10
72.67928464979893
 20
-111.6562336960443
 10
72.91889104079806
 20
-111.6562336960443
 10
73.17658418309475
 20
-111.7831854646757
 10
73.17658418309475
 20
-112.079291421633
 10
73.17658418309475
 20
-112.2654988326107
 10
73.07495386627987
 20
-112.3480088694824
 10
72.96867267055993
 20
-112.4093315691199
 10
73.03430173955392
 20
-112.4368923330019
 10
73.22860512492201
 20
-112.5173353125825
 10
73.22860512492201
 20
-112.7944932443708
 10
73.22860512492201
 20
-113.1329738757966
 10
72.9641940464291
 20
-113.3000610068312
 10
72.66791583469761
 20
-113.3000610068312
 97
        0
 97
        0
 75
     2
 76
     1
 98
        0
  0
ENDBLK
  5
D1
330
CE
100
AcDbEntity
  8
0
100
AcDbBlockEnd
  0
BLOCK
  5
D6
330
D4
100
AcDbEntity
  8
0
100
AcDbBlockBegin
  2
block 7
 70
     0
 10
0.0
 20
0.0
 30
0.0
  3
block 7
  1

  0
SPLINE
  5
D8
330
D4
100
AcDbEntity
  8
_U+30EC_U+30A4_U+30E4_U+30FC 1
370
     0
100
AcDbSpline
210
0.0
220
0.0
230
1.0
 70
    11
 71
     3
 72
    32
 73
    28
 74
     0
 42
0.0000000001
 43
0.0000000001
 12
1.0
 22
0.0
 32
0.0
 13
1.0
 23
0.0
 33
0.0
 40
0.0
 40
0.0
 40
0.0
 40
0.0
 40
1.0
 40
1.0
 40
1.0
 40
2.0
 40
2.0
 40
2.0
 40
3.0
 40
3.0
 40
3.0
 40
4.0
 40
4.0
 40
4.0
 40
5.0
 40
5.0
 40
5.0
 40
6.0
 40
6.0
 40
6.0
 40
7.0
 40
7.0
 40
7.0
 40
8.0
 40
8.0
 40
8.0
 40
9.0
 40
9.0
 40
9.0
 40
9.0
 10
114.4570963255524
 20
-133.3124484258733
 30
0.0
 10
114.4570963255524
 20
-133.8640082130618
 30
0.0
 10
113.9027804619757
 20
-133.8729654613234
 30
0.0
 10
113.6891845418902
 20
-133.8729654613234
 30
0.0
 10
113.458707653927
 20
-133.8729654613234
 30
0.0
 10
112.8110297027
 20
-133.852983907509
 30
0.0
 10
112.8110297027
 20
-133.2717962991473
 30
0.0
 10
112.8110297027
 20
-133.0864501620409
 30
0.0
 10
112.8809651410506
 20
-132.8242783956134
 30
0.0
 10
113.2130723458287
 20
-132.7836262688874
 30
0.0
 10
113.2130723458287
 20
-132.7836262688874
 30
0.0
 10
113.2130723458287
 20
-133.011691590011
 30
0.0
 10
113.2130723458287
 20
-133.011691590011
 30
0.0
 10
113.1562282703221
 20
-133.0230604051123
 30
0.0
 10
113.0080891644563
 20
-133.0571668504163
 30
0.0
 10
113.0080891644563
 20
-133.274207865987
 30
0.0
 10
113.0080891644563
 20
-133.5859890074021
 30
0.0
 10
113.3360622546521
 20
-133.6290527009677
 30
0.0
 10
113.5410454360245
 20
-133.6424885733602
 30
0.0
 10
113.4628417685093
 20
-133.5429253138365
 30
0.0
 10
113.403586126163
 20
-133.4705783086463
 30
0.0
 10
113.403586126163
 20
-133.2762749232782
 30
0.0
 10
113.403586126163
 20
-133.0840385952012
 30
0.0
 10
113.5114176148513
 20
-132.7608886386848
 30
0.0
 10
113.9175943725623
 20
-132.7608886386848
 30
0.0
 10
114.2369547240449
 20
-132.7608886386848
 30
0.0
 10
114.4570963255524
 20
-132.9731065205762
 30
0.0
 10
114.4570963255524
 20
-133.3124484258733
 30
0.0
  0
SPLINE
  5
D9
330
D4
100
AcDbEntity
  8
_U+30EC_U+30A4_U+30E4_U+30FC 1
370
     0
100
AcDbSpline
210
0.0
220
0.0
230
1.0
 70
    11
 71
     3
 72
    17
 73
    13
 74
     0
 42
0.0000000001
 43
0.0000000001
 12
1.0
 22
0.0
 32
0.0
 13
1.0
 23
0.0
 33
0.0
 40
0.0
 40
0.0
 40
0.0
 40
0.0
 40
1.0
 40
1.0
 40
1.0
 40
2.0
 40
2.0
 40
2.0
 40
3.0
 40
3.0
 40
3.0
 40
4.0
 40
4.0
 40
4.0
 40
4.0
 10
113.5982340210796
 20
-133.2941894198015
 30
0.0
 10
113.5982340210796
 20
-133.5746201923008
 30
0.0
 10
113.809762883874
 20
-133.6152723190267
 30
0.0
 10
113.9258626017269
 20
-133.6152723190267
 30
0.0
 10
114.1015624714746
 20
-133.6152723190267
 30
0.0
 10
114.2645154879269
 20
-133.5136420022119
 30
0.0
 10
114.2645154879269
 20
-133.3169270500041
 30
0.0
 10
114.2645154879269
 20
-133.1880804788558
 30
0.0
 10
114.2052598455806
 20
-133.0006672844582
 30
0.0
 10
113.9196614298534
 20
-133.0006672844582
 30
0.0
 10
113.6953857137637
 20
-133.0006672844582
 30
0.0
 10
113.5982340210796
 20
-133.149495409421
 30
0.0
 10
113.5982340210796
 20
-133.2941894198015
 30
0.0
  0
HATCH
  5
DA
330
D4
100
AcDbEntity
  8
_U+30EC_U+30A4_U+30E4_U+30FC 1
 62
     7
420
 16777215
100
AcDbHatch
 10
0.0
 20
0.0
 30
0.0
210
0.0
220
0.0
230
1.0
  2
SOLID
 70
     1
 71
     0
 91
        2
 92
        1
 93
        1
 72
     4
 94
        3
 73
     0
 74
     1
 95
       32
 96
       28
 40
0.0
 40
0.0
 40
0.0
 40
0.0
 40
1.0
 40
1.0
 40
1.0
 40
2.0
 40
2.0
 40
2.0
 40
3.0
 40
3.0
 40
3.0
 40
4.0
 40
4.0
 40
4.0
 40
5.0
 40
5.0
 40
5.0
 40
6.0
 40
6.0
 40
6.0
 40
7.0
 40
7.0
 40
7.0
 40
8.0
 40
8.0
 40
8.0
 40
9.0
 40
9.0
 40
9.0
 40
9.0
 10
114.4570963255524
 20
-133.3124484258733
 10
114.4570963255524
 20
-133.8640082130618
 10
113.9027804619757
 20
-133.8729654613234
 10
113.6891845418902
 20
-133.8729654613234
 10
113.458707653927
 20
-133.8729654613234
 10
112.8110297027
 20
-133.852983907509
 10
112.8110297027
 20
-133.2717962991473
 10
112.8110297027
 20
-133.0864501620409
 10
112.8809651410506
 20
-132.8242783956134
 10
113.2130723458287
 20
-132.7836262688874
 10
113.2130723458287
 20
-132.7836262688874
 10
113.2130723458287
 20
-133.011691590011
 10
113.2130723458287
 20
-133.011691590011
 10
113.1562282703221
 20
-133.0230604051123
 10
113.0080891644563
 20
-133.0571668504163
 10
113.0080891644563
 20
-133.274207865987
 10
113.0080891644563
 20
-133.5859890074021
 10
113.3360622546521
 20
-133.6290527009677
 10
113.5410454360245
 20
-133.6424885733602
 10
113.4628417685093
 20
-133.5429253138365
 10
113.403586126163
 20
-133.4705783086463
 10
113.403586126163
 20
-133.2762749232782
 10
113.403586126163
 20
-133.0840385952012
 10
113.5114176148513
 20
-132.7608886386848
 10
113.9175943725623
 20
-132.7608886386848
 10
114.2369547240449
 20
-132.7608886386848
 10
114.4570963255524
 20
-132.9731065205762
 10
114.4570963255524
 20
-133.3124484258733
 97
        0
 97
        0
 92
        1
 93
        1
 72
     4
 94
        3
 73
     0
 74
     1
 95
       17
 96
       13
 40
0.0
 40
0.0
 40
0.0
 40
0.0
 40
1.0
 40
1.0
 40
1.0
 40
2.0
 40
2.0
 40
2.0
 40
3.0
 40
3.0
 40
3.0
 40
4.0
 40
4.0
 40
4.0
 40
4.0
 10
113.5982340210796
 20
-133.2941894198015
 10
113.5982340210796
 20
-133.5746201923008
 10
113.809762883874
 20
-133.6152723190267
 10
113.9258626017269
 20
-133.6152723190267
 10
114.1015624714746
 20
-133.6152723190267
 10
114.2645154879269
 20
-133.5136420022119
 10
114.2645154879269
 20
-133.3169270500041
 10
114.2645154879269
 20
-133.1880804788558
 10
114.2052598455806
 20
-133.0006672844582
 10
113.9196614298534
 20
-133.0006672844582
 10
113.6953857137637
 20
-133.0006672844582
 10
113.5982340210796
 20
-133.149495409421
 10
113.5982340210796
 20
-133.2941894198015
 97
        0
 97
        0
 75
     2
 76
     1
 98
        0
  0
POLYLINE
  5
DB
330
D4
100
AcDbEntity
  8
_U+30EC_U+30A4_U+30E4_U+30FC 1
370
     0
100
AcDb2dPolyline
 66
     1
 10
0.0
 20
0.0
 30
0.0
  0
VERTEX
  5
DC
330
DB
100
AcDbEntity
  8
_U+30EC_U+30A4_U+30E4_U+30FC 1
370
     0
100
AcDbVertex
100
AcDb2dVertex
 10
114.4061089123707
 20
-132.529378222076
 30
0.0
  0
VERTEX
  5
DD
330
DB
100
AcDbEntity
  8
_U+30EC_U+30A4_U+30E4_U+30FC 1
370
     0
100
AcDbVertex
100
AcDb2dVertex
 10
114.1546169419475
 20
-132.529378222076
 30
0.0
  0
VERTEX
  5
DE
330
DB
100
AcDbEntity
  8
_U+30EC_U+30A4_U+30E4_U+30FC 1
370
     0
100
AcDbVertex
100
AcDb2dVertex
 10
114.1546169419475
 20
-132.260316264678
 30
0.0
  0
VERTEX
  5
DF
330
DB
100
AcDbEntity
  8
_U+30EC_U+30A4_U+30E4_U+30FC 1
370
     0
100
AcDbVertex
100
AcDb2dVertex
 10
114.4061089123707
 20
-132.260316264678
 30
0.0
  0
VERTEX
  5
E0
330
DB
100
AcDbEntity
  8
_U+30EC_U+30A4_U+30E4_U+30FC 1
370
     0
100
AcDbVertex
100
AcDb2dVertex
 10
114.4061089123707
 20
-132.529378222076
 30
0.0
  0
SEQEND
  5
E1
330
DB
100
AcDbEntity
  8
_U+30EC_U+30A4_U+30E4_U+30FC 1
370
     0
  0
HATCH
  5
E2
330
D4
100
AcDbEntity
  8
_U+30EC_U+30A4_U+30E4_U+30FC 1
 62
     7
420
 16777215
100
AcDbHatch
 10
0.0
 20
0.0
 30
0.0
210
0.0
220
0.0
230
1.0
  2
SOLID
 70
     1
 71
     0
 91
        1
 92
        1
 93
        4
 72
     1
 10
114.4061089123707
 20
-132.529378222076
 11
114.1546169419475
 21
-132.529378222076
 72
     1
 10
114.1546169419475
 20
-132.529378222076
 11
114.1546169419475
 21
-132.260316264678
 72
     1
 10
114.1546169419475
 20
-132.260316264678
 11
114.4061089123707
 21
-132.260316264678
 72
     1
 10
114.4061089123707
 20
-132.260316264678
 11
114.4061089123707
 21
-132.529378222076
 97
        0
 75
     2
 76
     1
 98
        0
  0
SPLINE
  5
E3
330
D4
100
AcDbEntity
  8
_U+30EC_U+30A4_U+30E4_U+30FC 1
370
     0
100
AcDbSpline
210
0.0
220
0.0
230
1.0
 70
    11
 71
     3
 72
    53
 73
    49
 74
     0
 42
0.0000000001
 43
0.0000000001
 12
1.0
 22
0.0
 32
0.0
 13
1.0
 23
0.0
 33
0.0
 40
0.0
 40
0.0
 40
0.0
 40
0.0
 40
1.0
 40
1.0
 40
1.0
 40
2.0
 40
2.0
 40
2.0
 40
3.0
 40
3.0
 40
3.0
 40
4.0
 40
4.0
 40
4.0
 40
5.0
 40
5.0
 40
5.0
 40
6.0
 40
6.0
 40
6.0
 40
7.0
 40
7.0
 40
7.0
 40
8.0
 40
8.0
 40
8.0
 40
9.0
 40
9.0
 40
9.0
 40
10.0
 40
10.0
 40
10.0
 40
11.0
 40
11.0
 40
11.0
 40
12.0
 40
12.0
 40
12.0
 40
13.0
 40
13.0
 40
13.0
 40
14.0
 40
14.0
 40
14.0
 40
15.0
 40
15.0
 40
15.0
 40
16.0
 40
16.0
 40
16.0
 40
16.0
 10
114.4570963255524
 20
-131.4934380096614
 30
0.0
 10
114.4570963255524
 20
-131.5771538299529
 30
0.0
 10
114.4402153576747
 20
-131.6856743377383
 30
0.0
 10
114.3764810911975
 20
-131.7941948455237
 30
0.0
 10
114.2665825452181
 20
-131.9795409826301
 30
0.0
 10
114.1353244072301
 20
-132.0022786128328
 30
0.0
 10
114.0278374280903
 20
-132.0226046761958
 30
0.0
 10
114.0278374280903
 20
-132.0226046761958
 30
0.0
 10
114.0278374280903
 20
-131.785237597262
 30
0.0
 10
114.0278374280903
 20
-131.785237597262
 30
0.0
 10
114.2262749280407
 20
-131.7263264644643
 30
0.0
 10
114.2559027492138
 20
-131.5909342118939
 30
0.0
 10
114.2559027492138
 20
-131.4910264428217
 30
0.0
 10
114.2559027492138
 20
-131.3421983178589
 30
0.0
 10
114.1566839992386
 20
-131.1792453014066
 30
0.0
 10
113.9237955444357
 20
-131.1792453014066
 30
0.0
 10
113.6681694594302
 20
-131.1792453014066
 30
0.0
 10
113.5982340210796
 20
-131.3714816294835
 30
0.0
 10
113.5982340210796
 20
-131.5003282006319
 30
0.0
 10
113.5982340210796
 20
-131.5344346459358
 30
0.0
 10
113.5982340210796
 20
-131.6856743377383
 30
0.0
 10
113.7274251017765
 20
-131.7804144635827
 30
0.0
 10
113.7274251017765
 20
-131.7804144635827
 30
0.0
 10
113.7081325670591
 20
-131.9685166770773
 30
0.0
 10
113.7081325670591
 20
-131.9685166770773
 30
0.0
 10
113.7081325670591
 20
-131.9685166770773
 30
0.0
 10
112.8620171158817
 20
-131.8393255963805
 30
0.0
 10
112.8620171158817
 20
-131.8393255963805
 30
0.0
 10
112.8620171158817
 20
-131.8393255963805
 30
0.0
 10
112.8620171158817
 20
-131.0073350366926
 30
0.0
 10
112.8620171158817
 20
-131.0073350366926
 30
0.0
 10
112.8620171158817
 20
-131.0073350366926
 30
0.0
 10
113.0566650107983
 20
-131.0073350366926
 30
0.0
 10
113.0566650107983
 20
-131.0073350366926
 30
0.0
 10
113.0566650107983
 20
-131.0073350366926
 30
0.0
 10
113.0566650107983
 20
-131.6653482743753
 30
0.0
 10
113.0566650107983
 20
-131.6653482743753
 30
0.0
 10
113.0566650107983
 20
-131.6653482743753
 30
0.0
 10
113.479722736387
 20
-131.7356282222744
 30
0.0
 10
113.479722736387
 20
-131.7356282222744
 30
0.0
 10
113.445616291083
 20
-131.6698268985062
 30
0.0
 10
113.4056531834541
 20
-131.5816324540838
 30
0.0
 10
113.4056531834541
 20
-131.4551974497751
 30
0.0
 10
113.4056531834541
 20
-131.1837239255374
 30
0.0
 10
113.5916883396576
 20
-130.9305094073715
 30
0.0
 10
113.9048475192669
 20
-130.9305094073715
 30
0.0
 10
114.2221408134584
 20
-130.9305094073715
 30
0.0
 10
114.4570963255524
 20
-131.1702880531449
 30
0.0
 10
114.4570963255524
 20
-131.4934380096614
 30
0.0
  0
HATCH
  5
E4
330
D4
100
AcDbEntity
  8
_U+30EC_U+30A4_U+30E4_U+30FC 1
 62
     7
420
 16777215
100
AcDbHatch
 10
0.0
 20
0.0
 30
0.0
210
0.0
220
0.0
230
1.0
  2
SOLID
 70
     1
 71
     0
 91
        1
 92
        1
 93
        1
 72
     4
 94
        3
 73
     0
 74
     1
 95
       53
 96
       49
 40
0.0
 40
0.0
 40
0.0
 40
0.0
 40
1.0
 40
1.0
 40
1.0
 40
2.0
 40
2.0
 40
2.0
 40
3.0
 40
3.0
 40
3.0
 40
4.0
 40
4.0
 40
4.0
 40
5.0
 40
5.0
 40
5.0
 40
6.0
 40
6.0
 40
6.0
 40
7.0
 40
7.0
 40
7.0
 40
8.0
 40
8.0
 40
8.0
 40
9.0
 40
9.0
 40
9.0
 40
10.0
 40
10.0
 40
10.0
 40
11.0
 40
11.0
 40
11.0
 40
12.0
 40
12.0
 40
12.0
 40
13.0
 40
13.0
 40
13.0
 40
14.0
 40
14.0
 40
14.0
 40
15.0
 40
15.0
 40
15.0
 40
16.0
 40
16.0
 40
16.0
 40
16.0
 10
114.4570963255524
 20
-131.4934380096614
 10
114.4570963255524
 20
-131.5771538299529
 10
114.4402153576747
 20
-131.6856743377383
 10
114.3764810911975
 20
-131.7941948455237
 10
114.2665825452181
 20
-131.9795409826301
 10
114.1353244072301
 20
-132.0022786128328
 10
114.0278374280903
 20
-132.0226046761958
 10
114.0278374280903
 20
-132.0226046761958
 10
114.0278374280903
 20
-131.785237597262
 10
114.0278374280903
 20
-131.785237597262
 10
114.2262749280407
 20
-131.7263264644643
 10
114.2559027492138
 20
-131.5909342118939
 10
114.2559027492138
 20
-131.4910264428217
 10
114.2559027492138
 20
-131.3421983178589
 10
114.1566839992386
 20
-131.1792453014066
 10
113.9237955444357
 20
-131.1792453014066
 10
113.6681694594302
 20
-131.1792453014066
 10
113.5982340210796
 20
-131.3714816294835
 10
113.5982340210796
 20
-131.5003282006319
 10
113.5982340210796
 20
-131.5344346459358
 10
113.5982340210796
 20
-131.6856743377383
 10
113.7274251017765
 20
-131.7804144635827
 10
113.7274251017765
 20
-131.7804144635827
 10
113.7081325670591
 20
-131.9685166770773
 10
113.7081325670591
 20
-131.9685166770773
 10
113.7081325670591
 20
-131.9685166770773
 10
112.8620171158817
 20
-131.8393255963805
 10
112.8620171158817
 20
-131.8393255963805
 10
112.8620171158817
 20
-131.8393255963805
 10
112.8620171158817
 20
-131.0073350366926
 10
112.8620171158817
 20
-131.0073350366926
 10
112.8620171158817
 20
-131.0073350366926
 10
113.0566650107983
 20
-131.0073350366926
 10
113.0566650107983
 20
-131.0073350366926
 10
113.0566650107983
 20
-131.0073350366926
 10
113.0566650107983
 20
-131.6653482743753
 10
113.0566650107983
 20
-131.6653482743753
 10
113.0566650107983
 20
-131.6653482743753
 10
113.479722736387
 20
-131.7356282222744
 10
113.479722736387
 20
-131.7356282222744
 10
113.445616291083
 20
-131.6698268985062
 10
113.4056531834541
 20
-131.5816324540838
 10
113.4056531834541
 20
-131.4551974497751
 10
113.4056531834541
 20
-131.1837239255374
 10
113.5916883396576
 20
-130.9305094073715
 10
113.9048475192669
 20
-130.9305094073715
 10
114.2221408134584
 20
-130.9305094073715
 10
114.4570963255524
 20
-131.1702880531449
 10
114.4570963255524
 20
-131.4934380096614
 97
        0
 97
        0
 75
     2
 76
     1
 98
        0
  0
ENDBLK
  5
D7
330
D4
100
AcDbEntity
  8
0
100
AcDbBlockEnd
  0
BLOCK
  5
E7
330
E5
100
AcDbEntity
  8
0
100
AcDbBlockBegin
  2
block 8
 70
     0
 10
0.0
 20
0.0
 30
0.0
  3
block 8
  1

  0
SPLINE
  5
E9
330
E5
100
AcDbEntity
  8
_U+30EC_U+30A4_U+30E4_U+30FC 1
370
     0
100
AcDbSpline
210
0.0
220
0.0
230
1.0
 70
    11
 71
     3
 72
    26
 73
    22
 74
     0
 42
0.0000000001
 43
0.0000000001
 12
1.0
 22
0.0
 32
0.0
 13
1.0
 23
0.0
 33
0.0
 40
0.0
 40
0.0
 40
0.0
 40
0.0
 40
1.0
 40
1.0
 40
1.0
 40
2.0
 40
2.0
 40
2.0
 40
3.0
 40
3.0
 40
3.0
 40
4.0
 40
4.0
 40
4.0
 40
5.0
 40
5.0
 40
5.0
 40
6.0
 40
6.0
 40
6.0
 40
7.0
 40
7.0
 40
7.0
 40
7.0
 10
66.19096406765365
 20
-130.4726562173819
 30
0.0
 10
66.19096406765365
 20
-130.4726562173819
 30
0.0
 10
65.08681096463108
 20
-130.4726562173819
 30
0.0
 10
65.08681096463108
 20
-130.4726562173819
 30
0.0
 10
65.08681096463108
 20
-130.4726562173819
 30
0.0
 10
65.08681096463108
 20
-130.8250894855229
 30
0.0
 10
65.08681096463108
 20
-130.8250894855229
 30
0.0
 10
65.08681096463108
 20
-130.8250894855229
 30
0.0
 10
64.93867185876533
 20
-130.8250894855229
 30
0.0
 10
64.93867185876533
 20
-130.8250894855229
 30
0.0
 10
64.92385794817876
 20
-130.4702446505422
 30
0.0
 10
64.76090493172644
 20
-130.4206352755546
 30
0.0
 10
64.64652776161616
 20
-130.3889403970903
 30
0.0
 10
64.64652776161616
 20
-130.3889403970903
 30
0.0
 10
64.64652776161616
 20
-130.2328775716084
 30
0.0
 10
64.64652776161616
 20
-130.2328775716084
 30
0.0
 10
64.64652776161616
 20
-130.2328775716084
 30
0.0
 10
66.19096406765365
 20
-130.2328775716084
 30
0.0
 10
66.19096406765365
 20
-130.2328775716084
 30
0.0
 10
66.19096406765365
 20
-130.2328775716084
 30
0.0
 10
66.19096406765365
 20
-130.4726562173819
 30
0.0
 10
66.19096406765365
 20
-130.4726562173819
 30
0.0
  0
HATCH
  5
EA
330
E5
100
AcDbEntity
  8
_U+30EC_U+30A4_U+30E4_U+30FC 1
 62
     7
420
 16777215
100
AcDbHatch
 10
0.0
 20
0.0
 30
0.0
210
0.0
220
0.0
230
1.0
  2
SOLID
 70
     1
 71
     0
 91
        1
 92
        1
 93
        1
 72
     4
 94
        3
 73
     0
 74
     1
 95
       26
 96
       22
 40
0.0
 40
0.0
 40
0.0
 40
0.0
 40
1.0
 40
1.0
 40
1.0
 40
2.0
 40
2.0
 40
2.0
 40
3.0
 40
3.0
 40
3.0
 40
4.0
 40
4.0
 40
4.0
 40
5.0
 40
5.0
 40
5.0
 40
6.0
 40
6.0
 40
6.0
 40
7.0
 40
7.0
 40
7.0
 40
7.0
 10
66.19096406765365
 20
-130.4726562173819
 10
66.19096406765365
 20
-130.4726562173819
 10
65.08681096463108
 20
-130.4726562173819
 10
65.08681096463108
 20
-130.4726562173819
 10
65.08681096463108
 20
-130.4726562173819
 10
65.08681096463108
 20
-130.8250894855229
 10
65.08681096463108
 20
-130.8250894855229
 10
65.08681096463108
 20
-130.8250894855229
 10
64.93867185876533
 20
-130.8250894855229
 10
64.93867185876533
 20
-130.8250894855229
 10
64.92385794817876
 20
-130.4702446505422
 10
64.76090493172644
 20
-130.4206352755546
 10
64.64652776161616
 20
-130.3889403970903
 10
64.64652776161616
 20
-130.3889403970903
 10
64.64652776161616
 20
-130.2328775716084
 10
64.64652776161616
 20
-130.2328775716084
 10
64.64652776161616
 20
-130.2328775716084
 10
66.19096406765365
 20
-130.2328775716084
 10
66.19096406765365
 20
-130.2328775716084
 10
66.19096406765365
 20
-130.2328775716084
 10
66.19096406765365
 20
-130.4726562173819
 10
66.19096406765365
 20
-130.4726562173819
 97
        0
 97
        0
 75
     2
 76
     1
 98
        0
  0
SPLINE
  5
EB
330
E5
100
AcDbEntity
  8
_U+30EC_U+30A4_U+30E4_U+30FC 1
370
     0
100
AcDbSpline
210
0.0
220
0.0
230
1.0
 70
    11
 71
     3
 72
    29
 73
    25
 74
     0
 42
0.0000000001
 43
0.0000000001
 12
1.0
 22
0.0
 32
0.0
 13
1.0
 23
0.0
 33
0.0
 40
0.0
 40
0.0
 40
0.0
 40
0.0
 40
1.0
 40
1.0
 40
1.0
 40
2.0
 40
2.0
 40
2.0
 40
3.0
 40
3.0
 40
3.0
 40
4.0
 40
4.0
 40
4.0
 40
5.0
 40
5.0
 40
5.0
 40
6.0
 40
6.0
 40
6.0
 40
7.0
 40
7.0
 40
7.0
 40
8.0
 40
8.0
 40
8.0
 40
8.0
 10
66.24160697128683
 20
-129.1628309138898
 30
0.0
 10
66.24160697128683
 20
-129.4473958009715
 30
0.0
 10
66.10414766142536
 20
-129.7188693252092
 30
0.0
 10
65.75515948876955
 20
-129.7188693252092
 30
0.0
 10
65.49918889421548
 20
-129.7188693252092
 30
0.0
 10
65.40410425882258
 20
-129.5672851238582
 30
0.0
 10
65.34278155918514
 20
-129.454285991942
 30
0.0
 10
65.28352591683884
 20
-129.5876111872212
 30
0.0
 10
65.16914874672855
 20
-129.6692599502216
 30
0.0
 10
65.00826278756738
 20
-129.6692599502216
 30
0.0
 10
64.73334416784445
 20
-129.6692599502216
 30
0.0
 10
64.59795191527412
 20
-129.4566975587817
 30
0.0
 10
64.59795191527412
 20
-129.1628309138898
 30
0.0
 10
64.59795191527412
 20
-128.8596625111879
 30
0.0
 10
64.74195690655758
 20
-128.6564018775581
 30
0.0
 10
65.00826278756738
 20
-128.6564018775581
 30
0.0
 10
65.16914874672855
 20
-128.6564018775581
 30
0.0
 10
65.28352591683884
 20
-128.7397731883012
 30
0.0
 10
65.34278155918514
 20
-128.8734428931289
 30
0.0
 10
65.39342446281832
 20
-128.778358257736
 30
0.0
 10
65.48850909821121
 20
-128.6088595598617
 30
0.0
 10
65.75102537418725
 20
-128.6088595598617
 30
0.0
 10
66.12550725343391
 20
-128.6088595598617
 30
0.0
 10
66.24160697128683
 20
-128.9072048288843
 30
0.0
 10
66.24160697128683
 20
-129.1628309138898
 30
0.0
  0
SPLINE
  5
EC
330
E5
100
AcDbEntity
  8
_U+30EC_U+30A4_U+30E4_U+30FC 1
370
     0
100
AcDbSpline
210
0.0
220
0.0
230
1.0
 70
    11
 71
     3
 72
    17
 73
    13
 74
     0
 42
0.0000000001
 43
0.0000000001
 12
1.0
 22
0.0
 32
0.0
 13
1.0
 23
0.0
 33
0.0
 40
0.0
 40
0.0
 40
0.0
 40
0.0
 40
1.0
 40
1.0
 40
1.0
 40
2.0
 40
2.0
 40
2.0
 40
3.0
 40
3.0
 40
3.0
 40
4.0
 40
4.0
 40
4.0
 40
4.0
 10
64.7905327528996
 20
-129.1628309138898
 30
0.0
 10
64.7905327528996
 20
-129.3392198027346
 30
0.0
 10
64.88561738829249
 20
-129.4294813044482
 30
0.0
 10
65.0210096408628
 20
-129.4294813044482
 30
0.0
 10
65.1436550401377
 20
-129.4294813044482
 30
0.0
 10
65.26216632483029
 20
-129.3526556751271
 30
0.0
 10
65.26216632483029
 20
-129.1628309138898
 30
0.0
 10
65.26216632483029
 20
-128.9726616431041
 30
0.0
 10
65.1436550401377
 20
-128.895836013783
 30
0.0
 10
65.0210096408628
 20
-128.895836013783
 30
0.0
 10
64.88561738829249
 20
-128.895836013783
 30
0.0
 10
64.7905327528996
 20
-128.9885090823362
 30
0.0
 10
64.7905327528996
 20
-129.1628309138898
 30
0.0
  0
SPLINE
  5
ED
330
E5
100
AcDbEntity
  8
_U+30EC_U+30A4_U+30E4_U+30FC 1
370
     0
100
AcDbSpline
210
0.0
220
0.0
230
1.0
 70
    11
 71
     3
 72
    17
 73
    13
 74
     0
 42
0.0000000001
 43
0.0000000001
 12
1.0
 22
0.0
 32
0.0
 13
1.0
 23
0.0
 33
0.0
 40
0.0
 40
0.0
 40
0.0
 40
0.0
 40
1.0
 40
1.0
 40
1.0
 40
2.0
 40
2.0
 40
2.0
 40
3.0
 40
3.0
 40
3.0
 40
4.0
 40
4.0
 40
4.0
 40
4.0
 10
65.45061304787346
 20
-129.1628309138898
 30
0.0
 10
65.45061304787346
 20
-129.316482172532
 30
0.0
 10
65.53742945410175
 20
-129.4790906794358
 30
0.0
 10
65.74034557818297
 20
-129.4790906794358
 30
0.0
 10
65.94567326910386
 20
-129.4790906794358
 30
0.0
 10
66.04695907637021
 20
-129.3436984268655
 30
0.0
 10
66.04695907637021
 20
-129.1628309138898
 30
0.0
 10
66.04695907637021
 20
-128.9637043948424
 30
0.0
 10
65.92431367709531
 20
-128.8462266387954
 30
0.0
 10
65.74654675005642
 20
-128.8462266387954
 30
0.0
 10
65.52468260080633
 20
-128.8462266387954
 30
0.0
 10
65.45061304787346
 20
-129.0202039608005
 30
0.0
 10
65.45061304787346
 20
-129.1628309138898
 30
0.0
  0
HATCH
  5
EE
330
E5
100
AcDbEntity
  8
_U+30EC_U+30A4_U+30E4_U+30FC 1
 62
     7
420
 16777215
100
AcDbHatch
 10
0.0
 20
0.0
 30
0.0
210
0.0
220
0.0
230
1.0
  2
SOLID
 70
     1
 71
     0
 91
        3
 92
        1
 93
        1
 72
     4
 94
        3
 73
     0
 74
     1
 95
       29
 96
       25
 40
0.0
 40
0.0
 40
0.0
 40
0.0
 40
1.0
 40
1.0
 40
1.0
 40
2.0
 40
2.0
 40
2.0
 40
3.0
 40
3.0
 40
3.0
 40
4.0
 40
4.0
 40
4.0
 40
5.0
 40
5.0
 40
5.0
 40
6.0
 40
6.0
 40
6.0
 40
7.0
 40
7.0
 40
7.0
 40
8.0
 40
8.0
 40
8.0
 40
8.0
 10
66.24160697128683
 20
-129.1628309138898
 10
66.24160697128683
 20
-129.4473958009715
 10
66.10414766142536
 20
-129.7188693252092
 10
65.75515948876955
 20
-129.7188693252092
 10
65.49918889421548
 20
-129.7188693252092
 10
65.40410425882258
 20
-129.5672851238582
 10
65.34278155918514
 20
-129.454285991942
 10
65.28352591683884
 20
-129.5876111872212
 10
65.16914874672855
 20
-129.6692599502216
 10
65.00826278756738
 20
-129.6692599502216
 10
64.73334416784445
 20
-129.6692599502216
 10
64.59795191527412
 20
-129.4566975587817
 10
64.59795191527412
 20
-129.1628309138898
 10
64.59795191527412
 20
-128.8596625111879
 10
64.74195690655758
 20
-128.6564018775581
 10
65.00826278756738
 20
-128.6564018775581
 10
65.16914874672855
 20
-128.6564018775581
 10
65.28352591683884
 20
-128.7397731883012
 10
65.34278155918514
 20
-128.8734428931289
 10
65.39342446281832
 20
-128.778358257736
 10
65.48850909821121
 20
-128.6088595598617
 10
65.75102537418725
 20
-128.6088595598617
 10
66.12550725343391
 20
-128.6088595598617
 10
66.24160697128683
 20
-128.9072048288843
 10
66.24160697128683
 20
-129.1628309138898
 97
        0
 97
        0
 92
        1
 93
        1
 72
     4
 94
        3
 73
     0
 74
     1
 95
       17
 96
       13
 40
0.0
 40
0.0
 40
0.0
 40
0.0
 40
1.0
 40
1.0
 40
1.0
 40
2.0
 40
2.0
 40
2.0
 40
3.0
 40
3.0
 40
3.0
 40
4.0
 40
4.0
 40
4.0
 40
4.0
 10
64.7905327528996
 20
-129.1628309138898
 10
64.7905327528996
 20
-129.3392198027346
 10
64.88561738829249
 20
-129.4294813044482
 10
65.0210096408628
 20
-129.4294813044482
 10
65.1436550401377
 20
-129.4294813044482
 10
65.26216632483029
 20
-129.3526556751271
 10
65.26216632483029
 20
-129.1628309138898
 10
65.26216632483029
 20
-128.9726616431041
 10
65.1436550401377
 20
-128.895836013783
 10
65.0210096408628
 20
-128.895836013783
 10
64.88561738829249
 20
-128.895836013783
 10
64.7905327528996
 20
-128.9885090823362
 10
64.7905327528996
 20
-129.1628309138898
 97
        0
 97
        0
 92
        1
 93
        1
 72
     4
 94
        3
 73
     0
 74
     1
 95
       17
 96
       13
 40
0.0
 40
0.0
 40
0.0
 40
0.0
 40
1.0
 40
1.0
 40
1.0
 40
2.0
 40
2.0
 40
2.0
 40
3.0
 40
3.0
 40
3.0
 40
4.0
 40
4.0
 40
4.0
 40
4.0
 10
65.45061304787346
 20
-129.1628309138898
 10
65.45061304787346
 20
-129.316482172532
 10
65.53742945410175
 20
-129.4790906794358
 10
65.74034557818297
 20
-129.4790906794358
 10
65.94567326910386
 20
-129.4790906794358
 10
66.04695907637021
 20
-129.3436984268655
 10
66.04695907637021
 20
-129.1628309138898
 10
66.04695907637021
 20
-128.9637043948424
 10
65.92431367709531
 20
-128.8462266387954
 10
65.74654675005642
 20
-128.8462266387954
 10
65.52468260080633
 20
-128.8462266387954
 10
65.45061304787346
 20
-129.0202039608005
 10
65.45061304787346
 20
-129.1628309138898
 97
        0
 97
        0
 75
     2
 76
     1
 98
        0
  0
ENDBLK
  5
E8
330
E5
100
AcDbEntity
  8
0
100
AcDbBlockEnd
  0
ENDSEC
  0
SECTION
  2
ENTITIES
  0
SPLINE
  5
41
330
1F
100
AcDbEntity
  8
_U+30EC_U+30A4_U+30E4_U+30FC 1
 62
   179
420
  2234388
370
     9
100
AcDbSpline
210
0.0
220
0.0
230
1.0
 70
    11
 71
     3
 72
    17
 73
    13
 74
     0
 42
0.0000000001
 43
0.0000000001
 12
1.0
 22
0.0
 32
0.0
 13
1.0
 23
0.0
 33
0.0
 40
0.0
 40
0.0
 40
0.0
 40
0.0
 40
1.0
 40
1.0
 40
1.0
 40
2.0
 40
2.0
 40
2.0
 40
3.0
 40
3.0
 40
3.0
 40
4.0
 40
4.0
 40
4.0
 40
4.0
 10
115.1178770630983
 20
-135.6885285771889
 30
0.0
 10
115.1729809505813
 20
-135.6885285771889
 30
0.0
 10
115.2177837272161
 20
-135.7333313549556
 30
0.0
 10
115.2177837272161
 20
-135.7884352438305
 30
0.0
 10
115.2177837272161
 20
-135.8435744104836
 30
0.0
 10
115.1729809505813
 20
-135.8883419104721
 30
0.0
 10
115.1178770630983
 20
-135.8883419104721
 30
0.0
 10
115.0627378978383
 20
-135.8883419104721
 30
0.0
 10
115.0179703989805
 20
-135.8435744104836
 30
0.0
 10
115.0179703989805
 20
-135.7884352438305
 30
0.0
 10
115.0179703989805
 20
-135.7333313549556
 30
0.0
 10
115.0627378978383
 20
-135.6885285771889
 30
0.0
 10
115.1178770630983
 20
-135.6885285771889
 30
0.0
  0
SPLINE
  5
42
330
1F
100
AcDbEntity
  8
_U+30EC_U+30A4_U+30E4_U+30FC 1
 62
   179
420
  2234388
370
     9
100
AcDbSpline
210
0.0
220
0.0
230
1.0
 70
    11
 71
     3
 72
    17
 73
    13
 74
     0
 42
0.0000000001
 43
0.0000000001
 12
1.0
 22
0.0
 32
0.0
 13
1.0
 23
0.0
 33
0.0
 40
0.0
 40
0.0
 40
0.0
 40
0.0
 40
1.0
 40
1.0
 40
1.0
 40
2.0
 40
2.0
 40
2.0
 40
3.0
 40
3.0
 40
3.0
 40
4.0
 40
4.0
 40
4.0
 40
4.0
 10
115.1178770630983
 20
-138.6885155208832
 30
0.0
 10
115.1729809505813
 20
-138.6885155208832
 30
0.0
 10
115.2177837272161
 20
-138.7333182986499
 30
0.0
 10
115.2177837272161
 20
-138.7884221875249
 30
0.0
 10
115.2177837272161
 20
-138.843561354178
 30
0.0
 10
115.1729809505813
 20
-138.8883288541665
 30
0.0
 10
115.1178770630983
 20
-138.8883288541665
 30
0.0
 10
115.0627378978383
 20
-138.8883288541665
 30
0.0
 10
115.0179703989805
 20
-138.843561354178
 30
0.0
 10
115.0179703989805
 20
-138.7884221875249
 30
0.0
 10
115.0179703989805
 20
-138.7333182986499
 30
0.0
 10
115.0627378978383
 20
-138.6885155208832
 30
0.0
 10
115.1178770630983
 20
-138.6885155208832
 30
0.0
  0
SPLINE
  5
43
330
1F
100
AcDbEntity
  8
_U+30EC_U+30A4_U+30E4_U+30FC 1
 62
   179
420
  2234388
370
     9
100
AcDbSpline
210
0.0
220
0.0
230
1.0
 70
    11
 71
     3
 72
    17
 73
    13
 74
     0
 42
0.0000000001
 43
0.0000000001
 12
1.0
 22
0.0
 32
0.0
 13
1.0
 23
0.0
 33
0.0
 40
0.0
 40
0.0
 40
0.0
 40
0.0
 40
1.0
 40
1.0
 40
1.0
 40
2.0
 40
2.0
 40
2.0
 40
3.0
 40
3.0
 40
3.0
 40
4.0
 40
4.0
 40
4.0
 40
4.0
 10
115.1178770630983
 20
-129.1883158010365
 30
0.0
 10
115.1729809505813
 20
-129.1883158010365
 30
0.0
 10
115.2177837272161
 20
-129.2331185788026
 30
0.0
 10
115.2177837272161
 20
-129.2882224676781
 30
0.0
 10
115.2177837272161
 20
-129.3433616343306
 30
0.0
 10
115.1729809505813
 20
-129.3881291343198
 30
0.0
 10
115.1178770630983
 20
-129.3881291343198
 30
0.0
 10
115.0627378978383
 20
-129.3881291343198
 30
0.0
 10
115.0179703989805
 20
-129.3433616343306
 30
0.0
 10
115.0179703989805
 20
-129.2882224676781
 30
0.0
 10
115.0179703989805
 20
-129.2331185788026
 30
0.0
 10
115.0627378978383
 20
-129.1883158010365
 30
0.0
 10
115.1178770630983
 20
-129.1883158010365
 30
0.0
  0
SPLINE
  5
44
330
1F
100
AcDbEntity
  8
_U+30EC_U+30A4_U+30E4_U+30FC 1
 62
   179
420
  2234388
370
     9
100
AcDbSpline
210
0.0
220
0.0
230
1.0
 70
    11
 71
     3
 72
    17
 73
    13
 74
     0
 42
0.0000000001
 43
0.0000000001
 12
1.0
 22
0.0
 32
0.0
 13
1.0
 23
0.0
 33
0.0
 40
0.0
 40
0.0
 40
0.0
 40
0.0
 40
1.0
 40
1.0
 40
1.0
 40
2.0
 40
2.0
 40
2.0
 40
3.0
 40
3.0
 40
3.0
 40
4.0
 40
4.0
 40
4.0
 40
4.0
 10
115.1178770630983
 20
-128.1876969123977
 30
0.0
 10
115.1729809505813
 20
-128.1876969123977
 30
0.0
 10
115.2177837272161
 20
-128.2324996901641
 30
0.0
 10
115.2177837272161
 20
-128.2883091345945
 30
0.0
 10
115.2177837272161
 20
-128.3434130234698
 30
0.0
 10
115.1729809505813
 20
-128.3882158012362
 30
0.0
 10
115.1178770630983
 20
-128.3882158012362
 30
0.0
 10
115.0627378978383
 20
-128.3882158012362
 30
0.0
 10
115.0179703989805
 20
-128.3434130234698
 30
0.0
 10
115.0179703989805
 20
-128.2883091345945
 30
0.0
 10
115.0179703989805
 20
-128.2324996901641
 30
0.0
 10
115.0627378978383
 20
-128.1876969123977
 30
0.0
 10
115.1178770630983
 20
-128.1876969123977
 30
0.0
  0
SPLINE
  5
45
330
1F
100
AcDbEntity
  8
_U+30EC_U+30A4_U+30E4_U+30FC 1
 62
   179
420
  2234388
370
     9
100
AcDbSpline
210
0.0
220
0.0
230
1.0
 70
    11
 71
     3
 72
    17
 73
    13
 74
     0
 42
0.0000000001
 43
0.0000000001
 12
1.0
 22
0.0
 32
0.0
 13
1.0
 23
0.0
 33
0.0
 40
0.0
 40
0.0
 40
0.0
 40
0.0
 40
1.0
 40
1.0
 40
1.0
 40
2.0
 40
2.0
 40
2.0
 40
3.0
 40
3.0
 40
3.0
 40
4.0
 40
4.0
 40
4.0
 40
4.0
 10
111.1177652207052
 20
-116.6879527486059
 30
0.0
 10
111.173221885957
 20
-116.6879527486059
 30
0.0
 10
111.2180246625918
 20
-116.7327555263723
 30
0.0
 10
111.2180246625918
 20
-116.7878594152475
 30
0.0
 10
111.2180246625918
 20
-116.8429985819003
 30
0.0
 10
111.173221885957
 20
-116.8877660818892
 30
0.0
 10
111.1177652207052
 20
-116.8877660818892
 30
0.0
 10
111.0626260554452
 20
-116.8877660818892
 30
0.0
 10
111.0178585565874
 20
-116.8429985819003
 30
0.0
 10
111.0178585565874
 20
-116.7878594152475
 30
0.0
 10
111.0178585565874
 20
-116.7327555263723
 30
0.0
 10
111.0626260554452
 20
-116.6879527486059
 30
0.0
 10
111.1177652207052
 20
-116.6879527486059
 30
0.0
  0
SPLINE
  5
46
330
1F
100
AcDbEntity
  8
_U+30EC_U+30A4_U+30E4_U+30FC 1
 62
   179
420
  2234388
370
     9
100
AcDbSpline
210
0.0
220
0.0
230
1.0
 70
    11
 71
     3
 72
    17
 73
    13
 74
     0
 42
0.0000000001
 43
0.0000000001
 12
1.0
 22
0.0
 32
0.0
 13
1.0
 23
0.0
 33
0.0
 40
0.0
 40
0.0
 40
0.0
 40
0.0
 40
1.0
 40
1.0
 40
1.0
 40
2.0
 40
2.0
 40
2.0
 40
3.0
 40
3.0
 40
3.0
 40
4.0
 40
4.0
 40
4.0
 40
4.0
 10
71.11795207451877
 20
-116.6879527486059
 30
0.0
 10
71.17309123977873
 20
-116.6879527486059
 30
0.0
 10
71.21785873863661
 20
-116.7327555263723
 30
0.0
 10
71.21785873863661
 20
-116.7878594152475
 30
0.0
 10
71.21785873863661
 20
-116.8429985819003
 30
0.0
 10
71.17309123977873
 20
-116.8877660818892
 30
0.0
 10
71.11795207451877
 20
-116.8877660818892
 30
0.0
 10
71.06284998223433
 20
-116.8877660818892
 30
0.0
 10
71.0180472044676
 20
-116.8429985819003
 30
0.0
 10
71.0180472044676
 20
-116.7878594152475
 30
0.0
 10
71.0180472044676
 20
-116.7327555263723
 30
0.0
 10
71.06284998223433
 20
-116.6879527486059
 30
0.0
 10
71.11795207451877
 20
-116.6879527486059
 30
0.0
  0
SPLINE
  5
47
330
1F
100
AcDbEntity
  8
_U+30EC_U+30A4_U+30E4_U+30FC 1
 62
   179
420
  2234388
370
     9
100
AcDbSpline
210
0.0
220
0.0
230
1.0
 70
    11
 71
     3
 72
    17
 73
    13
 74
     0
 42
0.0000000001
 43
0.0000000001
 12
1.0
 22
0.0
 32
0.0
 13
1.0
 23
0.0
 33
0.0
 40
0.0
 40
0.0
 40
0.0
 40
0.0
 40
1.0
 40
1.0
 40
1.0
 40
2.0
 40
2.0
 40
2.0
 40
3.0
 40
3.0
 40
3.0
 40
4.0
 40
4.0
 40
4.0
 40
4.0
 10
67.11752273213378
 20
-120.688417469828
 30
0.0
 10
67.17333217515441
 20
-120.688417469828
 30
0.0
 10
67.21813495178918
 20
-120.7331849698168
 30
0.0
 10
67.21813495178918
 20
-120.7883241364696
 30
0.0
 10
67.21813495178918
 20
-120.8434280253448
 30
0.0
 10
67.17333217515441
 20
-120.8882308031112
 30
0.0
 10
67.11752273213378
 20
-120.8882308031112
 30
0.0
 10
67.06238356687383
 20
-120.8882308031112
 30
0.0
 10
67.01761606801595
 20
-120.8434280253448
 30
0.0
 10
67.01761606801595
 20
-120.7883241364696
 30
0.0
 10
67.01761606801595
 20
-120.7331849698168
 30
0.0
 10
67.06238356687383
 20
-120.688417469828
 30
0.0
 10
67.11752273213378
 20
-120.688417469828
 30
0.0
  0
SPLINE
  5
48
330
1F
100
AcDbEntity
  8
_U+30EC_U+30A4_U+30E4_U+30FC 1
 62
   179
420
  2234388
370
     9
100
AcDbSpline
210
0.0
220
0.0
230
1.0
 70
    11
 71
     3
 72
    17
 73
    13
 74
     0
 42
0.0000000001
 43
0.0000000001
 12
1.0
 22
0.0
 32
0.0
 13
1.0
 23
0.0
 33
0.0
 40
0.0
 40
0.0
 40
0.0
 40
0.0
 40
1.0
 40
1.0
 40
1.0
 40
2.0
 40
2.0
 40
2.0
 40
3.0
 40
3.0
 40
3.0
 40
4.0
 40
4.0
 40
4.0
 40
4.0
 10
67.11752273213378
 20
-138.6885155208832
 30
0.0
 10
67.17333217515441
 20
-138.6885155208832
 30
0.0
 10
67.21813495178918
 20
-138.7333182986499
 30
0.0
 10
67.21813495178918
 20
-138.7884221875249
 30
0.0
 10
67.21813495178918
 20
-138.843561354178
 30
0.0
 10
67.17333217515441
 20
-138.8883288541665
 30
0.0
 10
67.11752273213378
 20
-138.8883288541665
 30
0.0
 10
67.06238356687383
 20
-138.8883288541665
 30
0.0
 10
67.01761606801595
 20
-138.843561354178
 30
0.0
 10
67.01761606801595
 20
-138.7884221875249
 30
0.0
 10
67.01761606801595
 20
-138.7333182986499
 30
0.0
 10
67.06238356687383
 20
-138.6885155208832
 30
0.0
 10
67.11752273213378
 20
-138.6885155208832
 30
0.0
  0
SPLINE
  5
49
330
1F
100
AcDbEntity
  8
_U+30EC_U+30A4_U+30E4_U+30FC 1
 62
   179
420
  2234388
370
     9
100
AcDbSpline
210
0.0
220
0.0
230
1.0
 70
    11
 71
     3
 72
    17
 73
    13
 74
     0
 42
0.0000000001
 43
0.0000000001
 12
1.0
 22
0.0
 32
0.0
 13
1.0
 23
0.0
 33
0.0
 40
0.0
 40
0.0
 40
0.0
 40
0.0
 40
1.0
 40
1.0
 40
1.0
 40
2.0
 40
2.0
 40
2.0
 40
3.0
 40
3.0
 40
3.0
 40
4.0
 40
4.0
 40
4.0
 40
4.0
 10
71.19305846149155
 20
-114.1699308047909
 30
0.0
 10
71.24886790451217
 20
-114.1699308047909
 30
0.0
 10
71.29367068114693
 20
-114.2143808047798
 30
0.0
 10
71.29367068114693
 20
-114.2698727492103
 30
0.0
 10
71.29367068114693
 20
-114.325329415863
 30
0.0
 10
71.24886790451217
 20
-114.3700969158519
 30
0.0
 10
71.19305846149155
 20
-114.3700969158519
 30
0.0
 10
71.13795457400848
 20
-114.3700969158519
 30
0.0
 10
71.09315179737371
 20
-114.325329415863
 30
0.0
 10
71.09315179737371
 20
-114.2698727492103
 30
0.0
 10
71.09315179737371
 20
-114.2143808047798
 30
0.0
 10
71.13795457400848
 20
-114.1699308047909
 30
0.0
 10
71.19305846149155
 20
-114.1699308047909
 30
0.0
  0
SPLINE
  5
4A
330
1F
100
AcDbEntity
  8
_U+30EC_U+30A4_U+30E4_U+30FC 1
 62
   179
420
  2234388
370
     9
100
AcDbSpline
210
0.0
220
0.0
230
1.0
 70
    11
 71
     3
 72
    17
 73
    13
 74
     0
 42
0.0000000001
 43
0.0000000001
 12
1.0
 22
0.0
 32
0.0
 13
1.0
 23
0.0
 33
0.0
 40
0.0
 40
0.0
 40
0.0
 40
0.0
 40
1.0
 40
1.0
 40
1.0
 40
2.0
 40
2.0
 40
2.0
 40
3.0
 40
3.0
 40
3.0
 40
4.0
 40
4.0
 40
4.0
 40
4.0
 10
74.19166949610171
 20
-114.1699308047909
 30
0.0
 10
74.24747893912233
 20
-114.1699308047909
 30
0.0
 10
74.2922817157571
 20
-114.2147335825576
 30
0.0
 10
74.2922817157571
 20
-114.2698727492103
 30
0.0
 10
74.2922817157571
 20
-114.325329415863
 30
0.0
 10
74.24747893912233
 20
-114.3700969158519
 30
0.0
 10
74.19166949610171
 20
-114.3700969158519
 30
0.0
 10
74.13656560861864
 20
-114.3700969158519
 30
0.0
 10
74.09176283198387
 20
-114.325329415863
 30
0.0
 10
74.09176283198387
 20
-114.2698727492103
 30
0.0
 10
74.09176283198387
 20
-114.2147335825576
 30
0.0
 10
74.13656560861864
 20
-114.1699308047909
 30
0.0
 10
74.19166949610171
 20
-114.1699308047909
 30
0.0
  0
SPLINE
  5
4B
330
1F
100
AcDbEntity
  8
_U+30EC_U+30A4_U+30E4_U+30FC 1
 62
   179
420
  2234388
370
     9
100
AcDbSpline
210
0.0
220
0.0
230
1.0
 70
    11
 71
     3
 72
    17
 73
    13
 74
     0
 42
0.0000000001
 43
0.0000000001
 12
1.0
 22
0.0
 32
0.0
 13
1.0
 23
0.0
 33
0.0
 40
0.0
 40
0.0
 40
0.0
 40
0.0
 40
1.0
 40
1.0
 40
1.0
 40
2.0
 40
2.0
 40
2.0
 40
3.0
 40
3.0
 40
3.0
 40
4.0
 40
4.0
 40
4.0
 40
4.0
 10
71.11795207451877
 20
-142.6882746865501
 30
0.0
 10
71.17309123977873
 20
-142.6882746865501
 30
0.0
 10
71.21785873863661
 20
-142.7330774643168
 30
0.0
 10
71.21785873863661
 20
-142.7881813531917
 30
0.0
 10
71.21785873863661
 20
-142.8433205198448
 30
0.0
 10
71.17309123977873
 20
-142.8880880198334
 30
0.0
 10
71.11795207451877
 20
-142.8880880198334
 30
0.0
 10
71.06284998223433
 20
-142.8880880198334
 30
0.0
 10
71.0180472044676
 20
-142.8433205198448
 30
0.0
 10
71.0180472044676
 20
-142.7881813531917
 30
0.0
 10
71.0180472044676
 20
-142.7330774643168
 30
0.0
 10
71.06284998223433
 20
-142.6882746865501
 30
0.0
 10
71.11795207451877
 20
-142.6882746865501
 30
0.0
  0
SPLINE
  5
4C
330
1F
100
AcDbEntity
  8
_U+30EC_U+30A4_U+30E4_U+30FC 1
 62
   179
420
  2234388
370
     9
100
AcDbSpline
210
0.0
220
0.0
230
1.0
 70
    11
 71
     3
 72
    17
 73
    13
 74
     0
 42
0.0000000001
 43
0.0000000001
 12
1.0
 22
0.0
 32
0.0
 13
1.0
 23
0.0
 33
0.0
 40
0.0
 40
0.0
 40
0.0
 40
0.0
 40
1.0
 40
1.0
 40
1.0
 40
2.0
 40
2.0
 40
2.0
 40
3.0
 40
3.0
 40
3.0
 40
4.0
 40
4.0
 40
4.0
 40
4.0
 10
81.11803765272867
 20
-142.6882746865501
 30
0.0
 10
81.17317681798862
 20
-142.6882746865501
 30
0.0
 10
81.21794431684651
 20
-142.7330774643168
 30
0.0
 10
81.21794431684651
 20
-142.7881813531917
 30
0.0
 10
81.21794431684651
 20
-142.8433205198448
 30
0.0
 10
81.17317681798862
 20
-142.8880880198334
 30
0.0
 10
81.11803765272867
 20
-142.8880880198334
 30
0.0
 10
81.06222820970804
 20
-142.8880880198334
 30
0.0
 10
81.01813098861084
 20
-142.8433205198448
 30
0.0
 10
81.01813098861084
 20
-142.7881813531917
 30
0.0
 10
81.01813098861084
 20
-142.7330774643168
 30
0.0
 10
81.06222820970804
 20
-142.6882746865501
 30
0.0
 10
81.11803765272867
 20
-142.6882746865501
 30
0.0
  0
POLYLINE
  5
4D
330
1F
100
AcDbEntity
  8
_U+30EC_U+30A4_U+30E4_U+30FC 1
 62
   179
420
  2234388
370
     9
100
AcDb2dPolyline
 66
     1
 10
0.0
 20
0.0
 30
0.0
  0
VERTEX
  5
4E
330
4D
100
AcDbEntity
  8
_U+30EC_U+30A4_U+30E4_U+30FC 1
 62
   179
420
  2234388
370
     9
100
AcDbVertex
100
AcDb2dVertex
 10
115.1178770630983
 20
-128.2883091345945
 30
0.0
  0
VERTEX
  5
4F
330
4D
100
AcDbEntity
  8
_U+30EC_U+30A4_U+30E4_U+30FC 1
 62
   179
420
  2234388
370
     9
100
AcDbVertex
100
AcDb2dVertex
 10
115.1178770630983
 20
-124.5179966355371
 30
0.0
  0
SEQEND
  5
50
330
4D
100
AcDbEntity
  8
_U+30EC_U+30A4_U+30E4_U+30FC 1
 62
   179
420
  2234388
370
     9
  0
POLYLINE
  5
51
330
1F
100
AcDbEntity
  8
_U+30EC_U+30A4_U+30E4_U+30FC 1
 62
   179
420
  2234388
370
     9
100
AcDb2dPolyline
 66
     1
 10
0.0
 20
0.0
 30
0.0
  0
VERTEX
  5
52
330
51
100
AcDbEntity
  8
_U+30EC_U+30A4_U+30E4_U+30FC 1
 62
   179
420
  2234388
370
     9
100
AcDbVertex
100
AcDb2dVertex
 10
115.1178770630983
 20
-128.2883091345945
 30
0.0
  0
VERTEX
  5
53
330
51
100
AcDbEntity
  8
_U+30EC_U+30A4_U+30E4_U+30FC 1
 62
   179
420
  2234388
370
     9
100
AcDbVertex
100
AcDb2dVertex
 10
115.1178770630983
 20
-129.2882224676781
 30
0.0
  0
SEQEND
  5
54
330
51
100
AcDbEntity
  8
_U+30EC_U+30A4_U+30E4_U+30FC 1
 62
   179
420
  2234388
370
     9
  0
POLYLINE
  5
55
330
1F
100
AcDbEntity
  8
_U+30EC_U+30A4_U+30E4_U+30FC 1
 62
   179
420
  2234388
370
     9
100
AcDb2dPolyline
 66
     1
 10
0.0
 20
0.0
 30
0.0
  0
VERTEX
  5
56
330
55
100
AcDbEntity
  8
_U+30EC_U+30A4_U+30E4_U+30FC 1
 62
   179
420
  2234388
370
     9
100
AcDbVertex
100
AcDb2dVertex
 10
113.6578357114581
 20
-128.2883091345945
 30
0.0
  0
VERTEX
  5
57
330
55
100
AcDbEntity
  8
_U+30EC_U+30A4_U+30E4_U+30FC 1
 62
   179
420
  2234388
370
     9
100
AcDbVertex
100
AcDb2dVertex
 10
116.1176139820373
 20
-128.2883091345945
 30
0.0
  0
SEQEND
  5
58
330
55
100
AcDbEntity
  8
_U+30EC_U+30A4_U+30E4_U+30FC 1
 62
   179
420
  2234388
370
     9
  0
POLYLINE
  5
59
330
1F
100
AcDbEntity
  8
_U+30EC_U+30A4_U+30E4_U+30FC 1
 62
   179
420
  2234388
370
     9
100
AcDb2dPolyline
 66
     1
 10
0.0
 20
0.0
 30
0.0
  0
VERTEX
  5
5A
330
59
100
AcDbEntity
  8
_U+30EC_U+30A4_U+30E4_U+30FC 1
 62
   179
420
  2234388
370
     9
100
AcDbVertex
100
AcDb2dVertex
 10
113.6578357114581
 20
-129.2882224676781
 30
0.0
  0
VERTEX
  5
5B
330
59
100
AcDbEntity
  8
_U+30EC_U+30A4_U+30E4_U+30FC 1
 62
   179
420
  2234388
370
     9
100
AcDbVertex
100
AcDb2dVertex
 10
116.1176139820373
 20
-129.2882224676781
 30
0.0
  0
SEQEND
  5
5C
330
59
100
AcDbEntity
  8
_U+30EC_U+30A4_U+30E4_U+30FC 1
 62
   179
420
  2234388
370
     9
  0
POLYLINE
  5
5D
330
1F
100
AcDbEntity
  8
_U+30EC_U+30A4_U+30E4_U+30FC 1
 62
   179
420
  2234388
370
     9
100
AcDb2dPolyline
 66
     1
 10
0.0
 20
0.0
 30
0.0
  0
VERTEX
  5
5E
330
5D
100
AcDbEntity
  8
_U+30EC_U+30A4_U+30E4_U+30FC 1
 62
   179
420
  2234388
370
     9
100
AcDbVertex
100
AcDb2dVertex
 10
115.1178770630983
 20
-138.7884221875249
 30
0.0
  0
VERTEX
  5
5F
330
5D
100
AcDbEntity
  8
_U+30EC_U+30A4_U+30E4_U+30FC 1
 62
   179
420
  2234388
370
     9
100
AcDbVertex
100
AcDb2dVertex
 10
115.1178770630983
 20
-135.7884352438305
 30
0.0
  0
SEQEND
  5
60
330
5D
100
AcDbEntity
  8
_U+30EC_U+30A4_U+30E4_U+30FC 1
 62
   179
420
  2234388
370
     9
  0
POLYLINE
  5
61
330
1F
100
AcDbEntity
  8
_U+30EC_U+30A4_U+30E4_U+30FC 1
 62
   179
420
  2234388
370
     9
100
AcDb2dPolyline
 66
     1
 10
0.0
 20
0.0
 30
0.0
  0
VERTEX
  5
62
330
61
100
AcDbEntity
  8
_U+30EC_U+30A4_U+30E4_U+30FC 1
 62
   179
420
  2234388
370
     9
100
AcDbVertex
100
AcDb2dVertex
 10
83.65775536571284
 20
-138.7884221875249
 30
0.0
  0
VERTEX
  5
63
330
61
100
AcDbEntity
  8
_U+30EC_U+30A4_U+30E4_U+30FC 1
 62
   179
420
  2234388
370
     9
100
AcDbVertex
100
AcDb2dVertex
 10
116.1176139820373
 20
-138.7884221875249
 30
0.0
  0
SEQEND
  5
64
330
61
100
AcDbEntity
  8
_U+30EC_U+30A4_U+30E4_U+30FC 1
 62
   179
420
  2234388
370
     9
  0
POLYLINE
  5
65
330
1F
100
AcDbEntity
  8
_U+30EC_U+30A4_U+30E4_U+30FC 1
 62
   179
420
  2234388
370
     9
100
AcDb2dPolyline
 66
     1
 10
0.0
 20
0.0
 30
0.0
  0
VERTEX
  5
66
330
65
100
AcDbEntity
  8
_U+30EC_U+30A4_U+30E4_U+30FC 1
 62
   179
420
  2234388
370
     9
100
AcDbVertex
100
AcDb2dVertex
 10
81.11803765272867
 20
-142.7881813531917
 30
0.0
  0
VERTEX
  5
67
330
65
100
AcDbEntity
  8
_U+30EC_U+30A4_U+30E4_U+30FC 1
 62
   179
420
  2234388
370
     9
100
AcDbVertex
100
AcDb2dVertex
 10
71.11795207451877
 20
-142.7881813531917
 30
0.0
  0
SEQEND
  5
68
330
65
100
AcDbEntity
  8
_U+30EC_U+30A4_U+30E4_U+30FC 1
 62
   179
420
  2234388
370
     9
  0
POLYLINE
  5
69
330
1F
100
AcDbEntity
  8
_U+30EC_U+30A4_U+30E4_U+30FC 1
 62
   179
420
  2234388
370
     9
100
AcDb2dPolyline
 66
     1
 10
0.0
 20
0.0
 30
0.0
  0
VERTEX
  5
6A
330
69
100
AcDbEntity
  8
_U+30EC_U+30A4_U+30E4_U+30FC 1
 62
   179
420
  2234388
370
     9
100
AcDbVertex
100
AcDb2dVertex
 10
81.11803765272867
 20
-141.328139964668
 30
0.0
  0
VERTEX
  5
6B
330
69
100
AcDbEntity
  8
_U+30EC_U+30A4_U+30E4_U+30FC 1
 62
   179
420
  2234388
370
     9
100
AcDbVertex
100
AcDb2dVertex
 10
81.11803765272867
 20
-143.7886238529416
 30
0.0
  0
SEQEND
  5
6C
330
69
100
AcDbEntity
  8
_U+30EC_U+30A4_U+30E4_U+30FC 1
 62
   179
420
  2234388
370
     9
  0
POLYLINE
  5
6D
330
1F
100
AcDbEntity
  8
_U+30EC_U+30A4_U+30E4_U+30FC 1
 62
   179
420
  2234388
370
     9
100
AcDb2dPolyline
 66
     1
 10
0.0
 20
0.0
 30
0.0
  0
VERTEX
  5
6E
330
6D
100
AcDbEntity
  8
_U+30EC_U+30A4_U+30E4_U+30FC 1
 62
   179
420
  2234388
370
     9
100
AcDbVertex
100
AcDb2dVertex
 10
71.11795207451877
 20
-141.328139964668
 30
0.0
  0
VERTEX
  5
6F
330
6D
100
AcDbEntity
  8
_U+30EC_U+30A4_U+30E4_U+30FC 1
 62
   179
420
  2234388
370
     9
100
AcDbVertex
100
AcDb2dVertex
 10
71.11795207451877
 20
-143.7886238529416
 30
0.0
  0
SEQEND
  5
70
330
6D
100
AcDbEntity
  8
_U+30EC_U+30A4_U+30E4_U+30FC 1
 62
   179
420
  2234388
370
     9
  0
POLYLINE
  5
71
330
1F
100
AcDbEntity
  8
_U+30EC_U+30A4_U+30E4_U+30FC 1
 62
   179
420
  2234388
370
     9
100
AcDb2dPolyline
 66
     1
 10
0.0
 20
0.0
 30
0.0
  0
VERTEX
  5
72
330
71
100
AcDbEntity
  8
_U+30EC_U+30A4_U+30E4_U+30FC 1
 62
   179
420
  2234388
370
     9
100
AcDbVertex
100
AcDb2dVertex
 10
71.11795207451877
 20
-116.7878594152475
 30
0.0
  0
VERTEX
  5
73
330
71
100
AcDbEntity
  8
_U+30EC_U+30A4_U+30E4_U+30FC 1
 62
   179
420
  2234388
370
     9
100
AcDbVertex
100
AcDb2dVertex
 10
111.1177652207052
 20
-116.7878594152475
 30
0.0
  0
SEQEND
  5
74
330
71
100
AcDbEntity
  8
_U+30EC_U+30A4_U+30E4_U+30FC 1
 62
   179
420
  2234388
370
     9
  0
POLYLINE
  5
75
330
1F
100
AcDbEntity
  8
_U+30EC_U+30A4_U+30E4_U+30FC 1
 62
   179
420
  2234388
370
     9
100
AcDb2dPolyline
 66
     1
 10
0.0
 20
0.0
 30
0.0
  0
VERTEX
  5
76
330
75
100
AcDbEntity
  8
_U+30EC_U+30A4_U+30E4_U+30FC 1
 62
   179
420
  2234388
370
     9
100
AcDbVertex
100
AcDb2dVertex
 10
71.11795207451877
 20
-118.2479008037712
 30
0.0
  0
VERTEX
  5
77
330
75
100
AcDbEntity
  8
_U+30EC_U+30A4_U+30E4_U+30FC 1
 62
   179
420
  2234388
370
     9
100
AcDbVertex
100
AcDb2dVertex
 10
71.11795207451877
 20
-115.7881224710531
 30
0.0
  0
SEQEND
  5
78
330
75
100
AcDbEntity
  8
_U+30EC_U+30A4_U+30E4_U+30FC 1
 62
   179
420
  2234388
370
     9
  0
POLYLINE
  5
79
330
1F
100
AcDbEntity
  8
_U+30EC_U+30A4_U+30E4_U+30FC 1
 62
   179
420
  2234388
370
     9
100
AcDb2dPolyline
 66
     1
 10
0.0
 20
0.0
 30
0.0
  0
VERTEX
  5
7A
330
79
100
AcDbEntity
  8
_U+30EC_U+30A4_U+30E4_U+30FC 1
 62
   179
420
  2234388
370
     9
100
AcDbVertex
100
AcDb2dVertex
 10
111.1177652207052
 20
-126.7483283016464
 30
0.0
  0
VERTEX
  5
7B
330
79
100
AcDbEntity
  8
_U+30EC_U+30A4_U+30E4_U+30FC 1
 62
   179
420
  2234388
370
     9
100
AcDbVertex
100
AcDb2dVertex
 10
111.1177652207052
 20
-115.7881224710531
 30
0.0
  0
SEQEND
  5
7C
330
79
100
AcDbEntity
  8
_U+30EC_U+30A4_U+30E4_U+30FC 1
 62
   179
420
  2234388
370
     9
  0
POLYLINE
  5
7D
330
1F
100
AcDbEntity
  8
_U+30EC_U+30A4_U+30E4_U+30FC 1
 62
   179
420
  2234388
370
     9
100
AcDb2dPolyline
 66
     1
 10
0.0
 20
0.0
 30
0.0
  0
VERTEX
  5
7E
330
7D
100
AcDbEntity
  8
_U+30EC_U+30A4_U+30E4_U+30FC 1
 62
   179
420
  2234388
370
     9
100
AcDbVertex
100
AcDb2dVertex
 10
115.1178770630983
 20
-135.7884352438305
 30
0.0
  0
VERTEX
  5
7F
330
7D
100
AcDbEntity
  8
_U+30EC_U+30A4_U+30E4_U+30FC 1
 62
   179
420
  2234388
370
     9
100
AcDbVertex
100
AcDb2dVertex
 10
115.1178770630983
 20
-129.2882224676781
 30
0.0
  0
SEQEND
  5
80
330
7D
100
AcDbEntity
  8
_U+30EC_U+30A4_U+30E4_U+30FC 1
 62
   179
420
  2234388
370
     9
  0
POLYLINE
  5
81
330
1F
100
AcDbEntity
  8
_U+30EC_U+30A4_U+30E4_U+30FC 1
 62
   179
420
  2234388
370
     9
100
AcDb2dPolyline
 66
     1
 10
0.0
 20
0.0
 30
0.0
  0
VERTEX
  5
82
330
81
100
AcDbEntity
  8
_U+30EC_U+30A4_U+30E4_U+30FC 1
 62
   179
420
  2234388
370
     9
100
AcDbVertex
100
AcDb2dVertex
 10
83.65775536571284
 20
-135.7884352438305
 30
0.0
  0
VERTEX
  5
83
330
81
100
AcDbEntity
  8
_U+30EC_U+30A4_U+30E4_U+30FC 1
 62
   179
420
  2234388
370
     9
100
AcDbVertex
100
AcDb2dVertex
 10
116.1176139820373
 20
-135.7884352438305
 30
0.0
  0
SEQEND
  5
84
330
81
100
AcDbEntity
  8
_U+30EC_U+30A4_U+30E4_U+30FC 1
 62
   179
420
  2234388
370
     9
  0
POLYLINE
  5
85
330
1F
100
AcDbEntity
  8
_U+30EC_U+30A4_U+30E4_U+30FC 1
 62
   179
420
  2234388
370
     9
100
AcDb2dPolyline
 66
     1
 10
0.0
 20
0.0
 30
0.0
  0
VERTEX
  5
86
330
85
100
AcDbEntity
  8
_U+30EC_U+30A4_U+30E4_U+30FC 1
 62
   179
420
  2234388
370
     9
100
AcDbVertex
100
AcDb2dVertex
 10
67.11752273213378
 20
-138.7884221875249
 30
0.0
  0
VERTEX
  5
87
330
85
100
AcDbEntity
  8
_U+30EC_U+30A4_U+30E4_U+30FC 1
 62
   179
420
  2234388
370
     9
100
AcDbVertex
100
AcDb2dVertex
 10
67.11752273213378
 20
-120.7883241364696
 30
0.0
  0
SEQEND
  5
88
330
85
100
AcDbEntity
  8
_U+30EC_U+30A4_U+30E4_U+30FC 1
 62
   179
420
  2234388
370
     9
  0
POLYLINE
  5
89
330
1F
100
AcDbEntity
  8
_U+30EC_U+30A4_U+30E4_U+30FC 1
 62
   179
420
  2234388
370
     9
100
AcDb2dPolyline
 66
     1
 10
0.0
 20
0.0
 30
0.0
  0
VERTEX
  5
8A
330
89
100
AcDbEntity
  8
_U+30EC_U+30A4_U+30E4_U+30FC 1
 62
   179
420
  2234388
370
     9
100
AcDbVertex
100
AcDb2dVertex
 10
68.57756408377392
 20
-138.7884221875249
 30
0.0
  0
VERTEX
  5
8B
330
89
100
AcDbEntity
  8
_U+30EC_U+30A4_U+30E4_U+30FC 1
 62
   179
420
  2234388
370
     9
100
AcDbVertex
100
AcDb2dVertex
 10
66.11775053541788
 20
-138.7884221875249
 30
0.0
  0
SEQEND
  5
8C
330
89
100
AcDbEntity
  8
_U+30EC_U+30A4_U+30E4_U+30FC 1
 62
   179
420
  2234388
370
     9
  0
POLYLINE
  5
8D
330
1F
100
AcDbEntity
  8
_U+30EC_U+30A4_U+30E4_U+30FC 1
 62
   179
420
  2234388
370
     9
100
AcDb2dPolyline
 66
     1
 10
0.0
 20
0.0
 30
0.0
  0
VERTEX
  5
8E
330
8D
100
AcDbEntity
  8
_U+30EC_U+30A4_U+30E4_U+30FC 1
 62
   179
420
  2234388
370
     9
100
AcDbVertex
100
AcDb2dVertex
 10
68.57756408377392
 20
-120.7883241364696
 30
0.0
  0
VERTEX
  5
8F
330
8D
100
AcDbEntity
  8
_U+30EC_U+30A4_U+30E4_U+30FC 1
 62
   179
420
  2234388
370
     9
100
AcDbVertex
100
AcDb2dVertex
 10
66.11775053541788
 20
-120.7883241364696
 30
0.0
  0
SEQEND
  5
90
330
8D
100
AcDbEntity
  8
_U+30EC_U+30A4_U+30E4_U+30FC 1
 62
   179
420
  2234388
370
     9
  0
POLYLINE
  5
91
330
1F
100
AcDbEntity
  8
_U+30EC_U+30A4_U+30E4_U+30FC 1
 62
   179
420
  2234388
370
     9
100
AcDb2dPolyline
 66
     1
 10
0.0
 20
0.0
 30
0.0
  0
VERTEX
  5
92
330
91
100
AcDbEntity
  8
_U+30EC_U+30A4_U+30E4_U+30FC 1
 62
   179
420
  2234388
370
     9
100
AcDbVertex
100
AcDb2dVertex
 10
74.19202227387049
 20
-114.9757458045894
 30
0.0
  0
VERTEX
  5
93
330
91
100
AcDbEntity
  8
_U+30EC_U+30A4_U+30E4_U+30FC 1
 62
   179
420
  2234388
370
     9
100
AcDbVertex
100
AcDb2dVertex
 10
74.19202227387049
 20
-113.5646346938311
 30
0.0
  0
SEQEND
  5
94
330
91
100
AcDbEntity
  8
_U+30EC_U+30A4_U+30E4_U+30FC 1
 62
   179
420
  2234388
370
     9
  0
POLYLINE
  5
95
330
1F
100
AcDbEntity
  8
_U+30EC_U+30A4_U+30E4_U+30FC 1
 62
   179
420
  2234388
370
     9
100
AcDb2dPolyline
 66
     1
 10
0.0
 20
0.0
 30
0.0
  0
VERTEX
  5
96
330
95
100
AcDbEntity
  8
_U+30EC_U+30A4_U+30E4_U+30FC 1
 62
   179
420
  2234388
370
     9
100
AcDbVertex
100
AcDb2dVertex
 10
71.19341123926031
 20
-114.9757458045894
 30
0.0
  0
VERTEX
  5
97
330
95
100
AcDbEntity
  8
_U+30EC_U+30A4_U+30E4_U+30FC 1
 62
   179
420
  2234388
370
     9
100
AcDbVertex
100
AcDb2dVertex
 10
71.19341123926031
 20
-113.5646346938311
 30
0.0
  0
SEQEND
  5
98
330
95
100
AcDbEntity
  8
_U+30EC_U+30A4_U+30E4_U+30FC 1
 62
   179
420
  2234388
370
     9
  0
POLYLINE
  5
99
330
1F
100
AcDbEntity
  8
_U+30EC_U+30A4_U+30E4_U+30FC 1
 62
   179
420
  2234388
370
     9
100
AcDb2dPolyline
 66
     1
 10
0.0
 20
0.0
 30
0.0
  0
VERTEX
  5
9A
330
99
100
AcDbEntity
  8
_U+30EC_U+30A4_U+30E4_U+30FC 1
 62
   179
420
  2234388
370
     9
100
AcDbVertex
100
AcDb2dVertex
 10
69.93180738255762
 20
-114.2701902492103
 30
0.0
  0
VERTEX
  5
9B
330
99
100
AcDbEntity
  8
_U+30EC_U+30A4_U+30E4_U+30FC 1
 62
   179
420
  2234388
370
     9
100
AcDbVertex
100
AcDb2dVertex
 10
75.30066169003119
 20
-114.2701902492103
 30
0.0
  0
SEQEND
  5
9C
330
99
100
AcDbEntity
  8
_U+30EC_U+30A4_U+30E4_U+30FC 1
 62
   179
420
  2234388
370
     9
  0
INSERT
  5
9E
330
1F
100
AcDbEntity
  8
_U+30EC_U+30A4_U+30E4_U+30FC 1
100
AcDbBlockReference
  2
block 2
 10
0.0
 20
0.0
 30
0.0
  0
INSERT
  5
A4
330
1F
100
AcDbEntity
  8
_U+30EC_U+30A4_U+30E4_U+30FC 1
100
AcDbBlockReference
  2
block 3
 10
0.0
 20
0.0
 30
0.0
  0
INSERT
  5
AA
330
1F
100
AcDbEntity
  8
_U+30EC_U+30A4_U+30E4_U+30FC 1
100
AcDbBlockReference
  2
block 4
 10
0.0
 20
0.0
 30
0.0
  0
INSERT
  5
B3
330
1F
100
AcDbEntity
  8
_U+30EC_U+30A4_U+30E4_U+30FC 1
100
AcDbBlockReference
  2
block 5
 10
0.0
 20
0.0
 30
0.0
  0
INSERT
  5
CF
330
1F
100
AcDbEntity
  8
_U+30EC_U+30A4_U+30E4_U+30FC 1
100
AcDbBlockReference
  2
block 6
 10
0.0
 20
0.0
 30
0.0
  0
INSERT
  5
D5
330
1F
100
AcDbEntity
  8
_U+30EC_U+30A4_U+30E4_U+30FC 1
100
AcDbBlockReference
  2
block 7
 10
0.0
 20
0.0
 30
0.0
  0
INSERT
  5
E6
330
1F
100
AcDbEntity
  8
_U+30EC_U+30A4_U+30E4_U+30FC 1
100
AcDbBlockReference
  2
block 8
 10
0.0
 20
0.0
 30
0.0
  0
POLYLINE
  5
EF
330
1F
100
AcDbEntity
  8
_U+30EC_U+30A4_U+30E4_U+30FC 1
 62
   179
420
  2234388
370
    25
100
AcDb2dPolyline
 66
     1
 10
0.0
 20
0.0
 30
0.0
  0
VERTEX
  5
F0
330
EF
100
AcDbEntity
  8
_U+30EC_U+30A4_U+30E4_U+30FC 1
 62
   179
420
  2234388
370
    25
100
AcDbVertex
100
AcDb2dVertex
 10
81.11563876390099
 20
-138.8325194097361
 30
0.0
  0
VERTEX
  5
F1
330
EF
100
AcDbEntity
  8
_U+30EC_U+30A4_U+30E4_U+30FC 1
 62
   179
420
  2234388
370
    25
100
AcDbVertex
100
AcDb2dVertex
 10
81.11563876390099
 20
-135.8339082993746
 30
0.0
  0
VERTEX
  5
F2
330
EF
100
AcDbEntity
  8
_U+30EC_U+30A4_U+30E4_U+30FC 1
 62
   179
420
  2234388
370
    25
100
AcDbVertex
100
AcDb2dVertex
 10
78.11702772929081
 20
-135.8339082993746
 30
0.0
  0
VERTEX
  5
F3
330
EF
100
AcDbEntity
  8
_U+30EC_U+30A4_U+30E4_U+30FC 1
 62
   179
420
  2234388
370
    25
100
AcDbVertex
100
AcDb2dVertex
 10
78.11702772929081
 20
-136.8040471880209
 30
0.0
  0
VERTEX
  5
F4
330
EF
100
AcDbEntity
  8
_U+30EC_U+30A4_U+30E4_U+30FC 1
 62
   179
420
  2234388
370
    25
100
AcDbVertex
100
AcDb2dVertex
 10
80.05730545756798
 20
-136.8040471880209
 30
0.0
  0
VERTEX
  5
F5
330
EF
100
AcDbEntity
  8
_U+30EC_U+30A4_U+30E4_U+30FC 1
 62
   179
420
  2234388
370
    25
100
AcDbVertex
100
AcDb2dVertex
 10
80.05730545756798
 20
-137.8182832988785
 30
0.0
  0
VERTEX
  5
F6
330
EF
100
AcDbEntity
  8
_U+30EC_U+30A4_U+30E4_U+30FC 1
 62
   179
420
  2234388
370
    25
100
AcDbVertex
100
AcDb2dVertex
 10
72.11980566007047
 20
-137.8182832988785
 30
0.0
  0
VERTEX
  5
F7
330
EF
100
AcDbEntity
  8
_U+30EC_U+30A4_U+30E4_U+30FC 1
 62
   179
420
  2234388
370
    25
100
AcDbVertex
100
AcDb2dVertex
 10
72.11980566007047
 20
-129.2634221899061
 30
0.0
  0
VERTEX
  5
F8
330
EF
100
AcDbEntity
  8
_U+30EC_U+30A4_U+30E4_U+30FC 1
 62
   179
420
  2234388
370
    25
100
AcDbVertex
100
AcDb2dVertex
 10
111.1015727211183
 20
-129.2634221899061
 30
0.0
  0
VERTEX
  5
F9
330
EF
100
AcDbEntity
  8
_U+30EC_U+30A4_U+30E4_U+30FC 1
 62
   179
420
  2234388
370
    25
100
AcDbVertex
100
AcDb2dVertex
 10
111.1015727211183
 20
-128.3372041345824
 30
0.0
  0
VERTEX
  5
FA
330
EF
100
AcDbEntity
  8
_U+30EC_U+30A4_U+30E4_U+30FC 1
 62
   179
420
  2234388
370
    25
100
AcDbVertex
100
AcDb2dVertex
 10
72.11980566007047
 20
-128.3372041345824
 30
0.0
  0
VERTEX
  5
FB
330
EF
100
AcDbEntity
  8
_U+30EC_U+30A4_U+30E4_U+30FC 1
 62
   179
420
  2234388
370
    25
100
AcDbVertex
100
AcDb2dVertex
 10
72.11980566007047
 20
-121.7667180251139
 30
0.0
  0
VERTEX
  5
FC
330
EF
100
AcDbEntity
  8
_U+30EC_U+30A4_U+30E4_U+30FC 1
 62
   179
420
  2234388
370
    25
100
AcDbVertex
100
AcDb2dVertex
 10
74.06008338834764
 20
-121.7667180251139
 30
0.0
  0
VERTEX
  5
FD
330
EF
100
AcDbEntity
  8
_U+30EC_U+30A4_U+30E4_U+30FC 1
 62
   179
420
  2234388
370
    25
100
AcDbVertex
100
AcDb2dVertex
 10
74.06008338834764
 20
-120.8406763586787
 30
0.0
  0
VERTEX
  5
FE
330
EF
100
AcDbEntity
  8
_U+30EC_U+30A4_U+30E4_U+30FC 1
 62
   179
420
  2234388
370
    25
100
AcDbVertex
100
AcDb2dVertex
 10
71.06147235373747
 20
-120.8406763586787
 30
0.0
  0
VERTEX
  5
FF
330
EF
100
AcDbEntity
  8
_U+30EC_U+30A4_U+30E4_U+30FC 1
 62
   179
420
  2234388
370
    25
100
AcDbVertex
100
AcDb2dVertex
 10
71.06147235373747
 20
-138.8325194097361
 30
0.0
  0
VERTEX
  5
100
330
EF
100
AcDbEntity
  8
_U+30EC_U+30A4_U+30E4_U+30FC 1
 62
   179
420
  2234388
370
    25
100
AcDbVertex
100
AcDb2dVertex
 10
81.11563876390099
 20
-138.8325194097361
 30
0.0
  0
SEQEND
  5
102
330
EF
100
AcDbEntity
  8
_U+30EC_U+30A4_U+30E4_U+30FC 1
 62
   179
420
  2234388
370
    25
  0
HATCH
  5
101
330
1F
100
AcDbEntity
  8
_U+30EC_U+30A4_U+30E4_U+30FC 1
 62
    43
420
 13286281
100
AcDbHatch
 10
0.0
 20
0.0
 30
0.0
210
0.0
220
0.0
230
1.0
  2
SOLID
 70
     1
 71
     0
 91
        1
 92
        1
 93
       16
 72
     1
 10
81.11563876390099
 20
-138.8325194097361
 11
81.11563876390099
 21
-135.8339082993746
 72
     1
 10
81.11563876390099
 20
-135.8339082993746
 11
78.11702772929081
 21
-135.8339082993746
 72
     1
 10
78.11702772929081
 20
-135.8339082993746
 11
78.11702772929081
 21
-136.8040471880209
 72
     1
 10
78.11702772929081
 20
-136.8040471880209
 11
80.05730545756798
 21
-136.8040471880209
 72
     1
 10
80.05730545756798
 20
-136.8040471880209
 11
80.05730545756798
 21
-137.8182832988785
 72
     1
 10
80.05730545756798
 20
-137.8182832988785
 11
72.11980566007047
 21
-137.8182832988785
 72
     1
 10
72.11980566007047
 20
-137.8182832988785
 11
72.11980566007047
 21
-129.2634221899061
 72
     1
 10
72.11980566007047
 20
-129.2634221899061
 11
111.1015727211183
 21
-129.2634221899061
 72
     1
 10
111.1015727211183
 20
-129.2634221899061
 11
111.1015727211183
 21
-128.3372041345824
 72
     1
 10
111.1015727211183
 20
-128.3372041345824
 11
72.11980566007047
 21
-128.3372041345824
 72
     1
 10
72.11980566007047
 20
-128.3372041345824
 11
72.11980566007047
 21
-121.7667180251139
 72
     1
 10
72.11980566007047
 20
-121.7667180251139
 11
74.06008338834764
 21
-121.7667180251139
 72
     1
 10
74.06008338834764
 20
-121.7667180251139
 11
74.06008338834764
 21
-120.8406763586787
 72
     1
 10
74.06008338834764
 20
-120.8406763586787
 11
71.06147235373747
 21
-120.8406763586787
 72
     1
 10
71.06147235373747
 20
-120.8406763586787
 11
71.06147235373747
 21
-138.8325194097361
 72
     1
 10
71.06147235373747
 20
-138.8325194097361
 11
81.11563876390099
 21
-138.8325194097361
 97
        0
 75
     2
 76
     1
 98
        0
  0
ENDSEC
  0
SECTION
  2
OBJECTS
  0
DICTIONARY
  5
C
330
0
100
AcDbDictionary
281
     1
  3
ACAD_GROUP
350
D
  3
ACAD_LAYOUT
350
1A
  3
ACAD_MATERIAL
350
3B
  3
ACAD_MLEADERSTYLE
350
104
  3
ACAD_MLINESTYLE
350
17
  3
ACAD_PLOTSETTINGS
350
19
  3
ACAD_PLOTSTYLENAME
350
E
  3
ACAD_TABLESTYLE
350
103
  3
ACAD_VISUALSTYLE
350
2A
  0
SUN
  5
3F
330
29
100
AcDbSun
 90
        1
290
     0
 63
     7
421
 16777215
 40
1.0
291
     1
 91
  2455826
 92
 54000000
292
     0
 70
     2
 71
   256
280
     1
  0
DICTIONARY
  5
D
102
{ACAD_REACTORS
330
C
102
}
330
C
100
AcDbDictionary
281
     1
  0
DICTIONARY
  5
1A
102
{ACAD_REACTORS
330
C
102
}
330
C
100
AcDbDictionary
281
     1
  3
Layout1
350
1E
  3
Layout2
350
26
  3
Model
350
22
  0
DICTIONARY
  5
3B
102
{ACAD_REACTORS
330
C
102
}
330
C
100
AcDbDictionary
281
     1
  3
ByBlock
350
3D
  3
ByLayer
350
3C
  3
Global
350
3E
  0
DICTIONARY
  5
104
102
{ACAD_REACTORS
330
C
102
}
330
C
100
AcDbDictionary
281
     1
  0
DICTIONARY
  5
17
102
{ACAD_REACTORS
330
C
102
}
330
C
100
AcDbDictionary
281
     1
  3
Standard
350
18
  0
DICTIONARY
  5
19
102
{ACAD_REACTORS
330
C
102
}
330
C
100
AcDbDictionary
281
     1
  0
ACDBDICTIONARYWDFLT
  5
E
102
{ACAD_REACTORS
330
C
102
}
330
C
100
AcDbDictionary
281
     1
  3
Normal
350
F
100
AcDbDictionaryWithDefault
340
F
  0
DICTIONARY
  5
103
102
{ACAD_REACTORS
330
C
102
}
330
C
100
AcDbDictionary
281
     1
  0
DICTIONARY
  5
2A
102
{ACAD_REACTORS
330
C
102
}
330
C
100
AcDbDictionary
281
     1
  3
2dWireframe
350
2F
  3
3D Hidden
350
31
  3
3dWireframe
350
30
  3
Basic
350
32
  3
Brighten
350
36
  3
ColorChange
350
3A
  3
Conceptual
350
34
  3
Dim
350
35
  3
Facepattern
350
39
  3
Flat
350
2B
  3
FlatWithEdges
350
2C
  3
Gouraud
350
2D
  3
GouraudWithEdges
350
2E
  3
Linepattern
350
38
  3
Realistic
350
33
  3
Thicken
350
37
  0
LAYOUT
  5
1E
102
{ACAD_REACTORS
330
1A
102
}
330
1A
100
AcDbPlotSettings
  1

  2
none_device
  4

  6

 40
0.0
 41
0.0
 42
0.0
 43
0.0
 44
0.0
 45
0.0
 46
0.0
 47
0.0
 48
0.0
 49
0.0
140
0.0
141
0.0
142
1.0
143
1.0
 70
   688
 72
     0
 73
     0
 74
     5
  7

 75
    16
 76
     0
 77
     2
 78
   300
147
1.0
148
0.0
149
0.0
100
AcDbLayout
  1
Layout1
 70
     1
 71
     1
 10
0.0
 20
0.0
 11
12.0
 21
9.0
 12
0.0
 22
0.0
 32
0.0
 14
1.000000000000000E+20
 24
1.000000000000000E+20
 34
1.000000000000000E+20
 15
-1.000000000000000E+20
 25
-1.000000000000000E+20
 35
-1.000000000000000E+20
146
0.0
 13
0.0
 23
0.0
 33
0.0
 16
1.0
 26
0.0
 36
0.0
 17
0.0
 27
1.0
 37
0.0
 76
     0
330
1B
  0
LAYOUT
  5
26
102
{ACAD_REACTORS
330
1A
102
}
330
1A
100
AcDbPlotSettings
  1

  2
none_device
  4

  6

 40
0.0
 41
0.0
 42
0.0
 43
0.0
 44
0.0
 45
0.0
 46
0.0
 47
0.0
 48
0.0
 49
0.0
140
0.0
141
0.0
142
1.0
143
1.0
 70
   688
 72
     0
 73
     0
 74
     5
  7

 75
    16
 76
     0
 77
     2
 78
   300
147
1.0
148
0.0
149
0.0
100
AcDbLayout
  1
Layout2
 70
     1
 71
     2
 10
0.0
 20
0.0
 11
0.0
 21
0.0
 12
0.0
 22
0.0
 32
0.0
 14
0.0
 24
0.0
 34
0.0
 15
0.0
 25
0.0
 35
0.0
146
0.0
 13
0.0
 23
0.0
 33
0.0
 16
1.0
 26
0.0
 36
0.0
 17
0.0
 27
1.0
 37
0.0
 76
     0
330
23
  0
LAYOUT
  5
22
102
{ACAD_REACTORS
330
1A
102
}
330
1A
100
AcDbPlotSettings
  1

  2
none_device
  4

  6

 40
0.0
 41
0.0
 42
0.0
 43
0.0
 44
0.0
 45
0.0
 46
0.0
 47
0.0
 48
0.0
 49
0.0
140
0.0
141
0.0
142
1.0
143
1.0
 70
  1712
 72
     0
 73
     0
 74
     0
  7

 75
     0
 76
     0
 77
     2
 78
   300
147
1.0
148
0.0
149
0.0
100
AcDbLayout
  1
Model
 70
     1
 71
     0
 10
0.0
 20
0.0
 11
12.0
 21
9.0
 12
0.0
 22
0.0
 32
0.0
 14
1.000000000000000E+20
 24
1.000000000000000E+20
 34
1.000000000000000E+20
 15
-1.000000000000000E+20
 25
-1.000000000000000E+20
 35
-1.000000000000000E+20
146
0.0
 13
0.0
 23
0.0
 33
0.0
 16
1.0
 26
0.0
 36
0.0
 17
0.0
 27
1.0
 37
0.0
 76
     0
330
1F
331
29
  0
MATERIAL
  5
3D
102
{ACAD_REACTORS
330
3B
102
}
330
3B
100
AcDbMaterial
  1
ByBlock
 72
     1
 94
      127
  0
MATERIAL
  5
3C
102
{ACAD_REACTORS
330
3B
102
}
330
3B
100
AcDbMaterial
  1
ByLayer
 72
     1
 94
      127
  0
MATERIAL
  5
3E
102
{ACAD_REACTORS
330
3B
102
}
330
3B
100
AcDbMaterial
  1
Global
 72
     1
 94
      127
  0
MLINESTYLE
  5
18
102
{ACAD_REACTORS
330
17
102
}
330
17
100
AcDbMlineStyle
  2
Standard
 70
     0
  3

 62
   256
 51
90.0
 52
90.0
 71
     2
 49
0.5
 62
   256
  6
BYLAYER
 49
-0.5
 62
   256
  6
BYLAYER
  0
ACDBPLACEHOLDER
  5
F
102
{ACAD_REACTORS
330
E
102
}
330
E
  0
VISUALSTYLE
  5
2F
102
{ACAD_REACTORS
330
2A
102
}
330
2A
100
AcDbVisualStyle
  2
2dWireframe
 70
     4
177
     2
291
     0
 71
     0
176
     1
 72
     2
176
     1
 73
     0
176
     1
 90
        0
176
     1
 40
-0.6
176
     1
 41
-30.0
176
     1
 62
     5
 63
     7
421
 16777215
176
     1
 74
     1
176
     1
 91
        4
176
     1
 64
     7
176
     1
 65
   257
176
     1
 75
     1
176
     1
175
     1
176
     1
 42
1.0
176
     1
 92
        0
176
     1
 66
   257
176
     1
 43
1.0
176
     1
 76
     1
176
     1
 77
     6
176
     1
 78
     2
176
     1
 67
     7
176
     1
 79
     5
176
     1
170
     0
176
     1
171
     0
176
     1
290
     0
176
     1
 93
        1
176
     1
 44
0.0
176
     1
173
     0
176
     1
  0
VISUALSTYLE
  5
31
102
{ACAD_REACTORS
330
2A
102
}
330
2A
100
AcDbVisualStyle
  2
3D Hidden
 70
     6
177
     2
291
     0
 71
     1
176
     1
 72
     2
176
     1
 73
     2
176
     1
 90
        0
176
     1
 40
-0.6
176
     1
 41
-30.0
176
     1
 62
     5
 63
     7
421
 16777215
176
     1
 74
     2
176
     1
 91
        2
176
     1
 64
     7
176
     1
 65
   257
176
     1
 75
     2
176
     1
175
     1
176
     1
 42
40.0
176
     1
 92
        0
176
     1
 66
   257
176
     1
 43
1.0
176
     1
 76
     1
176
     1
 77
     6
176
     1
 78
     2
176
     1
 67
     7
176
     1
 79
     3
176
     1
170
     0
176
     1
171
     0
176
     1
290
     0
176
     1
 93
        1
176
     1
 44
0.0
176
     1
173
     0
176
     1
  0
VISUALSTYLE
  5
30
102
{ACAD_REACTORS
330
2A
102
}
330
2A
100
AcDbVisualStyle
  2
3dWireframe
 70
     5
177
     2
291
     0
 71
     0
176
     1
 72
     2
176
     1
 73
     0
176
     1
 90
        0
176
     1
 40
-0.6
176
     1
 41
-30.0
176
     1
 62
     5
 63
     7
421
 16777215
176
     1
 74
     1
176
     1
 91
        4
176
     1
 64
     7
176
     1
 65
   257
176
     1
 75
     1
176
     1
175
     1
176
     1
 42
1.0
176
     1
 92
        0
176
     1
 66
   257
176
     1
 43
1.0
176
     1
 76
     1
176
     1
 77
     6
176
     1
 78
     2
176
     1
 67
     7
176
     1
 79
     5
176
     1
170
     0
176
     1
171
     0
176
     1
290
     0
176
     1
 93
        1
176
     1
 44
0.0
176
     1
173
     0
176
     1
  0
VISUALSTYLE
  5
32
102
{ACAD_REACTORS
330
2A
102
}
330
2A
100
AcDbVisualStyle
  2
Basic
 70
     7
177
     2
291
     1
 71
     1
176
     1
 72
     0
176
     1
 73
     1
176
     1
 90
        0
176
     1
 40
-0.6
176
     1
 41
-30.0
176
     1
 62
     5
 63
     7
421
 16777215
176
     1
 74
     0
176
     1
 91
        4
176
     1
 64
     7
176
     1
 65
   257
176
     1
 75
     1
176
     1
175
     1
176
     1
 42
1.0
176
     1
 92
        8
176
     1
 66
     7
176
     1
 43
1.0
176
     1
 76
     1
176
     1
 77
     6
176
     1
 78
     2
176
     1
 67
     7
176
     1
 79
     5
176
     1
170
     0
176
     1
171
     0
176
     1
290
     0
176
     1
 93
        1
176
     1
 44
0.0
176
     1
173
     0
176
     1
  0
VISUALSTYLE
  5
36
102
{ACAD_REACTORS
330
2A
102
}
330
2A
100
AcDbVisualStyle
  2
Brighten
 70
    12
177
     2
291
     1
 71
     2
176
     1
 72
     2
176
     1
 73
     0
176
     1
 90
        0
176
     1
 40
-0.6
176
     1
 41
-30.0
176
     1
 62
     5
 63
     7
421
 16777215
176
     1
 74
     1
176
     1
 91
        4
176
     1
 64
     7
176
     1
 65
   257
176
     1
 75
     1
176
     1
175
     1
176
     1
 42
1.0
176
     1
 92
        8
176
     1
 66
     7
176
     1
 43
1.0
176
     1
 76
     1
176
     1
 77
     6
176
     1
 78
     2
176
     1
 67
     7
176
     1
 79
     5
176
     1
170
     0
176
     1
171
     0
176
     1
290
     0
176
     1
 93
        1
176
     1
 44
50.0
176
     1
173
     0
176
     1
  0
VISUALSTYLE
  5
3A
102
{ACAD_REACTORS
330
2A
102
}
330
2A
100
AcDbVisualStyle
  2
ColorChange
 70
    16
177
     2
291
     1
 71
     2
176
     1
 72
     2
176
     1
 73
     3
176
     1
 90
        0
176
     1
 40
-0.6
176
     1
 41
-30.0
176
     1
 62
     5
 63
     8
421
  8421504
176
     1
 74
     1
176
     1
 91
        4
176
     1
 64
     7
176
     1
 65
   257
176
     1
 75
     1
176
     1
175
     1
176
     1
 42
1.0
176
     1
 92
        8
176
     1
 66
     8
424
  8421504
176
     1
 43
1.0
176
     1
 76
     1
176
     1
 77
     6
176
     1
 78
     2
176
     1
 67
     7
176
     1
 79
     5
176
     1
170
     0
176
     1
171
     0
176
     1
290
     0
176
     1
 93
        1
176
     1
 44
0.0
176
     1
173
     0
176
     1
  0
VISUALSTYLE
  5
34
102
{ACAD_REACTORS
330
2A
102
}
330
2A
100
AcDbVisualStyle
  2
Conceptual
 70
     9
177
     2
291
     0
 71
     3
176
     1
 72
     2
176
     1
 73
     0
176
     1
 90
        0
176
     1
 40
-0.6
176
     1
 41
-30.0
176
     1
 62
     5
 63
     7
421
 16777215
176
     1
 74
     2
176
     1
 91
        2
176
     1
 64
     7
176
     1
 65
   257
176
     1
 75
     1
176
     1
175
     1
176
     1
 42
40.0
176
     1
 92
        8
176
     1
 66
     7
176
     1
 43
1.0
176
     1
 76
     1
176
     1
 77
     6
176
     1
 78
     2
176
     1
 67
     7
176
     1
 79
     3
176
     1
170
     0
176
     1
171
     0
176
     1
290
     0
176
     1
 93
        1
176
     1
 44
0.0
176
     1
173
     0
176
     1
  0
VISUALSTYLE
  5
35
102
{ACAD_REACTORS
330
2A
102
}
330
2A
100
AcDbVisualStyle
  2
Dim
 70
    11
177
     2
291
     1
 71
     2
176
     1
 72
     2
176
     1
 73
     0
176
     1
 90
        0
176
     1
 40
-0.6
176
     1
 41
-30.0
176
     1
 62
     5
 63
     7
421
 16777215
176
     1
 74
     1
176
     1
 91
        4
176
     1
 64
     7
176
     1
 65
   257
176
     1
 75
     1
176
     1
175
     1
176
     1
 42
1.0
176
     1
 92
        8
176
     1
 66
     7
176
     1
 43
1.0
176
     1
 76
     1
176
     1
 77
     6
176
     1
 78
     2
176
     1
 67
     7
176
     1
 79
     5
176
     1
170
     0
176
     1
171
     0
176
     1
290
     0
176
     1
 93
        1
176
     1
 44
-50.0
176
     1
173
     0
176
     1
  0
VISUALSTYLE
  5
39
102
{ACAD_REACTORS
330
2A
102
}
330
2A
100
AcDbVisualStyle
  2
Facepattern
 70
    15
177
     2
291
     1
 71
     2
176
     1
 72
     2
176
     1
 73
     0
176
     1
 90
        0
176
     1
 40
-0.6
176
     1
 41
-30.0
176
     1
 62
     5
 63
     7
421
 16777215
176
     1
 74
     1
176
     1
 91
        4
176
     1
 64
     7
176
     1
 65
   257
176
     1
 75
     1
176
     1
175
     1
176
     1
 42
1.0
176
     1
 92
        8
176
     1
 66
     7
176
     1
 43
1.0
176
     1
 76
     1
176
     1
 77
     6
176
     1
 78
     2
176
     1
 67
     7
176
     1
 79
     5
176
     1
170
     0
176
     1
171
     0
176
     1
290
     0
176
     1
 93
        1
176
     1
 44
0.0
176
     1
173
     0
176
     1
  0
VISUALSTYLE
  5
2B
102
{ACAD_REACTORS
330
2A
102
}
330
2A
100
AcDbVisualStyle
  2
Flat
 70
     0
177
     2
291
     1
 71
     2
176
     1
 72
     1
176
     1
 73
     1
176
     1
 90
        2
176
     1
 40
-0.6
176
     1
 41
30.0
176
     1
 62
     5
 63
     7
421
 16777215
176
     1
 74
     0
176
     1
 91
        4
176
     1
 64
     7
176
     1
 65
   257
176
     1
 75
     1
176
     1
175
     1
176
     1
 42
1.0
176
     1
 92
        8
176
     1
 66
     7
176
     1
 43
1.0
176
     1
 76
     1
176
     1
 77
     6
176
     1
 78
     2
176
     1
 67
     7
176
     1
 79
     5
176
     1
170
     0
176
     1
171
     0
176
     1
290
     0
176
     1
 93
       13
176
     1
 44
0.0
176
     1
173
     0
176
     1
  0
VISUALSTYLE
  5
2C
102
{ACAD_REACTORS
330
2A
102
}
330
2A
100
AcDbVisualStyle
  2
FlatWithEdges
 70
     1
177
     2
291
     1
 71
     2
176
     1
 72
     1
176
     1
 73
     1
176
     1
 90
        2
176
     1
 40
-0.6
176
     1
 41
30.0
176
     1
 62
     5
 63
     7
421
 16777215
176
     1
 74
     1
176
     1
 91
        4
176
     1
 64
     7
176
     1
 65
   257
176
     1
 75
     1
176
     1
175
     1
176
     1
 42
1.0
176
     1
 92
        0
176
     1
 66
   257
176
     1
 43
1.0
176
     1
 76
     1
176
     1
 77
     6
176
     1
 78
     2
176
     1
 67
     7
176
     1
 79
     5
176
     1
170
     0
176
     1
171
     0
176
     1
290
     0
176
     1
 93
       13
176
     1
 44
0.0
176
     1
173
     0
176
     1
  0
VISUALSTYLE
  5
2D
102
{ACAD_REACTORS
330
2A
102
}
330
2A
100
AcDbVisualStyle
  2
Gouraud
 70
     2
177
     2
291
     1
 71
     2
176
     1
 72
     2
176
     1
 73
     1
176
     1
 90
        2
176
     1
 40
-0.6
176
     1
 41
30.0
176
     1
 62
     5
 63
     7
421
 16777215
176
     1
 74
     0
176
     1
 91
        4
176
     1
 64
     7
176
     1
 65
   257
176
     1
 75
     1
176
     1
175
     1
176
     1
 42
1.0
176
     1
 92
        0
176
     1
 66
     7
176
     1
 43
1.0
176
     1
 76
     1
176
     1
 77
     6
176
     1
 78
     2
176
     1
 67
     7
176
     1
 79
     5
176
     1
170
     0
176
     1
171
     0
176
     1
290
     0
176
     1
 93
       13
176
     1
 44
0.0
176
     1
173
     0
176
     1
  0
VISUALSTYLE
  5
2E
102
{ACAD_REACTORS
330
2A
102
}
330
2A
100
AcDbVisualStyle
  2
GouraudWithEdges
 70
     3
177
     2
291
     1
 71
     2
176
     1
 72
     2
176
     1
 73
     1
176
     1
 90
        2
176
     1
 40
-0.6
176
     1
 41
30.0
176
     1
 62
     5
 63
     7
421
 16777215
176
     1
 74
     1
176
     1
 91
        4
176
     1
 64
     7
176
     1
 65
   257
176
     1
 75
     1
176
     1
175
     1
176
     1
 42
1.0
176
     1
 92
        0
176
     1
 66
   257
176
     1
 43
1.0
176
     1
 76
     1
176
     1
 77
     6
176
     1
 78
     2
176
     1
 67
     7
176
     1
 79
     5
176
     1
170
     0
176
     1
171
     0
176
     1
290
     0
176
     1
 93
       13
176
     1
 44
0.0
176
     1
173
     0
176
     1
  0
VISUALSTYLE
  5
38
102
{ACAD_REACTORS
330
2A
102
}
330
2A
100
AcDbVisualStyle
  2
Linepattern
 70
    14
177
     2
291
     1
 71
     2
176
     1
 72
     2
176
     1
 73
     0
176
     1
 90
        0
176
     1
 40
-0.6
176
     1
 41
-30.0
176
     1
 62
     5
 63
     7
421
 16777215
176
     1
 74
     1
176
     1
 91
        4
176
     1
 64
     7
176
     1
 65
   257
176
     1
 75
     7
176
     1
175
     7
176
     1
 42
1.0
176
     1
 92
        8
176
     1
 66
     7
176
     1
 43
1.0
176
     1
 76
     1
176
     1
 77
     6
176
     1
 78
     2
176
     1
 67
     7
176
     1
 79
     5
176
     1
170
     0
176
     1
171
     0
176
     1
290
     0
176
     1
 93
        1
176
     1
 44
0.0
176
     1
173
     0
176
     1
  0
VISUALSTYLE
  5
33
102
{ACAD_REACTORS
330
2A
102
}
330
2A
100
AcDbVisualStyle
  2
Realistic
 70
     8
177
     2
291
     0
 71
     2
176
     1
 72
     2
176
     1
 73
     0
176
     1
 90
        0
176
     1
 40
-0.6
176
     1
 41
-30.0
176
     1
 62
     5
 63
     7
421
 16777215
176
     1
 74
     1
176
     1
 91
        0
176
     1
 64
     7
176
     1
 65
   257
176
     1
 75
     1
176
     1
175
     1
176
     1
 42
1.0
176
     1
 92
        8
176
     1
 66
     8
424
  7895160
176
     1
 43
1.0
176
     1
 76
     1
176
     1
 77
     6
176
     1
 78
     2
176
     1
 67
     7
176
     1
 79
     5
176
     1
170
     0
176
     1
171
     0
176
     1
290
     0
176
     1
 93
       13
176
     1
 44
0.0
176
     1
173
     0
176
     1
  0
VISUALSTYLE
  5
37
102
{ACAD_REACTORS
330
2A
102
}
330
2A
100
AcDbVisualStyle
  2
Thicken
 70
    13
177
     2
291
     1
 71
     2
176
     1
 72
     2
176
     1
 73
     0
176
     1
 90
        0
176
     1
 40
-0.6
176
     1
 41
-30.0
176
     1
 62
     5
 63
     7
421
 16777215
176
     1
 74
     1
176
     1
 91
        4
176
     1
 64
     7
176
     1
 65
   257
176
     1
 75
     1
176
     1
175
     1
176
     1
 42
1.0
176
     1
 92
       12
176
     1
 66
     7
176
     1
 43
1.0
176
     1
 76
     1
176
     1
 77
     6
176
     1
 78
     2
176
     1
 67
     7
176
     1
 79
     5
176
     1
170
     0
176
     1
171
     0
176
     1
290
     0
176
     1
 93
        1
176
     1
 44
0.0
176
     1
173
     0
176
     1
  0
ENDSEC
  0
EOF
