  0
SECTION
  2
HEADER
  9
$ACADVER
  1
AC1024
  9
$ACADMAINTVER
 70
     6
  9
$DWGCODEPAGE
  3
UNDEFINED
  9
$INSBASE
 10
0.0
 20
0.0
 30
0.0
  9
$EXTMIN
 10
1.000000000000000E+20
 20
1.000000000000000E+20
 30
1.000000000000000E+20
  9
$EXTMAX
 10
-1.000000000000000E+20
 20
-1.000000000000000E+20
 30
-1.000000000000000E+20
  9
$LIMMIN
 10
0.0
 20
0.0
  9
$LIMMAX
 10
12.0
 20
9.0
  9
$ORTHOMODE
 70
     0
  9
$REGENMODE
 70
     1
  9
$FILLMODE
 70
     1
  9
$QTEXTMODE
 70
     0
  9
$MIRRTEXT
 70
     1
  9
$LTSCALE
 40
1.0
  9
$ATTMODE
 70
     1
  9
$TEXTSIZE
 40
0.2
  9
$TRACEWID
 40
0.05
  9
$TEXTSTYLE
  7
Standard
  9
$CLAYER
  8
0
  9
$CELTYPE
  6
ByLayer
  9
$CECOLOR
 62
   256
  9
$CELTSCALE
 40
1.0
  9
$DISPSILH
 70
     0
  9
$DIMSCALE
 40
1.0
  9
$DIMASZ
 40
0.18
  9
$DIMEXO
 40
0.0625
  9
$DIMDLI
 40
0.38
  9
$DIMRND
 40
0.0
  9
$DIMDLE
 40
0.0
  9
$DIMEXE
 40
0.18
  9
$DIMTP
 40
0.0
  9
$DIMTM
 40
0.0
  9
$DIMTXT
 40
0.18
  9
$DIMCEN
 40
0.09
  9
$DIMTSZ
 40
0.0
  9
$DIMTOL
 70
     0
  9
$DIMLIM
 70
     0
  9
$DIMTIH
 70
     1
  9
$DIMTOH
 70
     1
  9
$DIMSE1
 70
     0
  9
$DIMSE2
 70
     0
  9
$DIMTAD
 70
     0
  9
$DIMZIN
 70
     0
  9
$DIMBLK
  1

  9
$DIMASO
 70
     1
  9
$DIMSHO
 70
     1
  9
$DIMPOST
  1

  9
$DIMAPOST
  1

  9
$DIMALT
 70
     0
  9
$DIMALTD
 70
     2
  9
$DIMALTF
 40
25.4
  9
$DIMLFAC
 40
1.0
  9
$DIMTOFL
 70
     0
  9
$DIMTVP
 40
0.0
  9
$DIMTIX
 70
     0
  9
$DIMSOXD
 70
     0
  9
$DIMSAH
 70
     0
  9
$DIMBLK1
  1

  9
$DIMBLK2
  1

  9
$DIMSTYLE
  2
Standard
  9
$DIMCLRD
 70
     0
  9
$DIMCLRE
 70
     0
  9
$DIMCLRT
 70
     0
  9
$DIMTFAC
 40
1.0
  9
$DIMGAP
 40
0.09
  9
$DIMJUST
 70
     0
  9
$DIMSD1
 70
     0
  9
$DIMSD2
 70
     0
  9
$DIMTOLJ
 70
     1
  9
$DIMTZIN
 70
     0
  9
$DIMALTZ
 70
     0
  9
$DIMALTTZ
 70
     0
  9
$DIMUPT
 70
     0
  9
$DIMDEC
 70
     4
  9
$DIMTDEC
 70
     4
  9
$DIMALTU
 70
     2
  9
$DIMALTTD
 70
     2
  9
$DIMTXSTY
  7
Standard
  9
$DIMAUNIT
 70
     0
  9
$DIMADEC
 70
     0
  9
$DIMALTRND
 40
0.0
  9
$DIMAZIN
 70
     0
  9
$DIMDSEP
 70
    46
  9
$DIMATFIT
 70
     3
  9
$DIMFRAC
 70
     0
  9
$DIMLDRBLK
  1

  9
$DIMLUNIT
 70
     2
  9
$DIMLWD
 70
    -2
  9
$DIMLWE
 70
    -2
  9
$DIMTMOVE
 70
     0
  9
$DIMFXL
 40
1.0
  9
$DIMFXLON
 70
     0
  9
$DIMJOGANG
 40
0.7853981633974483
  9
$DIMTFILL
 70
     0
  9
$DIMTFILLCLR
 70
     0
  9
$DIMARCSYM
 70
     0
  9
$DIMLTYPE
  6

  9
$DIMLTEX1
  6

  9
$DIMLTEX2
  6

  9
$DIMTXTDIRECTION
 70
     0
  9
$LUNITS
 70
     2
  9
$LUPREC
 70
     4
  9
$SKETCHINC
 40
0.1
  9
$FILLETRAD
 40
0.5
  9
$AUNITS
 70
     0
  9
$AUPREC
 70
     0
  9
$MENU
  1
.
  9
$ELEVATION
 40
0.0
  9
$PELEVATION
 40
0.0
  9
$THICKNESS
 40
0.0
  9
$LIMCHECK
 70
     0
  9
$CHAMFERA
 40
0.5
  9
$CHAMFERB
 40
0.5
  9
$CHAMFERC
 40
1.0
  9
$CHAMFERD
 40
0.0
  9
$SKPOLY
 70
     0
  9
$TDCREATE
 40
2457917.592164352
  9
$TDUCREATE
 40
2457917.217164352
  9
$TDUPDATE
 40
2457917.592164352
  9
$TDUUPDATE
 40
2457917.217164352
  9
$TDINDWG
 40
0.0000000116
  9
$TDUSRTIMER
 40
0.0000000116
  9
$USRTIMER
 70
     1
  9
$ANGBASE
 50
0.0
  9
$ANGDIR
 70
     0
  9
$PDMODE
 70
     0
  9
$PDSIZE
 40
0.0
  9
$PLINEWID
 40
0.0
  9
$SPLFRAME
 70
     0
  9
$SPLINETYPE
 70
     6
  9
$SPLINESEGS
 70
     8
  9
$HANDSEED
  5
F7
  9
$SURFTAB1
 70
     6
  9
$SURFTAB2
 70
     6
  9
$SURFTYPE
 70
     6
  9
$SURFU
 70
     6
  9
$SURFV
 70
     6
  9
$UCSBASE
  2

  9
$UCSNAME
  2

  9
$UCSORG
 10
0.0
 20
0.0
 30
0.0
  9
$UCSXDIR
 10
1.0
 20
0.0
 30
0.0
  9
$UCSYDIR
 10
0.0
 20
1.0
 30
0.0
  9
$UCSORTHOREF
  2

  9
$UCSORTHOVIEW
 70
     0
  9
$UCSORGTOP
 10
0.0
 20
0.0
 30
0.0
  9
$UCSORGBOTTOM
 10
0.0
 20
0.0
 30
0.0
  9
$UCSORGLEFT
 10
0.0
 20
0.0
 30
0.0
  9
$UCSORGRIGHT
 10
0.0
 20
0.0
 30
0.0
  9
$UCSORGFRONT
 10
0.0
 20
0.0
 30
0.0
  9
$UCSORGBACK
 10
0.0
 20
0.0
 30
0.0
  9
$PUCSBASE
  2

  9
$PUCSNAME
  2

  9
$PUCSORG
 10
0.0
 20
0.0
 30
0.0
  9
$PUCSXDIR
 10
1.0
 20
0.0
 30
0.0
  9
$PUCSYDIR
 10
0.0
 20
1.0
 30
0.0
  9
$PUCSORTHOREF
  2

  9
$PUCSORTHOVIEW
 70
     0
  9
$PUCSORGTOP
 10
0.0
 20
0.0
 30
0.0
  9
$PUCSORGBOTTOM
 10
0.0
 20
0.0
 30
0.0
  9
$PUCSORGLEFT
 10
0.0
 20
0.0
 30
0.0
  9
$PUCSORGRIGHT
 10
0.0
 20
0.0
 30
0.0
  9
$PUCSORGFRONT
 10
0.0
 20
0.0
 30
0.0
  9
$PUCSORGBACK
 10
0.0
 20
0.0
 30
0.0
  9
$USERI1
 70
     0
  9
$USERI2
 70
     0
  9
$USERI3
 70
     0
  9
$USERI4
 70
     0
  9
$USERI5
 70
     0
  9
$USERR1
 40
0.0
  9
$USERR2
 40
0.0
  9
$USERR3
 40
0.0
  9
$USERR4
 40
0.0
  9
$USERR5
 40
0.0
  9
$WORLDVIEW
 70
     1
  9
$SHADEDGE
 70
     3
  9
$SHADEDIF
 70
    70
  9
$TILEMODE
 70
     1
  9
$MAXACTVP
 70
    64
  9
$PINSBASE
 10
0.0
 20
0.0
 30
0.0
  9
$PLIMCHECK
 70
     0
  9
$PEXTMIN
 10
1.000000000000000E+20
 20
1.000000000000000E+20
 30
1.000000000000000E+20
  9
$PEXTMAX
 10
-1.000000000000000E+20
 20
-1.000000000000000E+20
 30
-1.000000000000000E+20
  9
$PLIMMIN
 10
0.0
 20
0.0
  9
$PLIMMAX
 10
12.0
 20
9.0
  9
$UNITMODE
 70
     0
  9
$VISRETAIN
 70
     1
  9
$PLINEGEN
 70
     0
  9
$PSLTSCALE
 70
     1
  9
$TREEDEPTH
 70
  3020
  9
$CMLSTYLE
  2
Standard
  9
$CMLJUST
 70
     0
  9
$CMLSCALE
 40
1.0
  9
$PROXYGRAPHICS
 70
     1
  9
$MEASUREMENT
 70
     0
  9
$CELWEIGHT
370
    -1
  9
$ENDCAPS
280
     0
  9
$JOINSTYLE
280
     0
  9
$LWDISPLAY
290
     1
  9
$INSUNITS
 70
     1
  9
$HYPERLINKBASE
  1

  9
$STYLESHEET
  1

  9
$XEDIT
290
     1
  9
$CEPSNTYPE
380
     0
  9
$PSTYLEMODE
290
     1
  9
$FINGERPRINTGUID
  2
{B1E26ED9-6AE6-5893-B542-D1FA5BE333D6}
  9
$VERSIONGUID
  2
{FAEB1C32-E019-11D5-929B-00C0DF256EC4}
  9
$EXTNAMES
290
     1
  9
$PSVPSCALE
 40
0.0
  9
$OLESTARTUP
290
     0
  9
$SORTENTS
280
   127
  9
$INDEXCTL
280
     0
  9
$HIDETEXT
280
     1
  9
$XCLIPFRAME
280
     2
  9
$HALOGAP
280
     0
  9
$OBSCOLOR
 70
   257
  9
$OBSLTYPE
280
     0
  9
$INTERSECTIONDISPLAY
280
     0
  9
$INTERSECTIONCOLOR
 70
   257
  9
$DIMASSOC
280
     2
  9
$PROJECTNAME
  1

  9
$CAMERADISPLAY
290
     0
  9
$LENSLENGTH
 40
50.0
  9
$CAMERAHEIGHT
 40
0.0
  9
$STEPSPERSEC
 40
2.0
  9
$STEPSIZE
 40
6.0
  9
$3DDWFPREC
 40
2.0
  9
$PSOLWIDTH
 40
0.25
  9
$PSOLHEIGHT
 40
4.0
  9
$LOFTANG1
 40
1.570796326794897
  9
$LOFTANG2
 40
1.570796326794897
  9
$LOFTMAG1
 40
0.0
  9
$LOFTMAG2
 40
0.0
  9
$LOFTPARAM
 70
     7
  9
$LOFTNORMALS
280
     1
  9
$LATITUDE
 40
37.795
  9
$LONGITUDE
 40
-122.394
  9
$NORTHDIRECTION
 40
0.0
  9
$TIMEZONE
 70
 -8000
  9
$LIGHTGLYPHDISPLAY
280
     1
  9
$TILEMODELIGHTSYNCH
280
     1
  9
$CMATERIAL
347
3C
  9
$SOLIDHIST
280
     1
  9
$SHOWHIST
280
     1
  9
$DWFFRAME
280
     2
  9
$DGNFRAME
280
     2
  9
$REALWORLDSCALE
290
     1
  9
$INTERFERECOLOR
 62
   256
  9
$CSHADOW
280
     0
  9
$SHADOWPLANELOCATION
 40
0.0
  0
ENDSEC
  0
SECTION
  2
CLASSES
  0
CLASS
  1
ACDBDICTIONARYWDFLT
  2
AcDbDictionaryWithDefault
  3
ObjectDBX Classes
 90
        0
 91
        4
280
     0
281
     0
  0
CLASS
  1
VISUALSTYLE
  2
AcDbVisualStyle
  3
ObjectDBX Classes
 90
     4095
 91
        4
280
     0
281
     0
  0
CLASS
  1
MATERIAL
  2
AcDbMaterial
  3
ObjectDBX Classes
 90
     1153
 91
        4
280
     0
281
     0
  0
CLASS
  1
SUN
  2
AcDbSun
  3
SCENEOE
 90
     1024
 91
        4
280
     0
281
     0
  0
ENDSEC
  0
SECTION
  2
TABLES
  0
TABLE
  2
VPORT
  5
8
330
0
100
AcDbSymbolTable
 70
     1
  0
VPORT
  5
29
330
8
100
AcDbSymbolTableRecord
100
AcDbViewportTableRecord
  2
*Active
 70
     0
 10
0.0
 20
0.0
 11
1.0
 21
1.0
 12
0.0
 22
0.0
 13
0.0
 23
0.0
 14
0.5
 24
0.5
 15
0.5
 25
0.5
 16
0.0
 26
0.0
 36
1.0
 17
91.00082462281999
 27
-128.4993055234307
 37
0.0
 40
256.9986110468615
 41
0.7081814508812795
 42
50.0
 43
0.0
 44
0.0
 50
0.0
 51
0.0
 71
     0
 72
   100
 73
     1
 74
     3
 75
     0
 76
     0
 77
     0
 78
     0
281
     0
 65
     1
110
0.0
120
0.0
130
0.0
111
1.0
121
0.0
131
0.0
112
0.0
122
1.0
132
0.0
 79
     0
146
0.0
 60
     3
 61
     5
292
     1
282
     1
141
0.0
142
0.0
 63
   250
361
3F
  0
ENDTAB
  0
TABLE
  2
LTYPE
  5
5
330
0
100
AcDbSymbolTable
 70
     1
  0
LTYPE
  5
14
330
5
100
AcDbSymbolTableRecord
100
AcDbLinetypeTableRecord
  2
ByBlock
 70
     0
  3

 72
    65
 73
     0
 40
0.0
  0
LTYPE
  5
15
330
5
100
AcDbSymbolTableRecord
100
AcDbLinetypeTableRecord
  2
ByLayer
 70
     0
  3

 72
    65
 73
     0
 40
0.0
  0
LTYPE
  5
16
330
5
100
AcDbSymbolTableRecord
100
AcDbLinetypeTableRecord
  2
Continuous
 70
     0
  3
Solid line
 72
    65
 73
     0
 40
0.0
  0
ENDTAB
  0
TABLE
  2
LAYER
  5
2
330
0
100
AcDbSymbolTable
 70
     2
  0
LAYER
  5
10
330
2
100
AcDbSymbolTableRecord
100
AcDbLayerTableRecord
  2
0
 70
     0
 62
     7
  6
Continuous
370
    -3
390
F
347
3E
  0
LAYER
  5
40
330
2
100
AcDbSymbolTableRecord
100
AcDbLayerTableRecord
  2
_U+30EC_U+30A4_U+30E4_U+30FC 1
 70
     0
 62
     7
  6
Continuous
370
    -3
390
F
347
3E
  0
ENDTAB
  0
TABLE
  2
STYLE
  5
3
330
0
100
AcDbSymbolTable
 70
     1
  0
STYLE
  5
11
330
3
100
AcDbSymbolTableRecord
100
AcDbTextStyleTableRecord
  2
Standard
 70
     0
 40
0.0
 41
1.0
 50
0.0
 71
     0
 42
0.2
  3
txt
  4

  0
ENDTAB
  0
TABLE
  2
VIEW
  5
6
330
0
100
AcDbSymbolTable
 70
     0
  0
ENDTAB
  0
TABLE
  2
UCS
  5
7
330
0
100
AcDbSymbolTable
 70
     0
  0
ENDTAB
  0
TABLE
  2
APPID
  5
9
330
0
100
AcDbSymbolTable
 70
     1
  0
APPID
  5
12
330
9
100
AcDbSymbolTableRecord
100
AcDbRegAppTableRecord
  2
ACAD
 70
     0
  0
ENDTAB
  0
TABLE
  2
DIMSTYLE
  5
A
330
0
100
AcDbSymbolTable
 70
     1
100
AcDbDimStyleTable
  0
DIMSTYLE
105
27
330
A
100
AcDbSymbolTableRecord
100
AcDbDimStyleTableRecord
  2
Standard
 70
     0
178
     0
340
11
  0
ENDTAB
  0
TABLE
  2
BLOCK_RECORD
  5
1
330
0
100
AcDbSymbolTable
 70
     8
  0
BLOCK_RECORD
  5
1F
330
1
100
AcDbSymbolTableRecord
100
AcDbBlockTableRecord
  2
*Model_Space
340
22
 70
     0
280
     1
281
     0
  0
BLOCK_RECORD
  5
1B
330
1
100
AcDbSymbolTableRecord
100
AcDbBlockTableRecord
  2
*Paper_Space
340
1E
 70
     0
280
     1
281
     0
  0
BLOCK_RECORD
  5
23
330
1
100
AcDbSymbolTableRecord
100
AcDbBlockTableRecord
  2
*Paper_Space0
340
26
 70
     0
280
     1
281
     0
  0
BLOCK_RECORD
  5
4F
330
1
100
AcDbSymbolTableRecord
100
AcDbBlockTableRecord
  2
block 2
340
0
102
{BLKREFS
331
50
102
}
 70
     0
280
     1
281
     0
  0
BLOCK_RECORD
  5
66
330
1
100
AcDbSymbolTableRecord
100
AcDbBlockTableRecord
  2
block 3
340
0
102
{BLKREFS
331
67
102
}
 70
     0
280
     1
281
     0
  0
BLOCK_RECORD
  5
77
330
1
100
AcDbSymbolTableRecord
100
AcDbBlockTableRecord
  2
block 4
340
0
102
{BLKREFS
331
78
102
}
 70
     0
280
     1
281
     0
  0
BLOCK_RECORD
  5
93
330
1
100
AcDbSymbolTableRecord
100
AcDbBlockTableRecord
  2
block 5
340
0
102
{BLKREFS
331
94
102
}
 70
     0
280
     1
281
     0
  0
BLOCK_RECORD
  5
A1
330
1
100
AcDbSymbolTableRecord
100
AcDbBlockTableRecord
  2
block 6
340
0
102
{BLKREFS
331
A2
102
}
 70
     0
280
     1
281
     0
  0
BLOCK_RECORD
  5
AF
330
1
100
AcDbSymbolTableRecord
100
AcDbBlockTableRecord
  2
block 7
340
0
102
{BLKREFS
331
B0
102
}
 70
     0
280
     1
281
     0
  0
BLOCK_RECORD
  5
D1
330
1
100
AcDbSymbolTableRecord
100
AcDbBlockTableRecord
  2
block 8
340
0
102
{BLKREFS
331
D2
102
}
 70
     0
280
     1
281
     0
  0
ENDTAB
  0
ENDSEC
  0
SECTION
  2
BLOCKS
  0
BLOCK
  5
20
330
1F
100
AcDbEntity
  8
0
100
AcDbBlockBegin
  2
*Model_Space
 70
     0
 10
0.0
 20
0.0
 30
0.0
  3
*Model_Space
  1

  0
ENDBLK
  5
21
330
1F
100
AcDbEntity
  8
0
100
AcDbBlockEnd
  0
BLOCK
  5
1C
330
1B
100
AcDbEntity
 67
     1
  8
0
100
AcDbBlockBegin
  2
*Paper_Space
 70
     0
 10
0.0
 20
0.0
 30
0.0
  3
*Paper_Space
  1

  0
ENDBLK
  5
1D
330
1B
100
AcDbEntity
 67
     1
  8
0
100
AcDbBlockEnd
  0
BLOCK
  5
24
330
23
100
AcDbEntity
  8
0
100
AcDbBlockBegin
  2
*Paper_Space0
 70
     0
 10
0.0
 20
0.0
 30
0.0
  3
*Paper_Space0
  1

  0
ENDBLK
  5
25
330
23
100
AcDbEntity
  8
0
100
AcDbBlockEnd
  0
BLOCK
  5
51
330
4F
100
AcDbEntity
  8
0
100
AcDbBlockBegin
  2
block 2
 70
     0
 10
0.0
 20
0.0
 30
0.0
  3
block 2
  1

  0
SPLINE
  5
53
330
4F
100
AcDbEntity
  8
_U+30EC_U+30A4_U+30E4_U+30FC 1
370
     0
100
AcDbSpline
210
0.0
220
0.0
230
1.0
 70
    11
 71
     3
 72
    62
 73
    58
 74
     0
 42
0.0000000001
 43
0.0000000001
 12
1.0
 22
0.0
 32
0.0
 13
1.0
 23
0.0
 33
0.0
 40
0.0
 40
0.0
 40
0.0
 40
0.0
 40
1.0
 40
1.0
 40
1.0
 40
2.0
 40
2.0
 40
2.0
 40
3.0
 40
3.0
 40
3.0
 40
4.0
 40
4.0
 40
4.0
 40
5.0
 40
5.0
 40
5.0
 40
6.0
 40
6.0
 40
6.0
 40
7.0
 40
7.0
 40
7.0
 40
8.0
 40
8.0
 40
8.0
 40
9.0
 40
9.0
 40
9.0
 40
10.0
 40
10.0
 40
10.0
 40
11.0
 40
11.0
 40
11.0
 40
12.0
 40
12.0
 40
12.0
 40
13.0
 40
13.0
 40
13.0
 40
14.0
 40
14.0
 40
14.0
 40
15.0
 40
15.0
 40
15.0
 40
16.0
 40
16.0
 40
16.0
 40
17.0
 40
17.0
 40
17.0
 40
18.0
 40
18.0
 40
18.0
 40
19.0
 40
19.0
 40
19.0
 40
19.0
 10
91.19047171114336
 20
-115.6981919741137
 30
0.0
 10
91.08884139432848
 20
-115.6981919741137
 30
0.0
 10
90.8559529395256
 20
-115.6770046368794
 30
0.0
 10
90.72262774424642
 20
-115.4907972259016
 30
0.0
 10
90.64339054808569
 20
-115.3786593678567
 30
0.0
 10
90.63891192395486
 20
-115.2792683631073
 30
0.0
 10
90.63443329982404
 20
-115.1946912689444
 30
0.0
 10
90.63443329982404
 20
-115.1946912689444
 30
0.0
 10
90.86938881191807
 20
-115.1946912689444
 30
0.0
 10
90.86938881191807
 20
-115.1946912689444
 30
0.0
 10
90.87180037875775
 20
-115.2687608218773
 30
0.0
 10
90.88316919385908
 20
-115.503544079197
 30
0.0
 10
91.18599308701253
 20
-115.503544079197
 30
0.0
 10
91.33309866423271
 20
-115.503544079197
 30
0.0
 10
91.49587942591076
 20
-115.4337808956207
 30
0.0
 10
91.49587942591076
 20
-115.2051988101744
 30
0.0
 10
91.49587942591076
 20
-115.0889268375472
 30
0.0
 10
91.45522729918481
 20
-115.0401787364309
 30
0.0
 10
91.42112085388084
 20
-115.0084838579666
 30
0.0
 10
91.34205591249435
 20
-114.9344143050338
 30
0.0
 10
91.21768796547683
 20
-114.9218397065126
 30
0.0
 10
91.15877683267907
 20
-114.9218397065126
 30
0.0
 10
91.13845076931608
 20
-114.9218397065126
 30
0.0
 10
91.10021020942982
 20
-114.9239067638038
 30
0.0
 10
91.07058238825667
 20
-114.9280408783861
 30
0.0
 10
91.07058238825667
 20
-114.9280408783861
 30
0.0
 10
91.07058238825667
 20
-114.7333929834694
 30
0.0
 10
91.07058238825667
 20
-114.7333929834694
 30
0.0
 10
91.11123451498261
 20
-114.7397664101171
 30
0.0
 10
91.15670977538791
 20
-114.7420057221826
 30
0.0
 10
91.16325545680988
 20
-114.7420057221826
 30
0.0
 10
91.23353540470899
 20
-114.7420057221826
 30
0.0
 10
91.44627005092316
 20
-114.7208183849483
 30
0.0
 10
91.44627005092316
 20
-114.4837958155631
 30
0.0
 10
91.44627005092316
 20
-114.3062011432985
 30
0.0
 10
91.30588240989923
 20
-114.2510796155345
 30
0.0
 10
91.1884046538522
 20
-114.2510796155345
 30
0.0
 10
90.90556231451319
 20
-114.2510796155345
 30
0.0
 10
90.89660506625155
 20
-114.4837958155631
 30
0.0
 10
90.89212644212073
 20
-114.5557983112048
 30
0.0
 10
90.89212644212073
 20
-114.5557983112048
 30
0.0
 10
90.67508542654998
 20
-114.5557983112048
 30
0.0
 10
90.67508542654998
 20
-114.5557983112048
 30
0.0
 10
90.68404267481164
 20
-114.4309135998645
 30
0.0
 10
90.71332598643626
 20
-114.0543646633267
 30
0.0
 10
91.20184052624468
 20
-114.0543646633267
 30
0.0
 10
91.44179142679234
 20
-114.0543646633267
 30
0.0
 10
91.69948456908902
 20
-114.1813164319582
 30
0.0
 10
91.69948456908902
 20
-114.4774223889154
 30
0.0
 10
91.69948456908902
 20
-114.6636297998931
 30
0.0
 10
91.59750974272562
 20
-114.7461398367649
 30
0.0
 10
91.49140080177993
 20
-114.8074625364023
 30
0.0
 10
91.55685761599968
 20
-114.8350233002843
 30
0.0
 10
91.75150551091629
 20
-114.9154662798649
 30
0.0
 10
91.75150551091629
 20
-115.1926242116532
 30
0.0
 10
91.75150551091629
 20
-115.531104843079
 30
0.0
 10
91.4869221776491
 20
-115.6981919741137
 30
0.0
 10
91.19047171114336
 20
-115.6981919741137
 30
0.0
  0
HATCH
  5
54
330
4F
100
AcDbEntity
  8
_U+30EC_U+30A4_U+30E4_U+30FC 1
 62
     7
420
 16777215
100
AcDbHatch
 10
0.0
 20
0.0
 30
0.0
210
0.0
220
0.0
230
1.0
  2
SOLID
 70
     1
 71
     0
 91
        1
 92
        1
 93
        1
 72
     4
 94
        3
 73
     0
 74
     1
 95
       62
 96
       58
 40
0.0
 40
0.0
 40
0.0
 40
0.0
 40
1.0
 40
1.0
 40
1.0
 40
2.0
 40
2.0
 40
2.0
 40
3.0
 40
3.0
 40
3.0
 40
4.0
 40
4.0
 40
4.0
 40
5.0
 40
5.0
 40
5.0
 40
6.0
 40
6.0
 40
6.0
 40
7.0
 40
7.0
 40
7.0
 40
8.0
 40
8.0
 40
8.0
 40
9.0
 40
9.0
 40
9.0
 40
10.0
 40
10.0
 40
10.0
 40
11.0
 40
11.0
 40
11.0
 40
12.0
 40
12.0
 40
12.0
 40
13.0
 40
13.0
 40
13.0
 40
14.0
 40
14.0
 40
14.0
 40
15.0
 40
15.0
 40
15.0
 40
16.0
 40
16.0
 40
16.0
 40
17.0
 40
17.0
 40
17.0
 40
18.0
 40
18.0
 40
18.0
 40
19.0
 40
19.0
 40
19.0
 40
19.0
 10
91.19047171114336
 20
-115.6981919741137
 10
91.08884139432848
 20
-115.6981919741137
 10
90.8559529395256
 20
-115.6770046368794
 10
90.72262774424642
 20
-115.4907972259016
 10
90.64339054808569
 20
-115.3786593678567
 10
90.63891192395486
 20
-115.2792683631073
 10
90.63443329982404
 20
-115.1946912689444
 10
90.63443329982404
 20
-115.1946912689444
 10
90.86938881191807
 20
-115.1946912689444
 10
90.86938881191807
 20
-115.1946912689444
 10
90.87180037875775
 20
-115.2687608218773
 10
90.88316919385908
 20
-115.503544079197
 10
91.18599308701253
 20
-115.503544079197
 10
91.33309866423271
 20
-115.503544079197
 10
91.49587942591076
 20
-115.4337808956207
 10
91.49587942591076
 20
-115.2051988101744
 10
91.49587942591076
 20
-115.0889268375472
 10
91.45522729918481
 20
-115.0401787364309
 10
91.42112085388084
 20
-115.0084838579666
 10
91.34205591249435
 20
-114.9344143050338
 10
91.21768796547683
 20
-114.9218397065126
 10
91.15877683267907
 20
-114.9218397065126
 10
91.13845076931608
 20
-114.9218397065126
 10
91.10021020942982
 20
-114.9239067638038
 10
91.07058238825667
 20
-114.9280408783861
 10
91.07058238825667
 20
-114.9280408783861
 10
91.07058238825667
 20
-114.7333929834694
 10
91.07058238825667
 20
-114.7333929834694
 10
91.11123451498261
 20
-114.7397664101171
 10
91.15670977538791
 20
-114.7420057221826
 10
91.16325545680988
 20
-114.7420057221826
 10
91.23353540470899
 20
-114.7420057221826
 10
91.44627005092316
 20
-114.7208183849483
 10
91.44627005092316
 20
-114.4837958155631
 10
91.44627005092316
 20
-114.3062011432985
 10
91.30588240989923
 20
-114.2510796155345
 10
91.1884046538522
 20
-114.2510796155345
 10
90.90556231451319
 20
-114.2510796155345
 10
90.89660506625155
 20
-114.4837958155631
 10
90.89212644212073
 20
-114.5557983112048
 10
90.89212644212073
 20
-114.5557983112048
 10
90.67508542654998
 20
-114.5557983112048
 10
90.67508542654998
 20
-114.5557983112048
 10
90.68404267481164
 20
-114.4309135998645
 10
90.71332598643626
 20
-114.0543646633267
 10
91.20184052624468
 20
-114.0543646633267
 10
91.44179142679234
 20
-114.0543646633267
 10
91.69948456908902
 20
-114.1813164319582
 10
91.69948456908902
 20
-114.4774223889154
 10
91.69948456908902
 20
-114.6636297998931
 10
91.59750974272562
 20
-114.7461398367649
 10
91.49140080177993
 20
-114.8074625364023
 10
91.55685761599968
 20
-114.8350233002843
 10
91.75150551091629
 20
-114.9154662798649
 10
91.75150551091629
 20
-115.1926242116532
 10
91.75150551091629
 20
-115.531104843079
 10
91.4869221776491
 20
-115.6981919741137
 10
91.19047171114336
 20
-115.6981919741137
 97
        0
 97
        0
 75
     2
 76
     1
 98
        0
  0
SPLINE
  5
55
330
4F
100
AcDbEntity
  8
_U+30EC_U+30A4_U+30E4_U+30FC 1
370
     0
100
AcDbSpline
210
0.0
220
0.0
230
1.0
 70
    11
 71
     3
 72
    44
 73
    40
 74
     0
 42
0.0000000001
 43
0.0000000001
 12
1.0
 22
0.0
 32
0.0
 13
1.0
 23
0.0
 33
0.0
 40
0.0
 40
0.0
 40
0.0
 40
0.0
 40
1.0
 40
1.0
 40
1.0
 40
2.0
 40
2.0
 40
2.0
 40
3.0
 40
3.0
 40
3.0
 40
4.0
 40
4.0
 40
4.0
 40
5.0
 40
5.0
 40
5.0
 40
6.0
 40
6.0
 40
6.0
 40
7.0
 40
7.0
 40
7.0
 40
8.0
 40
8.0
 40
8.0
 40
9.0
 40
9.0
 40
9.0
 40
10.0
 40
10.0
 40
10.0
 40
11.0
 40
11.0
 40
11.0
 40
12.0
 40
12.0
 40
12.0
 40
13.0
 40
13.0
 40
13.0
 40
13.0
 10
92.55696883536771
 20
-115.0656724430218
 30
0.0
 10
92.32408038056482
 20
-115.2243190901175
 30
0.0
 10
92.2245171210411
 20
-115.2983886430504
 30
0.0
 10
92.17284068876235
 20
-115.4422213795596
 30
0.0
 10
92.17284068876235
 20
-115.4422213795596
 30
0.0
 10
93.00448673890166
 20
-115.4422213795596
 30
0.0
 10
93.00448673890166
 20
-115.4422213795596
 30
0.0
 10
93.00448673890166
 20
-115.4422213795596
 30
0.0
 10
93.00448673890166
 20
-115.6473768157062
 30
0.0
 10
93.00448673890166
 20
-115.6473768157062
 30
0.0
 10
93.00448673890166
 20
-115.6473768157062
 30
0.0
 10
91.90584578865548
 20
-115.6473768157062
 30
0.0
 10
91.90584578865548
 20
-115.6473768157062
 30
0.0
 10
91.93995223395946
 20
-115.2897759043373
 30
0.0
 10
92.00988767231003
 20
-115.2115722368221
 30
0.0
 10
92.42123207324886
 20
-114.9132269677995
 30
0.0
 10
92.6947726547777
 20
-114.7144449583006
 30
0.0
 10
92.7650526026768
 20
-114.6467488320154
 30
0.0
 10
92.7650526026768
 20
-114.5092895221539
 30
0.0
 10
92.7650526026768
 20
-114.3907782374613
 30
0.0
 10
92.68822697335573
 20
-114.2596923542476
 30
0.0
 10
92.47773163920697
 20
-114.2596923542476
 30
0.0
 10
92.1997124335473
 20
-114.2596923542476
 30
0.0
 10
92.19075518528565
 20
-114.4901692422108
 30
0.0
 10
92.18627656115483
 20
-114.6066134696122
 30
0.0
 10
92.18627656115483
 20
-114.6066134696122
 30
0.0
 10
91.94649791538143
 20
-114.6066134696122
 30
0.0
 10
91.94649791538143
 20
-114.6066134696122
 30
0.0
 10
91.9557996731916
 20
-114.4796617009808
 30
0.0
 10
91.96682397874442
 20
-114.3675238429359
 30
0.0
 10
92.05295136587566
 20
-114.2490125582433
 30
0.0
 10
92.17042912192268
 20
-114.0882988538564
 30
0.0
 10
92.3692111314216
 20
-114.0543646633267
 30
0.0
 10
92.49357907843911
 20
-114.0543646633267
 30
0.0
 10
92.7898572901706
 20
-114.0543646633267
 30
0.0
 10
93.01137692987216
 20
-114.2385050170133
 30
0.0
 10
93.01137692987216
 20
-114.5113565794451
 30
0.0
 10
93.01137692987216
 20
-114.7397664101171
 30
0.0
 10
92.88700898285464
 20
-114.8393296696409
 30
0.0
 10
92.55696883536771
 20
-115.0656724430218
 30
0.0
  0
HATCH
  5
56
330
4F
100
AcDbEntity
  8
_U+30EC_U+30A4_U+30E4_U+30FC 1
 62
     7
420
 16777215
100
AcDbHatch
 10
0.0
 20
0.0
 30
0.0
210
0.0
220
0.0
230
1.0
  2
SOLID
 70
     1
 71
     0
 91
        1
 92
        1
 93
        1
 72
     4
 94
        3
 73
     0
 74
     1
 95
       44
 96
       40
 40
0.0
 40
0.0
 40
0.0
 40
0.0
 40
1.0
 40
1.0
 40
1.0
 40
2.0
 40
2.0
 40
2.0
 40
3.0
 40
3.0
 40
3.0
 40
4.0
 40
4.0
 40
4.0
 40
5.0
 40
5.0
 40
5.0
 40
6.0
 40
6.0
 40
6.0
 40
7.0
 40
7.0
 40
7.0
 40
8.0
 40
8.0
 40
8.0
 40
9.0
 40
9.0
 40
9.0
 40
10.0
 40
10.0
 40
10.0
 40
11.0
 40
11.0
 40
11.0
 40
12.0
 40
12.0
 40
12.0
 40
13.0
 40
13.0
 40
13.0
 40
13.0
 10
92.55696883536771
 20
-115.0656724430218
 10
92.32408038056482
 20
-115.2243190901175
 10
92.2245171210411
 20
-115.2983886430504
 10
92.17284068876235
 20
-115.4422213795596
 10
92.17284068876235
 20
-115.4422213795596
 10
93.00448673890166
 20
-115.4422213795596
 10
93.00448673890166
 20
-115.4422213795596
 10
93.00448673890166
 20
-115.4422213795596
 10
93.00448673890166
 20
-115.6473768157062
 10
93.00448673890166
 20
-115.6473768157062
 10
93.00448673890166
 20
-115.6473768157062
 10
91.90584578865548
 20
-115.6473768157062
 10
91.90584578865548
 20
-115.6473768157062
 10
91.93995223395946
 20
-115.2897759043373
 10
92.00988767231003
 20
-115.2115722368221
 10
92.42123207324886
 20
-114.9132269677995
 10
92.6947726547777
 20
-114.7144449583006
 10
92.7650526026768
 20
-114.6467488320154
 10
92.7650526026768
 20
-114.5092895221539
 10
92.7650526026768
 20
-114.3907782374613
 10
92.68822697335573
 20
-114.2596923542476
 10
92.47773163920697
 20
-114.2596923542476
 10
92.1997124335473
 20
-114.2596923542476
 10
92.19075518528565
 20
-114.4901692422108
 10
92.18627656115483
 20
-114.6066134696122
 10
92.18627656115483
 20
-114.6066134696122
 10
91.94649791538143
 20
-114.6066134696122
 10
91.94649791538143
 20
-114.6066134696122
 10
91.9557996731916
 20
-114.4796617009808
 10
91.96682397874442
 20
-114.3675238429359
 10
92.05295136587566
 20
-114.2490125582433
 10
92.17042912192268
 20
-114.0882988538564
 10
92.3692111314216
 20
-114.0543646633267
 10
92.49357907843911
 20
-114.0543646633267
 10
92.7898572901706
 20
-114.0543646633267
 10
93.01137692987216
 20
-114.2385050170133
 10
93.01137692987216
 20
-114.5113565794451
 10
93.01137692987216
 20
-114.7397664101171
 10
92.88700898285464
 20
-114.8393296696409
 10
92.55696883536771
 20
-115.0656724430218
 97
        0
 97
        0
 75
     2
 76
     1
 98
        0
  0
ENDBLK
  5
52
330
4F
100
AcDbEntity
  8
0
100
AcDbBlockEnd
  0
BLOCK
  5
68
330
66
100
AcDbEntity
  8
0
100
AcDbBlockBegin
  2
block 3
 70
     0
 10
0.0
 20
0.0
 30
0.0
  3
block 3
  1

  0
SPLINE
  5
6A
330
66
100
AcDbEntity
  8
_U+30EC_U+30A4_U+30E4_U+30FC 1
370
     0
100
AcDbSpline
210
0.0
220
0.0
230
1.0
 70
    11
 71
     3
 72
    26
 73
    22
 74
     0
 42
0.0000000001
 43
0.0000000001
 12
1.0
 22
0.0
 32
0.0
 13
1.0
 23
0.0
 33
0.0
 40
0.0
 40
0.0
 40
0.0
 40
0.0
 40
1.0
 40
1.0
 40
1.0
 40
2.0
 40
2.0
 40
2.0
 40
3.0
 40
3.0
 40
3.0
 40
4.0
 40
4.0
 40
4.0
 40
5.0
 40
5.0
 40
5.0
 40
6.0
 40
6.0
 40
6.0
 40
7.0
 40
7.0
 40
7.0
 40
7.0
 10
92.1473469821715
 20
-141.9017604896982
 30
0.0
 10
92.1473469821715
 20
-141.9017604896982
 30
0.0
 10
92.1473469821715
 20
-140.7976073866756
 30
0.0
 10
92.1473469821715
 20
-140.7976073866756
 30
0.0
 10
92.1473469821715
 20
-140.7976073866756
 30
0.0
 10
91.79491371403044
 20
-140.7976073866756
 30
0.0
 10
91.79491371403044
 20
-140.7976073866756
 30
0.0
 10
91.79491371403044
 20
-140.7976073866756
 30
0.0
 10
91.79491371403044
 20
-140.6494682808099
 30
0.0
 10
91.79491371403044
 20
-140.6494682808099
 30
0.0
 10
92.14975854901118
 20
-140.6346543702233
 30
0.0
 10
92.19936792399878
 20
-140.471701353771
 30
0.0
 10
92.23106280246307
 20
-140.3573241836607
 30
0.0
 10
92.23106280246307
 20
-140.3573241836607
 30
0.0
 10
92.38712562794488
 20
-140.3573241836607
 30
0.0
 10
92.38712562794488
 20
-140.3573241836607
 30
0.0
 10
92.38712562794488
 20
-140.3573241836607
 30
0.0
 10
92.38712562794488
 20
-141.9017604896982
 30
0.0
 10
92.38712562794488
 20
-141.9017604896982
 30
0.0
 10
92.38712562794488
 20
-141.9017604896982
 30
0.0
 10
92.1473469821715
 20
-141.9017604896982
 30
0.0
 10
92.1473469821715
 20
-141.9017604896982
 30
0.0
  0
HATCH
  5
6B
330
66
100
AcDbEntity
  8
_U+30EC_U+30A4_U+30E4_U+30FC 1
 62
     7
420
 16777215
100
AcDbHatch
 10
0.0
 20
0.0
 30
0.0
210
0.0
220
0.0
230
1.0
  2
SOLID
 70
     1
 71
     0
 91
        1
 92
        1
 93
        1
 72
     4
 94
        3
 73
     0
 74
     1
 95
       26
 96
       22
 40
0.0
 40
0.0
 40
0.0
 40
0.0
 40
1.0
 40
1.0
 40
1.0
 40
2.0
 40
2.0
 40
2.0
 40
3.0
 40
3.0
 40
3.0
 40
4.0
 40
4.0
 40
4.0
 40
5.0
 40
5.0
 40
5.0
 40
6.0
 40
6.0
 40
6.0
 40
7.0
 40
7.0
 40
7.0
 40
7.0
 10
92.1473469821715
 20
-141.9017604896982
 10
92.1473469821715
 20
-141.9017604896982
 10
92.1473469821715
 20
-140.7976073866756
 10
92.1473469821715
 20
-140.7976073866756
 10
92.1473469821715
 20
-140.7976073866756
 10
91.79491371403044
 20
-140.7976073866756
 10
91.79491371403044
 20
-140.7976073866756
 10
91.79491371403044
 20
-140.7976073866756
 10
91.79491371403044
 20
-140.6494682808099
 10
91.79491371403044
 20
-140.6494682808099
 10
92.14975854901118
 20
-140.6346543702233
 10
92.19936792399878
 20
-140.471701353771
 10
92.23106280246307
 20
-140.3573241836607
 10
92.23106280246307
 20
-140.3573241836607
 10
92.38712562794488
 20
-140.3573241836607
 10
92.38712562794488
 20
-140.3573241836607
 10
92.38712562794488
 20
-140.3573241836607
 10
92.38712562794488
 20
-141.9017604896982
 10
92.38712562794488
 20
-141.9017604896982
 10
92.38712562794488
 20
-141.9017604896982
 10
92.1473469821715
 20
-141.9017604896982
 10
92.1473469821715
 20
-141.9017604896982
 97
        0
 97
        0
 75
     2
 76
     1
 98
        0
  0
SPLINE
  5
6C
330
66
100
AcDbEntity
  8
_U+30EC_U+30A4_U+30E4_U+30FC 1
370
     0
100
AcDbSpline
210
0.0
220
0.0
230
1.0
 70
    11
 71
     3
 72
    29
 73
    25
 74
     0
 42
0.0000000001
 43
0.0000000001
 12
1.0
 22
0.0
 32
0.0
 13
1.0
 23
0.0
 33
0.0
 40
0.0
 40
0.0
 40
0.0
 40
0.0
 40
1.0
 40
1.0
 40
1.0
 40
2.0
 40
2.0
 40
2.0
 40
3.0
 40
3.0
 40
3.0
 40
4.0
 40
4.0
 40
4.0
 40
5.0
 40
5.0
 40
5.0
 40
6.0
 40
6.0
 40
6.0
 40
7.0
 40
7.0
 40
7.0
 40
8.0
 40
8.0
 40
8.0
 40
8.0
 10
93.88229706854332
 20
-141.7239935626593
 30
0.0
 10
93.76688636978744
 20
-141.9334553681625
 30
0.0
 10
93.58154023268101
 20
-141.9524033933313
 30
0.0
 10
93.45717228566349
 20
-141.9524033933313
 30
0.0
 10
93.28560653049804
 20
-141.9524033933313
 30
0.0
 10
93.13402232914706
 20
-141.9058946042805
 30
0.0
 10
93.03239201233218
 20
-141.7239935626593
 30
0.0
 10
92.92145993770714
 20
-141.5293456677427
 30
0.0
 10
92.90113387434417
 20
-141.2923230983575
 30
0.0
 10
92.90113387434417
 20
-141.1297145914537
 30
0.0
 10
92.90113387434417
 20
-140.9857096001703
 30
0.0
 10
92.91904837086746
 20
-140.7338731201985
 30
0.0
 10
93.03239201233218
 20
-140.5350911106996
 30
0.0
 10
93.14745820153954
 20
-140.3321749866184
 30
0.0
 10
93.3193684662535
 20
-140.3087483373187
 30
0.0
 10
93.45717228566349
 20
-140.3087483373187
 30
0.0
 10
93.6270154930863
 20
-140.3087483373187
 30
0.0
 10
93.78066675172845
 20
-140.3531900690784
 30
0.0
 10
93.88229706854332
 20
-140.5350911106996
 30
0.0
 10
93.98875051903754
 20
-140.727671948325
 30
0.0
 10
94.01355520653134
 20
-140.9560817789971
 30
0.0
 10
94.01355520653134
 20
-141.1297145914537
 30
0.0
 10
94.01355520653134
 20
-141.3009358370706
 30
0.0
 10
93.9908175763287
 20
-141.5314127250338
 30
0.0
 10
93.88229706854332
 20
-141.7239935626593
 30
0.0
  0
SPLINE
  5
6D
330
66
100
AcDbEntity
  8
_U+30EC_U+30A4_U+30E4_U+30FC 1
370
     0
100
AcDbSpline
210
0.0
220
0.0
230
1.0
 70
    11
 71
     3
 72
    17
 73
    13
 74
     0
 42
0.0000000001
 43
0.0000000001
 12
1.0
 22
0.0
 32
0.0
 13
1.0
 23
0.0
 33
0.0
 40
0.0
 40
0.0
 40
0.0
 40
0.0
 40
1.0
 40
1.0
 40
1.0
 40
2.0
 40
2.0
 40
2.0
 40
3.0
 40
3.0
 40
3.0
 40
4.0
 40
4.0
 40
4.0
 40
4.0
 10
93.45717228566349
 20
-140.5013291749441
 30
0.0
 10
93.19052189510515
 20
-140.5013291749441
 30
0.0
 10
93.14091252011755
 20
-140.7848605333802
 30
0.0
 10
93.14091252011755
 20
-141.1297145914537
 30
0.0
 10
93.14091252011755
 20
-141.4490749429363
 30
0.0
 10
93.17915308000383
 20
-141.7577554984147
 30
0.0
 10
93.45717228566349
 20
-141.7577554984147
 30
0.0
 10
93.72175561893067
 20
-141.7577554984147
 30
0.0
 10
93.77377656075795
 20
-141.4766357068183
 30
0.0
 10
93.77377656075795
 20
-141.1297145914537
 30
0.0
 10
93.77377656075795
 20
-140.8100097304225
 30
0.0
 10
93.733124434032
 20
-140.5013291749441
 30
0.0
 10
93.45717228566349
 20
-140.5013291749441
 30
0.0
  0
HATCH
  5
6E
330
66
100
AcDbEntity
  8
_U+30EC_U+30A4_U+30E4_U+30FC 1
 62
     7
420
 16777215
100
AcDbHatch
 10
0.0
 20
0.0
 30
0.0
210
0.0
220
0.0
230
1.0
  2
SOLID
 70
     1
 71
     0
 91
        2
 92
        1
 93
        1
 72
     4
 94
        3
 73
     0
 74
     1
 95
       29
 96
       25
 40
0.0
 40
0.0
 40
0.0
 40
0.0
 40
1.0
 40
1.0
 40
1.0
 40
2.0
 40
2.0
 40
2.0
 40
3.0
 40
3.0
 40
3.0
 40
4.0
 40
4.0
 40
4.0
 40
5.0
 40
5.0
 40
5.0
 40
6.0
 40
6.0
 40
6.0
 40
7.0
 40
7.0
 40
7.0
 40
8.0
 40
8.0
 40
8.0
 40
8.0
 10
93.88229706854332
 20
-141.7239935626593
 10
93.76688636978744
 20
-141.9334553681625
 10
93.58154023268101
 20
-141.9524033933313
 10
93.45717228566349
 20
-141.9524033933313
 10
93.28560653049804
 20
-141.9524033933313
 10
93.13402232914706
 20
-141.9058946042805
 10
93.03239201233218
 20
-141.7239935626593
 10
92.92145993770714
 20
-141.5293456677427
 10
92.90113387434417
 20
-141.2923230983575
 10
92.90113387434417
 20
-141.1297145914537
 10
92.90113387434417
 20
-140.9857096001703
 10
92.91904837086746
 20
-140.7338731201985
 10
93.03239201233218
 20
-140.5350911106996
 10
93.14745820153954
 20
-140.3321749866184
 10
93.3193684662535
 20
-140.3087483373187
 10
93.45717228566349
 20
-140.3087483373187
 10
93.6270154930863
 20
-140.3087483373187
 10
93.78066675172845
 20
-140.3531900690784
 10
93.88229706854332
 20
-140.5350911106996
 10
93.98875051903754
 20
-140.727671948325
 10
94.01355520653134
 20
-140.9560817789971
 10
94.01355520653134
 20
-141.1297145914537
 10
94.01355520653134
 20
-141.3009358370706
 10
93.9908175763287
 20
-141.5314127250338
 10
93.88229706854332
 20
-141.7239935626593
 97
        0
 97
        0
 92
        1
 93
        1
 72
     4
 94
        3
 73
     0
 74
     1
 95
       17
 96
       13
 40
0.0
 40
0.0
 40
0.0
 40
0.0
 40
1.0
 40
1.0
 40
1.0
 40
2.0
 40
2.0
 40
2.0
 40
3.0
 40
3.0
 40
3.0
 40
4.0
 40
4.0
 40
4.0
 40
4.0
 10
93.45717228566349
 20
-140.5013291749441
 10
93.19052189510515
 20
-140.5013291749441
 10
93.14091252011755
 20
-140.7848605333802
 10
93.14091252011755
 20
-141.1297145914537
 10
93.14091252011755
 20
-141.4490749429363
 10
93.17915308000383
 20
-141.7577554984147
 10
93.45717228566349
 20
-141.7577554984147
 10
93.72175561893067
 20
-141.7577554984147
 10
93.77377656075795
 20
-141.4766357068183
 10
93.77377656075795
 20
-141.1297145914537
 10
93.77377656075795
 20
-140.8100097304225
 10
93.733124434032
 20
-140.5013291749441
 10
93.45717228566349
 20
-140.5013291749441
 97
        0
 97
        0
 75
     2
 76
     1
 98
        0
  0
ENDBLK
  5
69
330
66
100
AcDbEntity
  8
0
100
AcDbBlockEnd
  0
BLOCK
  5
79
330
77
100
AcDbEntity
  8
0
100
AcDbBlockBegin
  2
block 4
 70
     0
 10
0.0
 20
0.0
 30
0.0
  3
block 4
  1

  0
SPLINE
  5
7B
330
77
100
AcDbEntity
  8
_U+30EC_U+30A4_U+30E4_U+30FC 1
370
     0
100
AcDbSpline
210
0.0
220
0.0
230
1.0
 70
    11
 71
     3
 72
    26
 73
    22
 74
     0
 42
0.0000000001
 43
0.0000000001
 12
1.0
 22
0.0
 32
0.0
 13
1.0
 23
0.0
 33
0.0
 40
0.0
 40
0.0
 40
0.0
 40
0.0
 40
1.0
 40
1.0
 40
1.0
 40
2.0
 40
2.0
 40
2.0
 40
3.0
 40
3.0
 40
3.0
 40
4.0
 40
4.0
 40
4.0
 40
5.0
 40
5.0
 40
5.0
 40
6.0
 40
6.0
 40
6.0
 40
7.0
 40
7.0
 40
7.0
 40
7.0
 10
81.1475016073173
 20
-141.9017604896982
 30
0.0
 10
81.1475016073173
 20
-141.9017604896982
 30
0.0
 10
81.1475016073173
 20
-140.7976073866756
 30
0.0
 10
81.1475016073173
 20
-140.7976073866756
 30
0.0
 10
81.1475016073173
 20
-140.7976073866756
 30
0.0
 10
80.79472382962771
 20
-140.7976073866756
 30
0.0
 10
80.79472382962771
 20
-140.7976073866756
 30
0.0
 10
80.79472382962771
 20
-140.7976073866756
 30
0.0
 10
80.79472382962771
 20
-140.6494682808099
 30
0.0
 10
80.79472382962771
 20
-140.6494682808099
 30
0.0
 10
81.14974091938271
 20
-140.6346543702233
 30
0.0
 10
81.19952254914456
 20
-140.471701353771
 30
0.0
 10
81.23121742760887
 20
-140.3573241836607
 30
0.0
 10
81.23121742760887
 20
-140.3573241836607
 30
0.0
 10
81.38710799831642
 20
-140.3573241836607
 30
0.0
 10
81.38710799831642
 20
-140.3573241836607
 30
0.0
 10
81.38710799831642
 20
-140.3573241836607
 30
0.0
 10
81.38710799831642
 20
-141.9017604896982
 30
0.0
 10
81.38710799831642
 20
-141.9017604896982
 30
0.0
 10
81.38710799831642
 20
-141.9017604896982
 30
0.0
 10
81.1475016073173
 20
-141.9017604896982
 30
0.0
 10
81.1475016073173
 20
-141.9017604896982
 30
0.0
  0
HATCH
  5
7C
330
77
100
AcDbEntity
  8
_U+30EC_U+30A4_U+30E4_U+30FC 1
 62
     7
420
 16777215
100
AcDbHatch
 10
0.0
 20
0.0
 30
0.0
210
0.0
220
0.0
230
1.0
  2
SOLID
 70
     1
 71
     0
 91
        1
 92
        1
 93
        1
 72
     4
 94
        3
 73
     0
 74
     1
 95
       26
 96
       22
 40
0.0
 40
0.0
 40
0.0
 40
0.0
 40
1.0
 40
1.0
 40
1.0
 40
2.0
 40
2.0
 40
2.0
 40
3.0
 40
3.0
 40
3.0
 40
4.0
 40
4.0
 40
4.0
 40
5.0
 40
5.0
 40
5.0
 40
6.0
 40
6.0
 40
6.0
 40
7.0
 40
7.0
 40
7.0
 40
7.0
 10
81.1475016073173
 20
-141.9017604896982
 10
81.1475016073173
 20
-141.9017604896982
 10
81.1475016073173
 20
-140.7976073866756
 10
81.1475016073173
 20
-140.7976073866756
 10
81.1475016073173
 20
-140.7976073866756
 10
80.79472382962771
 20
-140.7976073866756
 10
80.79472382962771
 20
-140.7976073866756
 10
80.79472382962771
 20
-140.7976073866756
 10
80.79472382962771
 20
-140.6494682808099
 10
80.79472382962771
 20
-140.6494682808099
 10
81.14974091938271
 20
-140.6346543702233
 10
81.19952254914456
 20
-140.471701353771
 10
81.23121742760887
 20
-140.3573241836607
 10
81.23121742760887
 20
-140.3573241836607
 10
81.38710799831642
 20
-140.3573241836607
 10
81.38710799831642
 20
-140.3573241836607
 10
81.38710799831642
 20
-140.3573241836607
 10
81.38710799831642
 20
-141.9017604896982
 10
81.38710799831642
 20
-141.9017604896982
 10
81.38710799831642
 20
-141.9017604896982
 10
81.1475016073173
 20
-141.9017604896982
 10
81.1475016073173
 20
-141.9017604896982
 97
        0
 97
        0
 75
     2
 76
     1
 98
        0
  0
SPLINE
  5
7D
330
77
100
AcDbEntity
  8
_U+30EC_U+30A4_U+30E4_U+30FC 1
370
     0
100
AcDbSpline
210
0.0
220
0.0
230
1.0
 70
    11
 71
     3
 72
    44
 73
    40
 74
     0
 42
0.0000000001
 43
0.0000000001
 12
1.0
 22
0.0
 32
0.0
 13
1.0
 23
0.0
 33
0.0
 40
0.0
 40
0.0
 40
0.0
 40
0.0
 40
1.0
 40
1.0
 40
1.0
 40
2.0
 40
2.0
 40
2.0
 40
3.0
 40
3.0
 40
3.0
 40
4.0
 40
4.0
 40
4.0
 40
5.0
 40
5.0
 40
5.0
 40
6.0
 40
6.0
 40
6.0
 40
7.0
 40
7.0
 40
7.0
 40
8.0
 40
8.0
 40
8.0
 40
9.0
 40
9.0
 40
9.0
 40
10.0
 40
10.0
 40
10.0
 40
11.0
 40
11.0
 40
11.0
 40
12.0
 40
12.0
 40
12.0
 40
13.0
 40
13.0
 40
13.0
 40
13.0
 10
82.55671791555874
 20
-141.3198838622395
 30
0.0
 10
82.32382946075585
 20
-141.4787027641095
 30
0.0
 10
82.2244384560064
 20
-141.5527723170424
 30
0.0
 10
82.17241751417912
 20
-141.6964327987773
 30
0.0
 10
82.17241751417912
 20
-141.6964327987773
 30
0.0
 10
83.00440807386695
 20
-141.6964327987773
 30
0.0
 10
83.00440807386695
 20
-141.6964327987773
 30
0.0
 10
83.00440807386695
 20
-141.6964327987773
 30
0.0
 10
83.00440807386695
 20
-141.9017604896982
 30
0.0
 10
83.00440807386695
 20
-141.9017604896982
 30
0.0
 10
83.00440807386695
 20
-141.9017604896982
 30
0.0
 10
81.90559486884652
 20
-141.9017604896982
 30
0.0
 10
81.90559486884652
 20
-141.9017604896982
 30
0.0
 10
81.93952905937623
 20
-141.5441595783292
 30
0.0
 10
82.00963675250107
 20
-141.4659559108141
 30
0.0
 10
82.42115340821417
 20
-141.1676106417914
 30
0.0
 10
82.694693989743
 20
-140.9688286322925
 30
0.0
 10
82.76480168286783
 20
-140.9009602512331
 30
0.0
 10
82.76480168286783
 20
-140.7635009413716
 30
0.0
 10
82.76480168286783
 20
-140.644989656679
 30
0.0
 10
82.68780379877249
 20
-140.5140760282395
 30
0.0
 10
82.47765297417226
 20
-140.5140760282395
 30
0.0
 10
82.1996337685126
 20
-140.5140760282395
 30
0.0
 10
82.19050426547669
 20
-140.7445529162028
 30
0.0
 10
82.18602564134586
 20
-140.8609971436042
 30
0.0
 10
82.18602564134586
 20
-140.8609971436042
 30
0.0
 10
81.94641925034674
 20
-140.8609971436042
 30
0.0
 10
81.94641925034674
 20
-140.8609971436042
 30
0.0
 10
81.95537649860839
 20
-140.7338731201985
 30
0.0
 10
81.96674531370971
 20
-140.6219075169279
 30
0.0
 10
82.05252819129242
 20
-140.5033962322353
 30
0.0
 10
82.1701782021137
 20
-140.3425102730741
 30
0.0
 10
82.36913246638689
 20
-140.3087483373187
 30
0.0
 10
82.4935004134044
 20
-140.3087483373187
 30
0.0
 10
82.78960637036162
 20
-140.3087483373187
 30
0.0
 10
83.0111260100632
 20
-140.492716436231
 30
0.0
 10
83.0111260100632
 20
-140.7655679986628
 30
0.0
 10
83.0111260100632
 20
-140.9943223388834
 30
0.0
 10
82.88693031781993
 20
-141.0935410888586
 30
0.0
 10
82.55671791555874
 20
-141.3198838622395
 30
0.0
  0
HATCH
  5
7E
330
77
100
AcDbEntity
  8
_U+30EC_U+30A4_U+30E4_U+30FC 1
 62
     7
420
 16777215
100
AcDbHatch
 10
0.0
 20
0.0
 30
0.0
210
0.0
220
0.0
230
1.0
  2
SOLID
 70
     1
 71
     0
 91
        1
 92
        1
 93
        1
 72
     4
 94
        3
 73
     0
 74
     1
 95
       44
 96
       40
 40
0.0
 40
0.0
 40
0.0
 40
0.0
 40
1.0
 40
1.0
 40
1.0
 40
2.0
 40
2.0
 40
2.0
 40
3.0
 40
3.0
 40
3.0
 40
4.0
 40
4.0
 40
4.0
 40
5.0
 40
5.0
 40
5.0
 40
6.0
 40
6.0
 40
6.0
 40
7.0
 40
7.0
 40
7.0
 40
8.0
 40
8.0
 40
8.0
 40
9.0
 40
9.0
 40
9.0
 40
10.0
 40
10.0
 40
10.0
 40
11.0
 40
11.0
 40
11.0
 40
12.0
 40
12.0
 40
12.0
 40
13.0
 40
13.0
 40
13.0
 40
13.0
 10
82.55671791555874
 20
-141.3198838622395
 10
82.32382946075585
 20
-141.4787027641095
 10
82.2244384560064
 20
-141.5527723170424
 10
82.17241751417912
 20
-141.6964327987773
 10
82.17241751417912
 20
-141.6964327987773
 10
83.00440807386695
 20
-141.6964327987773
 10
83.00440807386695
 20
-141.6964327987773
 10
83.00440807386695
 20
-141.6964327987773
 10
83.00440807386695
 20
-141.9017604896982
 10
83.00440807386695
 20
-141.9017604896982
 10
83.00440807386695
 20
-141.9017604896982
 10
81.90559486884652
 20
-141.9017604896982
 10
81.90559486884652
 20
-141.9017604896982
 10
81.93952905937623
 20
-141.5441595783292
 10
82.00963675250107
 20
-141.4659559108141
 10
82.42115340821417
 20
-141.1676106417914
 10
82.694693989743
 20
-140.9688286322925
 10
82.76480168286783
 20
-140.9009602512331
 10
82.76480168286783
 20
-140.7635009413716
 10
82.76480168286783
 20
-140.644989656679
 10
82.68780379877249
 20
-140.5140760282395
 10
82.47765297417226
 20
-140.5140760282395
 10
82.1996337685126
 20
-140.5140760282395
 10
82.19050426547669
 20
-140.7445529162028
 10
82.18602564134586
 20
-140.8609971436042
 10
82.18602564134586
 20
-140.8609971436042
 10
81.94641925034674
 20
-140.8609971436042
 10
81.94641925034674
 20
-140.8609971436042
 10
81.95537649860839
 20
-140.7338731201985
 10
81.96674531370971
 20
-140.6219075169279
 10
82.05252819129242
 20
-140.5033962322353
 10
82.1701782021137
 20
-140.3425102730741
 10
82.36913246638689
 20
-140.3087483373187
 10
82.4935004134044
 20
-140.3087483373187
 10
82.78960637036162
 20
-140.3087483373187
 10
83.0111260100632
 20
-140.492716436231
 10
83.0111260100632
 20
-140.7655679986628
 10
83.0111260100632
 20
-140.9943223388834
 10
82.88693031781993
 20
-141.0935410888586
 10
82.55671791555874
 20
-141.3198838622395
 97
        0
 97
        0
 75
     2
 76
     1
 98
        0
  0
ENDBLK
  5
7A
330
77
100
AcDbEntity
  8
0
100
AcDbBlockEnd
  0
BLOCK
  5
95
330
93
100
AcDbEntity
  8
0
100
AcDbBlockBegin
  2
block 5
 70
     0
 10
0.0
 20
0.0
 30
0.0
  3
block 5
  1

  0
SPLINE
  5
97
330
93
100
AcDbEntity
  8
_U+30EC_U+30A4_U+30E4_U+30FC 1
370
     0
100
AcDbSpline
210
0.0
220
0.0
230
1.0
 70
    11
 71
     3
 72
    26
 73
    22
 74
     0
 42
0.0000000001
 43
0.0000000001
 12
1.0
 22
0.0
 32
0.0
 13
1.0
 23
0.0
 33
0.0
 40
0.0
 40
0.0
 40
0.0
 40
0.0
 40
1.0
 40
1.0
 40
1.0
 40
2.0
 40
2.0
 40
2.0
 40
3.0
 40
3.0
 40
3.0
 40
4.0
 40
4.0
 40
4.0
 40
5.0
 40
5.0
 40
5.0
 40
6.0
 40
6.0
 40
6.0
 40
7.0
 40
7.0
 40
7.0
 40
7.0
 10
111.4498724764778
 20
-118.9446777046388
 30
0.0
 10
111.4498724764778
 20
-118.9446777046388
 30
0.0
 10
110.3457193734552
 20
-118.9446777046388
 30
0.0
 10
110.3457193734552
 20
-118.9446777046388
 30
0.0
 10
110.3457193734552
 20
-118.9446777046388
 30
0.0
 10
110.3457193734552
 20
-119.2974554823284
 30
0.0
 10
110.3457193734552
 20
-119.2974554823284
 30
0.0
 10
110.3457193734552
 20
-119.2974554823284
 30
0.0
 10
110.1975802675895
 20
-119.2974554823284
 30
0.0
 10
110.1975802675895
 20
-119.2974554823284
 30
0.0
 10
110.1827663570029
 20
-118.9424383925734
 30
0.0
 10
110.0198133405506
 20
-118.8926567628116
 30
0.0
 10
109.9054361704403
 20
-118.8609618843473
 30
0.0
 10
109.9054361704403
 20
-118.8609618843473
 30
0.0
 10
109.9054361704403
 20
-118.7050713136397
 30
0.0
 10
109.9054361704403
 20
-118.7050713136397
 30
0.0
 10
109.9054361704403
 20
-118.7050713136397
 30
0.0
 10
111.4498724764778
 20
-118.7050713136397
 30
0.0
 10
111.4498724764778
 20
-118.7050713136397
 30
0.0
 10
111.4498724764778
 20
-118.7050713136397
 30
0.0
 10
111.4498724764778
 20
-118.9446777046388
 30
0.0
 10
111.4498724764778
 20
-118.9446777046388
 30
0.0
  0
HATCH
  5
98
330
93
100
AcDbEntity
  8
_U+30EC_U+30A4_U+30E4_U+30FC 1
 62
     7
420
 16777215
100
AcDbHatch
 10
0.0
 20
0.0
 30
0.0
210
0.0
220
0.0
230
1.0
  2
SOLID
 70
     1
 71
     0
 91
        1
 92
        1
 93
        1
 72
     4
 94
        3
 73
     0
 74
     1
 95
       26
 96
       22
 40
0.0
 40
0.0
 40
0.0
 40
0.0
 40
1.0
 40
1.0
 40
1.0
 40
2.0
 40
2.0
 40
2.0
 40
3.0
 40
3.0
 40
3.0
 40
4.0
 40
4.0
 40
4.0
 40
5.0
 40
5.0
 40
5.0
 40
6.0
 40
6.0
 40
6.0
 40
7.0
 40
7.0
 40
7.0
 40
7.0
 10
111.4498724764778
 20
-118.9446777046388
 10
111.4498724764778
 20
-118.9446777046388
 10
110.3457193734552
 20
-118.9446777046388
 10
110.3457193734552
 20
-118.9446777046388
 10
110.3457193734552
 20
-118.9446777046388
 10
110.3457193734552
 20
-119.2974554823284
 10
110.3457193734552
 20
-119.2974554823284
 10
110.3457193734552
 20
-119.2974554823284
 10
110.1975802675895
 20
-119.2974554823284
 10
110.1975802675895
 20
-119.2974554823284
 10
110.1827663570029
 20
-118.9424383925734
 10
110.0198133405506
 20
-118.8926567628116
 10
109.9054361704403
 20
-118.8609618843473
 10
109.9054361704403
 20
-118.8609618843473
 10
109.9054361704403
 20
-118.7050713136397
 10
109.9054361704403
 20
-118.7050713136397
 10
109.9054361704403
 20
-118.7050713136397
 10
111.4498724764778
 20
-118.7050713136397
 10
111.4498724764778
 20
-118.7050713136397
 10
111.4498724764778
 20
-118.7050713136397
 10
111.4498724764778
 20
-118.9446777046388
 10
111.4498724764778
 20
-118.9446777046388
 97
        0
 97
        0
 75
     2
 76
     1
 98
        0
  0
ENDBLK
  5
96
330
93
100
AcDbEntity
  8
0
100
AcDbBlockEnd
  0
BLOCK
  5
A3
330
A1
100
AcDbEntity
  8
0
100
AcDbBlockBegin
  2
block 6
 70
     0
 10
0.0
 20
0.0
 30
0.0
  3
block 6
  1

  0
SPLINE
  5
A5
330
A1
100
AcDbEntity
  8
_U+30EC_U+30A4_U+30E4_U+30FC 1
370
     0
100
AcDbSpline
210
0.0
220
0.0
230
1.0
 70
    11
 71
     3
 72
    62
 73
    58
 74
     0
 42
0.0000000001
 43
0.0000000001
 12
1.0
 22
0.0
 32
0.0
 13
1.0
 23
0.0
 33
0.0
 40
0.0
 40
0.0
 40
0.0
 40
0.0
 40
1.0
 40
1.0
 40
1.0
 40
2.0
 40
2.0
 40
2.0
 40
3.0
 40
3.0
 40
3.0
 40
4.0
 40
4.0
 40
4.0
 40
5.0
 40
5.0
 40
5.0
 40
6.0
 40
6.0
 40
6.0
 40
7.0
 40
7.0
 40
7.0
 40
8.0
 40
8.0
 40
8.0
 40
9.0
 40
9.0
 40
9.0
 40
10.0
 40
10.0
 40
10.0
 40
11.0
 40
11.0
 40
11.0
 40
12.0
 40
12.0
 40
12.0
 40
13.0
 40
13.0
 40
13.0
 40
14.0
 40
14.0
 40
14.0
 40
15.0
 40
15.0
 40
15.0
 40
16.0
 40
16.0
 40
16.0
 40
17.0
 40
17.0
 40
17.0
 40
18.0
 40
18.0
 40
18.0
 40
19.0
 40
19.0
 40
19.0
 40
19.0
 10
111.501204399208
 20
-137.3025580168896
 30
0.0
 10
111.501204399208
 20
-137.404532843253
 30
0.0
 10
111.480189316748
 20
-137.6374212980559
 30
0.0
 10
111.2941541605445
 20
-137.7707464933351
 30
0.0
 10
111.1818440477254
 20
-137.8496391799473
 30
0.0
 10
111.0826252977502
 20
-137.8544623136267
 30
0.0
 10
110.997875948813
 20
-137.8589409377575
 30
0.0
 10
110.997875948813
 20
-137.8589409377575
 30
0.0
 10
110.997875948813
 20
-137.6236409161149
 30
0.0
 10
110.997875948813
 20
-137.6236409161149
 30
0.0
 10
111.0719455017459
 20
-137.6215738588238
 30
0.0
 10
111.3065565042914
 20
-137.6102050437225
 30
0.0
 10
111.3065565042914
 20
-137.3070366410205
 30
0.0
 10
111.3065565042914
 20
-137.1602755733488
 30
0.0
 10
111.2369655754894
 20
-136.9973225568965
 30
0.0
 10
111.0085557448173
 20
-136.9973225568965
 30
0.0
 10
110.8921115174159
 20
-136.9973225568965
 30
0.0
 10
110.8435356710738
 20
-137.038319193171
 30
0.0
 10
110.8118407926095
 20
-137.0720811289264
 30
0.0
 10
110.7377712396767
 20
-137.1513183250872
 30
0.0
 10
110.7250243863812
 20
-137.2756862721047
 30
0.0
 10
110.7250243863812
 20
-137.334252895354
 30
0.0
 10
110.7250243863812
 20
-137.3545789587169
 30
0.0
 10
110.7270914436724
 20
-137.3931640281517
 30
0.0
 10
110.7312255582547
 20
-137.4224473397763
 30
0.0
 10
110.7312255582547
 20
-137.4224473397763
 30
0.0
 10
110.5365776633381
 20
-137.4224473397763
 30
0.0
 10
110.5365776633381
 20
-137.4224473397763
 30
0.0
 10
110.5431233447601
 20
-137.3817952130504
 30
0.0
 10
110.5451904020512
 20
-137.3366644621936
 30
0.0
 10
110.5451904020512
 20
-137.3297742712231
 30
0.0
 10
110.5451904020512
 20
-137.2598388328726
 30
0.0
 10
110.5238308100427
 20
-137.0472764414326
 30
0.0
 10
110.287152750206
 20
-137.0472764414326
 30
0.0
 10
110.1093858231671
 20
-137.0472764414326
 30
0.0
 10
110.0542642954031
 20
-137.1874918276823
 30
0.0
 10
110.0542642954031
 20
-137.3049695837293
 30
0.0
 10
110.0542642954031
 20
-137.5874674135198
 30
0.0
 10
110.287152750206
 20
-137.5964246617815
 30
0.0
 10
110.3588107362992
 20
-137.6012477954608
 30
0.0
 10
110.3588107362992
 20
-137.6012477954608
 30
0.0
 10
110.3588107362992
 20
-137.8182888110316
 30
0.0
 10
110.3588107362992
 20
-137.8182888110316
 30
0.0
 10
110.2340982797331
 20
-137.8089870532214
 30
0.0
 10
109.8575493431953
 20
-137.7797037415967
 30
0.0
 10
109.8575493431953
 20
-137.2915337113369
 30
0.0
 10
109.8575493431953
 20
-137.0517550655635
 30
0.0
 10
109.9846733666011
 20
-136.7940619232668
 30
0.0
 10
110.280607068784
 20
-136.7940619232668
 30
0.0
 10
110.466986734536
 20
-136.7940619232668
 30
0.0
 10
110.5493245166335
 20
-136.8956922400816
 30
0.0
 10
110.6106472162709
 20
-137.0021456905759
 30
0.0
 10
110.638207980153
 20
-136.9363443668076
 30
0.0
 10
110.7184787049593
 20
-136.7420409814395
 30
0.0
 10
110.9958088915219
 20
-136.7420409814395
 30
0.0
 10
111.3341172681734
 20
-136.7420409814395
 30
0.0
 10
111.501204399208
 20
-137.0066243147067
 30
0.0
 10
111.501204399208
 20
-137.3025580168896
 30
0.0
  0
HATCH
  5
A6
330
A1
100
AcDbEntity
  8
_U+30EC_U+30A4_U+30E4_U+30FC 1
 62
     7
420
 16777215
100
AcDbHatch
 10
0.0
 20
0.0
 30
0.0
210
0.0
220
0.0
230
1.0
  2
SOLID
 70
     1
 71
     0
 91
        1
 92
        1
 93
        1
 72
     4
 94
        3
 73
     0
 74
     1
 95
       62
 96
       58
 40
0.0
 40
0.0
 40
0.0
 40
0.0
 40
1.0
 40
1.0
 40
1.0
 40
2.0
 40
2.0
 40
2.0
 40
3.0
 40
3.0
 40
3.0
 40
4.0
 40
4.0
 40
4.0
 40
5.0
 40
5.0
 40
5.0
 40
6.0
 40
6.0
 40
6.0
 40
7.0
 40
7.0
 40
7.0
 40
8.0
 40
8.0
 40
8.0
 40
9.0
 40
9.0
 40
9.0
 40
10.0
 40
10.0
 40
10.0
 40
11.0
 40
11.0
 40
11.0
 40
12.0
 40
12.0
 40
12.0
 40
13.0
 40
13.0
 40
13.0
 40
14.0
 40
14.0
 40
14.0
 40
15.0
 40
15.0
 40
15.0
 40
16.0
 40
16.0
 40
16.0
 40
17.0
 40
17.0
 40
17.0
 40
18.0
 40
18.0
 40
18.0
 40
19.0
 40
19.0
 40
19.0
 40
19.0
 10
111.501204399208
 20
-137.3025580168896
 10
111.501204399208
 20
-137.404532843253
 10
111.480189316748
 20
-137.6374212980559
 10
111.2941541605445
 20
-137.7707464933351
 10
111.1818440477254
 20
-137.8496391799473
 10
111.0826252977502
 20
-137.8544623136267
 10
110.997875948813
 20
-137.8589409377575
 10
110.997875948813
 20
-137.8589409377575
 10
110.997875948813
 20
-137.6236409161149
 10
110.997875948813
 20
-137.6236409161149
 10
111.0719455017459
 20
-137.6215738588238
 10
111.3065565042914
 20
-137.6102050437225
 10
111.3065565042914
 20
-137.3070366410205
 10
111.3065565042914
 20
-137.1602755733488
 10
111.2369655754894
 20
-136.9973225568965
 10
111.0085557448173
 20
-136.9973225568965
 10
110.8921115174159
 20
-136.9973225568965
 10
110.8435356710738
 20
-137.038319193171
 10
110.8118407926095
 20
-137.0720811289264
 10
110.7377712396767
 20
-137.1513183250872
 10
110.7250243863812
 20
-137.2756862721047
 10
110.7250243863812
 20
-137.334252895354
 10
110.7250243863812
 20
-137.3545789587169
 10
110.7270914436724
 20
-137.3931640281517
 10
110.7312255582547
 20
-137.4224473397763
 10
110.7312255582547
 20
-137.4224473397763
 10
110.5365776633381
 20
-137.4224473397763
 10
110.5365776633381
 20
-137.4224473397763
 10
110.5431233447601
 20
-137.3817952130504
 10
110.5451904020512
 20
-137.3366644621936
 10
110.5451904020512
 20
-137.3297742712231
 10
110.5451904020512
 20
-137.2598388328726
 10
110.5238308100427
 20
-137.0472764414326
 10
110.287152750206
 20
-137.0472764414326
 10
110.1093858231671
 20
-137.0472764414326
 10
110.0542642954031
 20
-137.1874918276823
 10
110.0542642954031
 20
-137.3049695837293
 10
110.0542642954031
 20
-137.5874674135198
 10
110.287152750206
 20
-137.5964246617815
 10
110.3588107362992
 20
-137.6012477954608
 10
110.3588107362992
 20
-137.6012477954608
 10
110.3588107362992
 20
-137.8182888110316
 10
110.3588107362992
 20
-137.8182888110316
 10
110.2340982797331
 20
-137.8089870532214
 10
109.8575493431953
 20
-137.7797037415967
 10
109.8575493431953
 20
-137.2915337113369
 10
109.8575493431953
 20
-137.0517550655635
 10
109.9846733666011
 20
-136.7940619232668
 10
110.280607068784
 20
-136.7940619232668
 10
110.466986734536
 20
-136.7940619232668
 10
110.5493245166335
 20
-136.8956922400816
 10
110.6106472162709
 20
-137.0021456905759
 10
110.638207980153
 20
-136.9363443668076
 10
110.7184787049593
 20
-136.7420409814395
 10
110.9958088915219
 20
-136.7420409814395
 10
111.3341172681734
 20
-136.7420409814395
 10
111.501204399208
 20
-137.0066243147067
 10
111.501204399208
 20
-137.3025580168896
 97
        0
 97
        0
 75
     2
 76
     1
 98
        0
  0
ENDBLK
  5
A4
330
A1
100
AcDbEntity
  8
0
100
AcDbBlockEnd
  0
BLOCK
  5
B1
330
AF
100
AcDbEntity
  8
0
100
AcDbBlockBegin
  2
block 7
 70
     0
 10
0.0
 20
0.0
 30
0.0
  3
block 7
  1

  0
SPLINE
  5
B3
330
AF
100
AcDbEntity
  8
_U+30EC_U+30A4_U+30E4_U+30FC 1
370
     0
100
AcDbSpline
210
0.0
220
0.0
230
1.0
 70
    11
 71
     3
 72
    26
 73
    22
 74
     0
 42
0.0000000001
 43
0.0000000001
 12
1.0
 22
0.0
 32
0.0
 13
1.0
 23
0.0
 33
0.0
 40
0.0
 40
0.0
 40
0.0
 40
0.0
 40
1.0
 40
1.0
 40
1.0
 40
2.0
 40
2.0
 40
2.0
 40
3.0
 40
3.0
 40
3.0
 40
4.0
 40
4.0
 40
4.0
 40
5.0
 40
5.0
 40
5.0
 40
6.0
 40
6.0
 40
6.0
 40
7.0
 40
7.0
 40
7.0
 40
7.0
 10
111.4505614955749
 20
-130.8574733830843
 30
0.0
 10
111.4505614955749
 20
-130.8574733830843
 30
0.0
 10
110.3464083925523
 20
-130.8574733830843
 30
0.0
 10
110.3464083925523
 20
-130.8574733830843
 30
0.0
 10
110.3464083925523
 20
-130.8574733830843
 30
0.0
 10
110.3464083925523
 20
-131.2099066512253
 30
0.0
 10
110.3464083925523
 20
-131.2099066512253
 30
0.0
 10
110.3464083925523
 20
-131.2099066512253
 30
0.0
 10
110.1982692866866
 20
-131.2099066512253
 30
0.0
 10
110.1982692866866
 20
-131.2099066512253
 30
0.0
 10
110.1834553761
 20
-130.8550618162446
 30
0.0
 10
110.0205023596477
 20
-130.805452441257
 30
0.0
 10
109.9061251895374
 20
-130.7737575627927
 30
0.0
 10
109.9061251895374
 20
-130.7737575627927
 30
0.0
 10
109.9061251895374
 20
-130.6176947373109
 30
0.0
 10
109.9061251895374
 20
-130.6176947373109
 30
0.0
 10
109.9061251895374
 20
-130.6176947373109
 30
0.0
 10
111.4505614955749
 20
-130.6176947373109
 30
0.0
 10
111.4505614955749
 20
-130.6176947373109
 30
0.0
 10
111.4505614955749
 20
-130.6176947373109
 30
0.0
 10
111.4505614955749
 20
-130.8574733830843
 30
0.0
 10
111.4505614955749
 20
-130.8574733830843
 30
0.0
  0
HATCH
  5
B4
330
AF
100
AcDbEntity
  8
_U+30EC_U+30A4_U+30E4_U+30FC 1
 62
     7
420
 16777215
100
AcDbHatch
 10
0.0
 20
0.0
 30
0.0
210
0.0
220
0.0
230
1.0
  2
SOLID
 70
     1
 71
     0
 91
        1
 92
        1
 93
        1
 72
     4
 94
        3
 73
     0
 74
     1
 95
       26
 96
       22
 40
0.0
 40
0.0
 40
0.0
 40
0.0
 40
1.0
 40
1.0
 40
1.0
 40
2.0
 40
2.0
 40
2.0
 40
3.0
 40
3.0
 40
3.0
 40
4.0
 40
4.0
 40
4.0
 40
5.0
 40
5.0
 40
5.0
 40
6.0
 40
6.0
 40
6.0
 40
7.0
 40
7.0
 40
7.0
 40
7.0
 10
111.4505614955749
 20
-130.8574733830843
 10
111.4505614955749
 20
-130.8574733830843
 10
110.3464083925523
 20
-130.8574733830843
 10
110.3464083925523
 20
-130.8574733830843
 10
110.3464083925523
 20
-130.8574733830843
 10
110.3464083925523
 20
-131.2099066512253
 10
110.3464083925523
 20
-131.2099066512253
 10
110.3464083925523
 20
-131.2099066512253
 10
110.1982692866866
 20
-131.2099066512253
 10
110.1982692866866
 20
-131.2099066512253
 10
110.1834553761
 20
-130.8550618162446
 10
110.0205023596477
 20
-130.805452441257
 10
109.9061251895374
 20
-130.7737575627927
 10
109.9061251895374
 20
-130.7737575627927
 10
109.9061251895374
 20
-130.6176947373109
 10
109.9061251895374
 20
-130.6176947373109
 10
109.9061251895374
 20
-130.6176947373109
 10
111.4505614955749
 20
-130.6176947373109
 10
111.4505614955749
 20
-130.6176947373109
 10
111.4505614955749
 20
-130.6176947373109
 10
111.4505614955749
 20
-130.8574733830843
 10
111.4505614955749
 20
-130.8574733830843
 97
        0
 97
        0
 75
     2
 76
     1
 98
        0
  0
SPLINE
  5
B5
330
AF
100
AcDbEntity
  8
_U+30EC_U+30A4_U+30E4_U+30FC 1
370
     0
100
AcDbSpline
210
0.0
220
0.0
230
1.0
 70
    11
 71
     3
 72
    44
 73
    40
 74
     0
 42
0.0000000001
 43
0.0000000001
 12
1.0
 22
0.0
 32
0.0
 13
1.0
 23
0.0
 33
0.0
 40
0.0
 40
0.0
 40
0.0
 40
0.0
 40
1.0
 40
1.0
 40
1.0
 40
2.0
 40
2.0
 40
2.0
 40
3.0
 40
3.0
 40
3.0
 40
4.0
 40
4.0
 40
4.0
 40
5.0
 40
5.0
 40
5.0
 40
6.0
 40
6.0
 40
6.0
 40
7.0
 40
7.0
 40
7.0
 40
8.0
 40
8.0
 40
8.0
 40
9.0
 40
9.0
 40
9.0
 40
10.0
 40
10.0
 40
10.0
 40
11.0
 40
11.0
 40
11.0
 40
12.0
 40
12.0
 40
12.0
 40
13.0
 40
13.0
 40
13.0
 40
13.0
 10
110.8686848681162
 20
-129.4480848200685
 30
0.0
 10
111.0275037699862
 20
-129.6809732748714
 30
0.0
 10
111.1015733229191
 20
-129.7805365343951
 30
0.0
 10
111.245233804654
 20
-129.8325574762224
 30
0.0
 10
111.245233804654
 20
-129.8325574762224
 30
0.0
 10
111.245233804654
 20
-129.0002224069861
 30
0.0
 10
111.245233804654
 20
-129.0002224069861
 30
0.0
 10
111.245233804654
 20
-129.0002224069861
 30
0.0
 10
111.4505614955749
 20
-129.0002224069861
 30
0.0
 10
111.4505614955749
 20
-129.0002224069861
 30
0.0
 10
111.4505614955749
 20
-129.0002224069861
 30
0.0
 10
111.4505614955749
 20
-130.0992078667808
 30
0.0
 10
111.4505614955749
 20
-130.0992078667808
 30
0.0
 10
111.0929605842059
 20
-130.0651014214768
 30
0.0
 10
111.0147569166908
 20
-129.9951659831262
 30
0.0
 10
110.7164116476681
 20
-129.5838215821874
 30
0.0
 10
110.5176296381692
 20
-129.3102810006585
 30
0.0
 10
110.4497612571098
 20
-129.2400010527595
 30
0.0
 10
110.3123019472483
 20
-129.2400010527595
 30
0.0
 10
110.1937906625557
 20
-129.2400010527595
 30
0.0
 10
110.0628770341162
 20
-129.3168266820805
 30
0.0
 10
110.0628770341162
 20
-129.5273220162293
 30
0.0
 10
110.0628770341162
 20
-129.8053412218889
 30
0.0
 10
110.2933539220794
 20
-129.8142984701506
 30
0.0
 10
110.4097981494809
 20
-129.8187770942814
 30
0.0
 10
110.4097981494809
 20
-129.8187770942814
 30
0.0
 10
110.4097981494809
 20
-130.0585557400548
 30
0.0
 10
110.4097981494809
 20
-130.0585557400548
 30
0.0
 10
110.2826741260752
 20
-130.0495984917931
 30
0.0
 10
110.1707085228045
 20
-130.0382296766918
 30
0.0
 10
110.052197238112
 20
-129.9521022895606
 30
0.0
 10
109.8913112789508
 20
-129.8346245335136
 30
0.0
 10
109.8575493431953
 20
-129.6358425240147
 30
0.0
 10
109.8575493431953
 20
-129.5114745769971
 30
0.0
 10
109.8575493431953
 20
-129.2151963652657
 30
0.0
 10
110.0415174421077
 20
-128.9936767255641
 30
0.0
 10
110.3143690045395
 20
-128.9936767255641
 30
0.0
 10
110.5431233447601
 20
-128.9936767255641
 30
0.0
 10
110.6423420947353
 20
-129.1180446725816
 30
0.0
 10
110.8686848681162
 20
-129.4480848200685
 30
0.0
  0
HATCH
  5
B6
330
AF
100
AcDbEntity
  8
_U+30EC_U+30A4_U+30E4_U+30FC 1
 62
     7
420
 16777215
100
AcDbHatch
 10
0.0
 20
0.0
 30
0.0
210
0.0
220
0.0
230
1.0
  2
SOLID
 70
     1
 71
     0
 91
        1
 92
        1
 93
        1
 72
     4
 94
        3
 73
     0
 74
     1
 95
       44
 96
       40
 40
0.0
 40
0.0
 40
0.0
 40
0.0
 40
1.0
 40
1.0
 40
1.0
 40
2.0
 40
2.0
 40
2.0
 40
3.0
 40
3.0
 40
3.0
 40
4.0
 40
4.0
 40
4.0
 40
5.0
 40
5.0
 40
5.0
 40
6.0
 40
6.0
 40
6.0
 40
7.0
 40
7.0
 40
7.0
 40
8.0
 40
8.0
 40
8.0
 40
9.0
 40
9.0
 40
9.0
 40
10.0
 40
10.0
 40
10.0
 40
11.0
 40
11.0
 40
11.0
 40
12.0
 40
12.0
 40
12.0
 40
13.0
 40
13.0
 40
13.0
 40
13.0
 10
110.8686848681162
 20
-129.4480848200685
 10
111.0275037699862
 20
-129.6809732748714
 10
111.1015733229191
 20
-129.7805365343951
 10
111.245233804654
 20
-129.8325574762224
 10
111.245233804654
 20
-129.8325574762224
 10
111.245233804654
 20
-129.0002224069861
 10
111.245233804654
 20
-129.0002224069861
 10
111.245233804654
 20
-129.0002224069861
 10
111.4505614955749
 20
-129.0002224069861
 10
111.4505614955749
 20
-129.0002224069861
 10
111.4505614955749
 20
-129.0002224069861
 10
111.4505614955749
 20
-130.0992078667808
 10
111.4505614955749
 20
-130.0992078667808
 10
111.0929605842059
 20
-130.0651014214768
 10
111.0147569166908
 20
-129.9951659831262
 10
110.7164116476681
 20
-129.5838215821874
 10
110.5176296381692
 20
-129.3102810006585
 10
110.4497612571098
 20
-129.2400010527595
 10
110.3123019472483
 20
-129.2400010527595
 10
110.1937906625557
 20
-129.2400010527595
 10
110.0628770341162
 20
-129.3168266820805
 10
110.0628770341162
 20
-129.5273220162293
 10
110.0628770341162
 20
-129.8053412218889
 10
110.2933539220794
 20
-129.8142984701506
 10
110.4097981494809
 20
-129.8187770942814
 10
110.4097981494809
 20
-129.8187770942814
 10
110.4097981494809
 20
-130.0585557400548
 10
110.4097981494809
 20
-130.0585557400548
 10
110.2826741260752
 20
-130.0495984917931
 10
110.1707085228045
 20
-130.0382296766918
 10
110.052197238112
 20
-129.9521022895606
 10
109.8913112789508
 20
-129.8346245335136
 10
109.8575493431953
 20
-129.6358425240147
 10
109.8575493431953
 20
-129.5114745769971
 10
109.8575493431953
 20
-129.2151963652657
 10
110.0415174421077
 20
-128.9936767255641
 10
110.3143690045395
 20
-128.9936767255641
 10
110.5431233447601
 20
-128.9936767255641
 10
110.6423420947353
 20
-129.1180446725816
 10
110.8686848681162
 20
-129.4480848200685
 97
        0
 97
        0
 75
     2
 76
     1
 98
        0
  0
POLYLINE
  5
B7
330
AF
100
AcDbEntity
  8
_U+30EC_U+30A4_U+30E4_U+30FC 1
370
     0
100
AcDb2dPolyline
 66
     1
 10
0.0
 20
0.0
 30
0.0
  0
VERTEX
  5
B8
330
B7
100
AcDbEntity
  8
_U+30EC_U+30A4_U+30E4_U+30FC 1
370
     0
100
AcDbVertex
100
AcDb2dVertex
 10
111.4505614955749
 20
-128.7600992516641
 30
0.0
  0
VERTEX
  5
B9
330
B7
100
AcDbEntity
  8
_U+30EC_U+30A4_U+30E4_U+30FC 1
370
     0
100
AcDbVertex
100
AcDb2dVertex
 10
111.1987250156031
 20
-128.7600992516641
 30
0.0
  0
VERTEX
  5
BA
330
B7
100
AcDbEntity
  8
_U+30EC_U+30A4_U+30E4_U+30FC 1
370
     0
100
AcDbVertex
100
AcDb2dVertex
 10
111.1987250156031
 20
-128.4910372942661
 30
0.0
  0
VERTEX
  5
BB
330
B7
100
AcDbEntity
  8
_U+30EC_U+30A4_U+30E4_U+30FC 1
370
     0
100
AcDbVertex
100
AcDb2dVertex
 10
111.4505614955749
 20
-128.4910372942661
 30
0.0
  0
VERTEX
  5
BC
330
B7
100
AcDbEntity
  8
_U+30EC_U+30A4_U+30E4_U+30FC 1
370
     0
100
AcDbVertex
100
AcDb2dVertex
 10
111.4505614955749
 20
-128.7600992516641
 30
0.0
  0
SEQEND
  5
BD
330
B7
100
AcDbEntity
  8
_U+30EC_U+30A4_U+30E4_U+30FC 1
370
     0
  0
HATCH
  5
BE
330
AF
100
AcDbEntity
  8
_U+30EC_U+30A4_U+30E4_U+30FC 1
 62
     7
420
 16777215
100
AcDbHatch
 10
0.0
 20
0.0
 30
0.0
210
0.0
220
0.0
230
1.0
  2
SOLID
 70
     1
 71
     0
 91
        1
 92
        1
 93
        4
 72
     1
 10
111.4505614955749
 20
-128.7600992516641
 11
111.1987250156031
 21
-128.7600992516641
 72
     1
 10
111.1987250156031
 20
-128.7600992516641
 11
111.1987250156031
 21
-128.4910372942661
 72
     1
 10
111.1987250156031
 20
-128.4910372942661
 11
111.4505614955749
 21
-128.4910372942661
 72
     1
 10
111.4505614955749
 20
-128.4910372942661
 11
111.4505614955749
 21
-128.7600992516641
 97
        0
 75
     2
 76
     1
 98
        0
  0
SPLINE
  5
BF
330
AF
100
AcDbEntity
  8
_U+30EC_U+30A4_U+30E4_U+30FC 1
370
     0
100
AcDbSpline
210
0.0
220
0.0
230
1.0
 70
    11
 71
     3
 72
    29
 73
    25
 74
     0
 42
0.0000000001
 43
0.0000000001
 12
1.0
 22
0.0
 32
0.0
 13
1.0
 23
0.0
 33
0.0
 40
0.0
 40
0.0
 40
0.0
 40
0.0
 40
1.0
 40
1.0
 40
1.0
 40
2.0
 40
2.0
 40
2.0
 40
3.0
 40
3.0
 40
3.0
 40
4.0
 40
4.0
 40
4.0
 40
5.0
 40
5.0
 40
5.0
 40
6.0
 40
6.0
 40
6.0
 40
7.0
 40
7.0
 40
7.0
 40
8.0
 40
8.0
 40
8.0
 40
8.0
 10
111.501204399208
 20
-127.7041774854351
 30
0.0
 10
111.501204399208
 20
-127.9887423725167
 30
0.0
 10
111.3637450893466
 20
-128.2602158967544
 30
0.0
 10
111.0147569166908
 20
-128.2602158967544
 30
0.0
 10
110.7587863221367
 20
-128.2602158967544
 30
0.0
 10
110.6637016867438
 20
-128.1086316954034
 30
0.0
 10
110.6023789871063
 20
-127.9956325634872
 30
0.0
 10
110.5431233447601
 20
-128.1289577587664
 30
0.0
 10
110.4287461746498
 20
-128.2106065217668
 30
0.0
 10
110.2678602154886
 20
-128.2106065217668
 30
0.0
 10
109.9929415957657
 20
-128.2106065217668
 30
0.0
 10
109.8575493431953
 20
-127.9980441303269
 30
0.0
 10
109.8575493431953
 20
-127.7041774854351
 30
0.0
 10
109.8575493431953
 20
-127.4010090827331
 30
0.0
 10
110.0015543344788
 20
-127.1977484491033
 30
0.0
 10
110.2678602154886
 20
-127.1977484491033
 30
0.0
 10
110.4287461746498
 20
-127.1977484491033
 30
0.0
 10
110.5431233447601
 20
-127.2811197598464
 30
0.0
 10
110.6023789871063
 20
-127.4147894646741
 30
0.0
 10
110.6530218907395
 20
-127.3197048292812
 30
0.0
 10
110.7481065261324
 20
-127.1502061314069
 30
0.0
 10
111.0106228021085
 20
-127.1502061314069
 30
0.0
 10
111.3851046813551
 20
-127.1502061314069
 30
0.0
 10
111.501204399208
 20
-127.4485514004295
 30
0.0
 10
111.501204399208
 20
-127.7041774854351
 30
0.0
  0
SPLINE
  5
C0
330
AF
100
AcDbEntity
  8
_U+30EC_U+30A4_U+30E4_U+30FC 1
370
     0
100
AcDbSpline
210
0.0
220
0.0
230
1.0
 70
    11
 71
     3
 72
    17
 73
    13
 74
     0
 42
0.0000000001
 43
0.0000000001
 12
1.0
 22
0.0
 32
0.0
 13
1.0
 23
0.0
 33
0.0
 40
0.0
 40
0.0
 40
0.0
 40
0.0
 40
1.0
 40
1.0
 40
1.0
 40
2.0
 40
2.0
 40
2.0
 40
3.0
 40
3.0
 40
3.0
 40
4.0
 40
4.0
 40
4.0
 40
4.0
 10
110.0501301808208
 20
-127.7041774854351
 30
0.0
 10
110.0501301808208
 20
-127.8805663742799
 30
0.0
 10
110.1452148162137
 20
-127.9708278759934
 30
0.0
 10
110.280607068784
 20
-127.9708278759934
 30
0.0
 10
110.4032524680589
 20
-127.9708278759934
 30
0.0
 10
110.5217637527515
 20
-127.8940022466723
 30
0.0
 10
110.5217637527515
 20
-127.7041774854351
 30
0.0
 10
110.5217637527515
 20
-127.5140082146493
 30
0.0
 10
110.4032524680589
 20
-127.4371825853282
 30
0.0
 10
110.280607068784
 20
-127.4371825853282
 30
0.0
 10
110.1452148162137
 20
-127.4371825853282
 30
0.0
 10
110.0501301808208
 20
-127.5298556538814
 30
0.0
 10
110.0501301808208
 20
-127.7041774854351
 30
0.0
  0
SPLINE
  5
C1
330
AF
100
AcDbEntity
  8
_U+30EC_U+30A4_U+30E4_U+30FC 1
370
     0
100
AcDbSpline
210
0.0
220
0.0
230
1.0
 70
    11
 71
     3
 72
    17
 73
    13
 74
     0
 42
0.0000000001
 43
0.0000000001
 12
1.0
 22
0.0
 32
0.0
 13
1.0
 23
0.0
 33
0.0
 40
0.0
 40
0.0
 40
0.0
 40
0.0
 40
1.0
 40
1.0
 40
1.0
 40
2.0
 40
2.0
 40
2.0
 40
3.0
 40
3.0
 40
3.0
 40
4.0
 40
4.0
 40
4.0
 40
4.0
 10
110.7102104757947
 20
-127.7041774854351
 30
0.0
 10
110.7102104757947
 20
-127.8578287440772
 30
0.0
 10
110.797026882023
 20
-128.020437250981
 30
0.0
 10
110.9999430061042
 20
-128.020437250981
 30
0.0
 10
111.2052706970251
 20
-128.020437250981
 30
0.0
 10
111.3065565042914
 20
-127.8850449984107
 30
0.0
 10
111.3065565042914
 20
-127.7041774854351
 30
0.0
 10
111.3065565042914
 20
-127.5050509663876
 30
0.0
 10
111.1839111050165
 20
-127.3875732103406
 30
0.0
 10
111.0061441779776
 20
-127.3875732103406
 30
0.0
 10
110.7842800287276
 20
-127.3875732103406
 30
0.0
 10
110.7102104757947
 20
-127.5615505323457
 30
0.0
 10
110.7102104757947
 20
-127.7041774854351
 30
0.0
  0
HATCH
  5
C2
330
AF
100
AcDbEntity
  8
_U+30EC_U+30A4_U+30E4_U+30FC 1
 62
     7
420
 16777215
100
AcDbHatch
 10
0.0
 20
0.0
 30
0.0
210
0.0
220
0.0
230
1.0
  2
SOLID
 70
     1
 71
     0
 91
        3
 92
        1
 93
        1
 72
     4
 94
        3
 73
     0
 74
     1
 95
       29
 96
       25
 40
0.0
 40
0.0
 40
0.0
 40
0.0
 40
1.0
 40
1.0
 40
1.0
 40
2.0
 40
2.0
 40
2.0
 40
3.0
 40
3.0
 40
3.0
 40
4.0
 40
4.0
 40
4.0
 40
5.0
 40
5.0
 40
5.0
 40
6.0
 40
6.0
 40
6.0
 40
7.0
 40
7.0
 40
7.0
 40
8.0
 40
8.0
 40
8.0
 40
8.0
 10
111.501204399208
 20
-127.7041774854351
 10
111.501204399208
 20
-127.9887423725167
 10
111.3637450893466
 20
-128.2602158967544
 10
111.0147569166908
 20
-128.2602158967544
 10
110.7587863221367
 20
-128.2602158967544
 10
110.6637016867438
 20
-128.1086316954034
 10
110.6023789871063
 20
-127.9956325634872
 10
110.5431233447601
 20
-128.1289577587664
 10
110.4287461746498
 20
-128.2106065217668
 10
110.2678602154886
 20
-128.2106065217668
 10
109.9929415957657
 20
-128.2106065217668
 10
109.8575493431953
 20
-127.9980441303269
 10
109.8575493431953
 20
-127.7041774854351
 10
109.8575493431953
 20
-127.4010090827331
 10
110.0015543344788
 20
-127.1977484491033
 10
110.2678602154886
 20
-127.1977484491033
 10
110.4287461746498
 20
-127.1977484491033
 10
110.5431233447601
 20
-127.2811197598464
 10
110.6023789871063
 20
-127.4147894646741
 10
110.6530218907395
 20
-127.3197048292812
 10
110.7481065261324
 20
-127.1502061314069
 10
111.0106228021085
 20
-127.1502061314069
 10
111.3851046813551
 20
-127.1502061314069
 10
111.501204399208
 20
-127.4485514004295
 10
111.501204399208
 20
-127.7041774854351
 97
        0
 97
        0
 92
        1
 93
        1
 72
     4
 94
        3
 73
     0
 74
     1
 95
       17
 96
       13
 40
0.0
 40
0.0
 40
0.0
 40
0.0
 40
1.0
 40
1.0
 40
1.0
 40
2.0
 40
2.0
 40
2.0
 40
3.0
 40
3.0
 40
3.0
 40
4.0
 40
4.0
 40
4.0
 40
4.0
 10
110.0501301808208
 20
-127.7041774854351
 10
110.0501301808208
 20
-127.8805663742799
 10
110.1452148162137
 20
-127.9708278759934
 10
110.280607068784
 20
-127.9708278759934
 10
110.4032524680589
 20
-127.9708278759934
 10
110.5217637527515
 20
-127.8940022466723
 10
110.5217637527515
 20
-127.7041774854351
 10
110.5217637527515
 20
-127.5140082146493
 10
110.4032524680589
 20
-127.4371825853282
 10
110.280607068784
 20
-127.4371825853282
 10
110.1452148162137
 20
-127.4371825853282
 10
110.0501301808208
 20
-127.5298556538814
 10
110.0501301808208
 20
-127.7041774854351
 97
        0
 97
        0
 92
        1
 93
        1
 72
     4
 94
        3
 73
     0
 74
     1
 95
       17
 96
       13
 40
0.0
 40
0.0
 40
0.0
 40
0.0
 40
1.0
 40
1.0
 40
1.0
 40
2.0
 40
2.0
 40
2.0
 40
3.0
 40
3.0
 40
3.0
 40
4.0
 40
4.0
 40
4.0
 40
4.0
 10
110.7102104757947
 20
-127.7041774854351
 10
110.7102104757947
 20
-127.8578287440772
 10
110.797026882023
 20
-128.020437250981
 10
110.9999430061042
 20
-128.020437250981
 10
111.2052706970251
 20
-128.020437250981
 10
111.3065565042914
 20
-127.8850449984107
 10
111.3065565042914
 20
-127.7041774854351
 10
111.3065565042914
 20
-127.5050509663876
 10
111.1839111050165
 20
-127.3875732103406
 10
111.0061441779776
 20
-127.3875732103406
 10
110.7842800287276
 20
-127.3875732103406
 10
110.7102104757947
 20
-127.5615505323457
 10
110.7102104757947
 20
-127.7041774854351
 97
        0
 97
        0
 75
     2
 76
     1
 98
        0
  0
ENDBLK
  5
B2
330
AF
100
AcDbEntity
  8
0
100
AcDbBlockEnd
  0
BLOCK
  5
D3
330
D1
100
AcDbEntity
  8
0
100
AcDbBlockBegin
  2
block 8
 70
     0
 10
0.0
 20
0.0
 30
0.0
  3
block 8
  1

  0
SPLINE
  5
D5
330
D1
100
AcDbEntity
  8
_U+30EC_U+30A4_U+30E4_U+30FC 1
370
     0
100
AcDbSpline
210
0.0
220
0.0
230
1.0
 70
    11
 71
     3
 72
    44
 73
    40
 74
     0
 42
0.0000000001
 43
0.0000000001
 12
1.0
 22
0.0
 32
0.0
 13
1.0
 23
0.0
 33
0.0
 40
0.0
 40
0.0
 40
0.0
 40
0.0
 40
1.0
 40
1.0
 40
1.0
 40
2.0
 40
2.0
 40
2.0
 40
3.0
 40
3.0
 40
3.0
 40
4.0
 40
4.0
 40
4.0
 40
5.0
 40
5.0
 40
5.0
 40
6.0
 40
6.0
 40
6.0
 40
7.0
 40
7.0
 40
7.0
 40
8.0
 40
8.0
 40
8.0
 40
9.0
 40
9.0
 40
9.0
 40
10.0
 40
10.0
 40
10.0
 40
11.0
 40
11.0
 40
11.0
 40
12.0
 40
12.0
 40
12.0
 40
13.0
 40
13.0
 40
13.0
 40
13.0
 10
70.54470348713814
 20
-122.8805270417625
 30
0.0
 10
70.70335013423389
 20
-123.1134154965654
 30
0.0
 10
70.77741968716676
 20
-123.2128065013149
 30
0.0
 10
70.92125242367594
 20
-123.2648274431421
 30
0.0
 10
70.92125242367594
 20
-123.2648274431421
 30
0.0
 10
70.92125242367594
 20
-122.4328368834543
 30
0.0
 10
70.92125242367594
 20
-122.4328368834543
 30
0.0
 10
70.92125242367594
 20
-122.4328368834543
 30
0.0
 10
71.12640785982256
 20
-122.4328368834543
 30
0.0
 10
71.12640785982256
 20
-122.4328368834543
 30
0.0
 10
71.12640785982256
 20
-122.4328368834543
 30
0.0
 10
71.12640785982256
 20
-123.5316500884747
 30
0.0
 10
71.12640785982256
 20
-123.5316500884747
 30
0.0
 10
70.76880694845363
 20
-123.497715897945
 30
0.0
 10
70.69060328093846
 20
-123.4276082048202
 30
0.0
 10
70.39225801191583
 20
-123.0160915491071
 30
0.0
 10
70.19347600241692
 20
-122.7425509675783
 30
0.0
 10
70.12577987613176
 20
-122.6724432744534
 30
0.0
 10
69.98832056627029
 20
-122.6724432744534
 30
0.0
 10
69.86980928157769
 20
-122.6724432744534
 30
0.0
 10
69.73872339836393
 20
-122.7492689037745
 30
0.0
 10
69.73872339836393
 20
-122.959591983149
 30
0.0
 10
69.73872339836393
 20
-123.2376111888087
 30
0.0
 10
69.96920028632715
 20
-123.2467406918446
 30
0.0
 10
70.0856445137286
 20
-123.2512193159754
 30
0.0
 10
70.0856445137286
 20
-123.2512193159754
 30
0.0
 10
70.0856445137286
 20
-123.4908257069745
 30
0.0
 10
70.0856445137286
 20
-123.4908257069745
 30
0.0
 10
69.95869274509714
 20
-123.4818684587129
 30
0.0
 10
69.84655488705225
 20
-123.4704996436115
 30
0.0
 10
69.72804360235966
 20
-123.3847167660288
 30
0.0
 10
69.56732989797275
 20
-123.2670667552076
 30
0.0
 10
69.53339570744305
 20
-123.0681124909344
 30
0.0
 10
69.53339570744305
 20
-122.9437445439168
 30
0.0
 10
69.53339570744305
 20
-122.6476385869596
 30
0.0
 10
69.71753606112965
 20
-122.4261189472581
 30
0.0
 10
69.99038762356143
 20
-122.4261189472581
 30
0.0
 10
70.2187974542335
 20
-122.4261189472581
 30
0.0
 10
70.31836071375722
 20
-122.5503146395013
 30
0.0
 10
70.54470348713814
 20
-122.8805270417625
 30
0.0
  0
HATCH
  5
D6
330
D1
100
AcDbEntity
  8
_U+30EC_U+30A4_U+30E4_U+30FC 1
 62
     7
420
 16777215
100
AcDbHatch
 10
0.0
 20
0.0
 30
0.0
210
0.0
220
0.0
230
1.0
  2
SOLID
 70
     1
 71
     0
 91
        1
 92
        1
 93
        1
 72
     4
 94
        3
 73
     0
 74
     1
 95
       44
 96
       40
 40
0.0
 40
0.0
 40
0.0
 40
0.0
 40
1.0
 40
1.0
 40
1.0
 40
2.0
 40
2.0
 40
2.0
 40
3.0
 40
3.0
 40
3.0
 40
4.0
 40
4.0
 40
4.0
 40
5.0
 40
5.0
 40
5.0
 40
6.0
 40
6.0
 40
6.0
 40
7.0
 40
7.0
 40
7.0
 40
8.0
 40
8.0
 40
8.0
 40
9.0
 40
9.0
 40
9.0
 40
10.0
 40
10.0
 40
10.0
 40
11.0
 40
11.0
 40
11.0
 40
12.0
 40
12.0
 40
12.0
 40
13.0
 40
13.0
 40
13.0
 40
13.0
 10
70.54470348713814
 20
-122.8805270417625
 10
70.70335013423389
 20
-123.1134154965654
 10
70.77741968716676
 20
-123.2128065013149
 10
70.92125242367594
 20
-123.2648274431421
 10
70.92125242367594
 20
-123.2648274431421
 10
70.92125242367594
 20
-122.4328368834543
 10
70.92125242367594
 20
-122.4328368834543
 10
70.92125242367594
 20
-122.4328368834543
 10
71.12640785982256
 20
-122.4328368834543
 10
71.12640785982256
 20
-122.4328368834543
 10
71.12640785982256
 20
-122.4328368834543
 10
71.12640785982256
 20
-123.5316500884747
 10
71.12640785982256
 20
-123.5316500884747
 10
70.76880694845363
 20
-123.497715897945
 10
70.69060328093846
 20
-123.4276082048202
 10
70.39225801191583
 20
-123.0160915491071
 10
70.19347600241692
 20
-122.7425509675783
 10
70.12577987613176
 20
-122.6724432744534
 10
69.98832056627029
 20
-122.6724432744534
 10
69.86980928157769
 20
-122.6724432744534
 10
69.73872339836393
 20
-122.7492689037745
 10
69.73872339836393
 20
-122.959591983149
 10
69.73872339836393
 20
-123.2376111888087
 10
69.96920028632715
 20
-123.2467406918446
 10
70.0856445137286
 20
-123.2512193159754
 10
70.0856445137286
 20
-123.2512193159754
 10
70.0856445137286
 20
-123.4908257069745
 10
70.0856445137286
 20
-123.4908257069745
 10
69.95869274509714
 20
-123.4818684587129
 10
69.84655488705225
 20
-123.4704996436115
 10
69.72804360235966
 20
-123.3847167660288
 10
69.56732989797275
 20
-123.2670667552076
 10
69.53339570744305
 20
-123.0681124909344
 10
69.53339570744305
 20
-122.9437445439168
 10
69.53339570744305
 20
-122.6476385869596
 10
69.71753606112965
 20
-122.4261189472581
 10
69.99038762356143
 20
-122.4261189472581
 10
70.2187974542335
 20
-122.4261189472581
 10
70.31836071375722
 20
-122.5503146395013
 10
70.54470348713814
 20
-122.8805270417625
 97
        0
 97
        0
 75
     2
 76
     1
 98
        0
  0
ENDBLK
  5
D4
330
D1
100
AcDbEntity
  8
0
100
AcDbBlockEnd
  0
ENDSEC
  0
SECTION
  2
ENTITIES
  0
SPLINE
  5
41
330
1F
100
AcDbEntity
  8
_U+30EC_U+30A4_U+30E4_U+30FC 1
 62
     7
420
 16777215
370
     9
100
AcDbSpline
210
0.0
220
0.0
230
1.0
 70
    11
 71
     3
 72
    17
 73
    13
 74
     0
 42
0.0000000001
 43
0.0000000001
 12
1.0
 22
0.0
 32
0.0
 13
1.0
 23
0.0
 33
0.0
 40
0.0
 40
0.0
 40
0.0
 40
0.0
 40
1.0
 40
1.0
 40
1.0
 40
2.0
 40
2.0
 40
2.0
 40
3.0
 40
3.0
 40
3.0
 40
4.0
 40
4.0
 40
4.0
 40
4.0
 10
108.1863230732703
 20
-116.243734970939
 30
0.0
 10
108.1863230732703
 20
-116.1885958042863
 30
0.0
 10
108.1415583062978
 20
-116.1438283042974
 30
0.0
 10
108.0864164091524
 20
-116.1438283042974
 30
0.0
 10
108.0313125216694
 20
-116.1438283042974
 30
0.0
 10
107.9865097450346
 20
-116.1885958042863
 30
0.0
 10
107.9865097450346
 20
-116.243734970939
 30
0.0
 10
107.9865097450346
 20
-116.2988388598142
 30
0.0
 10
108.0313125216694
 20
-116.3436416375806
 30
0.0
 10
108.0864164091524
 20
-116.3436416375806
 30
0.0
 10
108.1415583062978
 20
-116.3436416375806
 30
0.0
 10
108.1863230732703
 20
-116.2988388598142
 30
0.0
 10
108.1863230732703
 20
-116.243734970939
 30
0.0
  0
SPLINE
  5
42
330
1F
100
AcDbEntity
  8
_U+30EC_U+30A4_U+30E4_U+30FC 1
 62
     7
420
 16777215
370
     9
100
AcDbSpline
210
0.0
220
0.0
230
1.0
 70
    11
 71
     3
 72
    17
 73
    13
 74
     0
 42
0.0000000001
 43
0.0000000001
 12
1.0
 22
0.0
 32
0.0
 13
1.0
 23
0.0
 33
0.0
 40
0.0
 40
0.0
 40
0.0
 40
0.0
 40
1.0
 40
1.0
 40
1.0
 40
2.0
 40
2.0
 40
2.0
 40
3.0
 40
3.0
 40
3.0
 40
4.0
 40
4.0
 40
4.0
 40
4.0
 10
76.18655722298566
 20
-116.243734970939
 30
0.0
 10
76.18655722298566
 20
-116.1885958042863
 30
0.0
 10
76.14179164763124
 20
-116.1438283042974
 30
0.0
 10
76.08665055886783
 20
-116.1438283042974
 30
0.0
 10
76.03154667138476
 20
-116.1438283042974
 30
0.0
 10
75.98674389474999
 20
-116.1885958042863
 30
0.0
 10
75.98674389474999
 20
-116.243734970939
 30
0.0
 10
75.98674389474999
 20
-116.2988388598142
 30
0.0
 10
76.03154667138476
 20
-116.3436416375806
 30
0.0
 10
76.08665055886783
 20
-116.3436416375806
 30
0.0
 10
76.14179164763124
 20
-116.3436416375806
 30
0.0
 10
76.18655722298566
 20
-116.2988388598142
 30
0.0
 10
76.18655722298566
 20
-116.243734970939
 30
0.0
  0
POLYLINE
  5
43
330
1F
100
AcDbEntity
  8
_U+30EC_U+30A4_U+30E4_U+30FC 1
 62
     7
420
 16777215
370
     9
100
AcDb2dPolyline
 66
     1
 10
0.0
 20
0.0
 30
0.0
  0
VERTEX
  5
44
330
43
100
AcDbEntity
  8
_U+30EC_U+30A4_U+30E4_U+30FC 1
 62
     7
420
 16777215
370
     9
100
AcDbVertex
100
AcDb2dVertex
 10
76.08665055886783
 20
-116.243734970939
 30
0.0
  0
VERTEX
  5
45
330
43
100
AcDbEntity
  8
_U+30EC_U+30A4_U+30E4_U+30FC 1
 62
     7
420
 16777215
370
     9
100
AcDbVertex
100
AcDb2dVertex
 10
108.0864164091524
 20
-116.243734970939
 30
0.0
  0
SEQEND
  5
46
330
43
100
AcDbEntity
  8
_U+30EC_U+30A4_U+30E4_U+30FC 1
 62
     7
420
 16777215
370
     9
  0
POLYLINE
  5
47
330
1F
100
AcDbEntity
  8
_U+30EC_U+30A4_U+30E4_U+30FC 1
 62
     7
420
 16777215
370
     9
100
AcDb2dPolyline
 66
     1
 10
0.0
 20
0.0
 30
0.0
  0
VERTEX
  5
48
330
47
100
AcDbEntity
  8
_U+30EC_U+30A4_U+30E4_U+30FC 1
 62
     7
420
 16777215
370
     9
100
AcDbVertex
100
AcDb2dVertex
 10
76.08665055886783
 20
-119.4039183034825
 30
0.0
  0
VERTEX
  5
49
330
47
100
AcDbEntity
  8
_U+30EC_U+30A4_U+30E4_U+30FC 1
 62
     7
420
 16777215
370
     9
100
AcDbVertex
100
AcDb2dVertex
 10
76.08665055886783
 20
-115.2439627489668
 30
0.0
  0
SEQEND
  5
4A
330
47
100
AcDbEntity
  8
_U+30EC_U+30A4_U+30E4_U+30FC 1
 62
     7
420
 16777215
370
     9
  0
POLYLINE
  5
4B
330
1F
100
AcDbEntity
  8
_U+30EC_U+30A4_U+30E4_U+30FC 1
 62
     7
420
 16777215
370
     9
100
AcDb2dPolyline
 66
     1
 10
0.0
 20
0.0
 30
0.0
  0
VERTEX
  5
4C
330
4B
100
AcDbEntity
  8
_U+30EC_U+30A4_U+30E4_U+30FC 1
 62
     7
420
 16777215
370
     9
100
AcDbVertex
100
AcDb2dVertex
 10
108.0864164091524
 20
-119.4039183034825
 30
0.0
  0
VERTEX
  5
4D
330
4B
100
AcDbEntity
  8
_U+30EC_U+30A4_U+30E4_U+30FC 1
 62
     7
420
 16777215
370
     9
100
AcDbVertex
100
AcDb2dVertex
 10
108.0864164091524
 20
-115.2439627489668
 30
0.0
  0
SEQEND
  5
4E
330
4B
100
AcDbEntity
  8
_U+30EC_U+30A4_U+30E4_U+30FC 1
 62
     7
420
 16777215
370
     9
  0
INSERT
  5
50
330
1F
100
AcDbEntity
  8
_U+30EC_U+30A4_U+30E4_U+30FC 1
100
AcDbBlockReference
  2
block 2
 10
0.0
 20
0.0
 30
0.0
  0
SPLINE
  5
57
330
1F
100
AcDbEntity
  8
_U+30EC_U+30A4_U+30E4_U+30FC 1
 62
     7
420
 16777215
370
     9
100
AcDbSpline
210
0.0
220
0.0
230
1.0
 70
    11
 71
     3
 72
    17
 73
    13
 74
     0
 42
0.0000000001
 43
0.0000000001
 12
1.0
 22
0.0
 32
0.0
 13
1.0
 23
0.0
 33
0.0
 40
0.0
 40
0.0
 40
0.0
 40
0.0
 40
1.0
 40
1.0
 40
1.0
 40
2.0
 40
2.0
 40
2.0
 40
3.0
 40
3.0
 40
3.0
 40
4.0
 40
4.0
 40
4.0
 40
4.0
 10
98.1862374950604
 20
-142.4984449643754
 30
0.0
 10
98.1862374950604
 20
-142.4433410755005
 30
0.0
 10
98.1414699962025
 20
-142.3985382977338
 30
0.0
 10
98.08633330881206
 20
-142.3985382977338
 30
0.0
 10
98.03122694345949
 20
-142.3985382977338
 30
0.0
 10
97.98642416682472
 20
-142.4433410755005
 30
0.0
 10
97.98642416682472
 20
-142.4984449643754
 30
0.0
 10
97.98642416682472
 20
-142.5535841310285
 30
0.0
 10
98.03122694345949
 20
-142.5983516310171
 30
0.0
 10
98.08633330881206
 20
-142.5983516310171
 30
0.0
 10
98.1414699962025
 20
-142.5983516310171
 30
0.0
 10
98.1862374950604
 20
-142.5535841310285
 30
0.0
 10
98.1862374950604
 20
-142.4984449643754
 30
0.0
  0
SPLINE
  5
58
330
1F
100
AcDbEntity
  8
_U+30EC_U+30A4_U+30E4_U+30FC 1
 62
     7
420
 16777215
370
     9
100
AcDbSpline
210
0.0
220
0.0
230
1.0
 70
    11
 71
     3
 72
    17
 73
    13
 74
     0
 42
0.0000000001
 43
0.0000000001
 12
1.0
 22
0.0
 32
0.0
 13
1.0
 23
0.0
 33
0.0
 40
0.0
 40
0.0
 40
0.0
 40
0.0
 40
1.0
 40
1.0
 40
1.0
 40
2.0
 40
2.0
 40
2.0
 40
3.0
 40
3.0
 40
3.0
 40
4.0
 40
4.0
 40
4.0
 40
4.0
 10
88.18618719462738
 20
-142.4984449643754
 30
0.0
 10
88.18618719462738
 20
-142.4433410755005
 30
0.0
 10
88.1417371957614
 20
-142.3985382977338
 30
0.0
 10
88.08628053050954
 20
-142.3985382977338
 30
0.0
 10
88.03078858748081
 20
-142.3985382977338
 30
0.0
 10
87.98602108862292
 20
-142.4433410755005
 30
0.0
 10
87.98602108862292
 20
-142.4984449643754
 30
0.0
 10
87.98602108862292
 20
-142.5535841310285
 30
0.0
 10
88.03078858748081
 20
-142.5983516310171
 30
0.0
 10
88.08628053050954
 20
-142.5983516310171
 30
0.0
 10
88.1417371957614
 20
-142.5983516310171
 30
0.0
 10
88.18618719462738
 20
-142.5535841310285
 30
0.0
 10
88.18618719462738
 20
-142.4984449643754
 30
0.0
  0
SPLINE
  5
59
330
1F
100
AcDbEntity
  8
_U+30EC_U+30A4_U+30E4_U+30FC 1
 62
     7
420
 16777215
370
     9
100
AcDbSpline
210
0.0
220
0.0
230
1.0
 70
    11
 71
     3
 72
    17
 73
    13
 74
     0
 42
0.0000000001
 43
0.0000000001
 12
1.0
 22
0.0
 32
0.0
 13
1.0
 23
0.0
 33
0.0
 40
0.0
 40
0.0
 40
0.0
 40
0.0
 40
1.0
 40
1.0
 40
1.0
 40
2.0
 40
2.0
 40
2.0
 40
3.0
 40
3.0
 40
3.0
 40
4.0
 40
4.0
 40
4.0
 40
4.0
 10
76.18620444521689
 20
-142.4984449643754
 30
0.0
 10
76.18620444521689
 20
-142.4433410755005
 30
0.0
 10
76.14143886985347
 20
-142.3985382977338
 30
0.0
 10
76.08629778109905
 20
-142.3985382977338
 30
0.0
 10
76.0308411158472
 20
-142.3985382977338
 30
0.0
 10
75.98607361698932
 20
-142.4433410755005
 30
0.0
 10
75.98607361698932
 20
-142.4984449643754
 30
0.0
 10
75.98607361698932
 20
-142.5535841310285
 30
0.0
 10
76.0308411158472
 20
-142.5983516310171
 30
0.0
 10
76.08629778109905
 20
-142.5983516310171
 30
0.0
 10
76.14143886985347
 20
-142.5983516310171
 30
0.0
 10
76.18620444521689
 20
-142.5535841310285
 30
0.0
 10
76.18620444521689
 20
-142.4984449643754
 30
0.0
  0
POLYLINE
  5
5A
330
1F
100
AcDbEntity
  8
_U+30EC_U+30A4_U+30E4_U+30FC 1
 62
     7
420
 16777215
370
     9
100
AcDb2dPolyline
 66
     1
 10
0.0
 20
0.0
 30
0.0
  0
VERTEX
  5
5B
330
5A
100
AcDbEntity
  8
_U+30EC_U+30A4_U+30E4_U+30FC 1
 62
     7
420
 16777215
370
     9
100
AcDbVertex
100
AcDb2dVertex
 10
88.08628053050954
 20
-142.4984449643754
 30
0.0
  0
VERTEX
  5
5C
330
5A
100
AcDbEntity
  8
_U+30EC_U+30A4_U+30E4_U+30FC 1
 62
     7
420
 16777215
370
     9
100
AcDbVertex
100
AcDb2dVertex
 10
98.08633330881206
 20
-142.4984449643754
 30
0.0
  0
SEQEND
  5
5D
330
5A
100
AcDbEntity
  8
_U+30EC_U+30A4_U+30E4_U+30FC 1
 62
     7
420
 16777215
370
     9
  0
POLYLINE
  5
5E
330
1F
100
AcDbEntity
  8
_U+30EC_U+30A4_U+30E4_U+30FC 1
 62
     7
420
 16777215
370
     9
100
AcDb2dPolyline
 66
     1
 10
0.0
 20
0.0
 30
0.0
  0
VERTEX
  5
5F
330
5E
100
AcDbEntity
  8
_U+30EC_U+30A4_U+30E4_U+30FC 1
 62
     7
420
 16777215
370
     9
100
AcDbVertex
100
AcDb2dVertex
 10
88.08628053050954
 20
-141.0384035758517
 30
0.0
  0
VERTEX
  5
60
330
5E
100
AcDbEntity
  8
_U+30EC_U+30A4_U+30E4_U+30FC 1
 62
     7
420
 16777215
370
     9
100
AcDbVertex
100
AcDb2dVertex
 10
88.08628053050954
 20
-143.498217186348
 30
0.0
  0
SEQEND
  5
61
330
5E
100
AcDbEntity
  8
_U+30EC_U+30A4_U+30E4_U+30FC 1
 62
     7
420
 16777215
370
     9
  0
POLYLINE
  5
62
330
1F
100
AcDbEntity
  8
_U+30EC_U+30A4_U+30E4_U+30FC 1
 62
     7
420
 16777215
370
     9
100
AcDb2dPolyline
 66
     1
 10
0.0
 20
0.0
 30
0.0
  0
VERTEX
  5
63
330
62
100
AcDbEntity
  8
_U+30EC_U+30A4_U+30E4_U+30FC 1
 62
     7
420
 16777215
370
     9
100
AcDbVertex
100
AcDb2dVertex
 10
98.08633330881206
 20
-141.0384035758517
 30
0.0
  0
VERTEX
  5
64
330
62
100
AcDbEntity
  8
_U+30EC_U+30A4_U+30E4_U+30FC 1
 62
     7
420
 16777215
370
     9
100
AcDbVertex
100
AcDb2dVertex
 10
98.08633330881206
 20
-143.498217186348
 30
0.0
  0
SEQEND
  5
65
330
62
100
AcDbEntity
  8
_U+30EC_U+30A4_U+30E4_U+30FC 1
 62
     7
420
 16777215
370
     9
  0
INSERT
  5
67
330
1F
100
AcDbEntity
  8
_U+30EC_U+30A4_U+30E4_U+30FC 1
100
AcDbBlockReference
  2
block 3
 10
0.0
 20
0.0
 30
0.0
  0
POLYLINE
  5
6F
330
1F
100
AcDbEntity
  8
_U+30EC_U+30A4_U+30E4_U+30FC 1
 62
     7
420
 16777215
370
     9
100
AcDb2dPolyline
 66
     1
 10
0.0
 20
0.0
 30
0.0
  0
VERTEX
  5
70
330
6F
100
AcDbEntity
  8
_U+30EC_U+30A4_U+30E4_U+30FC 1
 62
     7
420
 16777215
370
     9
100
AcDbVertex
100
AcDb2dVertex
 10
88.08628053050954
 20
-142.4984449643754
 30
0.0
  0
VERTEX
  5
71
330
6F
100
AcDbEntity
  8
_U+30EC_U+30A4_U+30E4_U+30FC 1
 62
     7
420
 16777215
370
     9
100
AcDbVertex
100
AcDb2dVertex
 10
76.08629778109905
 20
-142.4984449643754
 30
0.0
  0
SEQEND
  5
72
330
6F
100
AcDbEntity
  8
_U+30EC_U+30A4_U+30E4_U+30FC 1
 62
     7
420
 16777215
370
     9
  0
POLYLINE
  5
73
330
1F
100
AcDbEntity
  8
_U+30EC_U+30A4_U+30E4_U+30FC 1
 62
     7
420
 16777215
370
     9
100
AcDb2dPolyline
 66
     1
 10
0.0
 20
0.0
 30
0.0
  0
VERTEX
  5
74
330
73
100
AcDbEntity
  8
_U+30EC_U+30A4_U+30E4_U+30FC 1
 62
     7
420
 16777215
370
     9
100
AcDbVertex
100
AcDb2dVertex
 10
76.08629778109905
 20
-126.0043552462768
 30
0.0
  0
VERTEX
  5
75
330
73
100
AcDbEntity
  8
_U+30EC_U+30A4_U+30E4_U+30FC 1
 62
     7
420
 16777215
370
     9
100
AcDbVertex
100
AcDb2dVertex
 10
76.08629778109905
 20
-143.498217186348
 30
0.0
  0
SEQEND
  5
76
330
73
100
AcDbEntity
  8
_U+30EC_U+30A4_U+30E4_U+30FC 1
 62
     7
420
 16777215
370
     9
  0
INSERT
  5
78
330
1F
100
AcDbEntity
  8
_U+30EC_U+30A4_U+30E4_U+30FC 1
100
AcDbBlockReference
  2
block 4
 10
0.0
 20
0.0
 30
0.0
  0
SPLINE
  5
7F
330
1F
100
AcDbEntity
  8
_U+30EC_U+30A4_U+30E4_U+30FC 1
 62
     7
420
 16777215
370
     9
100
AcDbSpline
210
0.0
220
0.0
230
1.0
 70
    11
 71
     3
 72
    17
 73
    13
 74
     0
 42
0.0000000001
 43
0.0000000001
 12
1.0
 22
0.0
 32
0.0
 13
1.0
 23
0.0
 33
0.0
 40
0.0
 40
0.0
 40
0.0
 40
0.0
 40
1.0
 40
1.0
 40
1.0
 40
2.0
 40
2.0
 40
2.0
 40
3.0
 40
3.0
 40
3.0
 40
4.0
 40
4.0
 40
4.0
 40
4.0
 10
112.1464651944609
 20
-121.8034069139937
 30
0.0
 10
112.1464651944609
 20
-121.7483030251185
 30
0.0
 10
112.101697695603
 20
-121.7035002473521
 30
0.0
 10
112.0458882525824
 20
-121.7035002473521
 30
0.0
 10
111.9907490873224
 20
-121.7035002473521
 30
0.0
 10
111.9459463106876
 20
-121.7483030251185
 30
0.0
 10
111.9459463106876
 20
-121.8034069139937
 30
0.0
 10
111.9459463106876
 20
-121.8585460806465
 30
0.0
 10
111.9907490873224
 20
-121.9033135806354
 30
0.0
 10
112.0458882525824
 20
-121.9033135806354
 30
0.0
 10
112.101697695603
 20
-121.9033135806354
 30
0.0
 10
112.1464651944609
 20
-121.8585460806465
 30
0.0
 10
112.1464651944609
 20
-121.8034069139937
 30
0.0
  0
SPLINE
  5
80
330
1F
100
AcDbEntity
  8
_U+30EC_U+30A4_U+30E4_U+30FC 1
 62
     7
420
 16777215
370
     9
100
AcDbSpline
210
0.0
220
0.0
230
1.0
 70
    11
 71
     3
 72
    17
 73
    13
 74
     0
 42
0.0000000001
 43
0.0000000001
 12
1.0
 22
0.0
 32
0.0
 13
1.0
 23
0.0
 33
0.0
 40
0.0
 40
0.0
 40
0.0
 40
0.0
 40
1.0
 40
1.0
 40
1.0
 40
2.0
 40
2.0
 40
2.0
 40
3.0
 40
3.0
 40
3.0
 40
4.0
 40
4.0
 40
4.0
 40
4.0
 10
112.1464651944609
 20
-122.8038846915211
 30
0.0
 10
112.1464651944609
 20
-122.7480752470907
 30
0.0
 10
112.101697695603
 20
-122.7039780248795
 30
0.0
 10
112.0458882525824
 20
-122.7039780248795
 30
0.0
 10
111.9907490873224
 20
-122.7039780248795
 30
0.0
 10
111.9459463106876
 20
-122.7480752470907
 30
0.0
 10
111.9459463106876
 20
-122.8038846915211
 30
0.0
 10
111.9459463106876
 20
-122.8589885803964
 30
0.0
 10
111.9907490873224
 20
-122.9037913581631
 30
0.0
 10
112.0458882525824
 20
-122.9037913581631
 30
0.0
 10
112.101697695603
 20
-122.9037913581631
 30
0.0
 10
112.1464651944609
 20
-122.8589885803964
 30
0.0
 10
112.1464651944609
 20
-122.8038846915211
 30
0.0
  0
SPLINE
  5
81
330
1F
100
AcDbEntity
  8
_U+30EC_U+30A4_U+30E4_U+30FC 1
 62
     7
420
 16777215
370
     9
100
AcDbSpline
210
0.0
220
0.0
230
1.0
 70
    11
 71
     3
 72
    17
 73
    13
 74
     0
 42
0.0000000001
 43
0.0000000001
 12
1.0
 22
0.0
 32
0.0
 13
1.0
 23
0.0
 33
0.0
 40
0.0
 40
0.0
 40
0.0
 40
0.0
 40
1.0
 40
1.0
 40
1.0
 40
2.0
 40
2.0
 40
2.0
 40
3.0
 40
3.0
 40
3.0
 40
4.0
 40
4.0
 40
4.0
 40
4.0
 10
112.1464651944609
 20
-135.7040507994072
 30
0.0
 10
112.1464651944609
 20
-135.6489116327547
 30
0.0
 10
112.101697695603
 20
-135.604108854988
 30
0.0
 10
112.0458882525824
 20
-135.604108854988
 30
0.0
 10
111.9907490873224
 20
-135.604108854988
 30
0.0
 10
111.9459463106876
 20
-135.6489116327547
 30
0.0
 10
111.9459463106876
 20
-135.7040507994072
 30
0.0
 10
111.9459463106876
 20
-135.7591546882827
 30
0.0
 10
111.9907490873224
 20
-135.8039574660488
 30
0.0
 10
112.0458882525824
 20
-135.8039574660488
 30
0.0
 10
112.101697695603
 20
-135.8039574660488
 30
0.0
 10
112.1464651944609
 20
-135.7591546882827
 30
0.0
 10
112.1464651944609
 20
-135.7040507994072
 30
0.0
  0
SPLINE
  5
82
330
1F
100
AcDbEntity
  8
_U+30EC_U+30A4_U+30E4_U+30FC 1
 62
     7
420
 16777215
370
     9
100
AcDbSpline
210
0.0
220
0.0
230
1.0
 70
    11
 71
     3
 72
    17
 73
    13
 74
     0
 42
0.0000000001
 43
0.0000000001
 12
1.0
 22
0.0
 32
0.0
 13
1.0
 23
0.0
 33
0.0
 40
0.0
 40
0.0
 40
0.0
 40
0.0
 40
1.0
 40
1.0
 40
1.0
 40
2.0
 40
2.0
 40
2.0
 40
3.0
 40
3.0
 40
3.0
 40
4.0
 40
4.0
 40
4.0
 40
4.0
 10
112.1464651944609
 20
-138.7040377431015
 30
0.0
 10
112.1464651944609
 20
-138.6488985764491
 30
0.0
 10
112.101697695603
 20
-138.6041310764599
 30
0.0
 10
112.0458882525824
 20
-138.6041310764599
 30
0.0
 10
111.9907490873224
 20
-138.6041310764599
 30
0.0
 10
111.9459463106876
 20
-138.6488985764491
 30
0.0
 10
111.9459463106876
 20
-138.7040377431015
 30
0.0
 10
111.9459463106876
 20
-138.7591416319771
 30
0.0
 10
111.9907490873224
 20
-138.8039444097432
 30
0.0
 10
112.0458882525824
 20
-138.8039444097432
 30
0.0
 10
112.101697695603
 20
-138.8039444097432
 30
0.0
 10
112.1464651944609
 20
-138.7591416319771
 30
0.0
 10
112.1464651944609
 20
-138.7040377431015
 30
0.0
  0
POLYLINE
  5
83
330
1F
100
AcDbEntity
  8
_U+30EC_U+30A4_U+30E4_U+30FC 1
 62
     7
420
 16777215
370
     9
100
AcDb2dPolyline
 66
     1
 10
0.0
 20
0.0
 30
0.0
  0
VERTEX
  5
84
330
83
100
AcDbEntity
  8
_U+30EC_U+30A4_U+30E4_U+30FC 1
 62
     7
420
 16777215
370
     9
100
AcDbVertex
100
AcDb2dVertex
 10
112.0458882525824
 20
-121.8034069139937
 30
0.0
  0
VERTEX
  5
85
330
83
100
AcDbEntity
  8
_U+30EC_U+30A4_U+30E4_U+30FC 1
 62
     7
420
 16777215
370
     9
100
AcDbVertex
100
AcDb2dVertex
 10
112.0458882525824
 20
-118.0330944149363
 30
0.0
  0
SEQEND
  5
86
330
83
100
AcDbEntity
  8
_U+30EC_U+30A4_U+30E4_U+30FC 1
 62
     7
420
 16777215
370
     9
  0
POLYLINE
  5
87
330
1F
100
AcDbEntity
  8
_U+30EC_U+30A4_U+30E4_U+30FC 1
 62
     7
420
 16777215
370
     9
100
AcDb2dPolyline
 66
     1
 10
0.0
 20
0.0
 30
0.0
  0
VERTEX
  5
88
330
87
100
AcDbEntity
  8
_U+30EC_U+30A4_U+30E4_U+30FC 1
 62
     7
420
 16777215
370
     9
100
AcDbVertex
100
AcDb2dVertex
 10
112.0458882525824
 20
-121.8034069139937
 30
0.0
  0
VERTEX
  5
89
330
87
100
AcDbEntity
  8
_U+30EC_U+30A4_U+30E4_U+30FC 1
 62
     7
420
 16777215
370
     9
100
AcDbVertex
100
AcDb2dVertex
 10
112.0458882525824
 20
-122.8038846915211
 30
0.0
  0
SEQEND
  5
8A
330
87
100
AcDbEntity
  8
_U+30EC_U+30A4_U+30E4_U+30FC 1
 62
     7
420
 16777215
370
     9
  0
POLYLINE
  5
8B
330
1F
100
AcDbEntity
  8
_U+30EC_U+30A4_U+30E4_U+30FC 1
 62
     7
420
 16777215
370
     9
100
AcDb2dPolyline
 66
     1
 10
0.0
 20
0.0
 30
0.0
  0
VERTEX
  5
8C
330
8B
100
AcDbEntity
  8
_U+30EC_U+30A4_U+30E4_U+30FC 1
 62
     7
420
 16777215
370
     9
100
AcDbVertex
100
AcDb2dVertex
 10
110.3360802406476
 20
-121.8034069139937
 30
0.0
  0
VERTEX
  5
8D
330
8B
100
AcDbEntity
  8
_U+30EC_U+30A4_U+30E4_U+30FC 1
 62
     7
420
 16777215
370
     9
100
AcDbVertex
100
AcDb2dVertex
 10
113.0463307270589
 20
-121.8034069139937
 30
0.0
  0
SEQEND
  5
8E
330
8B
100
AcDbEntity
  8
_U+30EC_U+30A4_U+30E4_U+30FC 1
 62
     7
420
 16777215
370
     9
  0
POLYLINE
  5
8F
330
1F
100
AcDbEntity
  8
_U+30EC_U+30A4_U+30E4_U+30FC 1
 62
     7
420
 16777215
370
     9
100
AcDb2dPolyline
 66
     1
 10
0.0
 20
0.0
 30
0.0
  0
VERTEX
  5
90
330
8F
100
AcDbEntity
  8
_U+30EC_U+30A4_U+30E4_U+30FC 1
 62
     7
420
 16777215
370
     9
100
AcDbVertex
100
AcDb2dVertex
 10
110.3360802406476
 20
-122.8038846915211
 30
0.0
  0
VERTEX
  5
91
330
8F
100
AcDbEntity
  8
_U+30EC_U+30A4_U+30E4_U+30FC 1
 62
     7
420
 16777215
370
     9
100
AcDbVertex
100
AcDb2dVertex
 10
113.0463307270589
 20
-122.8038846915211
 30
0.0
  0
SEQEND
  5
92
330
8F
100
AcDbEntity
  8
_U+30EC_U+30A4_U+30E4_U+30FC 1
 62
     7
420
 16777215
370
     9
  0
INSERT
  5
94
330
1F
100
AcDbEntity
  8
_U+30EC_U+30A4_U+30E4_U+30FC 1
100
AcDbBlockReference
  2
block 5
 10
0.0
 20
0.0
 30
0.0
  0
POLYLINE
  5
99
330
1F
100
AcDbEntity
  8
_U+30EC_U+30A4_U+30E4_U+30FC 1
 62
     7
420
 16777215
370
     9
100
AcDb2dPolyline
 66
     1
 10
0.0
 20
0.0
 30
0.0
  0
VERTEX
  5
9A
330
99
100
AcDbEntity
  8
_U+30EC_U+30A4_U+30E4_U+30FC 1
 62
     7
420
 16777215
370
     9
100
AcDbVertex
100
AcDb2dVertex
 10
112.0458882525824
 20
-135.7040507994072
 30
0.0
  0
VERTEX
  5
9B
330
99
100
AcDbEntity
  8
_U+30EC_U+30A4_U+30E4_U+30FC 1
 62
     7
420
 16777215
370
     9
100
AcDbVertex
100
AcDb2dVertex
 10
112.0458882525824
 20
-138.7040377431015
 30
0.0
  0
SEQEND
  5
9C
330
99
100
AcDbEntity
  8
_U+30EC_U+30A4_U+30E4_U+30FC 1
 62
     7
420
 16777215
370
     9
  0
POLYLINE
  5
9D
330
1F
100
AcDbEntity
  8
_U+30EC_U+30A4_U+30E4_U+30FC 1
 62
     7
420
 16777215
370
     9
100
AcDb2dPolyline
 66
     1
 10
0.0
 20
0.0
 30
0.0
  0
VERTEX
  5
9E
330
9D
100
AcDbEntity
  8
_U+30EC_U+30A4_U+30E4_U+30FC 1
 62
     7
420
 16777215
370
     9
100
AcDbVertex
100
AcDb2dVertex
 10
100.586469419298
 20
-138.7040377431015
 30
0.0
  0
VERTEX
  5
9F
330
9D
100
AcDbEntity
  8
_U+30EC_U+30A4_U+30E4_U+30FC 1
 62
     7
420
 16777215
370
     9
100
AcDbVertex
100
AcDb2dVertex
 10
113.0463307270589
 20
-138.7040377431015
 30
0.0
  0
SEQEND
  5
A0
330
9D
100
AcDbEntity
  8
_U+30EC_U+30A4_U+30E4_U+30FC 1
 62
     7
420
 16777215
370
     9
  0
INSERT
  5
A2
330
1F
100
AcDbEntity
  8
_U+30EC_U+30A4_U+30E4_U+30FC 1
100
AcDbBlockReference
  2
block 6
 10
0.0
 20
0.0
 30
0.0
  0
POLYLINE
  5
A7
330
1F
100
AcDbEntity
  8
_U+30EC_U+30A4_U+30E4_U+30FC 1
 62
     7
420
 16777215
370
     9
100
AcDb2dPolyline
 66
     1
 10
0.0
 20
0.0
 30
0.0
  0
VERTEX
  5
A8
330
A7
100
AcDbEntity
  8
_U+30EC_U+30A4_U+30E4_U+30FC 1
 62
     7
420
 16777215
370
     9
100
AcDbVertex
100
AcDb2dVertex
 10
112.0458882525824
 20
-122.8038846915211
 30
0.0
  0
VERTEX
  5
A9
330
A7
100
AcDbEntity
  8
_U+30EC_U+30A4_U+30E4_U+30FC 1
 62
     7
420
 16777215
370
     9
100
AcDbVertex
100
AcDb2dVertex
 10
112.0458882525824
 20
-135.7040507994072
 30
0.0
  0
SEQEND
  5
AA
330
A7
100
AcDbEntity
  8
_U+30EC_U+30A4_U+30E4_U+30FC 1
 62
     7
420
 16777215
370
     9
  0
POLYLINE
  5
AB
330
1F
100
AcDbEntity
  8
_U+30EC_U+30A4_U+30E4_U+30FC 1
 62
     7
420
 16777215
370
     9
100
AcDb2dPolyline
 66
     1
 10
0.0
 20
0.0
 30
0.0
  0
VERTEX
  5
AC
330
AB
100
AcDbEntity
  8
_U+30EC_U+30A4_U+30E4_U+30FC 1
 62
     7
420
 16777215
370
     9
100
AcDbVertex
100
AcDb2dVertex
 10
100.586469419298
 20
-135.7040507994072
 30
0.0
  0
VERTEX
  5
AD
330
AB
100
AcDbEntity
  8
_U+30EC_U+30A4_U+30E4_U+30FC 1
 62
     7
420
 16777215
370
     9
100
AcDbVertex
100
AcDb2dVertex
 10
113.0463307270589
 20
-135.7040507994072
 30
0.0
  0
SEQEND
  5
AE
330
AB
100
AcDbEntity
  8
_U+30EC_U+30A4_U+30E4_U+30FC 1
 62
     7
420
 16777215
370
     9
  0
INSERT
  5
B0
330
1F
100
AcDbEntity
  8
_U+30EC_U+30A4_U+30E4_U+30FC 1
100
AcDbBlockReference
  2
block 7
 10
0.0
 20
0.0
 30
0.0
  0
SPLINE
  5
C3
330
1F
100
AcDbEntity
  8
_U+30EC_U+30A4_U+30E4_U+30FC 1
 62
     7
420
 16777215
370
     9
100
AcDbSpline
210
0.0
220
0.0
230
1.0
 70
    11
 71
     3
 72
    17
 73
    13
 74
     0
 42
0.0000000001
 43
0.0000000001
 12
1.0
 22
0.0
 32
0.0
 13
1.0
 23
0.0
 33
0.0
 40
0.0
 40
0.0
 40
0.0
 40
0.0
 40
1.0
 40
1.0
 40
1.0
 40
2.0
 40
2.0
 40
2.0
 40
3.0
 40
3.0
 40
3.0
 40
4.0
 40
4.0
 40
4.0
 40
4.0
 10
72.68703887071726
 20
-123.9038810801352
 30
0.0
 10
72.68703887071726
 20
-123.8484244134822
 30
0.0
 10
72.64223609295054
 20
-123.8039744134936
 30
0.0
 10
72.58713037037025
 20
-123.8039744134936
 30
0.0
 10
72.5319912051103
 20
-123.8039744134936
 30
0.0
 10
72.48722370625241
 20
-123.8484244134822
 30
0.0
 10
72.48722370625241
 20
-123.9038810801352
 30
0.0
 10
72.48722370625241
 20
-123.959020246788
 30
0.0
 10
72.5319912051103
 20
-124.0037877467769
 30
0.0
 10
72.58713037037025
 20
-124.0037877467769
 30
0.0
 10
72.64223609295054
 20
-124.0037877467769
 30
0.0
 10
72.68703887071726
 20
-123.959020246788
 30
0.0
 10
72.68703887071726
 20
-123.9038810801352
 30
0.0
  0
SPLINE
  5
C4
330
1F
100
AcDbEntity
  8
_U+30EC_U+30A4_U+30E4_U+30FC 1
 62
     7
420
 16777215
370
     9
100
AcDbSpline
210
0.0
220
0.0
230
1.0
 70
    11
 71
     3
 72
    17
 73
    13
 74
     0
 42
0.0000000001
 43
0.0000000001
 12
1.0
 22
0.0
 32
0.0
 13
1.0
 23
0.0
 33
0.0
 40
0.0
 40
0.0
 40
0.0
 40
0.0
 40
1.0
 40
1.0
 40
1.0
 40
2.0
 40
2.0
 40
2.0
 40
3.0
 40
3.0
 40
3.0
 40
4.0
 40
4.0
 40
4.0
 40
4.0
 10
72.68703887071726
 20
-121.9040191361906
 30
0.0
 10
72.68703887071726
 20
-121.8482096917601
 30
0.0
 10
72.64223609295054
 20
-121.8034069139937
 30
0.0
 10
72.58713037037025
 20
-121.8034069139937
 30
0.0
 10
72.5319912051103
 20
-121.8034069139937
 30
0.0
 10
72.48722370625241
 20
-121.8482096917601
 30
0.0
 10
72.48722370625241
 20
-121.9040191361906
 30
0.0
 10
72.48722370625241
 20
-121.9591230250658
 30
0.0
 10
72.5319912051103
 20
-122.0039258028325
 30
0.0
 10
72.58713037037025
 20
-122.0039258028325
 30
0.0
 10
72.64223609295054
 20
-122.0039258028325
 30
0.0
 10
72.68703887071726
 20
-121.9591230250658
 30
0.0
 10
72.68703887071726
 20
-121.9040191361906
 30
0.0
  0
POLYLINE
  5
C5
330
1F
100
AcDbEntity
  8
_U+30EC_U+30A4_U+30E4_U+30FC 1
 62
     7
420
 16777215
370
     9
100
AcDb2dPolyline
 66
     1
 10
0.0
 20
0.0
 30
0.0
  0
VERTEX
  5
C6
330
C5
100
AcDbEntity
  8
_U+30EC_U+30A4_U+30E4_U+30FC 1
 62
     7
420
 16777215
370
     9
100
AcDbVertex
100
AcDb2dVertex
 10
72.58713037037025
 20
-121.9040191361906
 30
0.0
  0
VERTEX
  5
C7
330
C5
100
AcDbEntity
  8
_U+30EC_U+30A4_U+30E4_U+30FC 1
 62
     7
420
 16777215
370
     9
100
AcDbVertex
100
AcDb2dVertex
 10
72.58713037037025
 20
-123.9038810801352
 30
0.0
  0
SEQEND
  5
C8
330
C5
100
AcDbEntity
  8
_U+30EC_U+30A4_U+30E4_U+30FC 1
 62
     7
420
 16777215
370
     9
  0
POLYLINE
  5
C9
330
1F
100
AcDbEntity
  8
_U+30EC_U+30A4_U+30E4_U+30FC 1
 62
     7
420
 16777215
370
     9
100
AcDb2dPolyline
 66
     1
 10
0.0
 20
0.0
 30
0.0
  0
VERTEX
  5
CA
330
C9
100
AcDbEntity
  8
_U+30EC_U+30A4_U+30E4_U+30FC 1
 62
     7
420
 16777215
370
     9
100
AcDbVertex
100
AcDb2dVertex
 10
71.12708901873012
 20
-121.9040191361906
 30
0.0
  0
VERTEX
  5
CB
330
C9
100
AcDbEntity
  8
_U+30EC_U+30A4_U+30E4_U+30FC 1
 62
     7
420
 16777215
370
     9
100
AcDbVertex
100
AcDb2dVertex
 10
73.58690256708616
 20
-121.9040191361906
 30
0.0
  0
SEQEND
  5
CC
330
C9
100
AcDbEntity
  8
_U+30EC_U+30A4_U+30E4_U+30FC 1
 62
     7
420
 16777215
370
     9
  0
POLYLINE
  5
CD
330
1F
100
AcDbEntity
  8
_U+30EC_U+30A4_U+30E4_U+30FC 1
 62
     7
420
 16777215
370
     9
100
AcDb2dPolyline
 66
     1
 10
0.0
 20
0.0
 30
0.0
  0
VERTEX
  5
CE
330
CD
100
AcDbEntity
  8
_U+30EC_U+30A4_U+30E4_U+30FC 1
 62
     7
420
 16777215
370
     9
100
AcDbVertex
100
AcDb2dVertex
 10
71.12708901873012
 20
-123.9038810801352
 30
0.0
  0
VERTEX
  5
CF
330
CD
100
AcDbEntity
  8
_U+30EC_U+30A4_U+30E4_U+30FC 1
 62
     7
420
 16777215
370
     9
100
AcDbVertex
100
AcDb2dVertex
 10
73.58690256708616
 20
-123.9038810801352
 30
0.0
  0
SEQEND
  5
D0
330
CD
100
AcDbEntity
  8
_U+30EC_U+30A4_U+30E4_U+30FC 1
 62
     7
420
 16777215
370
     9
  0
INSERT
  5
D2
330
1F
100
AcDbEntity
  8
_U+30EC_U+30A4_U+30E4_U+30FC 1
100
AcDbBlockReference
  2
block 8
 10
0.0
 20
0.0
 30
0.0
  0
POLYLINE
  5
D7
330
1F
100
AcDbEntity
  8
_U+30EC_U+30A4_U+30E4_U+30FC 1
 62
     7
420
 16777215
370
    25
100
AcDb2dPolyline
 66
     1
 10
0.0
 20
0.0
 30
0.0
  0
VERTEX
  5
D8
330
D7
100
AcDbEntity
  8
_U+30EC_U+30A4_U+30E4_U+30FC 1
 62
     7
420
 16777215
370
    25
100
AcDbVertex
100
AcDb2dVertex
 10
88.08695080827022
 20
-121.9040191361906
 30
0.0
  0
VERTEX
  5
D9
330
D7
100
AcDbEntity
  8
_U+30EC_U+30A4_U+30E4_U+30FC 1
 62
     7
420
 16777215
370
    25
100
AcDbVertex
100
AcDb2dVertex
 10
76.08665055886783
 20
-121.9040191361906
 30
0.0
  0
VERTEX
  5
DA
330
D7
100
AcDbEntity
  8
_U+30EC_U+30A4_U+30E4_U+30FC 1
 62
     7
420
 16777215
370
    25
100
AcDbVertex
100
AcDb2dVertex
 10
76.08665055886783
 20
-123.9038810801352
 30
0.0
  0
VERTEX
  5
DB
330
D7
100
AcDbEntity
  8
_U+30EC_U+30A4_U+30E4_U+30FC 1
 62
     7
420
 16777215
370
    25
100
AcDbVertex
100
AcDb2dVertex
 10
88.08695080827022
 20
-123.9038810801352
 30
0.0
  0
SEQEND
  5
DC
330
D7
100
AcDbEntity
  8
_U+30EC_U+30A4_U+30E4_U+30FC 1
 62
     7
420
 16777215
370
    25
  0
POLYLINE
  5
DD
330
1F
100
AcDbEntity
  8
_U+30EC_U+30A4_U+30E4_U+30FC 1
 62
     7
420
 16777215
370
    25
100
AcDb2dPolyline
 66
     1
 10
0.0
 20
0.0
 30
0.0
  0
VERTEX
  5
DE
330
DD
100
AcDbEntity
  8
_U+30EC_U+30A4_U+30E4_U+30FC 1
 62
     7
420
 16777215
370
    25
100
AcDbVertex
100
AcDb2dVertex
 10
88.08659803050143
 20
-121.9040191361906
 30
0.0
  0
VERTEX
  5
DF
330
DD
100
AcDbEntity
  8
_U+30EC_U+30A4_U+30E4_U+30FC 1
 62
     7
420
 16777215
370
    25
100
AcDbVertex
100
AcDb2dVertex
 10
108.0864164091524
 20
-121.9040191361906
 30
0.0
  0
VERTEX
  5
E0
330
DD
100
AcDbEntity
  8
_U+30EC_U+30A4_U+30E4_U+30FC 1
 62
     7
420
 16777215
370
    25
100
AcDbVertex
100
AcDb2dVertex
 10
108.0864164091524
 20
-122.9037913581631
 30
0.0
  0
VERTEX
  5
E1
330
DD
100
AcDbEntity
  8
_U+30EC_U+30A4_U+30E4_U+30FC 1
 62
     7
420
 16777215
370
    25
100
AcDbVertex
100
AcDb2dVertex
 10
89.08637022721734
 20
-122.9037913581631
 30
0.0
  0
VERTEX
  5
E2
330
DD
100
AcDbEntity
  8
_U+30EC_U+30A4_U+30E4_U+30FC 1
 62
     7
420
 16777215
370
    25
100
AcDbVertex
100
AcDb2dVertex
 10
89.08637022721734
 20
-135.7040507994072
 30
0.0
  0
SEQEND
  5
E3
330
DD
100
AcDbEntity
  8
_U+30EC_U+30A4_U+30E4_U+30FC 1
 62
     7
420
 16777215
370
    25
  0
POLYLINE
  5
E4
330
1F
100
AcDbEntity
  8
_U+30EC_U+30A4_U+30E4_U+30FC 1
 62
     7
420
 16777215
370
    25
100
AcDb2dPolyline
 66
     1
 10
0.0
 20
0.0
 30
0.0
  0
VERTEX
  5
E5
330
E4
100
AcDbEntity
  8
_U+30EC_U+30A4_U+30E4_U+30FC 1
 62
     7
420
 16777215
370
    25
100
AcDbVertex
100
AcDb2dVertex
 10
88.08695080827022
 20
-121.9612044139542
 30
0.0
  0
VERTEX
  5
E6
330
E4
100
AcDbEntity
  8
_U+30EC_U+30A4_U+30E4_U+30FC 1
 62
     7
420
 16777215
370
    25
100
AcDbVertex
100
AcDb2dVertex
 10
88.08695080827022
 20
-135.7040507994072
 30
0.0
  0
SEQEND
  5
E7
330
E4
100
AcDbEntity
  8
_U+30EC_U+30A4_U+30E4_U+30FC 1
 62
     7
420
 16777215
370
    25
  0
POLYLINE
  5
E8
330
1F
100
AcDbEntity
  8
_U+30EC_U+30A4_U+30E4_U+30FC 1
 62
     7
420
 16777215
370
    25
100
AcDb2dPolyline
 66
     1
 10
0.0
 20
0.0
 30
0.0
  0
VERTEX
  5
E9
330
E8
100
AcDbEntity
  8
_U+30EC_U+30A4_U+30E4_U+30FC 1
 62
     7
420
 16777215
370
    25
100
AcDbVertex
100
AcDb2dVertex
 10
89.08637022721734
 20
-135.7040507994072
 30
0.0
  0
VERTEX
  5
EA
330
E8
100
AcDbEntity
  8
_U+30EC_U+30A4_U+30E4_U+30FC 1
 62
     7
420
 16777215
370
    25
100
AcDbVertex
100
AcDb2dVertex
 10
88.59371607311934
 20
-136.1897905215083
 30
0.0
  0
VERTEX
  5
EB
330
E8
100
AcDbEntity
  8
_U+30EC_U+30A4_U+30E4_U+30FC 1
 62
     7
420
 16777215
370
    25
100
AcDbVertex
100
AcDb2dVertex
 10
88.08695080827022
 20
-135.7040507994072
 30
0.0
  0
SEQEND
  5
EC
330
E8
100
AcDbEntity
  8
_U+30EC_U+30A4_U+30E4_U+30FC 1
 62
     7
420
 16777215
370
    25
  0
POLYLINE
  5
ED
330
1F
100
AcDbEntity
  8
_U+30EC_U+30A4_U+30E4_U+30FC 1
 62
     7
420
 16777215
370
    25
100
AcDb2dPolyline
 66
     1
 10
0.0
 20
0.0
 30
0.0
  0
VERTEX
  5
EE
330
ED
100
AcDbEntity
  8
_U+30EC_U+30A4_U+30E4_U+30FC 1
 62
     7
420
 16777215
370
    25
100
AcDbVertex
100
AcDb2dVertex
 10
89.08637022721734
 20
-135.7040507994072
 30
0.0
  0
VERTEX
  5
EF
330
ED
100
AcDbEntity
  8
_U+30EC_U+30A4_U+30E4_U+30FC 1
 62
     7
420
 16777215
370
    25
100
AcDbVertex
100
AcDb2dVertex
 10
98.08633330881206
 20
-135.7040507994072
 30
0.0
  0
VERTEX
  5
F0
330
ED
100
AcDbEntity
  8
_U+30EC_U+30A4_U+30E4_U+30FC 1
 62
     7
420
 16777215
370
    25
100
AcDbVertex
100
AcDb2dVertex
 10
98.08633330881206
 20
-138.7040377431015
 30
0.0
  0
VERTEX
  5
F1
330
ED
100
AcDbEntity
  8
_U+30EC_U+30A4_U+30E4_U+30FC 1
 62
     7
420
 16777215
370
    25
100
AcDbVertex
100
AcDb2dVertex
 10
88.08628053050954
 20
-138.7040377431015
 30
0.0
  0
VERTEX
  5
F2
330
ED
100
AcDbEntity
  8
_U+30EC_U+30A4_U+30E4_U+30FC 1
 62
     7
420
 16777215
370
    25
100
AcDbVertex
100
AcDb2dVertex
 10
88.08695080827022
 20
-138.7040377431015
 30
0.0
  0
VERTEX
  5
F3
330
ED
100
AcDbEntity
  8
_U+30EC_U+30A4_U+30E4_U+30FC 1
 62
     7
420
 16777215
370
    25
100
AcDbVertex
100
AcDb2dVertex
 10
88.08695080827022
 20
-135.7040507994072
 30
0.0
  0
SEQEND
  5
F4
330
ED
100
AcDbEntity
  8
_U+30EC_U+30A4_U+30E4_U+30FC 1
 62
     7
420
 16777215
370
    25
  0
ENDSEC
  0
SECTION
  2
OBJECTS
  0
DICTIONARY
  5
C
330
0
100
AcDbDictionary
281
     1
  3
ACAD_GROUP
350
D
  3
ACAD_LAYOUT
350
1A
  3
ACAD_MATERIAL
350
3B
  3
ACAD_MLEADERSTYLE
350
F6
  3
ACAD_MLINESTYLE
350
17
  3
ACAD_PLOTSETTINGS
350
19
  3
ACAD_PLOTSTYLENAME
350
E
  3
ACAD_TABLESTYLE
350
F5
  3
ACAD_VISUALSTYLE
350
2A
  0
SUN
  5
3F
330
29
100
AcDbSun
 90
        1
290
     0
 63
     7
421
 16777215
 40
1.0
291
     1
 91
  2455826
 92
 54000000
292
     0
 70
     2
 71
   256
280
     1
  0
DICTIONARY
  5
D
102
{ACAD_REACTORS
330
C
102
}
330
C
100
AcDbDictionary
281
     1
  0
DICTIONARY
  5
1A
102
{ACAD_REACTORS
330
C
102
}
330
C
100
AcDbDictionary
281
     1
  3
Layout1
350
1E
  3
Layout2
350
26
  3
Model
350
22
  0
DICTIONARY
  5
3B
102
{ACAD_REACTORS
330
C
102
}
330
C
100
AcDbDictionary
281
     1
  3
ByBlock
350
3D
  3
ByLayer
350
3C
  3
Global
350
3E
  0
DICTIONARY
  5
F6
102
{ACAD_REACTORS
330
C
102
}
330
C
100
AcDbDictionary
281
     1
  0
DICTIONARY
  5
17
102
{ACAD_REACTORS
330
C
102
}
330
C
100
AcDbDictionary
281
     1
  3
Standard
350
18
  0
DICTIONARY
  5
19
102
{ACAD_REACTORS
330
C
102
}
330
C
100
AcDbDictionary
281
     1
  0
ACDBDICTIONARYWDFLT
  5
E
102
{ACAD_REACTORS
330
C
102
}
330
C
100
AcDbDictionary
281
     1
  3
Normal
350
F
100
AcDbDictionaryWithDefault
340
F
  0
DICTIONARY
  5
F5
102
{ACAD_REACTORS
330
C
102
}
330
C
100
AcDbDictionary
281
     1
  0
DICTIONARY
  5
2A
102
{ACAD_REACTORS
330
C
102
}
330
C
100
AcDbDictionary
281
     1
  3
2dWireframe
350
2F
  3
3D Hidden
350
31
  3
3dWireframe
350
30
  3
Basic
350
32
  3
Brighten
350
36
  3
ColorChange
350
3A
  3
Conceptual
350
34
  3
Dim
350
35
  3
Facepattern
350
39
  3
Flat
350
2B
  3
FlatWithEdges
350
2C
  3
Gouraud
350
2D
  3
GouraudWithEdges
350
2E
  3
Linepattern
350
38
  3
Realistic
350
33
  3
Thicken
350
37
  0
LAYOUT
  5
1E
102
{ACAD_REACTORS
330
1A
102
}
330
1A
100
AcDbPlotSettings
  1

  2
none_device
  4

  6

 40
0.0
 41
0.0
 42
0.0
 43
0.0
 44
0.0
 45
0.0
 46
0.0
 47
0.0
 48
0.0
 49
0.0
140
0.0
141
0.0
142
1.0
143
1.0
 70
   688
 72
     0
 73
     0
 74
     5
  7

 75
    16
 76
     0
 77
     2
 78
   300
147
1.0
148
0.0
149
0.0
100
AcDbLayout
  1
Layout1
 70
     1
 71
     1
 10
0.0
 20
0.0
 11
12.0
 21
9.0
 12
0.0
 22
0.0
 32
0.0
 14
1.000000000000000E+20
 24
1.000000000000000E+20
 34
1.000000000000000E+20
 15
-1.000000000000000E+20
 25
-1.000000000000000E+20
 35
-1.000000000000000E+20
146
0.0
 13
0.0
 23
0.0
 33
0.0
 16
1.0
 26
0.0
 36
0.0
 17
0.0
 27
1.0
 37
0.0
 76
     0
330
1B
  0
LAYOUT
  5
26
102
{ACAD_REACTORS
330
1A
102
}
330
1A
100
AcDbPlotSettings
  1

  2
none_device
  4

  6

 40
0.0
 41
0.0
 42
0.0
 43
0.0
 44
0.0
 45
0.0
 46
0.0
 47
0.0
 48
0.0
 49
0.0
140
0.0
141
0.0
142
1.0
143
1.0
 70
   688
 72
     0
 73
     0
 74
     5
  7

 75
    16
 76
     0
 77
     2
 78
   300
147
1.0
148
0.0
149
0.0
100
AcDbLayout
  1
Layout2
 70
     1
 71
     2
 10
0.0
 20
0.0
 11
0.0
 21
0.0
 12
0.0
 22
0.0
 32
0.0
 14
0.0
 24
0.0
 34
0.0
 15
0.0
 25
0.0
 35
0.0
146
0.0
 13
0.0
 23
0.0
 33
0.0
 16
1.0
 26
0.0
 36
0.0
 17
0.0
 27
1.0
 37
0.0
 76
     0
330
23
  0
LAYOUT
  5
22
102
{ACAD_REACTORS
330
1A
102
}
330
1A
100
AcDbPlotSettings
  1

  2
none_device
  4

  6

 40
0.0
 41
0.0
 42
0.0
 43
0.0
 44
0.0
 45
0.0
 46
0.0
 47
0.0
 48
0.0
 49
0.0
140
0.0
141
0.0
142
1.0
143
1.0
 70
  1712
 72
     0
 73
     0
 74
     0
  7

 75
     0
 76
     0
 77
     2
 78
   300
147
1.0
148
0.0
149
0.0
100
AcDbLayout
  1
Model
 70
     1
 71
     0
 10
0.0
 20
0.0
 11
12.0
 21
9.0
 12
0.0
 22
0.0
 32
0.0
 14
1.000000000000000E+20
 24
1.000000000000000E+20
 34
1.000000000000000E+20
 15
-1.000000000000000E+20
 25
-1.000000000000000E+20
 35
-1.000000000000000E+20
146
0.0
 13
0.0
 23
0.0
 33
0.0
 16
1.0
 26
0.0
 36
0.0
 17
0.0
 27
1.0
 37
0.0
 76
     0
330
1F
331
29
  0
MATERIAL
  5
3D
102
{ACAD_REACTORS
330
3B
102
}
330
3B
100
AcDbMaterial
  1
ByBlock
 72
     1
 94
      127
  0
MATERIAL
  5
3C
102
{ACAD_REACTORS
330
3B
102
}
330
3B
100
AcDbMaterial
  1
ByLayer
 72
     1
 94
      127
  0
MATERIAL
  5
3E
102
{ACAD_REACTORS
330
3B
102
}
330
3B
100
AcDbMaterial
  1
Global
 72
     1
 94
      127
  0
MLINESTYLE
  5
18
102
{ACAD_REACTORS
330
17
102
}
330
17
100
AcDbMlineStyle
  2
Standard
 70
     0
  3

 62
   256
 51
90.0
 52
90.0
 71
     2
 49
0.5
 62
   256
  6
BYLAYER
 49
-0.5
 62
   256
  6
BYLAYER
  0
ACDBPLACEHOLDER
  5
F
102
{ACAD_REACTORS
330
E
102
}
330
E
  0
VISUALSTYLE
  5
2F
102
{ACAD_REACTORS
330
2A
102
}
330
2A
100
AcDbVisualStyle
  2
2dWireframe
 70
     4
177
     2
291
     0
 71
     0
176
     1
 72
     2
176
     1
 73
     0
176
     1
 90
        0
176
     1
 40
-0.6
176
     1
 41
-30.0
176
     1
 62
     5
 63
     7
421
 16777215
176
     1
 74
     1
176
     1
 91
        4
176
     1
 64
     7
176
     1
 65
   257
176
     1
 75
     1
176
     1
175
     1
176
     1
 42
1.0
176
     1
 92
        0
176
     1
 66
   257
176
     1
 43
1.0
176
     1
 76
     1
176
     1
 77
     6
176
     1
 78
     2
176
     1
 67
     7
176
     1
 79
     5
176
     1
170
     0
176
     1
171
     0
176
     1
290
     0
176
     1
 93
        1
176
     1
 44
0.0
176
     1
173
     0
176
     1
  0
VISUALSTYLE
  5
31
102
{ACAD_REACTORS
330
2A
102
}
330
2A
100
AcDbVisualStyle
  2
3D Hidden
 70
     6
177
     2
291
     0
 71
     1
176
     1
 72
     2
176
     1
 73
     2
176
     1
 90
        0
176
     1
 40
-0.6
176
     1
 41
-30.0
176
     1
 62
     5
 63
     7
421
 16777215
176
     1
 74
     2
176
     1
 91
        2
176
     1
 64
     7
176
     1
 65
   257
176
     1
 75
     2
176
     1
175
     1
176
     1
 42
40.0
176
     1
 92
        0
176
     1
 66
   257
176
     1
 43
1.0
176
     1
 76
     1
176
     1
 77
     6
176
     1
 78
     2
176
     1
 67
     7
176
     1
 79
     3
176
     1
170
     0
176
     1
171
     0
176
     1
290
     0
176
     1
 93
        1
176
     1
 44
0.0
176
     1
173
     0
176
     1
  0
VISUALSTYLE
  5
30
102
{ACAD_REACTORS
330
2A
102
}
330
2A
100
AcDbVisualStyle
  2
3dWireframe
 70
     5
177
     2
291
     0
 71
     0
176
     1
 72
     2
176
     1
 73
     0
176
     1
 90
        0
176
     1
 40
-0.6
176
     1
 41
-30.0
176
     1
 62
     5
 63
     7
421
 16777215
176
     1
 74
     1
176
     1
 91
        4
176
     1
 64
     7
176
     1
 65
   257
176
     1
 75
     1
176
     1
175
     1
176
     1
 42
1.0
176
     1
 92
        0
176
     1
 66
   257
176
     1
 43
1.0
176
     1
 76
     1
176
     1
 77
     6
176
     1
 78
     2
176
     1
 67
     7
176
     1
 79
     5
176
     1
170
     0
176
     1
171
     0
176
     1
290
     0
176
     1
 93
        1
176
     1
 44
0.0
176
     1
173
     0
176
     1
  0
VISUALSTYLE
  5
32
102
{ACAD_REACTORS
330
2A
102
}
330
2A
100
AcDbVisualStyle
  2
Basic
 70
     7
177
     2
291
     1
 71
     1
176
     1
 72
     0
176
     1
 73
     1
176
     1
 90
        0
176
     1
 40
-0.6
176
     1
 41
-30.0
176
     1
 62
     5
 63
     7
421
 16777215
176
     1
 74
     0
176
     1
 91
        4
176
     1
 64
     7
176
     1
 65
   257
176
     1
 75
     1
176
     1
175
     1
176
     1
 42
1.0
176
     1
 92
        8
176
     1
 66
     7
176
     1
 43
1.0
176
     1
 76
     1
176
     1
 77
     6
176
     1
 78
     2
176
     1
 67
     7
176
     1
 79
     5
176
     1
170
     0
176
     1
171
     0
176
     1
290
     0
176
     1
 93
        1
176
     1
 44
0.0
176
     1
173
     0
176
     1
  0
VISUALSTYLE
  5
36
102
{ACAD_REACTORS
330
2A
102
}
330
2A
100
AcDbVisualStyle
  2
Brighten
 70
    12
177
     2
291
     1
 71
     2
176
     1
 72
     2
176
     1
 73
     0
176
     1
 90
        0
176
     1
 40
-0.6
176
     1
 41
-30.0
176
     1
 62
     5
 63
     7
421
 16777215
176
     1
 74
     1
176
     1
 91
        4
176
     1
 64
     7
176
     1
 65
   257
176
     1
 75
     1
176
     1
175
     1
176
     1
 42
1.0
176
     1
 92
        8
176
     1
 66
     7
176
     1
 43
1.0
176
     1
 76
     1
176
     1
 77
     6
176
     1
 78
     2
176
     1
 67
     7
176
     1
 79
     5
176
     1
170
     0
176
     1
171
     0
176
     1
290
     0
176
     1
 93
        1
176
     1
 44
50.0
176
     1
173
     0
176
     1
  0
VISUALSTYLE
  5
3A
102
{ACAD_REACTORS
330
2A
102
}
330
2A
100
AcDbVisualStyle
  2
ColorChange
 70
    16
177
     2
291
     1
 71
     2
176
     1
 72
     2
176
     1
 73
     3
176
     1
 90
        0
176
     1
 40
-0.6
176
     1
 41
-30.0
176
     1
 62
     5
 63
     8
421
  8421504
176
     1
 74
     1
176
     1
 91
        4
176
     1
 64
     7
176
     1
 65
   257
176
     1
 75
     1
176
     1
175
     1
176
     1
 42
1.0
176
     1
 92
        8
176
     1
 66
     8
424
  8421504
176
     1
 43
1.0
176
     1
 76
     1
176
     1
 77
     6
176
     1
 78
     2
176
     1
 67
     7
176
     1
 79
     5
176
     1
170
     0
176
     1
171
     0
176
     1
290
     0
176
     1
 93
        1
176
     1
 44
0.0
176
     1
173
     0
176
     1
  0
VISUALSTYLE
  5
34
102
{ACAD_REACTORS
330
2A
102
}
330
2A
100
AcDbVisualStyle
  2
Conceptual
 70
     9
177
     2
291
     0
 71
     3
176
     1
 72
     2
176
     1
 73
     0
176
     1
 90
        0
176
     1
 40
-0.6
176
     1
 41
-30.0
176
     1
 62
     5
 63
     7
421
 16777215
176
     1
 74
     2
176
     1
 91
        2
176
     1
 64
     7
176
     1
 65
   257
176
     1
 75
     1
176
     1
175
     1
176
     1
 42
40.0
176
     1
 92
        8
176
     1
 66
     7
176
     1
 43
1.0
176
     1
 76
     1
176
     1
 77
     6
176
     1
 78
     2
176
     1
 67
     7
176
     1
 79
     3
176
     1
170
     0
176
     1
171
     0
176
     1
290
     0
176
     1
 93
        1
176
     1
 44
0.0
176
     1
173
     0
176
     1
  0
VISUALSTYLE
  5
35
102
{ACAD_REACTORS
330
2A
102
}
330
2A
100
AcDbVisualStyle
  2
Dim
 70
    11
177
     2
291
     1
 71
     2
176
     1
 72
     2
176
     1
 73
     0
176
     1
 90
        0
176
     1
 40
-0.6
176
     1
 41
-30.0
176
     1
 62
     5
 63
     7
421
 16777215
176
     1
 74
     1
176
     1
 91
        4
176
     1
 64
     7
176
     1
 65
   257
176
     1
 75
     1
176
     1
175
     1
176
     1
 42
1.0
176
     1
 92
        8
176
     1
 66
     7
176
     1
 43
1.0
176
     1
 76
     1
176
     1
 77
     6
176
     1
 78
     2
176
     1
 67
     7
176
     1
 79
     5
176
     1
170
     0
176
     1
171
     0
176
     1
290
     0
176
     1
 93
        1
176
     1
 44
-50.0
176
     1
173
     0
176
     1
  0
VISUALSTYLE
  5
39
102
{ACAD_REACTORS
330
2A
102
}
330
2A
100
AcDbVisualStyle
  2
Facepattern
 70
    15
177
     2
291
     1
 71
     2
176
     1
 72
     2
176
     1
 73
     0
176
     1
 90
        0
176
     1
 40
-0.6
176
     1
 41
-30.0
176
     1
 62
     5
 63
     7
421
 16777215
176
     1
 74
     1
176
     1
 91
        4
176
     1
 64
     7
176
     1
 65
   257
176
     1
 75
     1
176
     1
175
     1
176
     1
 42
1.0
176
     1
 92
        8
176
     1
 66
     7
176
     1
 43
1.0
176
     1
 76
     1
176
     1
 77
     6
176
     1
 78
     2
176
     1
 67
     7
176
     1
 79
     5
176
     1
170
     0
176
     1
171
     0
176
     1
290
     0
176
     1
 93
        1
176
     1
 44
0.0
176
     1
173
     0
176
     1
  0
VISUALSTYLE
  5
2B
102
{ACAD_REACTORS
330
2A
102
}
330
2A
100
AcDbVisualStyle
  2
Flat
 70
     0
177
     2
291
     1
 71
     2
176
     1
 72
     1
176
     1
 73
     1
176
     1
 90
        2
176
     1
 40
-0.6
176
     1
 41
30.0
176
     1
 62
     5
 63
     7
421
 16777215
176
     1
 74
     0
176
     1
 91
        4
176
     1
 64
     7
176
     1
 65
   257
176
     1
 75
     1
176
     1
175
     1
176
     1
 42
1.0
176
     1
 92
        8
176
     1
 66
     7
176
     1
 43
1.0
176
     1
 76
     1
176
     1
 77
     6
176
     1
 78
     2
176
     1
 67
     7
176
     1
 79
     5
176
     1
170
     0
176
     1
171
     0
176
     1
290
     0
176
     1
 93
       13
176
     1
 44
0.0
176
     1
173
     0
176
     1
  0
VISUALSTYLE
  5
2C
102
{ACAD_REACTORS
330
2A
102
}
330
2A
100
AcDbVisualStyle
  2
FlatWithEdges
 70
     1
177
     2
291
     1
 71
     2
176
     1
 72
     1
176
     1
 73
     1
176
     1
 90
        2
176
     1
 40
-0.6
176
     1
 41
30.0
176
     1
 62
     5
 63
     7
421
 16777215
176
     1
 74
     1
176
     1
 91
        4
176
     1
 64
     7
176
     1
 65
   257
176
     1
 75
     1
176
     1
175
     1
176
     1
 42
1.0
176
     1
 92
        0
176
     1
 66
   257
176
     1
 43
1.0
176
     1
 76
     1
176
     1
 77
     6
176
     1
 78
     2
176
     1
 67
     7
176
     1
 79
     5
176
     1
170
     0
176
     1
171
     0
176
     1
290
     0
176
     1
 93
       13
176
     1
 44
0.0
176
     1
173
     0
176
     1
  0
VISUALSTYLE
  5
2D
102
{ACAD_REACTORS
330
2A
102
}
330
2A
100
AcDbVisualStyle
  2
Gouraud
 70
     2
177
     2
291
     1
 71
     2
176
     1
 72
     2
176
     1
 73
     1
176
     1
 90
        2
176
     1
 40
-0.6
176
     1
 41
30.0
176
     1
 62
     5
 63
     7
421
 16777215
176
     1
 74
     0
176
     1
 91
        4
176
     1
 64
     7
176
     1
 65
   257
176
     1
 75
     1
176
     1
175
     1
176
     1
 42
1.0
176
     1
 92
        0
176
     1
 66
     7
176
     1
 43
1.0
176
     1
 76
     1
176
     1
 77
     6
176
     1
 78
     2
176
     1
 67
     7
176
     1
 79
     5
176
     1
170
     0
176
     1
171
     0
176
     1
290
     0
176
     1
 93
       13
176
     1
 44
0.0
176
     1
173
     0
176
     1
  0
VISUALSTYLE
  5
2E
102
{ACAD_REACTORS
330
2A
102
}
330
2A
100
AcDbVisualStyle
  2
GouraudWithEdges
 70
     3
177
     2
291
     1
 71
     2
176
     1
 72
     2
176
     1
 73
     1
176
     1
 90
        2
176
     1
 40
-0.6
176
     1
 41
30.0
176
     1
 62
     5
 63
     7
421
 16777215
176
     1
 74
     1
176
     1
 91
        4
176
     1
 64
     7
176
     1
 65
   257
176
     1
 75
     1
176
     1
175
     1
176
     1
 42
1.0
176
     1
 92
        0
176
     1
 66
   257
176
     1
 43
1.0
176
     1
 76
     1
176
     1
 77
     6
176
     1
 78
     2
176
     1
 67
     7
176
     1
 79
     5
176
     1
170
     0
176
     1
171
     0
176
     1
290
     0
176
     1
 93
       13
176
     1
 44
0.0
176
     1
173
     0
176
     1
  0
VISUALSTYLE
  5
38
102
{ACAD_REACTORS
330
2A
102
}
330
2A
100
AcDbVisualStyle
  2
Linepattern
 70
    14
177
     2
291
     1
 71
     2
176
     1
 72
     2
176
     1
 73
     0
176
     1
 90
        0
176
     1
 40
-0.6
176
     1
 41
-30.0
176
     1
 62
     5
 63
     7
421
 16777215
176
     1
 74
     1
176
     1
 91
        4
176
     1
 64
     7
176
     1
 65
   257
176
     1
 75
     7
176
     1
175
     7
176
     1
 42
1.0
176
     1
 92
        8
176
     1
 66
     7
176
     1
 43
1.0
176
     1
 76
     1
176
     1
 77
     6
176
     1
 78
     2
176
     1
 67
     7
176
     1
 79
     5
176
     1
170
     0
176
     1
171
     0
176
     1
290
     0
176
     1
 93
        1
176
     1
 44
0.0
176
     1
173
     0
176
     1
  0
VISUALSTYLE
  5
33
102
{ACAD_REACTORS
330
2A
102
}
330
2A
100
AcDbVisualStyle
  2
Realistic
 70
     8
177
     2
291
     0
 71
     2
176
     1
 72
     2
176
     1
 73
     0
176
     1
 90
        0
176
     1
 40
-0.6
176
     1
 41
-30.0
176
     1
 62
     5
 63
     7
421
 16777215
176
     1
 74
     1
176
     1
 91
        0
176
     1
 64
     7
176
     1
 65
   257
176
     1
 75
     1
176
     1
175
     1
176
     1
 42
1.0
176
     1
 92
        8
176
     1
 66
     8
424
  7895160
176
     1
 43
1.0
176
     1
 76
     1
176
     1
 77
     6
176
     1
 78
     2
176
     1
 67
     7
176
     1
 79
     5
176
     1
170
     0
176
     1
171
     0
176
     1
290
     0
176
     1
 93
       13
176
     1
 44
0.0
176
     1
173
     0
176
     1
  0
VISUALSTYLE
  5
37
102
{ACAD_REACTORS
330
2A
102
}
330
2A
100
AcDbVisualStyle
  2
Thicken
 70
    13
177
     2
291
     1
 71
     2
176
     1
 72
     2
176
     1
 73
     0
176
     1
 90
        0
176
     1
 40
-0.6
176
     1
 41
-30.0
176
     1
 62
     5
 63
     7
421
 16777215
176
     1
 74
     1
176
     1
 91
        4
176
     1
 64
     7
176
     1
 65
   257
176
     1
 75
     1
176
     1
175
     1
176
     1
 42
1.0
176
     1
 92
       12
176
     1
 66
     7
176
     1
 43
1.0
176
     1
 76
     1
176
     1
 77
     6
176
     1
 78
     2
176
     1
 67
     7
176
     1
 79
     5
176
     1
170
     0
176
     1
171
     0
176
     1
290
     0
176
     1
 93
        1
176
     1
 44
0.0
176
     1
173
     0
176
     1
  0
ENDSEC
  0
EOF
