  0
SECTION
  2
HEADER
  9
$ACADVER
  1
AC1024
  9
$ACADMAINTVER
 70
   226
  9
$DWGCODEPAGE
  3
ANSI_932
  9
$INSBASE
 10
0.0
 20
0.0
 30
0.0
  9
$EXTMIN
 10
1.000000000000000E+20
 20
1.000000000000000E+20
 30
1.000000000000000E+20
  9
$EXTMAX
 10
-1.000000000000000E+20
 20
-1.000000000000000E+20
 30
-1.000000000000000E+20
  9
$LIMMIN
 10
0.0
 20
0.0
  9
$LIMMAX
 10
12.0
 20
9.0
  9
$ORTHOMODE
 70
     0
  9
$REGENMODE
 70
     1
  9
$FILLMODE
 70
     1
  9
$QTEXTMODE
 70
     0
  9
$MIRRTEXT
 70
     0
  9
$LTSCALE
 40
1.0
  9
$ATTMODE
 70
     1
  9
$TEXTSIZE
 40
0.2
  9
$TRACEWID
 40
0.05
  9
$TEXTSTYLE
  7
Standard
  9
$CLAYER
  8
0
  9
$CELTYPE
  6
ByLayer
  9
$CECOLOR
 62
   256
  9
$CELTSCALE
 40
1.0
  9
$DISPSILH
 70
     0
  9
$DIMSCALE
 40
1.0
  9
$DIMASZ
 40
0.18
  9
$DIMEXO
 40
0.0625
  9
$DIMDLI
 40
0.38
  9
$DIMRND
 40
0.0
  9
$DIMDLE
 40
0.0
  9
$DIMEXE
 40
0.18
  9
$DIMTP
 40
0.0
  9
$DIMTM
 40
0.0
  9
$DIMTXT
 40
0.18
  9
$DIMCEN
 40
0.09
  9
$DIMTSZ
 40
0.0
  9
$DIMTOL
 70
     0
  9
$DIMLIM
 70
     0
  9
$DIMTIH
 70
     1
  9
$DIMTOH
 70
     1
  9
$DIMSE1
 70
     0
  9
$DIMSE2
 70
     0
  9
$DIMTAD
 70
     0
  9
$DIMZIN
 70
     0
  9
$DIMBLK
  1

  9
$DIMASO
 70
     1
  9
$DIMSHO
 70
     1
  9
$DIMPOST
  1

  9
$DIMAPOST
  1

  9
$DIMALT
 70
     0
  9
$DIMALTD
 70
     2
  9
$DIMALTF
 40
25.4
  9
$DIMLFAC
 40
1.0
  9
$DIMTOFL
 70
     0
  9
$DIMTVP
 40
0.0
  9
$DIMTIX
 70
     0
  9
$DIMSOXD
 70
     0
  9
$DIMSAH
 70
     0
  9
$DIMBLK1
  1

  9
$DIMBLK2
  1

  9
$DIMSTYLE
  2
Standard
  9
$DIMCLRD
 70
     0
  9
$DIMCLRE
 70
     0
  9
$DIMCLRT
 70
     0
  9
$DIMTFAC
 40
1.0
  9
$DIMGAP
 40
0.09
  9
$DIMJUST
 70
     0
  9
$DIMSD1
 70
     0
  9
$DIMSD2
 70
     0
  9
$DIMTOLJ
 70
     1
  9
$DIMTZIN
 70
     0
  9
$DIMALTZ
 70
     0
  9
$DIMALTTZ
 70
     0
  9
$DIMUPT
 70
     0
  9
$DIMDEC
 70
     4
  9
$DIMTDEC
 70
     4
  9
$DIMALTU
 70
     2
  9
$DIMALTTD
 70
     2
  9
$DIMTXSTY
  7
Standard
  9
$DIMAUNIT
 70
     0
  9
$DIMADEC
 70
     0
  9
$DIMALTRND
 40
0.0
  9
$DIMAZIN
 70
     0
  9
$DIMDSEP
 70
    46
  9
$DIMATFIT
 70
     3
  9
$DIMFRAC
 70
     0
  9
$DIMLDRBLK
  1

  9
$DIMLUNIT
 70
     2
  9
$DIMLWD
 70
    -2
  9
$DIMLWE
 70
    -2
  9
$DIMTMOVE
 70
     0
  9
$DIMFXL
 40
1.0
  9
$DIMFXLON
 70
     0
  9
$DIMJOGANG
 40
0.7853981633974483
  9
$DIMTFILL
 70
     0
  9
$DIMTFILLCLR
 70
     0
  9
$DIMARCSYM
 70
     0
  9
$DIMLTYPE
  6

  9
$DIMLTEX1
  6

  9
$DIMLTEX2
  6

  9
$DIMTXTDIRECTION
 70
     0
  9
$LUNITS
 70
     2
  9
$LUPREC
 70
     4
  9
$SKETCHINC
 40
0.1
  9
$FILLETRAD
 40
0.0
  9
$AUNITS
 70
     0
  9
$AUPREC
 70
     0
  9
$MENU
  1
.
  9
$ELEVATION
 40
0.0
  9
$PELEVATION
 40
0.0
  9
$THICKNESS
 40
0.0
  9
$LIMCHECK
 70
     0
  9
$CHAMFERA
 40
0.0
  9
$CHAMFERB
 40
0.0
  9
$CHAMFERC
 40
0.0
  9
$CHAMFERD
 40
0.0
  9
$SKPOLY
 70
     0
  9
$TDCREATE
 40
2459569.488900463
  9
$TDUCREATE
 40
2459569.113900463
  9
$TDUPDATE
 40
2459569.488900463
  9
$TDUUPDATE
 40
2459569.113900463
  9
$TDINDWG
 40
0.0000000000
  9
$TDUSRTIMER
 40
0.0000000000
  9
$USRTIMER
 70
     1
  9
$ANGBASE
 50
0.0
  9
$ANGDIR
 70
     0
  9
$PDMODE
 70
     0
  9
$PDSIZE
 40
0.0
  9
$PLINEWID
 40
0.0
  9
$SPLFRAME
 70
     0
  9
$SPLINETYPE
 70
     6
  9
$SPLINESEGS
 70
     8
  9
$HANDSEED
  5
14E
  9
$SURFTAB1
 70
     6
  9
$SURFTAB2
 70
     6
  9
$SURFTYPE
 70
     6
  9
$SURFU
 70
     6
  9
$SURFV
 70
     6
  9
$UCSBASE
  2

  9
$UCSNAME
  2

  9
$UCSORG
 10
0.0
 20
0.0
 30
0.0
  9
$UCSXDIR
 10
1.0
 20
0.0
 30
0.0
  9
$UCSYDIR
 10
0.0
 20
1.0
 30
0.0
  9
$UCSORTHOREF
  2

  9
$UCSORTHOVIEW
 70
     0
  9
$UCSORGTOP
 10
0.0
 20
0.0
 30
0.0
  9
$UCSORGBOTTOM
 10
0.0
 20
0.0
 30
0.0
  9
$UCSORGLEFT
 10
0.0
 20
0.0
 30
0.0
  9
$UCSORGRIGHT
 10
0.0
 20
0.0
 30
0.0
  9
$UCSORGFRONT
 10
0.0
 20
0.0
 30
0.0
  9
$UCSORGBACK
 10
0.0
 20
0.0
 30
0.0
  9
$PUCSBASE
  2

  9
$PUCSNAME
  2

  9
$PUCSORG
 10
0.0
 20
0.0
 30
0.0
  9
$PUCSXDIR
 10
1.0
 20
0.0
 30
0.0
  9
$PUCSYDIR
 10
0.0
 20
1.0
 30
0.0
  9
$PUCSORTHOREF
  2

  9
$PUCSORTHOVIEW
 70
     0
  9
$PUCSORGTOP
 10
0.0
 20
0.0
 30
0.0
  9
$PUCSORGBOTTOM
 10
0.0
 20
0.0
 30
0.0
  9
$PUCSORGLEFT
 10
0.0
 20
0.0
 30
0.0
  9
$PUCSORGRIGHT
 10
0.0
 20
0.0
 30
0.0
  9
$PUCSORGFRONT
 10
0.0
 20
0.0
 30
0.0
  9
$PUCSORGBACK
 10
0.0
 20
0.0
 30
0.0
  9
$USERI1
 70
     0
  9
$USERI2
 70
     0
  9
$USERI3
 70
     0
  9
$USERI4
 70
     0
  9
$USERI5
 70
     0
  9
$USERR1
 40
0.0
  9
$USERR2
 40
0.0
  9
$USERR3
 40
0.0
  9
$USERR4
 40
0.0
  9
$USERR5
 40
0.0
  9
$WORLDVIEW
 70
     1
  9
$SHADEDGE
 70
     3
  9
$SHADEDIF
 70
    70
  9
$TILEMODE
 70
     1
  9
$MAXACTVP
 70
    64
  9
$PINSBASE
 10
0.0
 20
0.0
 30
0.0
  9
$PLIMCHECK
 70
     0
  9
$PEXTMIN
 10
1.000000000000000E+20
 20
1.000000000000000E+20
 30
1.000000000000000E+20
  9
$PEXTMAX
 10
-1.000000000000000E+20
 20
-1.000000000000000E+20
 30
-1.000000000000000E+20
  9
$PLIMMIN
 10
0.0
 20
0.0
  9
$PLIMMAX
 10
12.0
 20
9.0
  9
$UNITMODE
 70
     0
  9
$VISRETAIN
 70
     1
  9
$PLINEGEN
 70
     0
  9
$PSLTSCALE
 70
     1
  9
$TREEDEPTH
 70
  3020
  9
$CMLSTYLE
  2
Standard
  9
$CMLJUST
 70
     0
  9
$CMLSCALE
 40
1.0
  9
$PROXYGRAPHICS
 70
     1
  9
$MEASUREMENT
 70
     0
  9
$CELWEIGHT
370
    -1
  9
$ENDCAPS
280
     0
  9
$JOINSTYLE
280
     0
  9
$LWDISPLAY
290
     1
  9
$INSUNITS
 70
     4
  9
$HYPERLINKBASE
  1

  9
$STYLESHEET
  1

  9
$XEDIT
290
     1
  9
$CEPSNTYPE
380
     0
  9
$PSTYLEMODE
290
     1
  9
$FINGERPRINTGUID
  2
{4049C447-E89B-A44B-860D-E86B12319E54}
  9
$VERSIONGUID
  2
{5355E0CB-1F82-0746-A897-D76EAFA39C8F}
  9
$EXTNAMES
290
     1
  9
$PSVPSCALE
 40
0.0
  9
$OLESTARTUP
290
     0
  9
$SORTENTS
280
   127
  9
$INDEXCTL
280
     0
  9
$HIDETEXT
280
     1
  9
$XCLIPFRAME
280
     2
  9
$HALOGAP
280
     0
  9
$OBSCOLOR
 70
   257
  9
$OBSLTYPE
280
     0
  9
$INTERSECTIONDISPLAY
280
     0
  9
$INTERSECTIONCOLOR
 70
   257
  9
$DIMASSOC
280
     2
  9
$PROJECTNAME
  1

  9
$CAMERADISPLAY
290
     0
  9
$LENSLENGTH
 40
50.0
  9
$CAMERAHEIGHT
 40
0.0
  9
$STEPSPERSEC
 40
2.0
  9
$STEPSIZE
 40
6.0
  9
$3DDWFPREC
 40
2.0
  9
$PSOLWIDTH
 40
0.25
  9
$PSOLHEIGHT
 40
4.0
  9
$LOFTANG1
 40
1.570796326794896
  9
$LOFTANG2
 40
1.570796326794896
  9
$LOFTMAG1
 40
0.0
  9
$LOFTMAG2
 40
0.0
  9
$LOFTPARAM
 70
     7
  9
$LOFTNORMALS
280
     1
  9
$LATITUDE
 40
37.795
  9
$LONGITUDE
 40
-122.394
  9
$NORTHDIRECTION
 40
0.0
  9
$TIMEZONE
 70
 -8000
  9
$LIGHTGLYPHDISPLAY
280
     1
  9
$TILEMODELIGHTSYNCH
280
     1
  9
$CMATERIAL
347
11
  9
$SOLIDHIST
280
     0
  9
$SHOWHIST
280
     1
  9
$DWFFRAME
280
     2
  9
$DGNFRAME
280
     0
  9
$REALWORLDSCALE
290
     1
  9
$INTERFERECOLOR
 62
     1
  9
$INTERFEREOBJVS
345
33
  9
$INTERFEREVPVS
346
30
  9
$CSHADOW
280
     0
  9
$SHADOWPLANELOCATION
 40
0.0
  0
ENDSEC
  0
SECTION
  2
CLASSES
  0
CLASS
  1
ACDBDICTIONARYWDFLT
  2
AcDbDictionaryWithDefault
  3
ObjectDBX Classes
 90
        0
 91
        1
280
     0
281
     0
  0
CLASS
  1
MATERIAL
  2
AcDbMaterial
  3
ObjectDBX Classes
 90
     1153
 91
        3
280
     0
281
     0
  0
CLASS
  1
VISUALSTYLE
  2
AcDbVisualStyle
  3
ObjectDBX Classes
 90
     4095
 91
       24
280
     0
281
     0
  0
CLASS
  1
SCALE
  2
AcDbScale
  3
ObjectDBX Classes
 90
     1153
 91
       17
280
     0
281
     0
  0
CLASS
  1
TABLESTYLE
  2
AcDbTableStyle
  3
ObjectDBX Classes
 90
     4095
 91
        1
280
     0
281
     0
  0
CLASS
  1
MLEADERSTYLE
  2
AcDbMLeaderStyle
  3
ACDB_MLEADERSTYLE_CLASS
 90
     4095
 91
        1
280
     0
281
     0
  0
CLASS
  1
ACDBSECTIONVIEWSTYLE
  2
AcDbSectionViewStyle
  3
ObjectDBX Classes
 90
     1025
 91
        1
280
     0
281
     0
  0
CLASS
  1
ACDBDETAILVIEWSTYLE
  2
AcDbDetailViewStyle
  3
ObjectDBX Classes
 90
     1025
 91
        1
280
     0
281
     0
  0
CLASS
  1
DICTIONARYVAR
  2
AcDbDictionaryVar
  3
ObjectDBX Classes
 90
        0
 91
        5
280
     0
281
     0
  0
CLASS
  1
CELLSTYLEMAP
  2
AcDbCellStyleMap
  3
ObjectDBX Classes
 90
     1152
 91
        1
280
     0
281
     0
  0
ENDSEC
  0
SECTION
  2
TABLES
  0
TABLE
  2
VPORT
  5
8
330
0
100
AcDbSymbolTable
 70
     1
  0
VPORT
  5
57
330
8
100
AcDbSymbolTableRecord
100
AcDbViewportTableRecord
  2
*Active
 70
     0
 10
0.0
 20
0.0
 11
1.0
 21
1.0
 12
0.0
 22
0.0
 13
0.0
 23
0.0
 14
1.0
 24
1.0
 15
0.0
 25
0.0
 16
0.0
 26
0.0
 36
1.0
 17
104.9999999737534
 27
-148.4999999628701
 37
0.0
 40
302.939999924255
 41
0.7070707070707534
 42
50.0
 43
0.0
 44
0.0
 50
0.0
 51
0.0
 71
     0
 72
   100
 73
     1
 74
     0
 75
     1
 76
     0
 77
     0
 78
     0
281
     0
 65
     1
110
0.0
120
0.0
130
0.0
111
1.0
121
0.0
131
0.0
112
0.0
122
1.0
132
0.0
 79
     0
146
0.0
 60
     3
 61
     5
292
     1
282
     1
141
0.0
142
0.0
 63
   250
421
  3355443
  0
ENDTAB
  0
TABLE
  2
LTYPE
  5
5
330
0
100
AcDbSymbolTable
 70
     2
  0
LTYPE
  5
5B
330
5
100
AcDbSymbolTableRecord
100
AcDbLinetypeTableRecord
  2
ByBlock
 70
     0
  3

 72
    65
 73
     0
 40
0.0
  0
LTYPE
  5
5C
330
5
100
AcDbSymbolTableRecord
100
AcDbLinetypeTableRecord
  2
ByLayer
 70
     0
  3

 72
    65
 73
     0
 40
0.0
  0
LTYPE
  5
5D
330
5
100
AcDbSymbolTableRecord
100
AcDbLinetypeTableRecord
  2
Continuous
 70
     0
  3
Solid line
 72
    65
 73
     0
 40
0.0
  0
LTYPE
  5
F2
330
5
100
AcDbSymbolTableRecord
100
AcDbLinetypeTableRecord
  2
AI-Linetype-0
 70
     0
  3
Adobe Illustrator Linetype No. 0
 72
    65
 73
     2
 40
1.411111110758333
 49
0.7055555553791667
 74
     0
 49
-0.7055555553791667
 74
     0
  0
ENDTAB
  0
TABLE
  2
LAYER
  5
2
330
0
100
AcDbSymbolTable
 70
     2
  0
LAYER
  5
54
330
2
100
AcDbSymbolTableRecord
100
AcDbLayerTableRecord
  2
0
 70
     0
 62
     7
  6
Continuous
370
    -3
390
F
347
21
  0
LAYER
  5
78
330
2
100
AcDbSymbolTableRecord
100
AcDbLayerTableRecord
  2
レイヤー 1
 70
     0
 62
     7
  6
Continuous
370
     0
390
F
347
21
  0
ENDTAB
  0
TABLE
  2
STYLE
  5
3
330
0
100
AcDbSymbolTable
 70
     2
  0
STYLE
  5
55
330
3
100
AcDbSymbolTableRecord
100
AcDbTextStyleTableRecord
  2
Standard
 70
     0
 40
0.0
 41
1.0
 50
0.0
 71
     0
 42
0.2
  3
txt
  4

  0
STYLE
  5
5A
330
3
100
AcDbSymbolTableRecord
100
AcDbTextStyleTableRecord
  2
Annotative
 70
     0
 40
0.0
 41
1.0
 50
0.0
 71
     0
 42
0.2
  3
txt
  4

1001
AcadAnnotative
1000
AnnotativeData
1002
{
1070
     1
1070
     1
1002
}
  0
ENDTAB
  0
TABLE
  2
VIEW
  5
6
330
0
100
AcDbSymbolTable
 70
     0
  0
ENDTAB
  0
TABLE
  2
UCS
  5
7
330
0
100
AcDbSymbolTable
 70
     0
  0
ENDTAB
  0
TABLE
  2
APPID
  5
9
330
0
100
AcDbSymbolTable
 70
     2
  0
APPID
  5
56
330
9
100
AcDbSymbolTableRecord
100
AcDbRegAppTableRecord
  2
ACAD
 70
     0
  0
APPID
  5
5E
330
9
100
AcDbSymbolTableRecord
100
AcDbRegAppTableRecord
  2
AcadAnnotative
 70
     0
  0
ENDTAB
  0
TABLE
  2
DIMSTYLE
  5
A
330
0
100
AcDbSymbolTable
 70
     2
100
AcDbDimStyleTable
 71
     0
  0
DIMSTYLE
105
58
330
A
100
AcDbSymbolTableRecord
100
AcDbDimStyleTableRecord
  2
Standard
 70
     0
340
55
  0
DIMSTYLE
105
59
330
A
100
AcDbSymbolTableRecord
100
AcDbDimStyleTableRecord
  2
Annotative
 70
     0
340
55
1001
AcadAnnotative
1000
AnnotativeData
1002
{
1070
     1
1070
     1
1002
}
  0
ENDTAB
  0
TABLE
  2
BLOCK_RECORD
  5
1
330
0
100
AcDbSymbolTable
 70
    15
  0
BLOCK_RECORD
  5
70
330
1
100
AcDbSymbolTableRecord
100
AcDbBlockTableRecord
  2
*Model_Space
340
73
 70
     0
280
     1
281
     0
  0
BLOCK_RECORD
  5
6C
330
1
100
AcDbSymbolTableRecord
100
AcDbBlockTableRecord
  2
*Paper_Space
340
6F
 70
     0
280
     1
281
     0
  0
BLOCK_RECORD
  5
74
330
1
100
AcDbSymbolTableRecord
100
AcDbBlockTableRecord
  2
*Paper_Space0
340
77
 70
     0
280
     1
281
     0
  0
BLOCK_RECORD
  5
7E
330
1
100
AcDbSymbolTableRecord
100
AcDbBlockTableRecord
  2
Block_0
340
0
102
{BLKREFS
331
7F
102
}
 70
     0
280
     1
281
     0
  0
BLOCK_RECORD
  5
82
330
1
100
AcDbSymbolTableRecord
100
AcDbBlockTableRecord
  2
Block_1
340
0
102
{BLKREFS
331
83
102
}
 70
     0
280
     1
281
     0
  0
BLOCK_RECORD
  5
90
330
1
100
AcDbSymbolTableRecord
100
AcDbBlockTableRecord
  2
Block_2
340
0
102
{BLKREFS
331
91
102
}
 70
     0
280
     1
281
     0
  0
BLOCK_RECORD
  5
94
330
1
100
AcDbSymbolTableRecord
100
AcDbBlockTableRecord
  2
Block_3
340
0
102
{BLKREFS
331
95
102
}
 70
     0
280
     1
281
     0
  0
BLOCK_RECORD
  5
9F
330
1
100
AcDbSymbolTableRecord
100
AcDbBlockTableRecord
  2
Block_4
340
0
102
{BLKREFS
331
A0
102
}
 70
     0
280
     1
281
     0
  0
BLOCK_RECORD
  5
A3
330
1
100
AcDbSymbolTableRecord
100
AcDbBlockTableRecord
  2
Block_5
340
0
102
{BLKREFS
331
A4
102
}
 70
     0
280
     1
281
     0
  0
BLOCK_RECORD
  5
B3
330
1
100
AcDbSymbolTableRecord
100
AcDbBlockTableRecord
  2
Block_6
340
0
102
{BLKREFS
331
B4
102
}
 70
     0
280
     1
281
     0
  0
BLOCK_RECORD
  5
BB
330
1
100
AcDbSymbolTableRecord
100
AcDbBlockTableRecord
  2
Block_7
340
0
102
{BLKREFS
331
BC
102
}
 70
     0
280
     1
281
     0
  0
BLOCK_RECORD
  5
C3
330
1
100
AcDbSymbolTableRecord
100
AcDbBlockTableRecord
  2
Block_8
340
0
102
{BLKREFS
331
C4
102
}
 70
     0
280
     1
281
     0
  0
BLOCK_RECORD
  5
C7
330
1
100
AcDbSymbolTableRecord
100
AcDbBlockTableRecord
  2
Block_9
340
0
102
{BLKREFS
331
C8
102
}
 70
     0
280
     1
281
     0
  0
BLOCK_RECORD
  5
D9
330
1
100
AcDbSymbolTableRecord
100
AcDbBlockTableRecord
  2
Block_10
340
0
102
{BLKREFS
331
DA
102
}
 70
     0
280
     1
281
     0
  0
BLOCK_RECORD
  5
ED
330
1
100
AcDbSymbolTableRecord
100
AcDbBlockTableRecord
  2
Block_11
340
0
102
{BLKREFS
331
EE
102
}
 70
     0
280
     1
281
     0
  0
BLOCK_RECORD
  5
F5
330
1
100
AcDbSymbolTableRecord
100
AcDbBlockTableRecord
  2
Block_12
340
0
102
{BLKREFS
331
F6
102
}
 70
     0
280
     1
281
     0
  0
BLOCK_RECORD
  5
F9
330
1
100
AcDbSymbolTableRecord
100
AcDbBlockTableRecord
  2
Block_13
340
0
102
{BLKREFS
331
FA
102
}
 70
     0
280
     1
281
     0
  0
ENDTAB
  0
ENDSEC
  0
SECTION
  2
BLOCKS
  0
BLOCK
  5
71
330
70
100
AcDbEntity
  8
0
100
AcDbBlockBegin
  2
*Model_Space
 70
     0
 10
0.0
 20
0.0
 30
0.0
  3
*Model_Space
  1

  0
ENDBLK
  5
72
330
70
100
AcDbEntity
  8
0
100
AcDbBlockEnd
  0
BLOCK
  5
6D
330
6C
100
AcDbEntity
 67
     1
  8
0
100
AcDbBlockBegin
  2
*Paper_Space
 70
     0
 10
0.0
 20
0.0
 30
0.0
  3
*Paper_Space
  1

  0
ENDBLK
  5
6E
330
6C
100
AcDbEntity
 67
     1
  8
0
100
AcDbBlockEnd
  0
BLOCK
  5
75
330
74
100
AcDbEntity
 67
     1
  8
0
100
AcDbBlockBegin
  2
*Paper_Space0
 70
     0
 10
0.0
 20
0.0
 30
0.0
  3
*Paper_Space0
  1

  0
ENDBLK
  5
76
330
74
100
AcDbEntity
 67
     1
  8
0
100
AcDbBlockEnd
  0
BLOCK
  5
80
330
7E
100
AcDbEntity
  8
0
100
AcDbBlockBegin
  2
Block_0
 70
     0
 10
0.0
 20
0.0
 30
0.0
  3
Block_0
  1

  0
INSERT
  5
83
330
7E
100
AcDbEntity
  8
レイヤー 1
100
AcDbBlockReference
  2
Block_1
 10
0.0
 20
0.0
 30
0.0
  0
ENDBLK
  5
81
330
7E
100
AcDbEntity
  8
0
100
AcDbBlockEnd
  0
BLOCK
  5
84
330
82
100
AcDbEntity
  8
0
100
AcDbBlockBegin
  2
Block_1
 70
     0
 10
0.0
 20
0.0
 30
0.0
  3
Block_1
  1

  0
SPLINE
  5
86
330
82
100
AcDbEntity
  8
レイヤー 1
100
AcDbSpline
210
0.0
220
0.0
230
1.0
 70
     9
 71
     3
 72
    62
 73
    58
 74
     0
 42
0.0000000001
 43
0.0000000001
 40
0.0
 40
0.0
 40
0.0
 40
0.0
 40
1.0
 40
1.0
 40
1.0
 40
2.0
 40
2.0
 40
2.0
 40
3.0
 40
3.0
 40
3.0
 40
4.0
 40
4.0
 40
4.0
 40
5.0
 40
5.0
 40
5.0
 40
6.0
 40
6.0
 40
6.0
 40
7.0
 40
7.0
 40
7.0
 40
8.0
 40
8.0
 40
8.0
 40
9.0
 40
9.0
 40
9.0
 40
10.0
 40
10.0
 40
10.0
 40
11.0
 40
11.0
 40
11.0
 40
12.0
 40
12.0
 40
12.0
 40
13.0
 40
13.0
 40
13.0
 40
14.0
 40
14.0
 40
14.0
 40
15.0
 40
15.0
 40
15.0
 40
16.0
 40
16.0
 40
16.0
 40
17.0
 40
17.0
 40
17.0
 40
18.0
 40
18.0
 40
18.0
 40
19.0
 40
19.0
 40
19.0
 40
19.0
 10
105.4617797587908
 20
-137.3509616084574
 30
0.0
 10
105.3815090339845
 20
-137.3509616084574
 30
0.0
 10
105.1975409350721
 20
-137.3297742712231
 30
0.0
 10
105.0921210132235
 20
-137.1435668602453
 30
0.0
 10
105.0294202753919
 20
-137.0314290022004
 30
0.0
 10
105.0259751799067
 20
-136.932037997451
 30
0.0
 10
105.0221855748729
 20
-136.8474609032881
 30
0.0
 10
105.0221855748729
 20
-136.8474609032881
 30
0.0
 10
105.2082207310764
 20
-136.8474609032881
 30
0.0
 10
105.2082207310764
 20
-136.8474609032881
 30
0.0
 10
105.209943278819
 20
-136.921530456221
 30
0.0
 10
105.2189005270807
 20
-137.1563137135408
 30
0.0
 10
105.4583346633055
 20
-137.1563137135408
 30
0.0
 10
105.5742621263842
 20
-137.1563137135408
 30
0.0
 10
105.7031086975325
 20
-137.0865505299645
 30
0.0
 10
105.7031086975325
 20
-136.8579684445181
 30
0.0
 10
105.7031086975325
 20
-136.741696471891
 30
0.0
 10
105.6707247999712
 20
-136.6929483707747
 30
0.0
 10
105.6438530551862
 20
-136.6612534923103
 30
0.0
 10
105.5814968269032
 20
-136.5871839393775
 30
0.0
 10
105.4833116055736
 20
-136.5746093408563
 30
0.0
 10
105.436975071297
 20
-136.5746093408563
 30
0.0
 10
105.4207831225163
 20
-136.5746093408563
 30
0.0
 10
105.3904662822461
 20
-136.5766763981475
 30
0.0
 10
105.3670396329464
 20
-136.5808105127298
 30
0.0
 10
105.3670396329464
 20
-136.5808105127298
 30
0.0
 10
105.3670396329464
 20
-136.3861626178132
 30
0.0
 10
105.3670396329464
 20
-136.3861626178132
 30
0.0
 10
105.3994235305078
 20
-136.3925360444609
 30
0.0
 10
105.4352525235544
 20
-136.3947753565263
 30
0.0
 10
105.4404201667822
 20
-136.3947753565263
 30
0.0
 10
105.4957139493205
 20
-136.3947753565263
 30
0.0
 10
105.6638346090007
 20
-136.373588019292
 30
0.0
 10
105.6638346090007
 20
-136.1365654499068
 30
0.0
 10
105.6638346090007
 20
-135.9589707776422
 30
0.0
 10
105.5529025343756
 20
-135.9038492498782
 30
0.0
 10
105.4600572110482
 20
-135.9038492498782
 30
0.0
 10
105.236815023604
 20
-135.9038492498782
 30
0.0
 10
105.229580323085
 20
-136.1365654499068
 30
0.0
 10
105.2261352275997
 20
-136.2085679455485
 30
0.0
 10
105.2261352275997
 20
-136.2085679455485
 30
0.0
 10
105.0545694724343
 20
-136.2085679455485
 30
0.0
 10
105.0545694724343
 20
-136.2085679455485
 30
0.0
 10
105.0614596634048
 20
-136.0836832342082
 30
0.0
 10
105.0848863127045
 20
-135.7071342976704
 30
0.0
 10
105.4707370070524
 20
-135.7071342976704
 30
0.0
 10
105.6600450039669
 20
-135.7071342976704
 30
0.0
 10
105.8639946566937
 20
-135.8340860663019
 30
0.0
 10
105.8639946566937
 20
-136.1301920232591
 30
0.0
 10
105.8639946566937
 20
-136.3163994342369
 30
0.0
 10
105.7833794223389
 20
-136.3989094711086
 30
0.0
 10
105.6993190924988
 20
-136.460232170746
 30
0.0
 10
105.751340034326
 20
-136.487792934628
 30
0.0
 10
105.9049912929682
 20
-136.5682359142086
 30
0.0
 10
105.9049912929682
 20
-136.845393845997
 30
0.0
 10
105.9049912929682
 20
-137.1838744774228
 30
0.0
 10
105.6958739970135
 20
-137.3509616084574
 30
0.0
 10
105.4617797587908
 20
-137.3509616084574
 30
0.0
  0
HATCH
  5
87
330
82
100
AcDbEntity
  8
レイヤー 1
 62
   250
420
  2299925
440
 33554687
100
AcDbHatch
 10
0.0
 20
0.0
 30
0.0
210
0.0
220
0.0
230
1.0
  2
SOLID
 70
     1
 71
     1
 91
        1
 92
        1
 93
        1
 72
     4
 94
        3
 73
     0
 74
     0
 95
       62
 96
       58
 40
0.0
 40
0.0
 40
0.0
 40
0.0
 40
1.0
 40
1.0
 40
1.0
 40
2.0
 40
2.0
 40
2.0
 40
3.0
 40
3.0
 40
3.0
 40
4.0
 40
4.0
 40
4.0
 40
5.0
 40
5.0
 40
5.0
 40
6.0
 40
6.0
 40
6.0
 40
7.0
 40
7.0
 40
7.0
 40
8.0
 40
8.0
 40
8.0
 40
9.0
 40
9.0
 40
9.0
 40
10.0
 40
10.0
 40
10.0
 40
11.0
 40
11.0
 40
11.0
 40
12.0
 40
12.0
 40
12.0
 40
13.0
 40
13.0
 40
13.0
 40
14.0
 40
14.0
 40
14.0
 40
15.0
 40
15.0
 40
15.0
 40
16.0
 40
16.0
 40
16.0
 40
17.0
 40
17.0
 40
17.0
 40
18.0
 40
18.0
 40
18.0
 40
19.0
 40
19.0
 40
19.0
 40
19.0
 10
105.4617797587908
 20
-137.3509616084574
 10
105.3815090339845
 20
-137.3509616084574
 10
105.1975409350721
 20
-137.3297742712231
 10
105.0921210132235
 20
-137.1435668602453
 10
105.0294202753919
 20
-137.0314290022004
 10
105.0259751799067
 20
-136.932037997451
 10
105.0221855748729
 20
-136.8474609032881
 10
105.0221855748729
 20
-136.8474609032881
 10
105.2082207310764
 20
-136.8474609032881
 10
105.2082207310764
 20
-136.8474609032881
 10
105.209943278819
 20
-136.921530456221
 10
105.2189005270807
 20
-137.1563137135408
 10
105.4583346633055
 20
-137.1563137135408
 10
105.5742621263842
 20
-137.1563137135408
 10
105.7031086975325
 20
-137.0865505299645
 10
105.7031086975325
 20
-136.8579684445181
 10
105.7031086975325
 20
-136.741696471891
 10
105.6707247999712
 20
-136.6929483707747
 10
105.6438530551862
 20
-136.6612534923103
 10
105.5814968269032
 20
-136.5871839393775
 10
105.4833116055736
 20
-136.5746093408563
 10
105.436975071297
 20
-136.5746093408563
 10
105.4207831225163
 20
-136.5746093408563
 10
105.3904662822461
 20
-136.5766763981475
 10
105.3670396329464
 20
-136.5808105127298
 10
105.3670396329464
 20
-136.5808105127298
 10
105.3670396329464
 20
-136.3861626178132
 10
105.3670396329464
 20
-136.3861626178132
 10
105.3994235305078
 20
-136.3925360444609
 10
105.4352525235544
 20
-136.3947753565263
 10
105.4404201667822
 20
-136.3947753565263
 10
105.4957139493205
 20
-136.3947753565263
 10
105.6638346090007
 20
-136.373588019292
 10
105.6638346090007
 20
-136.1365654499068
 10
105.6638346090007
 20
-135.9589707776422
 10
105.5529025343756
 20
-135.9038492498782
 10
105.4600572110482
 20
-135.9038492498782
 10
105.236815023604
 20
-135.9038492498782
 10
105.229580323085
 20
-136.1365654499068
 10
105.2261352275997
 20
-136.2085679455485
 10
105.2261352275997
 20
-136.2085679455485
 10
105.0545694724343
 20
-136.2085679455485
 10
105.0545694724343
 20
-136.2085679455485
 10
105.0614596634048
 20
-136.0836832342082
 10
105.0848863127045
 20
-135.7071342976704
 10
105.4707370070524
 20
-135.7071342976704
 10
105.6600450039669
 20
-135.7071342976704
 10
105.8639946566937
 20
-135.8340860663019
 10
105.8639946566937
 20
-136.1301920232591
 10
105.8639946566937
 20
-136.3163994342369
 10
105.7833794223389
 20
-136.3989094711086
 10
105.6993190924988
 20
-136.460232170746
 10
105.751340034326
 20
-136.487792934628
 10
105.9049912929682
 20
-136.5682359142086
 10
105.9049912929682
 20
-136.845393845997
 10
105.9049912929682
 20
-137.1838744774228
 10
105.6958739970135
 20
-137.3509616084574
 10
105.4617797587908
 20
-137.3509616084574
 97
        0
 97
        1
330
86
 75
     2
 76
     1
 98
        1
 10
0.0
 20
0.0
450
        0
451
        0
460
0.0
461
0.0
452
        0
462
0.0
453
        0
470

  0
SPLINE
  5
88
330
82
100
AcDbEntity
  8
レイヤー 1
100
AcDbSpline
210
0.0
220
0.0
230
1.0
 70
     9
 71
     3
 72
    44
 73
    40
 74
     0
 42
0.0000000001
 43
0.0000000001
 40
0.0
 40
0.0
 40
0.0
 40
0.0
 40
1.0
 40
1.0
 40
1.0
 40
2.0
 40
2.0
 40
2.0
 40
3.0
 40
3.0
 40
3.0
 40
4.0
 40
4.0
 40
4.0
 40
5.0
 40
5.0
 40
5.0
 40
6.0
 40
6.0
 40
6.0
 40
7.0
 40
7.0
 40
7.0
 40
8.0
 40
8.0
 40
8.0
 40
9.0
 40
9.0
 40
9.0
 40
10.0
 40
10.0
 40
10.0
 40
11.0
 40
11.0
 40
11.0
 40
12.0
 40
12.0
 40
12.0
 40
13.0
 40
13.0
 40
13.0
 40
13.0
 10
106.5419894481909
 20
-136.7184420773655
 30
0.0
 10
106.3580213492785
 20
-136.8770887244613
 30
0.0
 10
106.2794731722148
 20
-136.9511582773941
 30
0.0
 10
106.2384765359404
 20
-137.0949910139033
 30
0.0
 10
106.2384765359404
 20
-137.0949910139033
 30
0.0
 10
106.895800754526
 20
-137.0949910139033
 30
0.0
 10
106.895800754526
 20
-137.0949910139033
 30
0.0
 10
106.895800754526
 20
-137.0949910139033
 30
0.0
 10
106.895800754526
 20
-137.3001464500499
 30
0.0
 10
106.895800754526
 20
-137.3001464500499
 30
0.0
 10
106.895800754526
 20
-137.3001464500499
 30
0.0
 10
106.0272921826945
 20
-137.3001464500499
 30
0.0
 10
106.0272921826945
 20
-137.3001464500499
 30
0.0
 10
106.0541639274795
 20
-136.942545538681
 30
0.0
 10
106.109629964792
 20
-136.8643418711658
 30
0.0
 10
106.4348469785996
 20
-136.5659966021432
 30
0.0
 10
106.6511989750733
 20
-136.3672145926443
 30
0.0
 10
106.7066650123858
 20
-136.2995184663591
 30
0.0
 10
106.7066650123858
 20
-136.1620591564977
 30
0.0
 10
106.7066650123858
 20
-136.0435478718051
 30
0.0
 10
106.6456868222969
 20
-135.9124619885913
 30
0.0
 10
106.4796332199078
 20
-135.9124619885913
 30
0.0
 10
106.2598361279489
 20
-135.9124619885913
 30
0.0
 10
106.2526014274299
 20
-136.1429388765545
 30
0.0
 10
106.2491563319446
 20
-136.259383103956
 30
0.0
 10
106.2491563319446
 20
-136.259383103956
 30
0.0
 10
106.0596760802559
 20
-136.259383103956
 30
0.0
 10
106.0596760802559
 20
-136.259383103956
 30
0.0
 10
106.0669107807749
 20
-136.1324313353245
 30
0.0
 10
106.0755235194881
 20
-136.0202934772796
 30
0.0
 10
106.143736410096
 20
-135.901782192587
 30
0.0
 10
106.2364094786492
 20
-135.7410684882001
 30
0.0
 10
106.3938503423251
 20
-135.7071342976704
 30
0.0
 10
106.4920355636547
 20
-135.7071342976704
 30
0.0
 10
106.7263020566517
 20
-135.7071342976704
 30
0.0
 10
106.9013129073024
 20
-135.891274651357
 30
0.0
 10
106.9013129073024
 20
-136.1641262137888
 30
0.0
 10
106.9013129073024
 20
-136.3925360444609
 30
0.0
 10
106.8031276859728
 20
-136.4920993039846
 30
0.0
 10
106.5419894481909
 20
-136.7184420773655
 30
0.0
  0
HATCH
  5
89
330
82
100
AcDbEntity
  8
レイヤー 1
 62
   250
420
  2299925
440
 33554687
100
AcDbHatch
 10
0.0
 20
0.0
 30
0.0
210
0.0
220
0.0
230
1.0
  2
SOLID
 70
     1
 71
     1
 91
        1
 92
        1
 93
        1
 72
     4
 94
        3
 73
     0
 74
     0
 95
       44
 96
       40
 40
0.0
 40
0.0
 40
0.0
 40
0.0
 40
1.0
 40
1.0
 40
1.0
 40
2.0
 40
2.0
 40
2.0
 40
3.0
 40
3.0
 40
3.0
 40
4.0
 40
4.0
 40
4.0
 40
5.0
 40
5.0
 40
5.0
 40
6.0
 40
6.0
 40
6.0
 40
7.0
 40
7.0
 40
7.0
 40
8.0
 40
8.0
 40
8.0
 40
9.0
 40
9.0
 40
9.0
 40
10.0
 40
10.0
 40
10.0
 40
11.0
 40
11.0
 40
11.0
 40
12.0
 40
12.0
 40
12.0
 40
13.0
 40
13.0
 40
13.0
 40
13.0
 10
106.5419894481909
 20
-136.7184420773655
 10
106.3580213492785
 20
-136.8770887244613
 10
106.2794731722148
 20
-136.9511582773941
 10
106.2384765359404
 20
-137.0949910139033
 10
106.2384765359404
 20
-137.0949910139033
 10
106.895800754526
 20
-137.0949910139033
 10
106.895800754526
 20
-137.0949910139033
 10
106.895800754526
 20
-137.0949910139033
 10
106.895800754526
 20
-137.3001464500499
 10
106.895800754526
 20
-137.3001464500499
 10
106.895800754526
 20
-137.3001464500499
 10
106.0272921826945
 20
-137.3001464500499
 10
106.0272921826945
 20
-137.3001464500499
 10
106.0541639274795
 20
-136.942545538681
 10
106.109629964792
 20
-136.8643418711658
 10
106.4348469785996
 20
-136.5659966021432
 10
106.6511989750733
 20
-136.3672145926443
 10
106.7066650123858
 20
-136.2995184663591
 10
106.7066650123858
 20
-136.1620591564977
 10
106.7066650123858
 20
-136.0435478718051
 10
106.6456868222969
 20
-135.9124619885913
 10
106.4796332199078
 20
-135.9124619885913
 10
106.2598361279489
 20
-135.9124619885913
 10
106.2526014274299
 20
-136.1429388765545
 10
106.2491563319446
 20
-136.259383103956
 10
106.2491563319446
 20
-136.259383103956
 10
106.0596760802559
 20
-136.259383103956
 10
106.0596760802559
 20
-136.259383103956
 10
106.0669107807749
 20
-136.1324313353245
 10
106.0755235194881
 20
-136.0202934772796
 10
106.143736410096
 20
-135.901782192587
 10
106.2364094786492
 20
-135.7410684882001
 10
106.3938503423251
 20
-135.7071342976704
 10
106.4920355636547
 20
-135.7071342976704
 10
106.7263020566517
 20
-135.7071342976704
 10
106.9013129073024
 20
-135.891274651357
 10
106.9013129073024
 20
-136.1641262137888
 10
106.9013129073024
 20
-136.3925360444609
 10
106.8031276859728
 20
-136.4920993039846
 10
106.5419894481909
 20
-136.7184420773655
 97
        0
 97
        1
330
88
 75
     2
 76
     1
 98
        1
 10
0.0
 20
0.0
450
        0
451
        0
460
0.0
461
0.0
452
        0
462
0.0
453
        0
470

  0
ENDBLK
  5
85
330
82
100
AcDbEntity
  8
0
100
AcDbBlockEnd
  0
BLOCK
  5
92
330
90
100
AcDbEntity
  8
0
100
AcDbBlockBegin
  2
Block_2
 70
     0
 10
0.0
 20
0.0
 30
0.0
  3
Block_2
  1

  0
INSERT
  5
95
330
90
100
AcDbEntity
  8
レイヤー 1
100
AcDbBlockReference
  2
Block_3
 10
0.0
 20
0.0
 30
0.0
  0
ENDBLK
  5
93
330
90
100
AcDbEntity
  8
0
100
AcDbBlockEnd
  0
BLOCK
  5
96
330
94
100
AcDbEntity
  8
0
100
AcDbBlockBegin
  2
Block_3
 70
     0
 10
0.0
 20
0.0
 30
0.0
  3
Block_3
  1

  0
SPLINE
  5
98
330
94
100
AcDbEntity
  8
レイヤー 1
100
AcDbSpline
210
0.0
220
0.0
230
1.0
 70
    11
 71
     3
 72
    26
 73
    22
 74
     0
 42
0.0000000001
 43
0.0000000001
 40
0.0
 40
0.0
 40
0.0
 40
0.0
 40
1.0
 40
1.0
 40
1.0
 40
2.0
 40
2.0
 40
2.0
 40
3.0
 40
3.0
 40
3.0
 40
4.0
 40
4.0
 40
4.0
 40
5.0
 40
5.0
 40
5.0
 40
6.0
 40
6.0
 40
6.0
 40
7.0
 40
7.0
 40
7.0
 40
7.0
 10
106.4272677685321
 20
-160.5545409754863
 30
0.0
 10
106.4272677685321
 20
-160.5545409754863
 30
0.0
 10
106.4272677685321
 20
-159.4503878724638
 30
0.0
 10
106.4272677685321
 20
-159.4503878724638
 30
0.0
 10
106.4272677685321
 20
-159.4503878724638
 30
0.0
 10
106.1485595437753
 20
-159.4503878724638
 30
0.0
 10
106.1485595437753
 20
-159.4503878724638
 30
0.0
 10
106.1485595437753
 20
-159.4503878724638
 30
0.0
 10
106.1485595437753
 20
-159.302248766598
 30
0.0
 10
106.1485595437753
 20
-159.302248766598
 30
0.0
 10
106.4289903162747
 20
-159.2874348560115
 30
0.0
 10
106.4682644048065
 20
-159.1244818395591
 30
0.0
 10
106.4934136018488
 20
-159.0101046694489
 30
0.0
 10
106.4934136018488
 20
-159.0101046694489
 30
0.0
 10
106.6167480202208
 20
-159.0101046694489
 30
0.0
 10
106.6167480202208
 20
-159.0101046694489
 30
0.0
 10
106.6167480202208
 20
-159.0101046694489
 30
0.0
 10
106.6167480202208
 20
-160.5545409754863
 30
0.0
 10
106.6167480202208
 20
-160.5545409754863
 30
0.0
 10
106.6167480202208
 20
-160.5545409754863
 30
0.0
 10
106.4272677685321
 20
-160.5545409754863
 30
0.0
 10
106.4272677685321
 20
-160.5545409754863
 30
0.0
  0
HATCH
  5
99
330
94
100
AcDbEntity
  8
レイヤー 1
 62
   250
420
  2299925
440
 33554687
100
AcDbHatch
 10
0.0
 20
0.0
 30
0.0
210
0.0
220
0.0
230
1.0
  2
SOLID
 70
     1
 71
     1
 91
        1
 92
        1
 93
        1
 72
     4
 94
        3
 73
     0
 74
     0
 95
       26
 96
       22
 40
0.0
 40
0.0
 40
0.0
 40
0.0
 40
1.0
 40
1.0
 40
1.0
 40
2.0
 40
2.0
 40
2.0
 40
3.0
 40
3.0
 40
3.0
 40
4.0
 40
4.0
 40
4.0
 40
5.0
 40
5.0
 40
5.0
 40
6.0
 40
6.0
 40
6.0
 40
7.0
 40
7.0
 40
7.0
 40
7.0
 10
106.4272677685321
 20
-160.5545409754863
 10
106.4272677685321
 20
-160.5545409754863
 10
106.4272677685321
 20
-159.4503878724638
 10
106.4272677685321
 20
-159.4503878724638
 10
106.4272677685321
 20
-159.4503878724638
 10
106.1485595437753
 20
-159.4503878724638
 10
106.1485595437753
 20
-159.4503878724638
 10
106.1485595437753
 20
-159.4503878724638
 10
106.1485595437753
 20
-159.302248766598
 10
106.1485595437753
 20
-159.302248766598
 10
106.4289903162747
 20
-159.2874348560115
 10
106.4682644048065
 20
-159.1244818395591
 10
106.4934136018488
 20
-159.0101046694489
 10
106.4934136018488
 20
-159.0101046694489
 10
106.6167480202208
 20
-159.0101046694489
 10
106.6167480202208
 20
-159.0101046694489
 10
106.6167480202208
 20
-159.0101046694489
 10
106.6167480202208
 20
-160.5545409754863
 10
106.6167480202208
 20
-160.5545409754863
 10
106.6167480202208
 20
-160.5545409754863
 10
106.4272677685321
 20
-160.5545409754863
 10
106.4272677685321
 20
-160.5545409754863
 97
        0
 97
        1
330
98
 75
     2
 76
     1
 98
        1
 10
0.0
 20
0.0
450
        0
451
        0
460
0.0
461
0.0
452
        0
462
0.0
453
        0
470

  0
SPLINE
  5
9A
330
94
100
AcDbEntity
  8
レイヤー 1
100
AcDbSpline
210
0.0
220
0.0
230
1.0
 70
     9
 71
     3
 72
    17
 73
    13
 74
     0
 42
0.0000000001
 43
0.0000000001
 40
0.0
 40
0.0
 40
0.0
 40
0.0
 40
1.0
 40
1.0
 40
1.0
 40
2.0
 40
2.0
 40
2.0
 40
3.0
 40
3.0
 40
3.0
 40
4.0
 40
4.0
 40
4.0
 40
4.0
 10
107.4628634713981
 20
-159.1541096607323
 30
0.0
 10
107.2520236277009
 20
-159.1541096607323
 30
0.0
 10
107.212749539169
 20
-159.4376410191683
 30
0.0
 10
107.212749539169
 20
-159.7824950772419
 30
0.0
 10
107.212749539169
 20
-160.1018554287245
 30
0.0
 10
107.2430663794392
 20
-160.4105359842029
 30
0.0
 10
107.4628634713981
 20
-160.4105359842029
 30
0.0
 10
107.6719807673528
 20
-160.4105359842029
 30
0.0
 10
107.7129774036273
 20
-160.1294161926065
 30
0.0
 10
107.7129774036273
 20
-159.7824950772419
 30
0.0
 10
107.7129774036273
 20
-159.4627902162107
 30
0.0
 10
107.6809380156145
 20
-159.1541096607323
 30
0.0
 10
107.4628634713981
 20
-159.1541096607323
 30
0.0
  0
SPLINE
  5
9B
330
94
100
AcDbEntity
  8
レイヤー 1
100
AcDbSpline
210
0.0
220
0.0
230
1.0
 70
     9
 71
     3
 72
    29
 73
    25
 74
     0
 42
0.0000000001
 43
0.0000000001
 40
0.0
 40
0.0
 40
0.0
 40
0.0
 40
1.0
 40
1.0
 40
1.0
 40
2.0
 40
2.0
 40
2.0
 40
3.0
 40
3.0
 40
3.0
 40
4.0
 40
4.0
 40
4.0
 40
5.0
 40
5.0
 40
5.0
 40
6.0
 40
6.0
 40
6.0
 40
7.0
 40
7.0
 40
7.0
 40
8.0
 40
8.0
 40
8.0
 40
8.0
 10
107.79876028121
 20
-160.3767740484475
 30
0.0
 10
107.7078097603994
 20
-160.5862358539507
 30
0.0
 10
107.5610486927278
 20
-160.6051838791195
 30
0.0
 10
107.4628634713981
 20
-160.6051838791195
 30
0.0
 10
107.3271267092793
 20
-160.6051838791195
 30
0.0
 10
107.2072373863926
 20
-160.5586750900686
 30
0.0
 10
107.1269666615863
 20
-160.3767740484475
 30
0.0
 10
107.039461236261
 20
-160.1821261535308
 30
0.0
 10
107.0232692874803
 20
-159.9451035841456
 30
0.0
 10
107.0232692874803
 20
-159.7824950772419
 30
0.0
 10
107.0232692874803
 20
-159.6384900859584
 30
0.0
 10
107.0373941789698
 20
-159.3866536059867
 30
0.0
 10
107.1269666615863
 20
-159.1878715964877
 30
0.0
 10
107.2179171823969
 20
-158.9849554724065
 30
0.0
 10
107.3539984540643
 20
-158.9615288231068
 30
0.0
 10
107.4628634713981
 20
-158.9615288231068
 30
0.0
 10
107.5968776857744
 20
-158.9615288231068
 30
0.0
 10
107.7184895564037
 20
-159.0059705548665
 30
0.0
 10
107.79876028121
 20
-159.1878715964877
 30
0.0
 10
107.8828206110501
 20
-159.3804524341132
 30
0.0
 10
107.902457655316
 20
-159.6088622647853
 30
0.0
 10
107.902457655316
 20
-159.7824950772419
 30
0.0
 10
107.902457655316
 20
-159.9537163228588
 30
0.0
 10
107.8845431587927
 20
-160.184193210822
 30
0.0
 10
107.79876028121
 20
-160.3767740484475
 30
0.0
  0
HATCH
  5
9C
330
94
100
AcDbEntity
  8
レイヤー 1
 62
   250
420
  2299925
440
 33554687
100
AcDbHatch
 10
0.0
 20
0.0
 30
0.0
210
0.0
220
0.0
230
1.0
  2
SOLID
 70
     1
 71
     1
 91
        2
 92
        1
 93
        1
 72
     4
 94
        3
 73
     0
 74
     0
 95
       17
 96
       13
 40
0.0
 40
0.0
 40
0.0
 40
0.0
 40
1.0
 40
1.0
 40
1.0
 40
2.0
 40
2.0
 40
2.0
 40
3.0
 40
3.0
 40
3.0
 40
4.0
 40
4.0
 40
4.0
 40
4.0
 10
107.4628634713981
 20
-159.1541096607323
 10
107.2520236277009
 20
-159.1541096607323
 10
107.212749539169
 20
-159.4376410191683
 10
107.212749539169
 20
-159.7824950772419
 10
107.212749539169
 20
-160.1018554287245
 10
107.2430663794392
 20
-160.4105359842029
 10
107.4628634713981
 20
-160.4105359842029
 10
107.6719807673528
 20
-160.4105359842029
 10
107.7129774036273
 20
-160.1294161926065
 10
107.7129774036273
 20
-159.7824950772419
 10
107.7129774036273
 20
-159.4627902162107
 10
107.6809380156145
 20
-159.1541096607323
 10
107.4628634713981
 20
-159.1541096607323
 97
        0
 97
        1
330
9A
 92
        1
 93
        1
 72
     4
 94
        3
 73
     0
 74
     0
 95
       29
 96
       25
 40
0.0
 40
0.0
 40
0.0
 40
0.0
 40
1.0
 40
1.0
 40
1.0
 40
2.0
 40
2.0
 40
2.0
 40
3.0
 40
3.0
 40
3.0
 40
4.0
 40
4.0
 40
4.0
 40
5.0
 40
5.0
 40
5.0
 40
6.0
 40
6.0
 40
6.0
 40
7.0
 40
7.0
 40
7.0
 40
8.0
 40
8.0
 40
8.0
 40
8.0
 10
107.79876028121
 20
-160.3767740484475
 10
107.7078097603994
 20
-160.5862358539507
 10
107.5610486927278
 20
-160.6051838791195
 10
107.4628634713981
 20
-160.6051838791195
 10
107.3271267092793
 20
-160.6051838791195
 10
107.2072373863926
 20
-160.5586750900686
 10
107.1269666615863
 20
-160.3767740484475
 10
107.039461236261
 20
-160.1821261535308
 10
107.0232692874803
 20
-159.9451035841456
 10
107.0232692874803
 20
-159.7824950772419
 10
107.0232692874803
 20
-159.6384900859584
 10
107.0373941789698
 20
-159.3866536059867
 10
107.1269666615863
 20
-159.1878715964877
 10
107.2179171823969
 20
-158.9849554724065
 10
107.3539984540643
 20
-158.9615288231068
 10
107.4628634713981
 20
-158.9615288231068
 10
107.5968776857744
 20
-158.9615288231068
 10
107.7184895564037
 20
-159.0059705548665
 10
107.79876028121
 20
-159.1878715964877
 10
107.8828206110501
 20
-159.3804524341132
 10
107.902457655316
 20
-159.6088622647853
 10
107.902457655316
 20
-159.7824950772419
 10
107.902457655316
 20
-159.9537163228588
 10
107.8845431587927
 20
-160.184193210822
 10
107.79876028121
 20
-160.3767740484475
 97
        0
 97
        1
330
9B
 75
     2
 76
     1
 98
        1
 10
0.0
 20
0.0
450
        0
451
        0
460
0.0
461
0.0
452
        0
462
0.0
453
        0
470

  0
ENDBLK
  5
97
330
94
100
AcDbEntity
  8
0
100
AcDbBlockEnd
  0
BLOCK
  5
A1
330
9F
100
AcDbEntity
  8
0
100
AcDbBlockBegin
  2
Block_4
 70
     0
 10
0.0
 20
0.0
 30
0.0
  3
Block_4
  1

  0
INSERT
  5
A4
330
9F
100
AcDbEntity
  8
レイヤー 1
100
AcDbBlockReference
  2
Block_5
 10
0.0
 20
0.0
 30
0.0
  0
ENDBLK
  5
A2
330
9F
100
AcDbEntity
  8
0
100
AcDbBlockEnd
  0
BLOCK
  5
A5
330
A3
100
AcDbEntity
  8
0
100
AcDbBlockBegin
  2
Block_5
 70
     0
 10
0.0
 20
0.0
 30
0.0
  3
Block_5
  1

  0
SPLINE
  5
A7
330
A3
100
AcDbEntity
  8
レイヤー 1
100
AcDbSpline
210
0.0
220
0.0
230
1.0
 70
    11
 71
     3
 72
    26
 73
    22
 74
     0
 42
0.0000000001
 43
0.0000000001
 40
0.0
 40
0.0
 40
0.0
 40
0.0
 40
1.0
 40
1.0
 40
1.0
 40
2.0
 40
2.0
 40
2.0
 40
3.0
 40
3.0
 40
3.0
 40
4.0
 40
4.0
 40
4.0
 40
5.0
 40
5.0
 40
5.0
 40
6.0
 40
6.0
 40
6.0
 40
7.0
 40
7.0
 40
7.0
 40
7.0
 10
95.42742239367788
 20
-160.5545409754863
 30
0.0
 10
95.42742239367788
 20
-160.5545409754863
 30
0.0
 10
95.42742239367788
 20
-159.4503878724638
 30
0.0
 10
95.42742239367788
 20
-159.4503878724638
 30
0.0
 10
95.42742239367788
 20
-159.4503878724638
 30
0.0
 10
95.1485419141469
 20
-159.4503878724638
 30
0.0
 10
95.1485419141469
 20
-159.4503878724638
 30
0.0
 10
95.1485419141469
 20
-159.4503878724638
 30
0.0
 10
95.1485419141469
 20
-159.302248766598
 30
0.0
 10
95.1485419141469
 20
-159.302248766598
 30
0.0
 10
95.42914494142049
 20
-159.2874348560115
 30
0.0
 10
95.46841902995234
 20
-159.1244818395591
 30
0.0
 10
95.49339597222042
 20
-159.0101046694489
 30
0.0
 10
95.49339597222042
 20
-159.0101046694489
 30
0.0
 10
95.61673039059234
 20
-159.0101046694489
 30
0.0
 10
95.61673039059234
 20
-159.0101046694489
 30
0.0
 10
95.61673039059234
 20
-159.0101046694489
 30
0.0
 10
95.61673039059234
 20
-160.5545409754863
 30
0.0
 10
95.61673039059234
 20
-160.5545409754863
 30
0.0
 10
95.61673039059234
 20
-160.5545409754863
 30
0.0
 10
95.42742239367788
 20
-160.5545409754863
 30
0.0
 10
95.42742239367788
 20
-160.5545409754863
 30
0.0
  0
HATCH
  5
A8
330
A3
100
AcDbEntity
  8
レイヤー 1
 62
   250
420
  2299925
440
 33554687
100
AcDbHatch
 10
0.0
 20
0.0
 30
0.0
210
0.0
220
0.0
230
1.0
  2
SOLID
 70
     1
 71
     1
 91
        1
 92
        1
 93
        1
 72
     4
 94
        3
 73
     0
 74
     0
 95
       26
 96
       22
 40
0.0
 40
0.0
 40
0.0
 40
0.0
 40
1.0
 40
1.0
 40
1.0
 40
2.0
 40
2.0
 40
2.0
 40
3.0
 40
3.0
 40
3.0
 40
4.0
 40
4.0
 40
4.0
 40
5.0
 40
5.0
 40
5.0
 40
6.0
 40
6.0
 40
6.0
 40
7.0
 40
7.0
 40
7.0
 40
7.0
 10
95.42742239367788
 20
-160.5545409754863
 10
95.42742239367788
 20
-160.5545409754863
 10
95.42742239367788
 20
-159.4503878724638
 10
95.42742239367788
 20
-159.4503878724638
 10
95.42742239367788
 20
-159.4503878724638
 10
95.1485419141469
 20
-159.4503878724638
 10
95.1485419141469
 20
-159.4503878724638
 10
95.1485419141469
 20
-159.4503878724638
 10
95.1485419141469
 20
-159.302248766598
 10
95.1485419141469
 20
-159.302248766598
 10
95.42914494142049
 20
-159.2874348560115
 10
95.46841902995234
 20
-159.1244818395591
 10
95.49339597222042
 20
-159.0101046694489
 10
95.49339597222042
 20
-159.0101046694489
 10
95.61673039059234
 20
-159.0101046694489
 10
95.61673039059234
 20
-159.0101046694489
 10
95.61673039059234
 20
-159.0101046694489
 10
95.61673039059234
 20
-160.5545409754863
 10
95.61673039059234
 20
-160.5545409754863
 10
95.61673039059234
 20
-160.5545409754863
 10
95.42742239367788
 20
-160.5545409754863
 10
95.42742239367788
 20
-160.5545409754863
 97
        0
 97
        1
330
A7
 75
     2
 76
     1
 98
        1
 10
0.0
 20
0.0
450
        0
451
        0
460
0.0
461
0.0
452
        0
462
0.0
453
        0
470

  0
SPLINE
  5
A9
330
A3
100
AcDbEntity
  8
レイヤー 1
100
AcDbSpline
210
0.0
220
0.0
230
1.0
 70
     9
 71
     3
 72
    44
 73
    40
 74
     0
 42
0.0000000001
 43
0.0000000001
 40
0.0
 40
0.0
 40
0.0
 40
0.0
 40
1.0
 40
1.0
 40
1.0
 40
2.0
 40
2.0
 40
2.0
 40
3.0
 40
3.0
 40
3.0
 40
4.0
 40
4.0
 40
4.0
 40
5.0
 40
5.0
 40
5.0
 40
6.0
 40
6.0
 40
6.0
 40
7.0
 40
7.0
 40
7.0
 40
8.0
 40
8.0
 40
8.0
 40
9.0
 40
9.0
 40
9.0
 40
10.0
 40
10.0
 40
10.0
 40
11.0
 40
11.0
 40
11.0
 40
12.0
 40
12.0
 40
12.0
 40
13.0
 40
13.0
 40
13.0
 40
13.0
 10
96.54156627360768
 20
-159.9726643480277
 30
0.0
 10
96.35742591992107
 20
-160.1314832498976
 30
0.0
 10
96.27887774285738
 20
-160.2055528028305
 30
0.0
 10
96.23770885180864
 20
-160.3492132845655
 30
0.0
 10
96.23770885180864
 20
-160.3492132845655
 30
0.0
 10
96.89537757994283
 20
-160.3492132845655
 30
0.0
 10
96.89537757994283
 20
-160.3492132845655
 30
0.0
 10
96.89537757994283
 20
-160.3492132845655
 30
0.0
 10
96.89537757994283
 20
-160.5545409754863
 30
0.0
 10
96.89537757994283
 20
-160.5545409754863
 30
0.0
 10
96.89537757994283
 20
-160.5545409754863
 30
0.0
 10
96.02686900811136
 20
-160.5545409754863
 30
0.0
 10
96.02686900811136
 20
-160.5545409754863
 30
0.0
 10
96.05356849812203
 20
-160.1969400641174
 30
0.0
 10
96.10903453543455
 20
-160.1187363966022
 30
0.0
 10
96.43425154924214
 20
-159.8203911275796
 30
0.0
 10
96.65060354571583
 20
-159.6216091180807
 30
0.0
 10
96.70589732825408
 20
-159.5537407370213
 30
0.0
 10
96.70589732825408
 20
-159.4162814271598
 30
0.0
 10
96.70589732825408
 20
-159.2977701424672
 30
0.0
 10
96.64509139293942
 20
-159.1668565140277
 30
0.0
 10
96.47903779055038
 20
-159.1668565140277
 30
0.0
 10
96.25924069859145
 20
-159.1668565140277
 30
0.0
 10
96.25200599807243
 20
-159.3973334019909
 30
0.0
 10
96.2483886478129
 20
-159.5137776293924
 30
0.0
 10
96.2483886478129
 20
-159.5137776293924
 30
0.0
 10
96.05908065089842
 20
-159.5137776293924
 30
0.0
 10
96.05908065089842
 20
-159.5137776293924
 30
0.0
 10
96.06614309664319
 20
-159.3866536059867
 30
0.0
 10
96.07510034490484
 20
-159.274688002716
 30
0.0
 10
96.14296872596426
 20
-159.1561767180234
 30
0.0
 10
96.23598630406601
 20
-158.9952907588623
 30
0.0
 10
96.39325491296766
 20
-158.9615288231068
 30
0.0
 10
96.49144013429728
 20
-158.9615288231068
 30
0.0
 10
96.72553437252002
 20
-158.9615288231068
 30
0.0
 10
96.90071747794497
 20
-159.1454969220192
 30
0.0
 10
96.90071747794497
 20
-159.418348484451
 30
0.0
 10
96.90071747794497
 20
-159.6471028246716
 30
0.0
 10
96.80253225661536
 20
-159.7463215746467
 30
0.0
 10
96.54156627360768
 20
-159.9726643480277
 30
0.0
  0
HATCH
  5
AA
330
A3
100
AcDbEntity
  8
レイヤー 1
 62
   250
420
  2299925
440
 33554687
100
AcDbHatch
 10
0.0
 20
0.0
 30
0.0
210
0.0
220
0.0
230
1.0
  2
SOLID
 70
     1
 71
     1
 91
        1
 92
        1
 93
        1
 72
     4
 94
        3
 73
     0
 74
     0
 95
       44
 96
       40
 40
0.0
 40
0.0
 40
0.0
 40
0.0
 40
1.0
 40
1.0
 40
1.0
 40
2.0
 40
2.0
 40
2.0
 40
3.0
 40
3.0
 40
3.0
 40
4.0
 40
4.0
 40
4.0
 40
5.0
 40
5.0
 40
5.0
 40
6.0
 40
6.0
 40
6.0
 40
7.0
 40
7.0
 40
7.0
 40
8.0
 40
8.0
 40
8.0
 40
9.0
 40
9.0
 40
9.0
 40
10.0
 40
10.0
 40
10.0
 40
11.0
 40
11.0
 40
11.0
 40
12.0
 40
12.0
 40
12.0
 40
13.0
 40
13.0
 40
13.0
 40
13.0
 10
96.54156627360768
 20
-159.9726643480277
 10
96.35742591992107
 20
-160.1314832498976
 10
96.27887774285738
 20
-160.2055528028305
 10
96.23770885180864
 20
-160.3492132845655
 10
96.23770885180864
 20
-160.3492132845655
 10
96.89537757994283
 20
-160.3492132845655
 10
96.89537757994283
 20
-160.3492132845655
 10
96.89537757994283
 20
-160.3492132845655
 10
96.89537757994283
 20
-160.5545409754863
 10
96.89537757994283
 20
-160.5545409754863
 10
96.89537757994283
 20
-160.5545409754863
 10
96.02686900811136
 20
-160.5545409754863
 10
96.02686900811136
 20
-160.5545409754863
 10
96.05356849812203
 20
-160.1969400641174
 10
96.10903453543455
 20
-160.1187363966022
 10
96.43425154924214
 20
-159.8203911275796
 10
96.65060354571583
 20
-159.6216091180807
 10
96.70589732825408
 20
-159.5537407370213
 10
96.70589732825408
 20
-159.4162814271598
 10
96.70589732825408
 20
-159.2977701424672
 10
96.64509139293942
 20
-159.1668565140277
 10
96.47903779055038
 20
-159.1668565140277
 10
96.25924069859145
 20
-159.1668565140277
 10
96.25200599807243
 20
-159.3973334019909
 10
96.2483886478129
 20
-159.5137776293924
 10
96.2483886478129
 20
-159.5137776293924
 10
96.05908065089842
 20
-159.5137776293924
 10
96.05908065089842
 20
-159.5137776293924
 10
96.06614309664319
 20
-159.3866536059867
 10
96.07510034490484
 20
-159.274688002716
 10
96.14296872596426
 20
-159.1561767180234
 10
96.23598630406601
 20
-158.9952907588623
 10
96.39325491296766
 20
-158.9615288231068
 10
96.49144013429728
 20
-158.9615288231068
 10
96.72553437252002
 20
-158.9615288231068
 10
96.90071747794497
 20
-159.1454969220192
 10
96.90071747794497
 20
-159.418348484451
 10
96.90071747794497
 20
-159.6471028246716
 10
96.80253225661536
 20
-159.7463215746467
 10
96.54156627360768
 20
-159.9726643480277
 97
        0
 97
        1
330
A9
 75
     2
 76
     1
 98
        1
 10
0.0
 20
0.0
450
        0
451
        0
460
0.0
461
0.0
452
        0
462
0.0
453
        0
470

  0
ENDBLK
  5
A6
330
A3
100
AcDbEntity
  8
0
100
AcDbBlockEnd
  0
BLOCK
  5
B5
330
B3
100
AcDbEntity
  8
0
100
AcDbBlockBegin
  2
Block_6
 70
     0
 10
0.0
 20
0.0
 30
0.0
  3
Block_6
  1

  0
SPLINE
  5
B7
330
B3
100
AcDbEntity
  8
レイヤー 1
100
AcDbSpline
210
0.0
220
0.0
230
1.0
 70
    11
 71
     3
 72
    26
 73
    22
 74
     0
 42
0.0000000001
 43
0.0000000001
 40
0.0
 40
0.0
 40
0.0
 40
0.0
 40
1.0
 40
1.0
 40
1.0
 40
2.0
 40
2.0
 40
2.0
 40
3.0
 40
3.0
 40
3.0
 40
4.0
 40
4.0
 40
4.0
 40
5.0
 40
5.0
 40
5.0
 40
6.0
 40
6.0
 40
6.0
 40
7.0
 40
7.0
 40
7.0
 40
7.0
 10
125.5875108192975
 20
-140.5884900907209
 30
0.0
 10
125.5875108192975
 20
-140.5884900907209
 30
0.0
 10
124.483357716275
 20
-140.5884900907209
 30
0.0
 10
124.483357716275
 20
-140.5884900907209
 30
0.0
 10
124.483357716275
 20
-140.5884900907209
 30
0.0
 10
124.483357716275
 20
-140.8673705702519
 30
0.0
 10
124.483357716275
 20
-140.8673705702519
 30
0.0
 10
124.483357716275
 20
-140.8673705702519
 30
0.0
 10
124.3352186104092
 20
-140.8673705702519
 30
0.0
 10
124.3352186104092
 20
-140.8673705702519
 30
0.0
 10
124.3204046998227
 20
-140.5867675429783
 30
0.0
 10
124.1574516833704
 20
-140.5474934544464
 30
0.0
 10
124.04307451326
 20
-140.5223442574041
 30
0.0
 10
124.04307451326
 20
-140.5223442574041
 30
0.0
 10
124.04307451326
 20
-140.3991820938065
 30
0.0
 10
124.04307451326
 20
-140.3991820938065
 30
0.0
 10
124.04307451326
 20
-140.3991820938065
 30
0.0
 10
125.5875108192975
 20
-140.3991820938065
 30
0.0
 10
125.5875108192975
 20
-140.3991820938065
 30
0.0
 10
125.5875108192975
 20
-140.3991820938065
 30
0.0
 10
125.5875108192975
 20
-140.5884900907209
 30
0.0
 10
125.5875108192975
 20
-140.5884900907209
 30
0.0
  0
HATCH
  5
B8
330
B3
100
AcDbEntity
  8
レイヤー 1
 62
   250
420
  2299925
440
 33554687
100
AcDbHatch
 10
0.0
 20
0.0
 30
0.0
210
0.0
220
0.0
230
1.0
  2
SOLID
 70
     1
 71
     1
 91
        1
 92
        1
 93
        1
 72
     4
 94
        3
 73
     0
 74
     0
 95
       26
 96
       22
 40
0.0
 40
0.0
 40
0.0
 40
0.0
 40
1.0
 40
1.0
 40
1.0
 40
2.0
 40
2.0
 40
2.0
 40
3.0
 40
3.0
 40
3.0
 40
4.0
 40
4.0
 40
4.0
 40
5.0
 40
5.0
 40
5.0
 40
6.0
 40
6.0
 40
6.0
 40
7.0
 40
7.0
 40
7.0
 40
7.0
 10
125.5875108192975
 20
-140.5884900907209
 10
125.5875108192975
 20
-140.5884900907209
 10
124.483357716275
 20
-140.5884900907209
 10
124.483357716275
 20
-140.5884900907209
 10
124.483357716275
 20
-140.5884900907209
 10
124.483357716275
 20
-140.8673705702519
 10
124.483357716275
 20
-140.8673705702519
 10
124.483357716275
 20
-140.8673705702519
 10
124.3352186104092
 20
-140.8673705702519
 10
124.3352186104092
 20
-140.8673705702519
 10
124.3204046998227
 20
-140.5867675429783
 10
124.1574516833704
 20
-140.5474934544464
 10
124.04307451326
 20
-140.5223442574041
 10
124.04307451326
 20
-140.5223442574041
 10
124.04307451326
 20
-140.3991820938065
 10
124.04307451326
 20
-140.3991820938065
 10
124.04307451326
 20
-140.3991820938065
 10
125.5875108192975
 20
-140.3991820938065
 10
125.5875108192975
 20
-140.3991820938065
 10
125.5875108192975
 20
-140.3991820938065
 10
125.5875108192975
 20
-140.5884900907209
 10
125.5875108192975
 20
-140.5884900907209
 97
        0
 97
        1
330
B7
 75
     2
 76
     1
 98
        1
 10
0.0
 20
0.0
450
        0
451
        0
460
0.0
461
0.0
452
        0
462
0.0
453
        0
470

  0
ENDBLK
  5
B6
330
B3
100
AcDbEntity
  8
0
100
AcDbBlockEnd
  0
BLOCK
  5
BD
330
BB
100
AcDbEntity
  8
0
100
AcDbBlockBegin
  2
Block_7
 70
     0
 10
0.0
 20
0.0
 30
0.0
  3
Block_7
  1

  0
SPLINE
  5
BF
330
BB
100
AcDbEntity
  8
レイヤー 1
100
AcDbSpline
210
0.0
220
0.0
230
1.0
 70
     9
 71
     3
 72
    62
 73
    58
 74
     0
 42
0.0000000001
 43
0.0000000001
 40
0.0
 40
0.0
 40
0.0
 40
0.0
 40
1.0
 40
1.0
 40
1.0
 40
2.0
 40
2.0
 40
2.0
 40
3.0
 40
3.0
 40
3.0
 40
4.0
 40
4.0
 40
4.0
 40
5.0
 40
5.0
 40
5.0
 40
6.0
 40
6.0
 40
6.0
 40
7.0
 40
7.0
 40
7.0
 40
8.0
 40
8.0
 40
8.0
 40
9.0
 40
9.0
 40
9.0
 40
10.0
 40
10.0
 40
10.0
 40
11.0
 40
11.0
 40
11.0
 40
12.0
 40
12.0
 40
12.0
 40
13.0
 40
13.0
 40
13.0
 40
14.0
 40
14.0
 40
14.0
 40
15.0
 40
15.0
 40
15.0
 40
16.0
 40
16.0
 40
16.0
 40
17.0
 40
17.0
 40
17.0
 40
18.0
 40
18.0
 40
18.0
 40
19.0
 40
19.0
 40
19.0
 40
19.0
 10
125.6388427420278
 20
-155.9556830122263
 30
0.0
 10
125.6388427420278
 20
-156.0359537370327
 30
0.0
 10
125.6178276595677
 20
-156.219921835945
 30
0.0
 10
125.4317925033642
 20
-156.3253417577936
 30
0.0
 10
125.3194823905451
 20
-156.3880424956252
 30
0.0
 10
125.2202636405699
 20
-156.3914875911104
 30
0.0
 10
125.1355142916328
 20
-156.3952771961442
 30
0.0
 10
125.1355142916328
 20
-156.3952771961442
 30
0.0
 10
125.1355142916328
 20
-156.2092420399407
 30
0.0
 10
125.1355142916328
 20
-156.2092420399407
 30
0.0
 10
125.2095838445656
 20
-156.2075194921981
 30
0.0
 10
125.4441948471112
 20
-156.1985622439364
 30
0.0
 10
125.4441948471112
 20
-155.9591281077116
 30
0.0
 10
125.4441948471112
 20
-155.8430283898587
 30
0.0
 10
125.3746039183091
 20
-155.7141818187103
 30
0.0
 10
125.146194087637
 20
-155.7141818187103
 30
0.0
 10
125.0297498602356
 20
-155.7141818187103
 30
0.0
 10
124.9811740138936
 20
-155.7465657162717
 30
0.0
 10
124.9494791354293
 20
-155.7734374610566
 30
0.0
 10
124.8754095824964
 20
-155.8357936893397
 30
0.0
 10
124.862662729201
 20
-155.9339789106693
 30
0.0
 10
124.862662729201
 20
-155.9804876997201
 30
0.0
 10
124.862662729201
 20
-155.9966796485008
 30
0.0
 10
124.8647297864921
 20
-156.026996488771
 30
0.0
 10
124.8688639010744
 20
-156.0504231380707
 30
0.0
 10
124.8688639010744
 20
-156.0504231380707
 30
0.0
 10
124.6742160061578
 20
-156.0504231380707
 30
0.0
 10
124.6742160061578
 20
-156.0504231380707
 30
0.0
 10
124.6807616875798
 20
-156.0180392405094
 30
0.0
 10
124.6828287448709
 20
-155.9822102474627
 30
0.0
 10
124.6828287448709
 20
-155.9770426042349
 30
0.0
 10
124.6828287448709
 20
-155.9215765669224
 30
0.0
 10
124.6614691528624
 20
-155.7534559072422
 30
0.0
 10
124.4247910930257
 20
-155.7534559072422
 30
0.0
 10
124.2470241659868
 20
-155.7534559072422
 30
0.0
 10
124.1919026382228
 20
-155.8643879818672
 30
0.0
 10
124.1919026382228
 20
-155.9574055599689
 30
0.0
 10
124.1919026382228
 20
-156.1806477474132
 30
0.0
 10
124.4247910930257
 20
-156.1878824479322
 30
0.0
 10
124.4964490791189
 20
-156.1913275434174
 30
0.0
 10
124.4964490791189
 20
-156.1913275434174
 30
0.0
 10
124.4964490791189
 20
-156.3628932985829
 30
0.0
 10
124.4964490791189
 20
-156.3628932985829
 30
0.0
 10
124.3717366225529
 20
-156.3560031076124
 30
0.0
 10
123.9951876860151
 20
-156.3325764583127
 30
0.0
 10
123.9951876860151
 20
-155.9467257639647
 30
0.0
 10
123.9951876860151
 20
-155.7572455122759
 30
0.0
 10
124.1223117094208
 20
-155.5532958595492
 30
0.0
 10
124.4182454116038
 20
-155.5532958595492
 30
0.0
 10
124.6046250773558
 20
-155.5532958595492
 30
0.0
 10
124.6869628594532
 20
-155.633911093904
 30
0.0
 10
124.7482855590907
 20
-155.7179714237441
 30
0.0
 10
124.7758463229727
 20
-155.6659504819168
 30
0.0
 10
124.856117047779
 20
-155.5122992232747
 30
0.0
 10
125.1334472343416
 20
-155.5122992232747
 30
0.0
 10
125.4717556109932
 20
-155.5122992232747
 30
0.0
 10
125.6388427420278
 20
-155.7214165192293
 30
0.0
 10
125.6388427420278
 20
-155.9556830122263
 30
0.0
  0
HATCH
  5
C0
330
BB
100
AcDbEntity
  8
レイヤー 1
 62
   250
420
  2299925
440
 33554687
100
AcDbHatch
 10
0.0
 20
0.0
 30
0.0
210
0.0
220
0.0
230
1.0
  2
SOLID
 70
     1
 71
     1
 91
        1
 92
        1
 93
        1
 72
     4
 94
        3
 73
     0
 74
     0
 95
       62
 96
       58
 40
0.0
 40
0.0
 40
0.0
 40
0.0
 40
1.0
 40
1.0
 40
1.0
 40
2.0
 40
2.0
 40
2.0
 40
3.0
 40
3.0
 40
3.0
 40
4.0
 40
4.0
 40
4.0
 40
5.0
 40
5.0
 40
5.0
 40
6.0
 40
6.0
 40
6.0
 40
7.0
 40
7.0
 40
7.0
 40
8.0
 40
8.0
 40
8.0
 40
9.0
 40
9.0
 40
9.0
 40
10.0
 40
10.0
 40
10.0
 40
11.0
 40
11.0
 40
11.0
 40
12.0
 40
12.0
 40
12.0
 40
13.0
 40
13.0
 40
13.0
 40
14.0
 40
14.0
 40
14.0
 40
15.0
 40
15.0
 40
15.0
 40
16.0
 40
16.0
 40
16.0
 40
17.0
 40
17.0
 40
17.0
 40
18.0
 40
18.0
 40
18.0
 40
19.0
 40
19.0
 40
19.0
 40
19.0
 10
125.6388427420278
 20
-155.9556830122263
 10
125.6388427420278
 20
-156.0359537370327
 10
125.6178276595677
 20
-156.219921835945
 10
125.4317925033642
 20
-156.3253417577936
 10
125.3194823905451
 20
-156.3880424956252
 10
125.2202636405699
 20
-156.3914875911104
 10
125.1355142916328
 20
-156.3952771961442
 10
125.1355142916328
 20
-156.3952771961442
 10
125.1355142916328
 20
-156.2092420399407
 10
125.1355142916328
 20
-156.2092420399407
 10
125.2095838445656
 20
-156.2075194921981
 10
125.4441948471112
 20
-156.1985622439364
 10
125.4441948471112
 20
-155.9591281077116
 10
125.4441948471112
 20
-155.8430283898587
 10
125.3746039183091
 20
-155.7141818187103
 10
125.146194087637
 20
-155.7141818187103
 10
125.0297498602356
 20
-155.7141818187103
 10
124.9811740138936
 20
-155.7465657162717
 10
124.9494791354293
 20
-155.7734374610566
 10
124.8754095824964
 20
-155.8357936893397
 10
124.862662729201
 20
-155.9339789106693
 10
124.862662729201
 20
-155.9804876997201
 10
124.862662729201
 20
-155.9966796485008
 10
124.8647297864921
 20
-156.026996488771
 10
124.8688639010744
 20
-156.0504231380707
 10
124.8688639010744
 20
-156.0504231380707
 10
124.6742160061578
 20
-156.0504231380707
 10
124.6742160061578
 20
-156.0504231380707
 10
124.6807616875798
 20
-156.0180392405094
 10
124.6828287448709
 20
-155.9822102474627
 10
124.6828287448709
 20
-155.9770426042349
 10
124.6828287448709
 20
-155.9215765669224
 10
124.6614691528624
 20
-155.7534559072422
 10
124.4247910930257
 20
-155.7534559072422
 10
124.2470241659868
 20
-155.7534559072422
 10
124.1919026382228
 20
-155.8643879818672
 10
124.1919026382228
 20
-155.9574055599689
 10
124.1919026382228
 20
-156.1806477474132
 10
124.4247910930257
 20
-156.1878824479322
 10
124.4964490791189
 20
-156.1913275434174
 10
124.4964490791189
 20
-156.1913275434174
 10
124.4964490791189
 20
-156.3628932985829
 10
124.4964490791189
 20
-156.3628932985829
 10
124.3717366225529
 20
-156.3560031076124
 10
123.9951876860151
 20
-156.3325764583127
 10
123.9951876860151
 20
-155.9467257639647
 10
123.9951876860151
 20
-155.7572455122759
 10
124.1223117094208
 20
-155.5532958595492
 10
124.4182454116038
 20
-155.5532958595492
 10
124.6046250773558
 20
-155.5532958595492
 10
124.6869628594532
 20
-155.633911093904
 10
124.7482855590907
 20
-155.7179714237441
 10
124.7758463229727
 20
-155.6659504819168
 10
124.856117047779
 20
-155.5122992232747
 10
125.1334472343416
 20
-155.5122992232747
 10
125.4717556109932
 20
-155.5122992232747
 10
125.6388427420278
 20
-155.7214165192293
 10
125.6388427420278
 20
-155.9556830122263
 97
        0
 97
        1
330
BF
 75
     2
 76
     1
 98
        1
 10
0.0
 20
0.0
450
        0
451
        0
460
0.0
461
0.0
452
        0
462
0.0
453
        0
470

  0
ENDBLK
  5
BE
330
BB
100
AcDbEntity
  8
0
100
AcDbBlockEnd
  0
BLOCK
  5
C5
330
C3
100
AcDbEntity
  8
0
100
AcDbBlockBegin
  2
Block_8
 70
     0
 10
0.0
 20
0.0
 30
0.0
  3
Block_8
  1

  0
INSERT
  5
C8
330
C3
100
AcDbEntity
  8
レイヤー 1
100
AcDbBlockReference
  2
Block_9
 10
0.0
 20
0.0
 30
0.0
  0
ENDBLK
  5
C6
330
C3
100
AcDbEntity
  8
0
100
AcDbBlockEnd
  0
BLOCK
  5
C9
330
C7
100
AcDbEntity
  8
0
100
AcDbBlockBegin
  2
Block_9
 70
     0
 10
0.0
 20
0.0
 30
0.0
  3
Block_9
  1

  0
SPLINE
  5
CB
330
C7
100
AcDbEntity
  8
レイヤー 1
100
AcDbSpline
210
0.0
220
0.0
230
1.0
 70
     9
 71
     3
 72
    17
 73
    13
 74
     0
 42
0.0000000001
 43
0.0000000001
 40
0.0
 40
0.0
 40
0.0
 40
0.0
 40
1.0
 40
1.0
 40
1.0
 40
2.0
 40
2.0
 40
2.0
 40
3.0
 40
3.0
 40
3.0
 40
4.0
 40
4.0
 40
4.0
 40
4.0
 10
124.1877685236405
 20
-150.1641329919728
 30
0.0
 10
124.1877685236405
 20
-150.2643852705936
 30
0.0
 10
124.2449571086957
 20
-150.4125243764593
 30
0.0
 10
124.5305555244229
 20
-150.4125243764593
 30
0.0
 10
124.7568982978038
 20
-150.4125243764593
 30
0.0
 10
124.8519829331967
 20
-150.2947021108638
 30
0.0
 10
124.8519829331967
 20
-150.1803249407535
 30
0.0
 10
124.8519829331967
 20
-149.9588053010519
 30
0.0
 10
124.6425211276935
 20
-149.9264214034906
 30
0.0
 10
124.5260769002921
 20
-149.9264214034906
 30
0.0
 10
124.3507215400929
 20
-149.9264214034906
 30
0.0
 10
124.1877685236405
 20
-150.0070366378454
 30
0.0
 10
124.1877685236405
 20
-150.1641329919728
 30
0.0
  0
SPLINE
  5
CC
330
C7
100
AcDbEntity
  8
レイヤー 1
100
AcDbSpline
210
0.0
220
0.0
230
1.0
 70
     9
 71
     3
 72
    32
 73
    28
 74
     0
 42
0.0000000001
 43
0.0000000001
 40
0.0
 40
0.0
 40
0.0
 40
0.0
 40
1.0
 40
1.0
 40
1.0
 40
2.0
 40
2.0
 40
2.0
 40
3.0
 40
3.0
 40
3.0
 40
4.0
 40
4.0
 40
4.0
 40
5.0
 40
5.0
 40
5.0
 40
6.0
 40
6.0
 40
6.0
 40
7.0
 40
7.0
 40
7.0
 40
8.0
 40
8.0
 40
8.0
 40
9.0
 40
9.0
 40
9.0
 40
9.0
 10
125.6388427420278
 20
-150.1982394372768
 30
0.0
 10
125.6388427420278
 20
-150.3446559953999
 30
0.0
 10
125.5692518132257
 20
-150.552050743612
 30
0.0
 10
125.2371446084476
 20
-150.5840901316248
 30
0.0
 10
125.2371446084476
 20
-150.5840901316248
 30
0.0
 10
125.2371446084476
 20
-150.4035671281977
 30
0.0
 10
125.2371446084476
 20
-150.4035671281977
 30
0.0
 10
125.2964002507939
 20
-150.394609879936
 30
0.0
 10
125.4441948471112
 20
-150.3677381351511
 30
0.0
 10
125.4441948471112
 20
-150.1961723799857
 30
0.0
 10
125.4441948471112
 20
-149.9498480527903
 30
0.0
 10
125.1144992091727
 20
-149.9174641552289
 30
0.0
 10
124.9091715182519
 20
-149.9067843592247
 30
0.0
 10
124.9894422430582
 20
-149.9836099885457
 30
0.0
 10
125.0466308281133
 20
-150.0407985736009
 30
0.0
 10
125.0466308281133
 20
-150.194449832243
 30
0.0
 10
125.0466308281133
 20
-150.3463785431426
 30
0.0
 10
124.9408663967161
 20
-150.6020046281481
 30
0.0
 10
124.5346896390052
 20
-150.6020046281481
 30
0.0
 10
124.2153292875225
 20
-150.6020046281481
 30
0.0
 10
123.9951876860151
 20
-150.4338839684679
 30
0.0
 10
123.9951876860151
 20
-150.1658555397155
 30
0.0
 10
123.9951876860151
 20
-149.731773508574
 30
0.0
 10
124.5495035495918
 20
-149.7228162603123
 30
0.0
 10
124.7630994696773
 20
-149.7228162603123
 30
0.0
 10
124.9935763576405
 20
-149.7228162603123
 30
0.0
 10
125.6388427420278
 20
-149.7386636995445
 30
0.0
 10
125.6388427420278
 20
-150.1982394372768
 30
0.0
  0
HATCH
  5
CD
330
C7
100
AcDbEntity
  8
レイヤー 1
 62
   250
420
  2299925
440
 33554687
100
AcDbHatch
 10
0.0
 20
0.0
 30
0.0
210
0.0
220
0.0
230
1.0
  2
SOLID
 70
     1
 71
     1
 91
        2
 92
        1
 93
        1
 72
     4
 94
        3
 73
     0
 74
     0
 95
       17
 96
       13
 40
0.0
 40
0.0
 40
0.0
 40
0.0
 40
1.0
 40
1.0
 40
1.0
 40
2.0
 40
2.0
 40
2.0
 40
3.0
 40
3.0
 40
3.0
 40
4.0
 40
4.0
 40
4.0
 40
4.0
 10
124.1877685236405
 20
-150.1641329919728
 10
124.1877685236405
 20
-150.2643852705936
 10
124.2449571086957
 20
-150.4125243764593
 10
124.5305555244229
 20
-150.4125243764593
 10
124.7568982978038
 20
-150.4125243764593
 10
124.8519829331967
 20
-150.2947021108638
 10
124.8519829331967
 20
-150.1803249407535
 10
124.8519829331967
 20
-149.9588053010519
 10
124.6425211276935
 20
-149.9264214034906
 10
124.5260769002921
 20
-149.9264214034906
 10
124.3507215400929
 20
-149.9264214034906
 10
124.1877685236405
 20
-150.0070366378454
 10
124.1877685236405
 20
-150.1641329919728
 97
        0
 97
        1
330
CB
 92
        1
 93
        1
 72
     4
 94
        3
 73
     0
 74
     0
 95
       32
 96
       28
 40
0.0
 40
0.0
 40
0.0
 40
0.0
 40
1.0
 40
1.0
 40
1.0
 40
2.0
 40
2.0
 40
2.0
 40
3.0
 40
3.0
 40
3.0
 40
4.0
 40
4.0
 40
4.0
 40
5.0
 40
5.0
 40
5.0
 40
6.0
 40
6.0
 40
6.0
 40
7.0
 40
7.0
 40
7.0
 40
8.0
 40
8.0
 40
8.0
 40
9.0
 40
9.0
 40
9.0
 40
9.0
 10
125.6388427420278
 20
-150.1982394372768
 10
125.6388427420278
 20
-150.3446559953999
 10
125.5692518132257
 20
-150.552050743612
 10
125.2371446084476
 20
-150.5840901316248
 10
125.2371446084476
 20
-150.5840901316248
 10
125.2371446084476
 20
-150.4035671281977
 10
125.2371446084476
 20
-150.4035671281977
 10
125.2964002507939
 20
-150.394609879936
 10
125.4441948471112
 20
-150.3677381351511
 10
125.4441948471112
 20
-150.1961723799857
 10
125.4441948471112
 20
-149.9498480527903
 10
125.1144992091727
 20
-149.9174641552289
 10
124.9091715182519
 20
-149.9067843592247
 10
124.9894422430582
 20
-149.9836099885457
 10
125.0466308281133
 20
-150.0407985736009
 10
125.0466308281133
 20
-150.194449832243
 10
125.0466308281133
 20
-150.3463785431426
 10
124.9408663967161
 20
-150.6020046281481
 10
124.5346896390052
 20
-150.6020046281481
 10
124.2153292875225
 20
-150.6020046281481
 10
123.9951876860151
 20
-150.4338839684679
 10
123.9951876860151
 20
-150.1658555397155
 10
123.9951876860151
 20
-149.731773508574
 10
124.5495035495918
 20
-149.7228162603123
 10
124.7630994696773
 20
-149.7228162603123
 10
124.9935763576405
 20
-149.7228162603123
 10
125.6388427420278
 20
-149.7386636995445
 10
125.6388427420278
 20
-150.1982394372768
 97
        0
 97
        1
330
CC
 75
     2
 76
     1
 98
        1
 10
0.0
 20
0.0
450
        0
451
        0
460
0.0
461
0.0
452
        0
462
0.0
453
        0
470

  0
SPLINE
  5
CE
330
C7
100
AcDbEntity
  8
レイヤー 1
100
AcDbSpline
210
0.0
220
0.0
230
1.0
 70
    11
 71
     3
 72
    17
 73
    13
 74
     0
 42
0.0000000001
 43
0.0000000001
 40
0.0
 40
0.0
 40
0.0
 40
0.0
 40
1.0
 40
1.0
 40
1.0
 40
2.0
 40
2.0
 40
2.0
 40
3.0
 40
3.0
 40
3.0
 40
4.0
 40
4.0
 40
4.0
 40
4.0
 10
125.5881998383946
 20
-149.539537180497
 30
0.0
 10
125.5881998383946
 20
-149.539537180497
 30
0.0
 10
125.3363633584228
 20
-149.539537180497
 30
0.0
 10
125.3363633584228
 20
-149.539537180497
 30
0.0
 10
125.3363633584228
 20
-149.539537180497
 30
0.0
 10
125.3363633584228
 20
-149.3269747890571
 30
0.0
 10
125.3363633584228
 20
-149.3269747890571
 30
0.0
 10
125.3363633584228
 20
-149.3269747890571
 30
0.0
 10
125.5881998383946
 20
-149.3269747890571
 30
0.0
 10
125.5881998383946
 20
-149.3269747890571
 30
0.0
 10
125.5881998383946
 20
-149.3269747890571
 30
0.0
 10
125.5881998383946
 20
-149.539537180497
 30
0.0
 10
125.5881998383946
 20
-149.539537180497
 30
0.0
  0
HATCH
  5
CF
330
C7
100
AcDbEntity
  8
レイヤー 1
 62
   250
420
  2299925
440
 33554687
100
AcDbHatch
 10
0.0
 20
0.0
 30
0.0
210
0.0
220
0.0
230
1.0
  2
SOLID
 70
     1
 71
     1
 91
        1
 92
        1
 93
        1
 72
     4
 94
        3
 73
     0
 74
     0
 95
       17
 96
       13
 40
0.0
 40
0.0
 40
0.0
 40
0.0
 40
1.0
 40
1.0
 40
1.0
 40
2.0
 40
2.0
 40
2.0
 40
3.0
 40
3.0
 40
3.0
 40
4.0
 40
4.0
 40
4.0
 40
4.0
 10
125.5881998383946
 20
-149.539537180497
 10
125.5881998383946
 20
-149.539537180497
 10
125.3363633584228
 20
-149.539537180497
 10
125.3363633584228
 20
-149.539537180497
 10
125.3363633584228
 20
-149.539537180497
 10
125.3363633584228
 20
-149.3269747890571
 10
125.3363633584228
 20
-149.3269747890571
 10
125.3363633584228
 20
-149.3269747890571
 10
125.5881998383946
 20
-149.3269747890571
 10
125.5881998383946
 20
-149.3269747890571
 10
125.5881998383946
 20
-149.3269747890571
 10
125.5881998383946
 20
-149.539537180497
 10
125.5881998383946
 20
-149.539537180497
 97
        0
 97
        1
330
CE
 75
     2
 76
     1
 98
        1
 10
0.0
 20
0.0
450
        0
451
        0
460
0.0
461
0.0
452
        0
462
0.0
453
        0
470

  0
SPLINE
  5
D0
330
C7
100
AcDbEntity
  8
レイヤー 1
100
AcDbSpline
210
0.0
220
0.0
230
1.0
 70
     9
 71
     3
 72
    17
 73
    13
 74
     0
 42
0.0000000001
 43
0.0000000001
 40
0.0
 40
0.0
 40
0.0
 40
0.0
 40
1.0
 40
1.0
 40
1.0
 40
2.0
 40
2.0
 40
2.0
 40
3.0
 40
3.0
 40
3.0
 40
4.0
 40
4.0
 40
4.0
 40
4.0
 10
124.8478488186144
 20
-148.704790544421
 30
0.0
 10
124.8478488186144
 20
-148.8264024150503
 30
0.0
 10
124.9346652248427
 20
-148.9549044766501
 30
0.0
 10
125.1375813489239
 20
-148.9549044766501
 30
0.0
 10
125.3429090398448
 20
-148.9549044766501
 30
0.0
 10
125.4441948471112
 20
-148.8477620070589
 30
0.0
 10
125.4441948471112
 20
-148.704790544421
 30
0.0
 10
125.4441948471112
 20
-148.5473496807451
 30
0.0
 10
125.3215494478363
 20
-148.4546766121919
 30
0.0
 10
125.1437825207974
 20
-148.4546766121919
 30
0.0
 10
124.9219183715473
 20
-148.4546766121919
 30
0.0
 10
124.8478488186144
 20
-148.5921359220533
 30
0.0
 10
124.8478488186144
 20
-148.704790544421
 30
0.0
  0
SPLINE
  5
D1
330
C7
100
AcDbEntity
  8
レイヤー 1
100
AcDbSpline
210
0.0
220
0.0
230
1.0
 70
     9
 71
     3
 72
    17
 73
    13
 74
     0
 42
0.0000000001
 43
0.0000000001
 40
0.0
 40
0.0
 40
0.0
 40
0.0
 40
1.0
 40
1.0
 40
1.0
 40
2.0
 40
2.0
 40
2.0
 40
3.0
 40
3.0
 40
3.0
 40
4.0
 40
4.0
 40
4.0
 40
4.0
 10
124.1877685236405
 20
-148.704790544421
 30
0.0
 10
124.1877685236405
 20
-148.8439724020251
 30
0.0
 10
124.2828531590334
 20
-148.9156303881183
 30
0.0
 10
124.4182454116038
 20
-148.9156303881183
 30
0.0
 10
124.5408908108787
 20
-148.9156303881183
 30
0.0
 10
124.6594020955712
 20
-148.8549967075779
 30
0.0
 10
124.6594020955712
 20
-148.704790544421
 30
0.0
 10
124.6594020955712
 20
-148.5545843812641
 30
0.0
 10
124.5408908108787
 20
-148.4939507007237
 30
0.0
 10
124.4182454116038
 20
-148.4939507007237
 30
0.0
 10
124.2828531590334
 20
-148.4939507007237
 30
0.0
 10
124.1877685236405
 20
-148.566986725011
 30
0.0
 10
124.1877685236405
 20
-148.704790544421
 30
0.0
  0
SPLINE
  5
D2
330
C7
100
AcDbEntity
  8
レイヤー 1
100
AcDbSpline
210
0.0
220
0.0
230
1.0
 70
     9
 71
     3
 72
    29
 73
    25
 74
     0
 42
0.0000000001
 43
0.0000000001
 40
0.0
 40
0.0
 40
0.0
 40
0.0
 40
1.0
 40
1.0
 40
1.0
 40
2.0
 40
2.0
 40
2.0
 40
3.0
 40
3.0
 40
3.0
 40
4.0
 40
4.0
 40
4.0
 40
5.0
 40
5.0
 40
5.0
 40
6.0
 40
6.0
 40
6.0
 40
7.0
 40
7.0
 40
7.0
 40
8.0
 40
8.0
 40
8.0
 40
8.0
 10
125.6388427420278
 20
-148.704790544421
 30
0.0
 10
125.6388427420278
 20
-148.9300997891563
 30
0.0
 10
125.5013834321663
 20
-149.1443847283389
 30
0.0
 10
125.1523952595105
 20
-149.1443847283389
 30
0.0
 10
124.8964246649564
 20
-149.1443847283389
 30
0.0
 10
124.8013400295635
 20
-149.0244954054522
 30
0.0
 10
124.7400173299261
 20
-148.9352674323842
 30
0.0
 10
124.6807616875798
 20
-149.0406873542329
 30
0.0
 10
124.5663845174695
 20
-149.105110639807
 30
0.0
 10
124.4054985583083
 20
-149.105110639807
 30
0.0
 10
124.1305799385854
 20
-149.105110639807
 30
0.0
 10
123.9951876860151
 20
-148.9369899801268
 30
0.0
 10
123.9951876860151
 20
-148.704790544421
 30
0.0
 10
123.9951876860151
 20
-148.4653564081961
 30
0.0
 10
124.1391926772985
 20
-148.304470449035
 30
0.0
 10
124.4054985583083
 20
-148.304470449035
 30
0.0
 10
124.5663845174695
 20
-148.304470449035
 30
0.0
 10
124.6807616875798
 20
-148.3706162823518
 30
0.0
 10
124.7400173299261
 20
-148.4760362042004
 30
0.0
 10
124.7906602335593
 20
-148.400933122622
 30
0.0
 10
124.8857448689522
 20
-148.2669189082457
 30
0.0
 10
125.1482611449282
 20
-148.2669189082457
 30
0.0
 10
125.5227430241748
 20
-148.2669189082457
 30
0.0
 10
125.6388427420278
 20
-148.5029079489853
 30
0.0
 10
125.6388427420278
 20
-148.704790544421
 30
0.0
  0
HATCH
  5
D3
330
C7
100
AcDbEntity
  8
レイヤー 1
 62
   250
420
  2299925
440
 33554687
100
AcDbHatch
 10
0.0
 20
0.0
 30
0.0
210
0.0
220
0.0
230
1.0
  2
SOLID
 70
     1
 71
     1
 91
        3
 92
        1
 93
        1
 72
     4
 94
        3
 73
     0
 74
     0
 95
       17
 96
       13
 40
0.0
 40
0.0
 40
0.0
 40
0.0
 40
1.0
 40
1.0
 40
1.0
 40
2.0
 40
2.0
 40
2.0
 40
3.0
 40
3.0
 40
3.0
 40
4.0
 40
4.0
 40
4.0
 40
4.0
 10
124.8478488186144
 20
-148.704790544421
 10
124.8478488186144
 20
-148.8264024150503
 10
124.9346652248427
 20
-148.9549044766501
 10
125.1375813489239
 20
-148.9549044766501
 10
125.3429090398448
 20
-148.9549044766501
 10
125.4441948471112
 20
-148.8477620070589
 10
125.4441948471112
 20
-148.704790544421
 10
125.4441948471112
 20
-148.5473496807451
 10
125.3215494478363
 20
-148.4546766121919
 10
125.1437825207974
 20
-148.4546766121919
 10
124.9219183715473
 20
-148.4546766121919
 10
124.8478488186144
 20
-148.5921359220533
 10
124.8478488186144
 20
-148.704790544421
 97
        0
 97
        1
330
D0
 92
        1
 93
        1
 72
     4
 94
        3
 73
     0
 74
     0
 95
       17
 96
       13
 40
0.0
 40
0.0
 40
0.0
 40
0.0
 40
1.0
 40
1.0
 40
1.0
 40
2.0
 40
2.0
 40
2.0
 40
3.0
 40
3.0
 40
3.0
 40
4.0
 40
4.0
 40
4.0
 40
4.0
 10
124.1877685236405
 20
-148.704790544421
 10
124.1877685236405
 20
-148.8439724020251
 10
124.2828531590334
 20
-148.9156303881183
 10
124.4182454116038
 20
-148.9156303881183
 10
124.5408908108787
 20
-148.9156303881183
 10
124.6594020955712
 20
-148.8549967075779
 10
124.6594020955712
 20
-148.704790544421
 10
124.6594020955712
 20
-148.5545843812641
 10
124.5408908108787
 20
-148.4939507007237
 10
124.4182454116038
 20
-148.4939507007237
 10
124.2828531590334
 20
-148.4939507007237
 10
124.1877685236405
 20
-148.566986725011
 10
124.1877685236405
 20
-148.704790544421
 97
        0
 97
        1
330
D1
 92
        1
 93
        1
 72
     4
 94
        3
 73
     0
 74
     0
 95
       29
 96
       25
 40
0.0
 40
0.0
 40
0.0
 40
0.0
 40
1.0
 40
1.0
 40
1.0
 40
2.0
 40
2.0
 40
2.0
 40
3.0
 40
3.0
 40
3.0
 40
4.0
 40
4.0
 40
4.0
 40
5.0
 40
5.0
 40
5.0
 40
6.0
 40
6.0
 40
6.0
 40
7.0
 40
7.0
 40
7.0
 40
8.0
 40
8.0
 40
8.0
 40
8.0
 10
125.6388427420278
 20
-148.704790544421
 10
125.6388427420278
 20
-148.9300997891563
 10
125.5013834321663
 20
-149.1443847283389
 10
125.1523952595105
 20
-149.1443847283389
 10
124.8964246649564
 20
-149.1443847283389
 10
124.8013400295635
 20
-149.0244954054522
 10
124.7400173299261
 20
-148.9352674323842
 10
124.6807616875798
 20
-149.0406873542329
 10
124.5663845174695
 20
-149.105110639807
 10
124.4054985583083
 20
-149.105110639807
 10
124.1305799385854
 20
-149.105110639807
 10
123.9951876860151
 20
-148.9369899801268
 10
123.9951876860151
 20
-148.704790544421
 10
123.9951876860151
 20
-148.4653564081961
 10
124.1391926772985
 20
-148.304470449035
 10
124.4054985583083
 20
-148.304470449035
 10
124.5663845174695
 20
-148.304470449035
 10
124.6807616875798
 20
-148.3706162823518
 10
124.7400173299261
 20
-148.4760362042004
 10
124.7906602335593
 20
-148.400933122622
 10
124.8857448689522
 20
-148.2669189082457
 10
125.1482611449282
 20
-148.2669189082457
 10
125.5227430241748
 20
-148.2669189082457
 10
125.6388427420278
 20
-148.5029079489853
 10
125.6388427420278
 20
-148.704790544421
 97
        0
 97
        1
330
D2
 75
     2
 76
     1
 98
        1
 10
0.0
 20
0.0
450
        0
451
        0
460
0.0
461
0.0
452
        0
462
0.0
453
        0
470

  0
ENDBLK
  5
CA
330
C7
100
AcDbEntity
  8
0
100
AcDbBlockEnd
  0
BLOCK
  5
DB
330
D9
100
AcDbEntity
  8
0
100
AcDbBlockBegin
  2
Block_10
 70
     0
 10
0.0
 20
0.0
 30
0.0
  3
Block_10
  1

  0
SPLINE
  5
DD
330
D9
100
AcDbEntity
  8
レイヤー 1
100
AcDbSpline
210
0.0
220
0.0
230
1.0
 70
     9
 71
     3
 72
    44
 73
    40
 74
     0
 42
0.0000000001
 43
0.0000000001
 40
0.0
 40
0.0
 40
0.0
 40
0.0
 40
1.0
 40
1.0
 40
1.0
 40
2.0
 40
2.0
 40
2.0
 40
3.0
 40
3.0
 40
3.0
 40
4.0
 40
4.0
 40
4.0
 40
5.0
 40
5.0
 40
5.0
 40
6.0
 40
6.0
 40
6.0
 40
7.0
 40
7.0
 40
7.0
 40
8.0
 40
8.0
 40
8.0
 40
9.0
 40
9.0
 40
9.0
 40
10.0
 40
10.0
 40
10.0
 40
11.0
 40
11.0
 40
11.0
 40
12.0
 40
12.0
 40
12.0
 40
13.0
 40
13.0
 40
13.0
 40
13.0
 10
84.40070527403872
 20
-144.5351914786231
 30
0.0
 10
84.55935192113448
 20
-144.768079933426
 30
0.0
 10
84.63342147406734
 20
-144.8674709381755
 30
0.0
 10
84.77725421057654
 20
-144.9194918800027
 30
0.0
 10
84.77725421057654
 20
-144.9194918800027
 30
0.0
 10
84.77725421057654
 20
-144.0875013203149
 30
0.0
 10
84.77725421057654
 20
-144.0875013203149
 30
0.0
 10
84.77725421057654
 20
-144.0875013203149
 30
0.0
 10
84.98240964672316
 20
-144.0875013203149
 30
0.0
 10
84.98240964672316
 20
-144.0875013203149
 30
0.0
 10
84.98240964672316
 20
-144.0875013203149
 30
0.0
 10
84.98240964672316
 20
-145.1863145253353
 30
0.0
 10
84.98240964672316
 20
-145.1863145253353
 30
0.0
 10
84.62480873535422
 20
-145.1523803348056
 30
0.0
 10
84.54660506783906
 20
-145.0822726416808
 30
0.0
 10
84.2482597988164
 20
-144.6707559859677
 30
0.0
 10
84.04947778931749
 20
-144.3972154044389
 30
0.0
 10
83.98178166303233
 20
-144.327107711314
 30
0.0
 10
83.84432235317087
 20
-144.327107711314
 30
0.0
 10
83.72581106847828
 20
-144.327107711314
 30
0.0
 10
83.59455293049025
 20
-144.4039333406351
 30
0.0
 10
83.59455293049025
 20
-144.6142564200096
 30
0.0
 10
83.59455293049025
 20
-144.8924478804435
 30
0.0
 10
83.82520207322773
 20
-144.9014051287052
 30
0.0
 10
83.94164630062917
 20
-144.905883752836
 30
0.0
 10
83.94164630062917
 20
-144.905883752836
 30
0.0
 10
83.94164630062917
 20
-145.1456623986094
 30
0.0
 10
83.94164630062917
 20
-145.1456623986094
 30
0.0
 10
83.81469453199771
 20
-145.1365328955735
 30
0.0
 10
83.70255667395284
 20
-145.1251640804722
 30
0.0
 10
83.58404538926023
 20
-145.0393812028895
 30
0.0
 10
83.42333168487334
 20
-144.9217311920682
 30
0.0
 10
83.38939749434363
 20
-144.722776927795
 30
0.0
 10
83.38939749434363
 20
-144.5984089807775
 30
0.0
 10
83.38939749434363
 20
-144.3023030238202
 30
0.0
 10
83.57353784803022
 20
-144.0807833841187
 30
0.0
 10
83.84638941046203
 20
-144.0807833841187
 30
0.0
 10
84.07479924113408
 20
-144.0807833841187
 30
0.0
 10
84.17436250065781
 20
-144.2051513311362
 30
0.0
 10
84.40070527403872
 20
-144.5351914786231
 30
0.0
  0
HATCH
  5
DE
330
D9
100
AcDbEntity
  8
レイヤー 1
 62
   250
420
  2299925
440
 33554687
100
AcDbHatch
 10
0.0
 20
0.0
 30
0.0
210
0.0
220
0.0
230
1.0
  2
SOLID
 70
     1
 71
     1
 91
        1
 92
        1
 93
        1
 72
     4
 94
        3
 73
     0
 74
     0
 95
       44
 96
       40
 40
0.0
 40
0.0
 40
0.0
 40
0.0
 40
1.0
 40
1.0
 40
1.0
 40
2.0
 40
2.0
 40
2.0
 40
3.0
 40
3.0
 40
3.0
 40
4.0
 40
4.0
 40
4.0
 40
5.0
 40
5.0
 40
5.0
 40
6.0
 40
6.0
 40
6.0
 40
7.0
 40
7.0
 40
7.0
 40
8.0
 40
8.0
 40
8.0
 40
9.0
 40
9.0
 40
9.0
 40
10.0
 40
10.0
 40
10.0
 40
11.0
 40
11.0
 40
11.0
 40
12.0
 40
12.0
 40
12.0
 40
13.0
 40
13.0
 40
13.0
 40
13.0
 10
84.40070527403872
 20
-144.5351914786231
 10
84.55935192113448
 20
-144.768079933426
 10
84.63342147406734
 20
-144.8674709381755
 10
84.77725421057654
 20
-144.9194918800027
 10
84.77725421057654
 20
-144.9194918800027
 10
84.77725421057654
 20
-144.0875013203149
 10
84.77725421057654
 20
-144.0875013203149
 10
84.77725421057654
 20
-144.0875013203149
 10
84.98240964672316
 20
-144.0875013203149
 10
84.98240964672316
 20
-144.0875013203149
 10
84.98240964672316
 20
-144.0875013203149
 10
84.98240964672316
 20
-145.1863145253353
 10
84.98240964672316
 20
-145.1863145253353
 10
84.62480873535422
 20
-145.1523803348056
 10
84.54660506783906
 20
-145.0822726416808
 10
84.2482597988164
 20
-144.6707559859677
 10
84.04947778931749
 20
-144.3972154044389
 10
83.98178166303233
 20
-144.327107711314
 10
83.84432235317087
 20
-144.327107711314
 10
83.72581106847828
 20
-144.327107711314
 10
83.59455293049025
 20
-144.4039333406351
 10
83.59455293049025
 20
-144.6142564200096
 10
83.59455293049025
 20
-144.8924478804435
 10
83.82520207322773
 20
-144.9014051287052
 10
83.94164630062917
 20
-144.905883752836
 10
83.94164630062917
 20
-144.905883752836
 10
83.94164630062917
 20
-145.1456623986094
 10
83.94164630062917
 20
-145.1456623986094
 10
83.81469453199771
 20
-145.1365328955735
 10
83.70255667395284
 20
-145.1251640804722
 10
83.58404538926023
 20
-145.0393812028895
 10
83.42333168487334
 20
-144.9217311920682
 10
83.38939749434363
 20
-144.722776927795
 10
83.38939749434363
 20
-144.5984089807775
 10
83.38939749434363
 20
-144.3023030238202
 10
83.57353784803022
 20
-144.0807833841187
 10
83.84638941046203
 20
-144.0807833841187
 10
84.07479924113408
 20
-144.0807833841187
 10
84.17436250065781
 20
-144.2051513311362
 10
84.40070527403872
 20
-144.5351914786231
 97
        0
 97
        1
330
DD
 75
     2
 76
     1
 98
        1
 10
0.0
 20
0.0
450
        0
451
        0
460
0.0
461
0.0
452
        0
462
0.0
453
        0
470

  0
ENDBLK
  5
DC
330
D9
100
AcDbEntity
  8
0
100
AcDbBlockEnd
  0
BLOCK
  5
EF
330
ED
100
AcDbEntity
  8
0
100
AcDbBlockBegin
  2
Block_11
 70
     0
 10
0.0
 20
0.0
 30
0.0
  3
Block_11
  1

  0
LINE
  5
F1
330
ED
100
AcDbEntity
  8
レイヤー 1
  6
AI-Linetype-0
 62
   154
420
    23468
370
    25
100
AcDbLine
 10
121.2240556586075
 20
-142.963273126133
 30
0.0
 11
103.2239361856071
 21
-142.963273126133
 31
0.0
  0
LINE
  5
F3
330
ED
100
AcDbEntity
  8
レイヤー 1
 62
   250
420
  2299925
370
     9
100
AcDbLine
 10
111.6006853332266
 20
-142.5961189765452
 30
0.0
 11
113.4600500925
 21
-140.8292326539935
 31
0.0
  0
LWPOLYLINE
  5
F4
330
ED
100
AcDbEntity
  8
レイヤー 1
 62
   250
420
  2299925
370
     9
100
AcDbPolyline
 90
        3
 70
     0
 43
0.0
 10
112.1237461233392
 20
-141.7534257021586
 10
111.6235072471342
 20
-142.6195304022397
 10
112.4896138104488
 20
-142.1192915261906
  0
INSERT
  5
F6
330
ED
100
AcDbEntity
  8
レイヤー 1
100
AcDbBlockReference
  2
Block_12
 10
0.0
 20
0.0
 30
0.0
  0
ENDBLK
  5
F0
330
ED
100
AcDbEntity
  8
0
100
AcDbBlockEnd
  0
BLOCK
  5
F7
330
F5
100
AcDbEntity
  8
0
100
AcDbBlockBegin
  2
Block_12
 70
     0
 10
0.0
 20
0.0
 30
0.0
  3
Block_12
  1

  0
INSERT
  5
FA
330
F5
100
AcDbEntity
  8
レイヤー 1
100
AcDbBlockReference
  2
Block_13
 10
0.0
 20
0.0
 30
0.0
  0
ENDBLK
  5
F8
330
F5
100
AcDbEntity
  8
0
100
AcDbBlockEnd
  0
BLOCK
  5
FB
330
F9
100
AcDbEntity
  8
0
100
AcDbBlockBegin
  2
Block_13
 70
     0
 10
0.0
 20
0.0
 30
0.0
  3
Block_13
  1

  0
SPLINE
  5
FD
330
F9
100
AcDbEntity
  8
レイヤー 1
100
AcDbSpline
210
0.0
220
0.0
230
1.0
 70
     9
 71
     3
 72
    17
 73
    13
 74
     0
 42
0.0000000001
 43
0.0000000001
 40
0.0
 40
0.0
 40
0.0
 40
0.0
 40
1.0
 40
1.0
 40
1.0
 40
2.0
 40
2.0
 40
2.0
 40
3.0
 40
3.0
 40
3.0
 40
4.0
 40
4.0
 40
4.0
 40
4.0
 10
112.1113308096457
 20
-139.9285820505213
 30
0.0
 10
112.094449841768
 20
-139.9580376169202
 30
0.0
 10
112.0438069381349
 20
-140.0512274497962
 30
0.0
 10
112.0331271421306
 20
-140.0701754749651
 30
0.0
 10
112.2236409224649
 20
-140.1294311173114
 30
0.0
 10
112.2446560049249
 20
-140.1358045439591
 30
0.0
 10
112.3166585005666
 20
-140.1633653078411
 30
0.0
 10
112.3717800283307
 20
-140.0765489016128
 30
0.0
 10
112.3948621680818
 20
-140.0024793486799
 30
0.0
 10
112.4096760786684
 20
-139.9285820505213
 30
0.0
 10
112.4096760786684
 20
-139.9285820505213
 30
0.0
 10
112.1113308096457
 20
-139.9285820505213
 30
0.0
 10
112.1113308096457
 20
-139.9285820505213
 30
0.0
  0
SPLINE
  5
FE
330
F9
100
AcDbEntity
  8
レイヤー 1
100
AcDbSpline
210
0.0
220
0.0
230
1.0
 70
    11
 71
     3
 72
    20
 73
    16
 74
     0
 42
0.0000000001
 43
0.0000000001
 40
0.0
 40
0.0
 40
0.0
 40
0.0
 40
1.0
 40
1.0
 40
1.0
 40
2.0
 40
2.0
 40
2.0
 40
3.0
 40
3.0
 40
3.0
 40
4.0
 40
4.0
 40
4.0
 40
5.0
 40
5.0
 40
5.0
 40
5.0
 10
112.0479410527172
 20
-139.0781602299874
 30
0.0
 10
112.0479410527172
 20
-139.0781602299874
 30
0.0
 10
112.0162461742529
 20
-139.0781602299874
 30
0.0
 10
112.0162461742529
 20
-139.0781602299874
 30
0.0
 10
112.0627549633037
 20
-139.1775512347368
 30
0.0
 10
112.094449841768
 20
-139.2578219595431
 30
0.0
 10
112.1282117775235
 20
-139.3847737281746
 30
0.0
 10
112.1282117775235
 20
-139.3847737281746
 30
0.0
 10
112.3356065257355
 20
-139.3847737281746
 30
0.0
 10
112.3356065257355
 20
-139.3847737281746
 30
0.0
 10
112.3673014041998
 20
-139.2917561500729
 30
0.0
 10
112.3907280534995
 20
-139.20717905591
 30
0.0
 10
112.4138101932507
 20
-139.0781602299874
 30
0.0
 10
112.4138101932507
 20
-139.0781602299874
 30
0.0
 10
112.0479410527172
 20
-139.0781602299874
 30
0.0
 10
112.0479410527172
 20
-139.0781602299874
 30
0.0
  0
SPLINE
  5
FF
330
F9
100
AcDbEntity
  8
レイヤー 1
100
AcDbSpline
210
0.0
220
0.0
230
1.0
 70
     9
 71
     3
 72
   242
 73
   238
 74
     0
 42
0.0000000001
 43
0.0000000001
 40
0.0
 40
0.0
 40
0.0
 40
0.0
 40
1.0
 40
1.0
 40
1.0
 40
2.0
 40
2.0
 40
2.0
 40
3.0
 40
3.0
 40
3.0
 40
4.0
 40
4.0
 40
4.0
 40
5.0
 40
5.0
 40
5.0
 40
6.0
 40
6.0
 40
6.0
 40
7.0
 40
7.0
 40
7.0
 40
8.0
 40
8.0
 40
8.0
 40
9.0
 40
9.0
 40
9.0
 40
10.0
 40
10.0
 40
10.0
 40
11.0
 40
11.0
 40
11.0
 40
12.0
 40
12.0
 40
12.0
 40
13.0
 40
13.0
 40
13.0
 40
14.0
 40
14.0
 40
14.0
 40
15.0
 40
15.0
 40
15.0
 40
16.0
 40
16.0
 40
16.0
 40
17.0
 40
17.0
 40
17.0
 40
18.0
 40
18.0
 40
18.0
 40
19.0
 40
19.0
 40
19.0
 40
20.0
 40
20.0
 40
20.0
 40
21.0
 40
21.0
 40
21.0
 40
22.0
 40
22.0
 40
22.0
 40
23.0
 40
23.0
 40
23.0
 40
24.0
 40
24.0
 40
24.0
 40
25.0
 40
25.0
 40
25.0
 40
26.0
 40
26.0
 40
26.0
 40
27.0
 40
27.0
 40
27.0
 40
28.0
 40
28.0
 40
28.0
 40
29.0
 40
29.0
 40
29.0
 40
30.0
 40
30.0
 40
30.0
 40
31.0
 40
31.0
 40
31.0
 40
32.0
 40
32.0
 40
32.0
 40
33.0
 40
33.0
 40
33.0
 40
34.0
 40
34.0
 40
34.0
 40
35.0
 40
35.0
 40
35.0
 40
36.0
 40
36.0
 40
36.0
 40
37.0
 40
37.0
 40
37.0
 40
38.0
 40
38.0
 40
38.0
 40
39.0
 40
39.0
 40
39.0
 40
40.0
 40
40.0
 40
40.0
 40
41.0
 40
41.0
 40
41.0
 40
42.0
 40
42.0
 40
42.0
 40
43.0
 40
43.0
 40
43.0
 40
44.0
 40
44.0
 40
44.0
 40
45.0
 40
45.0
 40
45.0
 40
46.0
 40
46.0
 40
46.0
 40
47.0
 40
47.0
 40
47.0
 40
48.0
 40
48.0
 40
48.0
 40
49.0
 40
49.0
 40
49.0
 40
50.0
 40
50.0
 40
50.0
 40
51.0
 40
51.0
 40
51.0
 40
52.0
 40
52.0
 40
52.0
 40
53.0
 40
53.0
 40
53.0
 40
54.0
 40
54.0
 40
54.0
 40
55.0
 40
55.0
 40
55.0
 40
56.0
 40
56.0
 40
56.0
 40
57.0
 40
57.0
 40
57.0
 40
58.0
 40
58.0
 40
58.0
 40
59.0
 40
59.0
 40
59.0
 40
60.0
 40
60.0
 40
60.0
 40
61.0
 40
61.0
 40
61.0
 40
62.0
 40
62.0
 40
62.0
 40
63.0
 40
63.0
 40
63.0
 40
64.0
 40
64.0
 40
64.0
 40
65.0
 40
65.0
 40
65.0
 40
66.0
 40
66.0
 40
66.0
 40
67.0
 40
67.0
 40
67.0
 40
68.0
 40
68.0
 40
68.0
 40
69.0
 40
69.0
 40
69.0
 40
70.0
 40
70.0
 40
70.0
 40
71.0
 40
71.0
 40
71.0
 40
72.0
 40
72.0
 40
72.0
 40
73.0
 40
73.0
 40
73.0
 40
74.0
 40
74.0
 40
74.0
 40
75.0
 40
75.0
 40
75.0
 40
76.0
 40
76.0
 40
76.0
 40
77.0
 40
77.0
 40
77.0
 40
78.0
 40
78.0
 40
78.0
 40
79.0
 40
79.0
 40
79.0
 40
79.0
 10
112.6763264692267
 20
-139.5434203752704
 30
0.0
 10
112.6763264692267
 20
-139.5434203752704
 30
0.0
 10
112.4224229319638
 20
-139.5434203752704
 30
0.0
 10
112.4224229319638
 20
-139.5434203752704
 30
0.0
 10
112.4224229319638
 20
-139.5434203752704
 30
0.0
 10
112.1454372549497
 20
-139.5434203752704
 30
0.0
 10
112.1454372549497
 20
-139.5434203752704
 30
0.0
 10
112.1454372549497
 20
-139.5434203752704
 30
0.0
 10
112.2722167688069
 20
-139.585795049739
 30
0.0
 10
112.2722167688069
 20
-139.585795049739
 30
0.0
 10
112.2828965648112
 20
-139.5901014190955
 30
0.0
 10
112.2956434181066
 20
-139.596302590969
 30
0.0
 10
112.2956434181066
 20
-139.6090494442644
 30
0.0
 10
112.2956434181066
 20
-139.6302367814987
 30
0.0
 10
112.2636040300938
 20
-139.6366102081464
 30
0.0
 10
112.2425889476338
 20
-139.6407443227287
 30
0.0
 10
112.2319091516295
 20
-139.6639987172541
 30
0.0
 10
112.2022813304563
 20
-139.7296277862481
 30
0.0
 10
112.1833333052875
 20
-139.7740695180079
 30
0.0
 10
112.1833333052875
 20
-139.7740695180079
 30
0.0
 10
112.4541178104281
 20
-139.7740695180079
 30
0.0
 10
112.4541178104281
 20
-139.7740695180079
 30
0.0
 10
112.5450683312387
 20
-139.7740695180079
 30
0.0
 10
112.7417832834465
 20
-139.7697631486513
 30
0.0
 10
112.8837212174388
 20
-139.7613226647124
 30
0.0
 10
112.8837212174388
 20
-139.7613226647124
 30
0.0
 10
112.8837212174388
 20
-139.9390895917513
 30
0.0
 10
112.8837212174388
 20
-139.9390895917513
 30
0.0
 10
112.8010389257928
 20
-139.9347832223947
 30
0.0
 10
112.7800238433327
 20
-139.9347832223947
 30
0.0
 10
112.6001898590027
 20
-139.9306491078124
 30
0.0
 10
112.5684949805384
 20
-140.0849893855516
 30
0.0
 10
112.5240532487787
 20
-140.1654323651322
 30
0.0
 10
112.479611517019
 20
-140.2351955487085
 30
0.0
 10
112.6001898590027
 20
-140.2944511910548
 30
0.0
 10
112.7059542903999
 20
-140.36214731734
 30
0.0
 10
112.8096516645059
 20
-140.4446573542117
 30
0.0
 10
112.8096516645059
 20
-140.4446573542117
 30
0.0
 10
112.6911403798133
 20
-140.6117444852463
 30
0.0
 10
112.6911403798133
 20
-140.6117444852463
 30
0.0
 10
112.6677137305136
 20
-140.5927964600775
 30
0.0
 10
112.6549668772182
 20
-140.5843559761386
 30
0.0
 10
112.5430012739476
 20
-140.4996066272015
 30
0.0
 10
112.4944254276055
 20
-140.4615383220895
 30
0.0
 10
112.4351697852592
 20
-140.4257093290429
 30
0.0
 10
112.3545545509044
 20
-140.3812675972831
 30
0.0
 10
112.1430256881101
 20
-140.5674750082609
 30
0.0
 10
111.9380425067377
 20
-140.5907294027863
 30
0.0
 10
111.6479654668797
 20
-140.6203572239595
 30
0.0
 10
111.6479654668797
 20
-140.6203572239595
 30
0.0
 10
111.5446126023222
 20
-140.4405232396294
 30
0.0
 10
111.5446126023222
 20
-140.4405232396294
 30
0.0
 10
111.8619058965137
 20
-140.4362168702729
 30
0.0
 10
112.0372612567129
 20
-140.4108954184563
 30
0.0
 10
112.1895344771609
 20
-140.3008246177025
 30
0.0
 10
112.0713677020169
 20
-140.2500094592951
 30
0.0
 10
111.9824842384974
 20
-140.2226209501874
 30
0.0
 10
111.9463107359023
 20
-140.209874096892
 30
0.0
 10
111.9273627107334
 20
-140.237434860774
 30
0.0
 10
111.9125488001468
 20
-140.2563828859428
 30
0.0
 10
111.8849880362648
 20
-140.2903170764725
 30
0.0
 10
111.8849880362648
 20
-140.2903170764725
 30
0.0
 10
111.6882730840571
 20
-140.2078070396008
 30
0.0
 10
111.6882730840571
 20
-140.2078070396008
 30
0.0
 10
111.7709553757031
 20
-140.1273640600202
 30
0.0
 10
111.8322780753405
 20
-140.0321071698531
 30
0.0
 10
111.8891221508471
 20
-139.9306491078124
 30
0.0
 10
111.6989528800614
 20
-139.9347832223947
 30
0.0
 10
111.6775932880528
 20
-139.9347832223947
 30
0.0
 10
111.5952555059553
 20
-139.9390895917513
 30
0.0
 10
111.5952555059553
 20
-139.9390895917513
 30
0.0
 10
111.5952555059553
 20
-139.7613226647124
 30
0.0
 10
111.5952555059553
 20
-139.7613226647124
 30
0.0
 10
111.7347818731079
 20
-139.7676960913601
 30
0.0
 10
111.9442436786111
 20
-139.7720024607167
 30
0.0
 10
111.969737385202
 20
-139.7720024607167
 30
0.0
 10
111.9866183530797
 20
-139.738068270187
 30
0.0
 10
112.0417398808437
 20
-139.6174899282032
 30
0.0
 10
112.0606879060126
 20
-139.5434203752704
 30
0.0
 10
112.0417398808437
 20
-139.5434203752704
 30
0.0
 10
111.8639729538048
 20
-139.5497938019181
 30
0.0
 10
111.6693250588882
 20
-139.5625406552135
 30
0.0
 10
111.6693250588882
 20
-139.5625406552135
 30
0.0
 10
111.6693250588882
 20
-139.6958658504927
 30
0.0
 10
111.6693250588882
 20
-139.6958658504927
 30
0.0
 10
111.6207492125462
 20
-139.7211873023093
 30
0.0
 10
111.5614935701999
 20
-139.7528821807735
 30
0.0
 10
111.4281683749207
 20
-139.8185112497676
 30
0.0
 10
111.4281683749207
 20
-139.8185112497676
 30
0.0
 10
111.4281683749207
 20
-139.9644110435679
 30
0.0
 10
111.4281683749207
 20
-139.9644110435679
 30
0.0
 10
111.4281683749207
 20
-139.9644110435679
 30
0.0
 10
111.4281683749207
 20
-140.4320827556906
 30
0.0
 10
111.4281683749207
 20
-140.4320827556906
 30
0.0
 10
111.4281683749207
 20
-140.5588622695478
 30
0.0
 10
111.3919948723256
 20
-140.618117911894
 30
0.0
 10
111.1088080234381
 20
-140.6096774279552
 30
0.0
 10
111.1088080234381
 20
-140.6096774279552
 30
0.0
 10
111.005110649332
 20
-140.4024549345174
 30
0.0
 10
111.005110649332
 20
-140.4024549345174
 30
0.0
 10
111.0685004062606
 20
-140.4150295330386
 30
0.0
 10
111.1170762526027
 20
-140.4193359023951
 30
0.0
 10
111.1573838697801
 20
-140.4193359023951
 30
0.0
 10
111.2335204800041
 20
-140.4193359023951
 30
0.0
 10
111.2442002760084
 20
-140.3960815078697
 30
0.0
 10
111.2442002760084
 20
-140.3304524388757
 30
0.0
 10
111.2442002760084
 20
-140.3304524388757
 30
0.0
 10
111.2442002760084
 20
-139.9010212866393
 30
0.0
 10
111.2442002760084
 20
-139.9010212866393
 30
0.0
 10
111.1467040737758
 20
-139.9411566490424
 30
0.0
 10
111.1298231058981
 20
-139.9475300756902
 30
0.0
 10
111.0833143168472
 20
-139.9666503556333
 30
0.0
 10
111.0791802022649
 20
-139.9876654380933
 30
0.0
 10
111.0747015781341
 20
-140.0172932592665
 30
0.0
 10
111.0557535529652
 20
-140.0172932592665
 30
0.0
 10
111.0474853238006
 20
-140.0172932592665
 30
0.0
 10
111.0368055277963
 20
-140.0131591446842
 30
0.0
 10
111.0302598463744
 20
-139.9899047501588
 30
0.0
 10
111.0302598463744
 20
-139.9899047501588
 30
0.0
 10
110.97754988545
 20
-139.7973239125333
 30
0.0
 10
110.97754988545
 20
-139.7973239125333
 30
0.0
 10
111.1236219340246
 20
-139.7508151234824
 30
0.0
 10
111.1890787482444
 20
-139.727560728957
 30
0.0
 10
111.2442002760084
 20
-139.7063733917227
 30
0.0
 10
111.2442002760084
 20
-139.7063733917227
 30
0.0
 10
111.2442002760084
 20
-139.293823207364
 30
0.0
 10
111.2442002760084
 20
-139.293823207364
 30
0.0
 10
111.2442002760084
 20
-139.293823207364
 30
0.0
 10
111.1911458055355
 20
-139.293823207364
 30
0.0
 10
111.1911458055355
 20
-139.293823207364
 30
0.0
 10
111.1911458055355
 20
-139.293823207364
 30
0.0
 10
111.1129421380204
 20
-139.293823207364
 30
0.0
 10
111.1129421380204
 20
-139.293823207364
 30
0.0
 10
111.0450737569609
 20
-139.293823207364
 30
0.0
 10
111.0368055277963
 20
-139.293823207364
 30
0.0
 10
111.0006320252012
 20
-139.3001966340117
 30
0.0
 10
111.0006320252012
 20
-139.3001966340117
 30
0.0
 10
111.0006320252012
 20
-139.1055487390951
 30
0.0
 10
111.0006320252012
 20
-139.1055487390951
 30
0.0
 10
111.0281927890832
 20
-139.1119221657428
 30
0.0
 10
111.0368055277963
 20
-139.1119221657428
 30
0.0
 10
111.1063964565984
 20
-139.1119221657428
 30
0.0
 10
111.1063964565984
 20
-139.1119221657428
 30
0.0
 10
111.2397216518775
 20
-139.1119221657428
 30
0.0
 10
111.2397216518775
 20
-139.1119221657428
 30
0.0
 10
111.2397216518775
 20
-139.0421589821665
 30
0.0
 10
111.2397216518775
 20
-138.9596489452948
 30
0.0
 10
111.2376545945864
 20
-138.9553425759382
 30
0.0
 10
111.2293863654218
 20
-138.7755085916082
 30
0.0
 10
111.2293863654218
 20
-138.7565605664393
 30
0.0
 10
111.2269747985821
 20
-138.7100517773884
 30
0.0
 10
111.2269747985821
 20
-138.7100517773884
 30
0.0
 10
111.4429822855073
 20
-138.7184922613273
 30
0.0
 10
111.4429822855073
 20
-138.7184922613273
 30
0.0
 10
111.4536620815116
 20
-138.7184922613273
 30
0.0
 10
111.4746771639716
 20
-138.7205593186185
 30
0.0
 10
111.4746771639716
 20
-138.7374402864962
 30
0.0
 10
111.4746771639716
 20
-138.7565605664393
 30
0.0
 10
111.459863253385
 20
-138.7670681076693
 30
0.0
 10
111.4343695467942
 20
-138.7861883876125
 30
0.0
 10
111.4343695467942
 20
-138.8368312912456
 30
0.0
 10
111.4281683749207
 20
-139.065413376692
 30
0.0
 10
111.4302354322119
 20
-139.1119221657428
 30
0.0
 10
111.5594265129087
 20
-139.1119221657428
 30
0.0
 10
111.5718288566556
 20
-139.1119221657428
 30
0.0
 10
111.6693250588882
 20
-139.103481681804
 30
0.0
 10
111.6693250588882
 20
-139.103481681804
 30
0.0
 10
111.6693250588882
 20
-139.2981295767206
 30
0.0
 10
111.6693250588882
 20
-139.2981295767206
 30
0.0
 10
111.6310844990019
 20
-139.2958902646552
 30
0.0
 10
111.563560627491
 20
-139.2917561500729
 30
0.0
 10
111.4281683749207
 20
-139.293823207364
 30
0.0
 10
111.4281683749207
 20
-139.293823207364
 30
0.0
 10
111.4281683749207
 20
-139.6323038387898
 30
0.0
 10
111.4281683749207
 20
-139.6323038387898
 30
0.0
 10
111.4832899026847
 20
-139.6090494442644
 30
0.0
 10
111.5487467169045
 20
-139.5814886803824
 30
0.0
 10
111.5973225632465
 20
-139.5582342858569
 30
0.0
 10
111.5973225632465
 20
-139.5582342858569
 30
0.0
 10
111.5973225632465
 20
-139.3806396135923
 30
0.0
 10
111.5973225632465
 20
-139.3806396135923
 30
0.0
 10
111.7116997333568
 20
-139.3932142121135
 30
0.0
 10
111.8302110180494
 20
-139.3932142121135
 30
0.0
 10
111.9463107359023
 20
-139.3932142121135
 30
0.0
 10
111.9232285961511
 20
-139.2981295767206
 30
0.0
 10
111.8956678322691
 20
-139.2156195398489
 30
0.0
 10
111.8322780753405
 20
-139.0822943445697
 30
0.0
 10
111.7878363435808
 20
-139.0843614018608
 30
0.0
 10
111.7051540519348
 20
-139.0886677712174
 30
0.0
 10
111.667258001597
 20
-139.0907348285085
 30
0.0
 10
111.667258001597
 20
-139.0907348285085
 30
0.0
 10
111.667258001597
 20
-138.9109008441785
 30
0.0
 10
111.667258001597
 20
-138.9109008441785
 30
0.0
 10
111.7919704581631
 20
-138.9193413281174
 30
0.0
 10
111.9656032706197
 20
-138.9236476974739
 30
0.0
 10
112.0479410527172
 20
-138.9236476974739
 30
0.0
 10
112.0479410527172
 20
-138.9236476974739
 30
0.0
 10
112.1306233443632
 20
-138.9236476974739
 30
0.0
 10
112.1306233443632
 20
-138.9236476974739
 30
0.0
 10
112.1306233443632
 20
-138.7606946810216
 30
0.0
 10
112.1306233443632
 20
-138.7501871397916
 30
0.0
 10
112.1282117775235
 20
-138.6952378668019
 30
0.0
 10
112.1282117775235
 20
-138.6952378668019
 30
0.0
 10
112.3524874936132
 20
-138.7205593186185
 30
0.0
 10
112.3524874936132
 20
-138.7205593186185
 30
0.0
 10
112.3569661177441
 20
-138.7205593186185
 30
0.0
 10
112.3779812002041
 20
-138.7226263759096
 30
0.0
 10
112.3779812002041
 20
-138.7395073437873
 30
0.0
 10
112.3779812002041
 20
-138.7543212543739
 30
0.0
 10
112.3673014041998
 20
-138.762933993087
 30
0.0
 10
112.3397406403178
 20
-138.7777479036736
 30
0.0
 10
112.3335394684444
 20
-138.8432047178933
 30
0.0
 10
112.3314724111532
 20
-138.8643920551276
 30
0.0
 10
112.3314724111532
 20
-138.9236476974739
 30
0.0
 10
112.3314724111532
 20
-138.9236476974739
 30
0.0
 10
112.4265570465461
 20
-138.9236476974739
 30
0.0
 10
112.4265570465461
 20
-138.9236476974739
 30
0.0
 10
112.5092393381921
 20
-138.9236476974739
 30
0.0
 10
112.6825276411002
 20
-138.9193413281174
 30
0.0
 10
112.8075846072148
 20
-138.9109008441785
 30
0.0
 10
112.8075846072148
 20
-138.9109008441785
 30
0.0
 10
112.8075846072148
 20
-139.0907348285085
 30
0.0
 10
112.8075846072148
 20
-139.0907348285085
 30
0.0
 10
112.7779567860416
 20
-139.0886677712174
 30
0.0
 10
112.659445501349
 20
-139.0843614018608
 30
0.0
 10
112.6191378841716
 20
-139.0822943445697
 30
0.0
 10
112.604323973585
 20
-139.1331095029771
 30
0.0
 10
112.5705620378296
 20
-139.245247361022
 30
0.0
 10
112.5047607140613
 20
-139.3847737281746
 30
0.0
 10
112.5471353885298
 20
-139.3847737281746
 30
0.0
 10
112.8244655750925
 20
-139.3658257030057
 30
0.0
 10
112.8857882747299
 20
-139.3635863909403
 30
0.0
 10
112.8857882747299
 20
-139.3635863909403
 30
0.0
 10
112.8857882747299
 20
-139.5477267446269
 30
0.0
 10
112.8857882747299
 20
-139.5477267446269
 30
0.0
 10
112.8561604535568
 20
-139.5477267446269
 30
0.0
 10
112.839279485679
 20
-139.5434203752704
 30
0.0
 10
112.6763264692267
 20
-139.5434203752704
 30
0.0
  0
HATCH
  5
100
330
F9
100
AcDbEntity
  8
レイヤー 1
 62
   250
420
  2299925
440
 33554687
100
AcDbHatch
 10
0.0
 20
0.0
 30
0.0
210
0.0
220
0.0
230
1.0
  2
SOLID
 70
     1
 71
     1
 91
        3
 92
        1
 93
        1
 72
     4
 94
        3
 73
     0
 74
     0
 95
       17
 96
       13
 40
0.0
 40
0.0
 40
0.0
 40
0.0
 40
1.0
 40
1.0
 40
1.0
 40
2.0
 40
2.0
 40
2.0
 40
3.0
 40
3.0
 40
3.0
 40
4.0
 40
4.0
 40
4.0
 40
4.0
 10
112.1113308096457
 20
-139.9285820505213
 10
112.094449841768
 20
-139.9580376169202
 10
112.0438069381349
 20
-140.0512274497962
 10
112.0331271421306
 20
-140.0701754749651
 10
112.2236409224649
 20
-140.1294311173114
 10
112.2446560049249
 20
-140.1358045439591
 10
112.3166585005666
 20
-140.1633653078411
 10
112.3717800283307
 20
-140.0765489016128
 10
112.3948621680818
 20
-140.0024793486799
 10
112.4096760786684
 20
-139.9285820505213
 10
112.4096760786684
 20
-139.9285820505213
 10
112.1113308096457
 20
-139.9285820505213
 10
112.1113308096457
 20
-139.9285820505213
 97
        0
 97
        1
330
FD
 92
        1
 93
        1
 72
     4
 94
        3
 73
     0
 74
     0
 95
       20
 96
       16
 40
0.0
 40
0.0
 40
0.0
 40
0.0
 40
1.0
 40
1.0
 40
1.0
 40
2.0
 40
2.0
 40
2.0
 40
3.0
 40
3.0
 40
3.0
 40
4.0
 40
4.0
 40
4.0
 40
5.0
 40
5.0
 40
5.0
 40
5.0
 10
112.0479410527172
 20
-139.0781602299874
 10
112.0479410527172
 20
-139.0781602299874
 10
112.0162461742529
 20
-139.0781602299874
 10
112.0162461742529
 20
-139.0781602299874
 10
112.0627549633037
 20
-139.1775512347368
 10
112.094449841768
 20
-139.2578219595431
 10
112.1282117775235
 20
-139.3847737281746
 10
112.1282117775235
 20
-139.3847737281746
 10
112.3356065257355
 20
-139.3847737281746
 10
112.3356065257355
 20
-139.3847737281746
 10
112.3673014041998
 20
-139.2917561500729
 10
112.3907280534995
 20
-139.20717905591
 10
112.4138101932507
 20
-139.0781602299874
 10
112.4138101932507
 20
-139.0781602299874
 10
112.0479410527172
 20
-139.0781602299874
 10
112.0479410527172
 20
-139.0781602299874
 97
        0
 97
        1
330
FE
 92
        1
 93
        1
 72
     4
 94
        3
 73
     0
 74
     0
 95
      242
 96
      238
 40
0.0
 40
0.0
 40
0.0
 40
0.0
 40
1.0
 40
1.0
 40
1.0
 40
2.0
 40
2.0
 40
2.0
 40
3.0
 40
3.0
 40
3.0
 40
4.0
 40
4.0
 40
4.0
 40
5.0
 40
5.0
 40
5.0
 40
6.0
 40
6.0
 40
6.0
 40
7.0
 40
7.0
 40
7.0
 40
8.0
 40
8.0
 40
8.0
 40
9.0
 40
9.0
 40
9.0
 40
10.0
 40
10.0
 40
10.0
 40
11.0
 40
11.0
 40
11.0
 40
12.0
 40
12.0
 40
12.0
 40
13.0
 40
13.0
 40
13.0
 40
14.0
 40
14.0
 40
14.0
 40
15.0
 40
15.0
 40
15.0
 40
16.0
 40
16.0
 40
16.0
 40
17.0
 40
17.0
 40
17.0
 40
18.0
 40
18.0
 40
18.0
 40
19.0
 40
19.0
 40
19.0
 40
20.0
 40
20.0
 40
20.0
 40
21.0
 40
21.0
 40
21.0
 40
22.0
 40
22.0
 40
22.0
 40
23.0
 40
23.0
 40
23.0
 40
24.0
 40
24.0
 40
24.0
 40
25.0
 40
25.0
 40
25.0
 40
26.0
 40
26.0
 40
26.0
 40
27.0
 40
27.0
 40
27.0
 40
28.0
 40
28.0
 40
28.0
 40
29.0
 40
29.0
 40
29.0
 40
30.0
 40
30.0
 40
30.0
 40
31.0
 40
31.0
 40
31.0
 40
32.0
 40
32.0
 40
32.0
 40
33.0
 40
33.0
 40
33.0
 40
34.0
 40
34.0
 40
34.0
 40
35.0
 40
35.0
 40
35.0
 40
36.0
 40
36.0
 40
36.0
 40
37.0
 40
37.0
 40
37.0
 40
38.0
 40
38.0
 40
38.0
 40
39.0
 40
39.0
 40
39.0
 40
40.0
 40
40.0
 40
40.0
 40
41.0
 40
41.0
 40
41.0
 40
42.0
 40
42.0
 40
42.0
 40
43.0
 40
43.0
 40
43.0
 40
44.0
 40
44.0
 40
44.0
 40
45.0
 40
45.0
 40
45.0
 40
46.0
 40
46.0
 40
46.0
 40
47.0
 40
47.0
 40
47.0
 40
48.0
 40
48.0
 40
48.0
 40
49.0
 40
49.0
 40
49.0
 40
50.0
 40
50.0
 40
50.0
 40
51.0
 40
51.0
 40
51.0
 40
52.0
 40
52.0
 40
52.0
 40
53.0
 40
53.0
 40
53.0
 40
54.0
 40
54.0
 40
54.0
 40
55.0
 40
55.0
 40
55.0
 40
56.0
 40
56.0
 40
56.0
 40
57.0
 40
57.0
 40
57.0
 40
58.0
 40
58.0
 40
58.0
 40
59.0
 40
59.0
 40
59.0
 40
60.0
 40
60.0
 40
60.0
 40
61.0
 40
61.0
 40
61.0
 40
62.0
 40
62.0
 40
62.0
 40
63.0
 40
63.0
 40
63.0
 40
64.0
 40
64.0
 40
64.0
 40
65.0
 40
65.0
 40
65.0
 40
66.0
 40
66.0
 40
66.0
 40
67.0
 40
67.0
 40
67.0
 40
68.0
 40
68.0
 40
68.0
 40
69.0
 40
69.0
 40
69.0
 40
70.0
 40
70.0
 40
70.0
 40
71.0
 40
71.0
 40
71.0
 40
72.0
 40
72.0
 40
72.0
 40
73.0
 40
73.0
 40
73.0
 40
74.0
 40
74.0
 40
74.0
 40
75.0
 40
75.0
 40
75.0
 40
76.0
 40
76.0
 40
76.0
 40
77.0
 40
77.0
 40
77.0
 40
78.0
 40
78.0
 40
78.0
 40
79.0
 40
79.0
 40
79.0
 40
79.0
 10
112.6763264692267
 20
-139.5434203752704
 10
112.6763264692267
 20
-139.5434203752704
 10
112.4224229319638
 20
-139.5434203752704
 10
112.4224229319638
 20
-139.5434203752704
 10
112.4224229319638
 20
-139.5434203752704
 10
112.1454372549497
 20
-139.5434203752704
 10
112.1454372549497
 20
-139.5434203752704
 10
112.1454372549497
 20
-139.5434203752704
 10
112.2722167688069
 20
-139.585795049739
 10
112.2722167688069
 20
-139.585795049739
 10
112.2828965648112
 20
-139.5901014190955
 10
112.2956434181066
 20
-139.596302590969
 10
112.2956434181066
 20
-139.6090494442644
 10
112.2956434181066
 20
-139.6302367814987
 10
112.2636040300938
 20
-139.6366102081464
 10
112.2425889476338
 20
-139.6407443227287
 10
112.2319091516295
 20
-139.6639987172541
 10
112.2022813304563
 20
-139.7296277862481
 10
112.1833333052875
 20
-139.7740695180079
 10
112.1833333052875
 20
-139.7740695180079
 10
112.4541178104281
 20
-139.7740695180079
 10
112.4541178104281
 20
-139.7740695180079
 10
112.5450683312387
 20
-139.7740695180079
 10
112.7417832834465
 20
-139.7697631486513
 10
112.8837212174388
 20
-139.7613226647124
 10
112.8837212174388
 20
-139.7613226647124
 10
112.8837212174388
 20
-139.9390895917513
 10
112.8837212174388
 20
-139.9390895917513
 10
112.8010389257928
 20
-139.9347832223947
 10
112.7800238433327
 20
-139.9347832223947
 10
112.6001898590027
 20
-139.9306491078124
 10
112.5684949805384
 20
-140.0849893855516
 10
112.5240532487787
 20
-140.1654323651322
 10
112.479611517019
 20
-140.2351955487085
 10
112.6001898590027
 20
-140.2944511910548
 10
112.7059542903999
 20
-140.36214731734
 10
112.8096516645059
 20
-140.4446573542117
 10
112.8096516645059
 20
-140.4446573542117
 10
112.6911403798133
 20
-140.6117444852463
 10
112.6911403798133
 20
-140.6117444852463
 10
112.6677137305136
 20
-140.5927964600775
 10
112.6549668772182
 20
-140.5843559761386
 10
112.5430012739476
 20
-140.4996066272015
 10
112.4944254276055
 20
-140.4615383220895
 10
112.4351697852592
 20
-140.4257093290429
 10
112.3545545509044
 20
-140.3812675972831
 10
112.1430256881101
 20
-140.5674750082609
 10
111.9380425067377
 20
-140.5907294027863
 10
111.6479654668797
 20
-140.6203572239595
 10
111.6479654668797
 20
-140.6203572239595
 10
111.5446126023222
 20
-140.4405232396294
 10
111.5446126023222
 20
-140.4405232396294
 10
111.8619058965137
 20
-140.4362168702729
 10
112.0372612567129
 20
-140.4108954184563
 10
112.1895344771609
 20
-140.3008246177025
 10
112.0713677020169
 20
-140.2500094592951
 10
111.9824842384974
 20
-140.2226209501874
 10
111.9463107359023
 20
-140.209874096892
 10
111.9273627107334
 20
-140.237434860774
 10
111.9125488001468
 20
-140.2563828859428
 10
111.8849880362648
 20
-140.2903170764725
 10
111.8849880362648
 20
-140.2903170764725
 10
111.6882730840571
 20
-140.2078070396008
 10
111.6882730840571
 20
-140.2078070396008
 10
111.7709553757031
 20
-140.1273640600202
 10
111.8322780753405
 20
-140.0321071698531
 10
111.8891221508471
 20
-139.9306491078124
 10
111.6989528800614
 20
-139.9347832223947
 10
111.6775932880528
 20
-139.9347832223947
 10
111.5952555059553
 20
-139.9390895917513
 10
111.5952555059553
 20
-139.9390895917513
 10
111.5952555059553
 20
-139.7613226647124
 10
111.5952555059553
 20
-139.7613226647124
 10
111.7347818731079
 20
-139.7676960913601
 10
111.9442436786111
 20
-139.7720024607167
 10
111.969737385202
 20
-139.7720024607167
 10
111.9866183530797
 20
-139.738068270187
 10
112.0417398808437
 20
-139.6174899282032
 10
112.0606879060126
 20
-139.5434203752704
 10
112.0417398808437
 20
-139.5434203752704
 10
111.8639729538048
 20
-139.5497938019181
 10
111.6693250588882
 20
-139.5625406552135
 10
111.6693250588882
 20
-139.5625406552135
 10
111.6693250588882
 20
-139.6958658504927
 10
111.6693250588882
 20
-139.6958658504927
 10
111.6207492125462
 20
-139.7211873023093
 10
111.5614935701999
 20
-139.7528821807735
 10
111.4281683749207
 20
-139.8185112497676
 10
111.4281683749207
 20
-139.8185112497676
 10
111.4281683749207
 20
-139.9644110435679
 10
111.4281683749207
 20
-139.9644110435679
 10
111.4281683749207
 20
-139.9644110435679
 10
111.4281683749207
 20
-140.4320827556906
 10
111.4281683749207
 20
-140.4320827556906
 10
111.4281683749207
 20
-140.5588622695478
 10
111.3919948723256
 20
-140.618117911894
 10
111.1088080234381
 20
-140.6096774279552
 10
111.1088080234381
 20
-140.6096774279552
 10
111.005110649332
 20
-140.4024549345174
 10
111.005110649332
 20
-140.4024549345174
 10
111.0685004062606
 20
-140.4150295330386
 10
111.1170762526027
 20
-140.4193359023951
 10
111.1573838697801
 20
-140.4193359023951
 10
111.2335204800041
 20
-140.4193359023951
 10
111.2442002760084
 20
-140.3960815078697
 10
111.2442002760084
 20
-140.3304524388757
 10
111.2442002760084
 20
-140.3304524388757
 10
111.2442002760084
 20
-139.9010212866393
 10
111.2442002760084
 20
-139.9010212866393
 10
111.1467040737758
 20
-139.9411566490424
 10
111.1298231058981
 20
-139.9475300756902
 10
111.0833143168472
 20
-139.9666503556333
 10
111.0791802022649
 20
-139.9876654380933
 10
111.0747015781341
 20
-140.0172932592665
 10
111.0557535529652
 20
-140.0172932592665
 10
111.0474853238006
 20
-140.0172932592665
 10
111.0368055277963
 20
-140.0131591446842
 10
111.0302598463744
 20
-139.9899047501588
 10
111.0302598463744
 20
-139.9899047501588
 10
110.97754988545
 20
-139.7973239125333
 10
110.97754988545
 20
-139.7973239125333
 10
111.1236219340246
 20
-139.7508151234824
 10
111.1890787482444
 20
-139.727560728957
 10
111.2442002760084
 20
-139.7063733917227
 10
111.2442002760084
 20
-139.7063733917227
 10
111.2442002760084
 20
-139.293823207364
 10
111.2442002760084
 20
-139.293823207364
 10
111.2442002760084
 20
-139.293823207364
 10
111.1911458055355
 20
-139.293823207364
 10
111.1911458055355
 20
-139.293823207364
 10
111.1911458055355
 20
-139.293823207364
 10
111.1129421380204
 20
-139.293823207364
 10
111.1129421380204
 20
-139.293823207364
 10
111.0450737569609
 20
-139.293823207364
 10
111.0368055277963
 20
-139.293823207364
 10
111.0006320252012
 20
-139.3001966340117
 10
111.0006320252012
 20
-139.3001966340117
 10
111.0006320252012
 20
-139.1055487390951
 10
111.0006320252012
 20
-139.1055487390951
 10
111.0281927890832
 20
-139.1119221657428
 10
111.0368055277963
 20
-139.1119221657428
 10
111.1063964565984
 20
-139.1119221657428
 10
111.1063964565984
 20
-139.1119221657428
 10
111.2397216518775
 20
-139.1119221657428
 10
111.2397216518775
 20
-139.1119221657428
 10
111.2397216518775
 20
-139.0421589821665
 10
111.2397216518775
 20
-138.9596489452948
 10
111.2376545945864
 20
-138.9553425759382
 10
111.2293863654218
 20
-138.7755085916082
 10
111.2293863654218
 20
-138.7565605664393
 10
111.2269747985821
 20
-138.7100517773884
 10
111.2269747985821
 20
-138.7100517773884
 10
111.4429822855073
 20
-138.7184922613273
 10
111.4429822855073
 20
-138.7184922613273
 10
111.4536620815116
 20
-138.7184922613273
 10
111.4746771639716
 20
-138.7205593186185
 10
111.4746771639716
 20
-138.7374402864962
 10
111.4746771639716
 20
-138.7565605664393
 10
111.459863253385
 20
-138.7670681076693
 10
111.4343695467942
 20
-138.7861883876125
 10
111.4343695467942
 20
-138.8368312912456
 10
111.4281683749207
 20
-139.065413376692
 10
111.4302354322119
 20
-139.1119221657428
 10
111.5594265129087
 20
-139.1119221657428
 10
111.5718288566556
 20
-139.1119221657428
 10
111.6693250588882
 20
-139.103481681804
 10
111.6693250588882
 20
-139.103481681804
 10
111.6693250588882
 20
-139.2981295767206
 10
111.6693250588882
 20
-139.2981295767206
 10
111.6310844990019
 20
-139.2958902646552
 10
111.563560627491
 20
-139.2917561500729
 10
111.4281683749207
 20
-139.293823207364
 10
111.4281683749207
 20
-139.293823207364
 10
111.4281683749207
 20
-139.6323038387898
 10
111.4281683749207
 20
-139.6323038387898
 10
111.4832899026847
 20
-139.6090494442644
 10
111.5487467169045
 20
-139.5814886803824
 10
111.5973225632465
 20
-139.5582342858569
 10
111.5973225632465
 20
-139.5582342858569
 10
111.5973225632465
 20
-139.3806396135923
 10
111.5973225632465
 20
-139.3806396135923
 10
111.7116997333568
 20
-139.3932142121135
 10
111.8302110180494
 20
-139.3932142121135
 10
111.9463107359023
 20
-139.3932142121135
 10
111.9232285961511
 20
-139.2981295767206
 10
111.8956678322691
 20
-139.2156195398489
 10
111.8322780753405
 20
-139.0822943445697
 10
111.7878363435808
 20
-139.0843614018608
 10
111.7051540519348
 20
-139.0886677712174
 10
111.667258001597
 20
-139.0907348285085
 10
111.667258001597
 20
-139.0907348285085
 10
111.667258001597
 20
-138.9109008441785
 10
111.667258001597
 20
-138.9109008441785
 10
111.7919704581631
 20
-138.9193413281174
 10
111.9656032706197
 20
-138.9236476974739
 10
112.0479410527172
 20
-138.9236476974739
 10
112.0479410527172
 20
-138.9236476974739
 10
112.1306233443632
 20
-138.9236476974739
 10
112.1306233443632
 20
-138.9236476974739
 10
112.1306233443632
 20
-138.7606946810216
 10
112.1306233443632
 20
-138.7501871397916
 10
112.1282117775235
 20
-138.6952378668019
 10
112.1282117775235
 20
-138.6952378668019
 10
112.3524874936132
 20
-138.7205593186185
 10
112.3524874936132
 20
-138.7205593186185
 10
112.3569661177441
 20
-138.7205593186185
 10
112.3779812002041
 20
-138.7226263759096
 10
112.3779812002041
 20
-138.7395073437873
 10
112.3779812002041
 20
-138.7543212543739
 10
112.3673014041998
 20
-138.762933993087
 10
112.3397406403178
 20
-138.7777479036736
 10
112.3335394684444
 20
-138.8432047178933
 10
112.3314724111532
 20
-138.8643920551276
 10
112.3314724111532
 20
-138.9236476974739
 10
112.3314724111532
 20
-138.9236476974739
 10
112.4265570465461
 20
-138.9236476974739
 10
112.4265570465461
 20
-138.9236476974739
 10
112.5092393381921
 20
-138.9236476974739
 10
112.6825276411002
 20
-138.9193413281174
 10
112.8075846072148
 20
-138.9109008441785
 10
112.8075846072148
 20
-138.9109008441785
 10
112.8075846072148
 20
-139.0907348285085
 10
112.8075846072148
 20
-139.0907348285085
 10
112.7779567860416
 20
-139.0886677712174
 10
112.659445501349
 20
-139.0843614018608
 10
112.6191378841716
 20
-139.0822943445697
 10
112.604323973585
 20
-139.1331095029771
 10
112.5705620378296
 20
-139.245247361022
 10
112.5047607140613
 20
-139.3847737281746
 10
112.5471353885298
 20
-139.3847737281746
 10
112.8244655750925
 20
-139.3658257030057
 10
112.8857882747299
 20
-139.3635863909403
 10
112.8857882747299
 20
-139.3635863909403
 10
112.8857882747299
 20
-139.5477267446269
 10
112.8857882747299
 20
-139.5477267446269
 10
112.8561604535568
 20
-139.5477267446269
 10
112.839279485679
 20
-139.5434203752704
 10
112.6763264692267
 20
-139.5434203752704
 97
        0
 97
        1
330
FF
 75
     2
 76
     1
 98
        1
 10
0.0
 20
0.0
450
        0
451
        0
460
0.0
461
0.0
452
        0
462
0.0
453
        0
470

  0
SPLINE
  5
101
330
F9
100
AcDbEntity
  8
レイヤー 1
100
AcDbSpline
210
0.0
220
0.0
230
1.0
 70
    11
 71
     3
 72
    17
 73
    13
 74
     0
 42
0.0000000001
 43
0.0000000001
 40
0.0
 40
0.0
 40
0.0
 40
0.0
 40
1.0
 40
1.0
 40
1.0
 40
2.0
 40
2.0
 40
2.0
 40
3.0
 40
3.0
 40
3.0
 40
4.0
 40
4.0
 40
4.0
 40
4.0
 10
114.5328884262279
 20
-140.3431992921711
 30
0.0
 10
114.5328884262279
 20
-140.3431992921711
 30
0.0
 10
113.8262993422031
 20
-140.3431992921711
 30
0.0
 10
113.8262993422031
 20
-140.3431992921711
 30
0.0
 10
113.8262993422031
 20
-140.3431992921711
 30
0.0
 10
113.8262993422031
 20
-140.4574042075072
 30
0.0
 10
113.8262993422031
 20
-140.4574042075072
 30
0.0
 10
113.8262993422031
 20
-140.4574042075072
 30
0.0
 10
114.5328884262279
 20
-140.4574042075072
 30
0.0
 10
114.5328884262279
 20
-140.4574042075072
 30
0.0
 10
114.5328884262279
 20
-140.4574042075072
 30
0.0
 10
114.5328884262279
 20
-140.3431992921711
 30
0.0
 10
114.5328884262279
 20
-140.3431992921711
 30
0.0
  0
SPLINE
  5
102
330
F9
100
AcDbEntity
  8
レイヤー 1
100
AcDbSpline
210
0.0
220
0.0
230
1.0
 70
    11
 71
     3
 72
    17
 73
    13
 74
     0
 42
0.0000000001
 43
0.0000000001
 40
0.0
 40
0.0
 40
0.0
 40
0.0
 40
1.0
 40
1.0
 40
1.0
 40
2.0
 40
2.0
 40
2.0
 40
3.0
 40
3.0
 40
3.0
 40
4.0
 40
4.0
 40
4.0
 40
4.0
 10
114.5328884262279
 20
-140.0998032961382
 30
0.0
 10
114.5328884262279
 20
-140.0998032961382
 30
0.0
 10
113.8262993422031
 20
-140.0998032961382
 30
0.0
 10
113.8262993422031
 20
-140.0998032961382
 30
0.0
 10
113.8262993422031
 20
-140.0998032961382
 30
0.0
 10
113.8262993422031
 20
-140.2141804662485
 30
0.0
 10
113.8262993422031
 20
-140.2141804662485
 30
0.0
 10
113.8262993422031
 20
-140.2141804662485
 30
0.0
 10
114.5328884262279
 20
-140.2141804662485
 30
0.0
 10
114.5328884262279
 20
-140.2141804662485
 30
0.0
 10
114.5328884262279
 20
-140.2141804662485
 30
0.0
 10
114.5328884262279
 20
-140.0998032961382
 30
0.0
 10
114.5328884262279
 20
-140.0998032961382
 30
0.0
  0
SPLINE
  5
103
330
F9
100
AcDbEntity
  8
レイヤー 1
100
AcDbSpline
210
0.0
220
0.0
230
1.0
 70
    11
 71
     3
 72
    17
 73
    13
 74
     0
 42
0.0000000001
 43
0.0000000001
 40
0.0
 40
0.0
 40
0.0
 40
0.0
 40
1.0
 40
1.0
 40
1.0
 40
2.0
 40
2.0
 40
2.0
 40
3.0
 40
3.0
 40
3.0
 40
4.0
 40
4.0
 40
4.0
 40
4.0
 10
114.5328884262279
 20
-139.8670870961096
 30
0.0
 10
114.5328884262279
 20
-139.8670870961096
 30
0.0
 10
113.8262993422031
 20
-139.8670870961096
 30
0.0
 10
113.8262993422031
 20
-139.8670870961096
 30
0.0
 10
113.8262993422031
 20
-139.8670870961096
 30
0.0
 10
113.8262993422031
 20
-139.9750908395722
 30
0.0
 10
113.8262993422031
 20
-139.9750908395722
 30
0.0
 10
113.8262993422031
 20
-139.9750908395722
 30
0.0
 10
114.5328884262279
 20
-139.9750908395722
 30
0.0
 10
114.5328884262279
 20
-139.9750908395722
 30
0.0
 10
114.5328884262279
 20
-139.9750908395722
 30
0.0
 10
114.5328884262279
 20
-139.8670870961096
 30
0.0
 10
114.5328884262279
 20
-139.8670870961096
 30
0.0
  0
SPLINE
  5
104
330
F9
100
AcDbEntity
  8
レイヤー 1
100
AcDbSpline
210
0.0
220
0.0
230
1.0
 70
     9
 71
     3
 72
   203
 73
   199
 74
     0
 42
0.0000000001
 43
0.0000000001
 40
0.0
 40
0.0
 40
0.0
 40
0.0
 40
1.0
 40
1.0
 40
1.0
 40
2.0
 40
2.0
 40
2.0
 40
3.0
 40
3.0
 40
3.0
 40
4.0
 40
4.0
 40
4.0
 40
5.0
 40
5.0
 40
5.0
 40
6.0
 40
6.0
 40
6.0
 40
7.0
 40
7.0
 40
7.0
 40
8.0
 40
8.0
 40
8.0
 40
9.0
 40
9.0
 40
9.0
 40
10.0
 40
10.0
 40
10.0
 40
11.0
 40
11.0
 40
11.0
 40
12.0
 40
12.0
 40
12.0
 40
13.0
 40
13.0
 40
13.0
 40
14.0
 40
14.0
 40
14.0
 40
15.0
 40
15.0
 40
15.0
 40
16.0
 40
16.0
 40
16.0
 40
17.0
 40
17.0
 40
17.0
 40
18.0
 40
18.0
 40
18.0
 40
19.0
 40
19.0
 40
19.0
 40
20.0
 40
20.0
 40
20.0
 40
21.0
 40
21.0
 40
21.0
 40
22.0
 40
22.0
 40
22.0
 40
23.0
 40
23.0
 40
23.0
 40
24.0
 40
24.0
 40
24.0
 40
25.0
 40
25.0
 40
25.0
 40
26.0
 40
26.0
 40
26.0
 40
27.0
 40
27.0
 40
27.0
 40
28.0
 40
28.0
 40
28.0
 40
29.0
 40
29.0
 40
29.0
 40
30.0
 40
30.0
 40
30.0
 40
31.0
 40
31.0
 40
31.0
 40
32.0
 40
32.0
 40
32.0
 40
33.0
 40
33.0
 40
33.0
 40
34.0
 40
34.0
 40
34.0
 40
35.0
 40
35.0
 40
35.0
 40
36.0
 40
36.0
 40
36.0
 40
37.0
 40
37.0
 40
37.0
 40
38.0
 40
38.0
 40
38.0
 40
39.0
 40
39.0
 40
39.0
 40
40.0
 40
40.0
 40
40.0
 40
41.0
 40
41.0
 40
41.0
 40
42.0
 40
42.0
 40
42.0
 40
43.0
 40
43.0
 40
43.0
 40
44.0
 40
44.0
 40
44.0
 40
45.0
 40
45.0
 40
45.0
 40
46.0
 40
46.0
 40
46.0
 40
47.0
 40
47.0
 40
47.0
 40
48.0
 40
48.0
 40
48.0
 40
49.0
 40
49.0
 40
49.0
 40
50.0
 40
50.0
 40
50.0
 40
51.0
 40
51.0
 40
51.0
 40
52.0
 40
52.0
 40
52.0
 40
53.0
 40
53.0
 40
53.0
 40
54.0
 40
54.0
 40
54.0
 40
55.0
 40
55.0
 40
55.0
 40
56.0
 40
56.0
 40
56.0
 40
57.0
 40
57.0
 40
57.0
 40
58.0
 40
58.0
 40
58.0
 40
59.0
 40
59.0
 40
59.0
 40
60.0
 40
60.0
 40
60.0
 40
61.0
 40
61.0
 40
61.0
 40
62.0
 40
62.0
 40
62.0
 40
63.0
 40
63.0
 40
63.0
 40
64.0
 40
64.0
 40
64.0
 40
65.0
 40
65.0
 40
65.0
 40
66.0
 40
66.0
 40
66.0
 40
66.0
 10
114.3678683524844
 20
-139.6111165015555
 30
0.0
 10
114.3678683524844
 20
-139.6111165015555
 30
0.0
 10
113.8090738647769
 20
-139.6111165015555
 30
0.0
 10
113.8090738647769
 20
-139.6111165015555
 30
0.0
 10
113.7987385783211
 20
-139.6555582333153
 30
0.0
 10
113.790125839608
 20
-139.6872531117795
 30
0.0
 10
113.7773789863126
 20
-139.7254936716658
 30
0.0
 10
113.8028726929034
 20
-139.7254936716658
 30
0.0
 10
113.81768660349
 20
-139.727560728957
 30
0.0
 10
113.8238877753634
 20
-139.727560728957
 30
0.0
 10
113.8238877753634
 20
-139.727560728957
 30
0.0
 10
114.0123344984066
 20
-139.727560728957
 30
0.0
 10
114.0123344984066
 20
-139.727560728957
 30
0.0
 10
114.0123344984066
 20
-139.727560728957
 30
0.0
 10
114.3868163776533
 20
-139.727560728957
 30
0.0
 10
114.3868163776533
 20
-139.727560728957
 30
0.0
 10
114.4374592812865
 20
-139.727560728957
 30
0.0
 10
114.7209906397225
 20
-139.7148138756616
 30
0.0
 10
114.7526855181868
 20
-139.7148138756616
 30
0.0
 10
114.7506184608957
 20
-139.7423746395435
 30
0.0
 10
114.7485514036045
 20
-139.7613226647124
 30
0.0
 10
114.7485514036045
 20
-139.7909504858856
 30
0.0
 10
114.7464843463134
 20
-139.8226453643499
 30
0.0
 10
114.7464843463134
 20
-139.9580376169202
 30
0.0
 10
114.7464843463134
 20
-139.9855983808022
 30
0.0
 10
114.7464843463134
 20
-139.9855983808022
 30
0.0
 10
114.7464843463134
 20
-140.2310614341262
 30
0.0
 10
114.7464843463134
 20
-140.2310614341262
 30
0.0
 10
114.7464843463134
 20
-140.275503165886
 30
0.0
 10
114.7506184608957
 20
-140.4722181180937
 30
0.0
 10
114.754752575478
 20
-140.6244913385418
 30
0.0
 10
114.754752575478
 20
-140.6244913385418
 30
0.0
 10
114.5284098020971
 20
-140.6244913385418
 30
0.0
 10
114.5284098020971
 20
-140.6244913385418
 30
0.0
 10
114.5284098020971
 20
-140.6244913385418
 30
0.0
 10
114.5304768593882
 20
-140.5907294027863
 30
0.0
 10
114.5304768593882
 20
-140.5907294027863
 30
0.0
 10
114.5304768593882
 20
-140.5907294027863
 30
0.0
 10
113.8283663994943
 20
-140.5907294027863
 30
0.0
 10
113.8283663994943
 20
-140.5907294027863
 30
0.0
 10
113.8283663994943
 20
-140.5907294027863
 30
0.0
 10
113.8304334567854
 20
-140.6244913385418
 30
0.0
 10
113.8304334567854
 20
-140.6244913385418
 30
0.0
 10
113.8304334567854
 20
-140.6244913385418
 30
0.0
 10
113.6123589125691
 20
-140.6244913385418
 30
0.0
 10
113.6123589125691
 20
-140.6244913385418
 30
0.0
 10
113.6168375366999
 20
-140.569542065552
 30
0.0
 10
113.6168375366999
 20
-140.5567952122566
 30
0.0
 10
113.6230387085734
 20
-140.4425902969206
 30
0.0
 10
113.6251057658645
 20
-140.4150295330386
 30
0.0
 10
113.6271728231557
 20
-140.2818765925337
 30
0.0
 10
113.6271728231557
 20
-140.2627563125905
 30
0.0
 10
113.6271728231557
 20
-140.2627563125905
 30
0.0
 10
113.6271728231557
 20
-140.059667933735
 30
0.0
 10
113.6271728231557
 20
-140.059667933735
 30
0.0
 10
113.4876464560031
 20
-140.3092651016414
 30
0.0
 10
113.3184922676773
 20
-140.4405232396294
 30
0.0
 10
113.2127278362801
 20
-140.5059800538492
 30
0.0
 10
113.2127278362801
 20
-140.5059800538492
 30
0.0
 10
113.0390950238235
 20
-140.3664536866966
 30
0.0
 10
113.0390950238235
 20
-140.3664536866966
 30
0.0
 10
113.127978487343
 20
-140.3156385282891
 30
0.0
 10
113.2719834786264
 20
-140.2288221220608
 30
0.0
 10
113.4094427884879
 20
-140.0343464819185
 30
0.0
 10
113.5003933092985
 20
-139.907394713287
 30
0.0
 10
113.5658501235182
 20
-139.7635619767779
 30
0.0
 10
113.5999565688222
 20
-139.6111165015555
 30
0.0
 10
113.3712022286016
 20
-139.6133558136209
 30
0.0
 10
113.1913682442716
 20
-139.6197292402687
 30
0.0
 10
113.0962836088787
 20
-139.6217962975598
 30
0.0
 10
113.0962836088787
 20
-139.6217962975598
 30
0.0
 10
113.0962836088787
 20
-139.4440293705209
 30
0.0
 10
113.0962836088787
 20
-139.4440293705209
 30
0.0
 10
113.2929985610864
 20
-139.4504027971686
 30
0.0
 10
113.5765299195225
 20
-139.4547091665252
 30
0.0
 10
113.7267360826794
 20
-139.4547091665252
 30
0.0
 10
113.7267360826794
 20
-139.4547091665252
 30
0.0
 10
113.9403320027649
 20
-139.4547091665252
 30
0.0
 10
113.9403320027649
 20
-139.4547091665252
 30
0.0
 10
113.9403320027649
 20
-139.4547091665252
 30
0.0
 10
113.9403320027649
 20
-139.3467054230626
 30
0.0
 10
113.9403320027649
 20
-139.3467054230626
 30
0.0
 10
113.9403320027649
 20
-139.3467054230626
 30
0.0
 10
113.7942599541903
 20
-139.3467054230626
 30
0.0
 10
113.7942599541903
 20
-139.3467054230626
 30
0.0
 10
113.6251057658645
 20
-139.3467054230626
 30
0.0
 10
113.4559515775388
 20
-139.3510117924192
 30
0.0
 10
113.2888644465042
 20
-139.3573852190669
 30
0.0
 10
113.2888644465042
 20
-139.3573852190669
 30
0.0
 10
113.2888644465042
 20
-139.1859917186757
 30
0.0
 10
113.2888644465042
 20
-139.1859917186757
 30
0.0
 10
113.4432047242434
 20
-139.1964992599057
 30
0.0
 10
113.6292398804468
 20
-139.1964992599057
 30
0.0
 10
113.7942599541903
 20
-139.1964992599057
 30
0.0
 10
113.7942599541903
 20
-139.1964992599057
 30
0.0
 10
113.9403320027649
 20
-139.1964992599057
 30
0.0
 10
113.9403320027649
 20
-139.1964992599057
 30
0.0
 10
113.9403320027649
 20
-139.1964992599057
 30
0.0
 10
113.9403320027649
 20
-139.0781602299874
 30
0.0
 10
113.9403320027649
 20
-139.0781602299874
 30
0.0
 10
113.9403320027649
 20
-139.0781602299874
 30
0.0
 10
113.8090738647769
 20
-139.0781602299874
 30
0.0
 10
113.8090738647769
 20
-139.0781602299874
 30
0.0
 10
113.762565075726
 20
-139.0781602299874
 30
0.0
 10
113.5596489516448
 20
-139.0866007139262
 30
0.0
 10
113.5172742771762
 20
-139.0866007139262
 30
0.0
 10
113.314358153095
 20
-139.0907348285085
 30
0.0
 10
113.2378770333225
 20
-139.0928018857997
 30
0.0
 10
113.1596733658073
 20
-139.0950411978651
 30
0.0
 10
113.1596733658073
 20
-139.0950411978651
 30
0.0
 10
113.1596733658073
 20
-138.9109008441785
 30
0.0
 10
113.1596733658073
 20
-138.9109008441785
 30
0.0
 10
113.2740505359176
 20
-138.9193413281174
 30
0.0
 10
113.3184922676773
 20
-138.9193413281174
 30
0.0
 10
113.7012423760886
 20
-138.9279540668305
 30
0.0
 10
113.63785261916
 20
-138.8326971766633
 30
0.0
 10
113.610291855278
 20
-138.8051364127813
 30
0.0
 10
113.5744628622314
 20
-138.7691351649605
 30
0.0
 10
113.5744628622314
 20
-138.7691351649605
 30
0.0
 10
113.7498182224306
 20
-138.6866251280887
 30
0.0
 10
113.7498182224306
 20
-138.6866251280887
 30
0.0
 10
113.790125839608
 20
-138.7226263759096
 30
0.0
 10
113.8345675713677
 20
-138.7650010503782
 30
0.0
 10
113.9086371243006
 20
-138.8748995963576
 30
0.0
 10
113.9086371243006
 20
-138.8748995963576
 30
0.0
 10
113.7942599541903
 20
-138.9300211241216
 30
0.0
 10
113.7942599541903
 20
-138.9300211241216
 30
0.0
 10
113.7942599541903
 20
-138.9300211241216
 30
0.0
 10
113.8049397501946
 20
-138.9300211241216
 30
0.0
 10
113.8049397501946
 20
-138.9300211241216
 30
0.0
 10
113.8049397501946
 20
-138.9300211241216
 30
0.0
 10
114.327560735307
 20
-138.9300211241216
 30
0.0
 10
114.327560735307
 20
-138.9300211241216
 30
0.0
 10
114.327560735307
 20
-138.9300211241216
 30
0.0
 10
114.2324760999141
 20
-138.8855793923619
 30
0.0
 10
114.2324760999141
 20
-138.8855793923619
 30
0.0
 10
114.2596923542475
 20
-138.8475110872499
 30
0.0
 10
114.3168809393027
 20
-138.7670681076693
 30
0.0
 10
114.3316948498893
 20
-138.6929985547364
 30
0.0
 10
114.3316948498893
 20
-138.6929985547364
 30
0.0
 10
114.5452907699748
 20
-138.7565605664393
 30
0.0
 10
114.5452907699748
 20
-138.7565605664393
 30
0.0
 10
114.5539035086879
 20
-138.7586276237305
 30
0.0
 10
114.5749185911479
 20
-138.7691351649605
 30
0.0
 10
114.5749185911479
 20
-138.7903225021948
 30
0.0
 10
114.5749185911479
 20
-138.8283908073068
 30
0.0
 10
114.5094617769282
 20
-138.8283908073068
 30
0.0
 10
114.4905137517593
 20
-138.8283908073068
 30
0.0
 10
114.479833955755
 20
-138.8475110872499
 30
0.0
 10
114.4564073064553
 20
-138.8876464496531
 30
0.0
 10
114.4267794852822
 20
-138.9279540668305
 30
0.0
 10
114.8267550711197
 20
-138.9215806401828
 30
0.0
 10
114.8563828922928
 20
-138.9193413281174
 30
0.0
 10
114.9325195025169
 20
-138.9131401562439
 30
0.0
 10
114.9325195025169
 20
-138.9131401562439
 30
0.0
 10
114.9325195025169
 20
-139.0950411978651
 30
0.0
 10
114.9325195025169
 20
-139.0950411978651
 30
0.0
 10
114.913571477348
 20
-139.0950411978651
 30
0.0
 10
114.8880777707571
 20
-139.0928018857997
 30
0.0
 10
114.6682806787982
 20
-139.0843614018608
 30
0.0
 10
114.6172932656165
 20
-139.0822943445697
 30
0.0
 10
114.3974961736575
 20
-139.0781602299874
 30
0.0
 10
114.3530544418978
 20
-139.0781602299874
 30
0.0
 10
114.3530544418978
 20
-139.0781602299874
 30
0.0
 10
114.1370469549727
 20
-139.0781602299874
 30
0.0
 10
114.1370469549727
 20
-139.0781602299874
 30
0.0
 10
114.1370469549727
 20
-139.0781602299874
 30
0.0
 10
114.1370469549727
 20
-139.1964992599057
 30
0.0
 10
114.1370469549727
 20
-139.1964992599057
 30
0.0
 10
114.1370469549727
 20
-139.1964992599057
 30
0.0
 10
114.3106797674293
 20
-139.1964992599057
 30
0.0
 10
114.3106797674293
 20
-139.1964992599057
 30
0.0
 10
114.4736327838816
 20
-139.1964992599057
 30
0.0
 10
114.6638020546674
 20
-139.1964992599057
 30
0.0
 10
114.8205538992462
 20
-139.1859917186757
 30
0.0
 10
114.8205538992462
 20
-139.1859917186757
 30
0.0
 10
114.8205538992462
 20
-139.3573852190669
 30
0.0
 10
114.8205538992462
 20
-139.3573852190669
 30
0.0
 10
114.611092093743
 20
-139.348944735128
 30
0.0
 10
114.4143771415353
 20
-139.3467054230626
 30
0.0
 10
114.3106797674293
 20
-139.3467054230626
 30
0.0
 10
114.3106797674293
 20
-139.3467054230626
 30
0.0
 10
114.1370469549727
 20
-139.3467054230626
 30
0.0
 10
114.1370469549727
 20
-139.3467054230626
 30
0.0
 10
114.1370469549727
 20
-139.3467054230626
 30
0.0
 10
114.1370469549727
 20
-139.4547091665252
 30
0.0
 10
114.1370469549727
 20
-139.4547091665252
 30
0.0
 10
114.1370469549727
 20
-139.4547091665252
 30
0.0
 10
114.3678683524844
 20
-139.4547091665252
 30
0.0
 10
114.3678683524844
 20
-139.4547091665252
 30
0.0
 10
114.500849038215
 20
-139.4547091665252
 30
0.0
 10
114.7888590207819
 20
-139.4504027971686
 30
0.0
 10
114.9979763167366
 20
-139.4440293705209
 30
0.0
 10
114.9979763167366
 20
-139.4440293705209
 30
0.0
 10
114.9979763167366
 20
-139.6217962975598
 30
0.0
 10
114.9979763167366
 20
-139.6217962975598
 30
0.0
 10
114.8057399886597
 20
-139.6154228709121
 30
0.0
 10
114.4925808090504
 20
-139.6111165015555
 30
0.0
 10
114.3678683524844
 20
-139.6111165015555
 30
0.0
  0
HATCH
  5
105
330
F9
100
AcDbEntity
  8
レイヤー 1
 62
   250
420
  2299925
440
 33554687
100
AcDbHatch
 10
0.0
 20
0.0
 30
0.0
210
0.0
220
0.0
230
1.0
  2
SOLID
 70
     1
 71
     1
 91
        4
 92
        1
 93
        1
 72
     4
 94
        3
 73
     0
 74
     0
 95
       17
 96
       13
 40
0.0
 40
0.0
 40
0.0
 40
0.0
 40
1.0
 40
1.0
 40
1.0
 40
2.0
 40
2.0
 40
2.0
 40
3.0
 40
3.0
 40
3.0
 40
4.0
 40
4.0
 40
4.0
 40
4.0
 10
114.5328884262279
 20
-140.3431992921711
 10
114.5328884262279
 20
-140.3431992921711
 10
113.8262993422031
 20
-140.3431992921711
 10
113.8262993422031
 20
-140.3431992921711
 10
113.8262993422031
 20
-140.3431992921711
 10
113.8262993422031
 20
-140.4574042075072
 10
113.8262993422031
 20
-140.4574042075072
 10
113.8262993422031
 20
-140.4574042075072
 10
114.5328884262279
 20
-140.4574042075072
 10
114.5328884262279
 20
-140.4574042075072
 10
114.5328884262279
 20
-140.4574042075072
 10
114.5328884262279
 20
-140.3431992921711
 10
114.5328884262279
 20
-140.3431992921711
 97
        0
 97
        1
330
101
 92
        1
 93
        1
 72
     4
 94
        3
 73
     0
 74
     0
 95
       17
 96
       13
 40
0.0
 40
0.0
 40
0.0
 40
0.0
 40
1.0
 40
1.0
 40
1.0
 40
2.0
 40
2.0
 40
2.0
 40
3.0
 40
3.0
 40
3.0
 40
4.0
 40
4.0
 40
4.0
 40
4.0
 10
114.5328884262279
 20
-140.0998032961382
 10
114.5328884262279
 20
-140.0998032961382
 10
113.8262993422031
 20
-140.0998032961382
 10
113.8262993422031
 20
-140.0998032961382
 10
113.8262993422031
 20
-140.0998032961382
 10
113.8262993422031
 20
-140.2141804662485
 10
113.8262993422031
 20
-140.2141804662485
 10
113.8262993422031
 20
-140.2141804662485
 10
114.5328884262279
 20
-140.2141804662485
 10
114.5328884262279
 20
-140.2141804662485
 10
114.5328884262279
 20
-140.2141804662485
 10
114.5328884262279
 20
-140.0998032961382
 10
114.5328884262279
 20
-140.0998032961382
 97
        0
 97
        1
330
102
 92
        1
 93
        1
 72
     4
 94
        3
 73
     0
 74
     0
 95
       17
 96
       13
 40
0.0
 40
0.0
 40
0.0
 40
0.0
 40
1.0
 40
1.0
 40
1.0
 40
2.0
 40
2.0
 40
2.0
 40
3.0
 40
3.0
 40
3.0
 40
4.0
 40
4.0
 40
4.0
 40
4.0
 10
114.5328884262279
 20
-139.8670870961096
 10
114.5328884262279
 20
-139.8670870961096
 10
113.8262993422031
 20
-139.8670870961096
 10
113.8262993422031
 20
-139.8670870961096
 10
113.8262993422031
 20
-139.8670870961096
 10
113.8262993422031
 20
-139.9750908395722
 10
113.8262993422031
 20
-139.9750908395722
 10
113.8262993422031
 20
-139.9750908395722
 10
114.5328884262279
 20
-139.9750908395722
 10
114.5328884262279
 20
-139.9750908395722
 10
114.5328884262279
 20
-139.9750908395722
 10
114.5328884262279
 20
-139.8670870961096
 10
114.5328884262279
 20
-139.8670870961096
 97
        0
 97
        1
330
103
 92
        1
 93
        1
 72
     4
 94
        3
 73
     0
 74
     0
 95
      203
 96
      199
 40
0.0
 40
0.0
 40
0.0
 40
0.0
 40
1.0
 40
1.0
 40
1.0
 40
2.0
 40
2.0
 40
2.0
 40
3.0
 40
3.0
 40
3.0
 40
4.0
 40
4.0
 40
4.0
 40
5.0
 40
5.0
 40
5.0
 40
6.0
 40
6.0
 40
6.0
 40
7.0
 40
7.0
 40
7.0
 40
8.0
 40
8.0
 40
8.0
 40
9.0
 40
9.0
 40
9.0
 40
10.0
 40
10.0
 40
10.0
 40
11.0
 40
11.0
 40
11.0
 40
12.0
 40
12.0
 40
12.0
 40
13.0
 40
13.0
 40
13.0
 40
14.0
 40
14.0
 40
14.0
 40
15.0
 40
15.0
 40
15.0
 40
16.0
 40
16.0
 40
16.0
 40
17.0
 40
17.0
 40
17.0
 40
18.0
 40
18.0
 40
18.0
 40
19.0
 40
19.0
 40
19.0
 40
20.0
 40
20.0
 40
20.0
 40
21.0
 40
21.0
 40
21.0
 40
22.0
 40
22.0
 40
22.0
 40
23.0
 40
23.0
 40
23.0
 40
24.0
 40
24.0
 40
24.0
 40
25.0
 40
25.0
 40
25.0
 40
26.0
 40
26.0
 40
26.0
 40
27.0
 40
27.0
 40
27.0
 40
28.0
 40
28.0
 40
28.0
 40
29.0
 40
29.0
 40
29.0
 40
30.0
 40
30.0
 40
30.0
 40
31.0
 40
31.0
 40
31.0
 40
32.0
 40
32.0
 40
32.0
 40
33.0
 40
33.0
 40
33.0
 40
34.0
 40
34.0
 40
34.0
 40
35.0
 40
35.0
 40
35.0
 40
36.0
 40
36.0
 40
36.0
 40
37.0
 40
37.0
 40
37.0
 40
38.0
 40
38.0
 40
38.0
 40
39.0
 40
39.0
 40
39.0
 40
40.0
 40
40.0
 40
40.0
 40
41.0
 40
41.0
 40
41.0
 40
42.0
 40
42.0
 40
42.0
 40
43.0
 40
43.0
 40
43.0
 40
44.0
 40
44.0
 40
44.0
 40
45.0
 40
45.0
 40
45.0
 40
46.0
 40
46.0
 40
46.0
 40
47.0
 40
47.0
 40
47.0
 40
48.0
 40
48.0
 40
48.0
 40
49.0
 40
49.0
 40
49.0
 40
50.0
 40
50.0
 40
50.0
 40
51.0
 40
51.0
 40
51.0
 40
52.0
 40
52.0
 40
52.0
 40
53.0
 40
53.0
 40
53.0
 40
54.0
 40
54.0
 40
54.0
 40
55.0
 40
55.0
 40
55.0
 40
56.0
 40
56.0
 40
56.0
 40
57.0
 40
57.0
 40
57.0
 40
58.0
 40
58.0
 40
58.0
 40
59.0
 40
59.0
 40
59.0
 40
60.0
 40
60.0
 40
60.0
 40
61.0
 40
61.0
 40
61.0
 40
62.0
 40
62.0
 40
62.0
 40
63.0
 40
63.0
 40
63.0
 40
64.0
 40
64.0
 40
64.0
 40
65.0
 40
65.0
 40
65.0
 40
66.0
 40
66.0
 40
66.0
 40
66.0
 10
114.3678683524844
 20
-139.6111165015555
 10
114.3678683524844
 20
-139.6111165015555
 10
113.8090738647769
 20
-139.6111165015555
 10
113.8090738647769
 20
-139.6111165015555
 10
113.7987385783211
 20
-139.6555582333153
 10
113.790125839608
 20
-139.6872531117795
 10
113.7773789863126
 20
-139.7254936716658
 10
113.8028726929034
 20
-139.7254936716658
 10
113.81768660349
 20
-139.727560728957
 10
113.8238877753634
 20
-139.727560728957
 10
113.8238877753634
 20
-139.727560728957
 10
114.0123344984066
 20
-139.727560728957
 10
114.0123344984066
 20
-139.727560728957
 10
114.0123344984066
 20
-139.727560728957
 10
114.3868163776533
 20
-139.727560728957
 10
114.3868163776533
 20
-139.727560728957
 10
114.4374592812865
 20
-139.727560728957
 10
114.7209906397225
 20
-139.7148138756616
 10
114.7526855181868
 20
-139.7148138756616
 10
114.7506184608957
 20
-139.7423746395435
 10
114.7485514036045
 20
-139.7613226647124
 10
114.7485514036045
 20
-139.7909504858856
 10
114.7464843463134
 20
-139.8226453643499
 10
114.7464843463134
 20
-139.9580376169202
 10
114.7464843463134
 20
-139.9855983808022
 10
114.7464843463134
 20
-139.9855983808022
 10
114.7464843463134
 20
-140.2310614341262
 10
114.7464843463134
 20
-140.2310614341262
 10
114.7464843463134
 20
-140.275503165886
 10
114.7506184608957
 20
-140.4722181180937
 10
114.754752575478
 20
-140.6244913385418
 10
114.754752575478
 20
-140.6244913385418
 10
114.5284098020971
 20
-140.6244913385418
 10
114.5284098020971
 20
-140.6244913385418
 10
114.5284098020971
 20
-140.6244913385418
 10
114.5304768593882
 20
-140.5907294027863
 10
114.5304768593882
 20
-140.5907294027863
 10
114.5304768593882
 20
-140.5907294027863
 10
113.8283663994943
 20
-140.5907294027863
 10
113.8283663994943
 20
-140.5907294027863
 10
113.8283663994943
 20
-140.5907294027863
 10
113.8304334567854
 20
-140.6244913385418
 10
113.8304334567854
 20
-140.6244913385418
 10
113.8304334567854
 20
-140.6244913385418
 10
113.6123589125691
 20
-140.6244913385418
 10
113.6123589125691
 20
-140.6244913385418
 10
113.6168375366999
 20
-140.569542065552
 10
113.6168375366999
 20
-140.5567952122566
 10
113.6230387085734
 20
-140.4425902969206
 10
113.6251057658645
 20
-140.4150295330386
 10
113.6271728231557
 20
-140.2818765925337
 10
113.6271728231557
 20
-140.2627563125905
 10
113.6271728231557
 20
-140.2627563125905
 10
113.6271728231557
 20
-140.059667933735
 10
113.6271728231557
 20
-140.059667933735
 10
113.4876464560031
 20
-140.3092651016414
 10
113.3184922676773
 20
-140.4405232396294
 10
113.2127278362801
 20
-140.5059800538492
 10
113.2127278362801
 20
-140.5059800538492
 10
113.0390950238235
 20
-140.3664536866966
 10
113.0390950238235
 20
-140.3664536866966
 10
113.127978487343
 20
-140.3156385282891
 10
113.2719834786264
 20
-140.2288221220608
 10
113.4094427884879
 20
-140.0343464819185
 10
113.5003933092985
 20
-139.907394713287
 10
113.5658501235182
 20
-139.7635619767779
 10
113.5999565688222
 20
-139.6111165015555
 10
113.3712022286016
 20
-139.6133558136209
 10
113.1913682442716
 20
-139.6197292402687
 10
113.0962836088787
 20
-139.6217962975598
 10
113.0962836088787
 20
-139.6217962975598
 10
113.0962836088787
 20
-139.4440293705209
 10
113.0962836088787
 20
-139.4440293705209
 10
113.2929985610864
 20
-139.4504027971686
 10
113.5765299195225
 20
-139.4547091665252
 10
113.7267360826794
 20
-139.4547091665252
 10
113.7267360826794
 20
-139.4547091665252
 10
113.9403320027649
 20
-139.4547091665252
 10
113.9403320027649
 20
-139.4547091665252
 10
113.9403320027649
 20
-139.4547091665252
 10
113.9403320027649
 20
-139.3467054230626
 10
113.9403320027649
 20
-139.3467054230626
 10
113.9403320027649
 20
-139.3467054230626
 10
113.7942599541903
 20
-139.3467054230626
 10
113.7942599541903
 20
-139.3467054230626
 10
113.6251057658645
 20
-139.3467054230626
 10
113.4559515775388
 20
-139.3510117924192
 10
113.2888644465042
 20
-139.3573852190669
 10
113.2888644465042
 20
-139.3573852190669
 10
113.2888644465042
 20
-139.1859917186757
 10
113.2888644465042
 20
-139.1859917186757
 10
113.4432047242434
 20
-139.1964992599057
 10
113.6292398804468
 20
-139.1964992599057
 10
113.7942599541903
 20
-139.1964992599057
 10
113.7942599541903
 20
-139.1964992599057
 10
113.9403320027649
 20
-139.1964992599057
 10
113.9403320027649
 20
-139.1964992599057
 10
113.9403320027649
 20
-139.1964992599057
 10
113.9403320027649
 20
-139.0781602299874
 10
113.9403320027649
 20
-139.0781602299874
 10
113.9403320027649
 20
-139.0781602299874
 10
113.8090738647769
 20
-139.0781602299874
 10
113.8090738647769
 20
-139.0781602299874
 10
113.762565075726
 20
-139.0781602299874
 10
113.5596489516448
 20
-139.0866007139262
 10
113.5172742771762
 20
-139.0866007139262
 10
113.314358153095
 20
-139.0907348285085
 10
113.2378770333225
 20
-139.0928018857997
 10
113.1596733658073
 20
-139.0950411978651
 10
113.1596733658073
 20
-139.0950411978651
 10
113.1596733658073
 20
-138.9109008441785
 10
113.1596733658073
 20
-138.9109008441785
 10
113.2740505359176
 20
-138.9193413281174
 10
113.3184922676773
 20
-138.9193413281174
 10
113.7012423760886
 20
-138.9279540668305
 10
113.63785261916
 20
-138.8326971766633
 10
113.610291855278
 20
-138.8051364127813
 10
113.5744628622314
 20
-138.7691351649605
 10
113.5744628622314
 20
-138.7691351649605
 10
113.7498182224306
 20
-138.6866251280887
 10
113.7498182224306
 20
-138.6866251280887
 10
113.790125839608
 20
-138.7226263759096
 10
113.8345675713677
 20
-138.7650010503782
 10
113.9086371243006
 20
-138.8748995963576
 10
113.9086371243006
 20
-138.8748995963576
 10
113.7942599541903
 20
-138.9300211241216
 10
113.7942599541903
 20
-138.9300211241216
 10
113.7942599541903
 20
-138.9300211241216
 10
113.8049397501946
 20
-138.9300211241216
 10
113.8049397501946
 20
-138.9300211241216
 10
113.8049397501946
 20
-138.9300211241216
 10
114.327560735307
 20
-138.9300211241216
 10
114.327560735307
 20
-138.9300211241216
 10
114.327560735307
 20
-138.9300211241216
 10
114.2324760999141
 20
-138.8855793923619
 10
114.2324760999141
 20
-138.8855793923619
 10
114.2596923542475
 20
-138.8475110872499
 10
114.3168809393027
 20
-138.7670681076693
 10
114.3316948498893
 20
-138.6929985547364
 10
114.3316948498893
 20
-138.6929985547364
 10
114.5452907699748
 20
-138.7565605664393
 10
114.5452907699748
 20
-138.7565605664393
 10
114.5539035086879
 20
-138.7586276237305
 10
114.5749185911479
 20
-138.7691351649605
 10
114.5749185911479
 20
-138.7903225021948
 10
114.5749185911479
 20
-138.8283908073068
 10
114.5094617769282
 20
-138.8283908073068
 10
114.4905137517593
 20
-138.8283908073068
 10
114.479833955755
 20
-138.8475110872499
 10
114.4564073064553
 20
-138.8876464496531
 10
114.4267794852822
 20
-138.9279540668305
 10
114.8267550711197
 20
-138.9215806401828
 10
114.8563828922928
 20
-138.9193413281174
 10
114.9325195025169
 20
-138.9131401562439
 10
114.9325195025169
 20
-138.9131401562439
 10
114.9325195025169
 20
-139.0950411978651
 10
114.9325195025169
 20
-139.0950411978651
 10
114.913571477348
 20
-139.0950411978651
 10
114.8880777707571
 20
-139.0928018857997
 10
114.6682806787982
 20
-139.0843614018608
 10
114.6172932656165
 20
-139.0822943445697
 10
114.3974961736575
 20
-139.0781602299874
 10
114.3530544418978
 20
-139.0781602299874
 10
114.3530544418978
 20
-139.0781602299874
 10
114.1370469549727
 20
-139.0781602299874
 10
114.1370469549727
 20
-139.0781602299874
 10
114.1370469549727
 20
-139.0781602299874
 10
114.1370469549727
 20
-139.1964992599057
 10
114.1370469549727
 20
-139.1964992599057
 10
114.1370469549727
 20
-139.1964992599057
 10
114.3106797674293
 20
-139.1964992599057
 10
114.3106797674293
 20
-139.1964992599057
 10
114.4736327838816
 20
-139.1964992599057
 10
114.6638020546674
 20
-139.1964992599057
 10
114.8205538992462
 20
-139.1859917186757
 10
114.8205538992462
 20
-139.1859917186757
 10
114.8205538992462
 20
-139.3573852190669
 10
114.8205538992462
 20
-139.3573852190669
 10
114.611092093743
 20
-139.348944735128
 10
114.4143771415353
 20
-139.3467054230626
 10
114.3106797674293
 20
-139.3467054230626
 10
114.3106797674293
 20
-139.3467054230626
 10
114.1370469549727
 20
-139.3467054230626
 10
114.1370469549727
 20
-139.3467054230626
 10
114.1370469549727
 20
-139.3467054230626
 10
114.1370469549727
 20
-139.4547091665252
 10
114.1370469549727
 20
-139.4547091665252
 10
114.1370469549727
 20
-139.4547091665252
 10
114.3678683524844
 20
-139.4547091665252
 10
114.3678683524844
 20
-139.4547091665252
 10
114.500849038215
 20
-139.4547091665252
 10
114.7888590207819
 20
-139.4504027971686
 10
114.9979763167366
 20
-139.4440293705209
 10
114.9979763167366
 20
-139.4440293705209
 10
114.9979763167366
 20
-139.6217962975598
 10
114.9979763167366
 20
-139.6217962975598
 10
114.8057399886597
 20
-139.6154228709121
 10
114.4925808090504
 20
-139.6111165015555
 10
114.3678683524844
 20
-139.6111165015555
 97
        0
 97
        1
330
104
 75
     2
 76
     1
 98
        1
 10
0.0
 20
0.0
450
        0
451
        0
460
0.0
461
0.0
452
        0
462
0.0
453
        0
470

  0
SPLINE
  5
106
330
F9
100
AcDbEntity
  8
レイヤー 1
100
AcDbSpline
210
0.0
220
0.0
230
1.0
 70
     9
 71
     3
 72
    29
 73
    25
 74
     0
 42
0.0000000001
 43
0.0000000001
 40
0.0
 40
0.0
 40
0.0
 40
0.0
 40
1.0
 40
1.0
 40
1.0
 40
2.0
 40
2.0
 40
2.0
 40
3.0
 40
3.0
 40
3.0
 40
4.0
 40
4.0
 40
4.0
 40
5.0
 40
5.0
 40
5.0
 40
6.0
 40
6.0
 40
6.0
 40
7.0
 40
7.0
 40
7.0
 40
8.0
 40
8.0
 40
8.0
 40
8.0
 10
116.2430338251059
 20
-139.0590399500442
 30
0.0
 10
116.2430338251059
 20
-139.0590399500442
 30
0.0
 10
115.8895670283192
 20
-139.0590399500442
 30
0.0
 10
115.8895670283192
 20
-139.0590399500442
 30
0.0
 10
115.7776014250486
 20
-139.0590399500442
 30
0.0
 10
115.638075057896
 20
-139.065413376692
 30
0.0
 10
115.5302435692077
 20
-139.0781602299874
 30
0.0
 10
115.5302435692077
 20
-139.0781602299874
 30
0.0
 10
115.5302435692077
 20
-138.8432047178933
 30
0.0
 10
115.5302435692077
 20
-138.8432047178933
 30
0.0
 10
115.6484103443518
 20
-138.8580186284799
 30
0.0
 10
115.8327229528126
 20
-138.8623249978365
 30
0.0
 10
115.8895670283192
 20
-138.8623249978365
 30
0.0
 10
115.8895670283192
 20
-138.8623249978365
 30
0.0
 10
116.2430338251059
 20
-138.8623249978365
 30
0.0
 10
116.2430338251059
 20
-138.8623249978365
 30
0.0
 10
116.2619818502748
 20
-138.8623249978365
 30
0.0
 10
116.4652424839045
 20
-138.8623249978365
 30
0.0
 10
116.6068359083483
 20
-138.8432047178933
 30
0.0
 10
116.6068359083483
 20
-138.8432047178933
 30
0.0
 10
116.6068359083483
 20
-139.0781602299874
 30
0.0
 10
116.6068359083483
 20
-139.0781602299874
 30
0.0
 10
116.4504285733179
 20
-139.0590399500442
 30
0.0
 10
116.2599147929836
 20
-139.0590399500442
 30
0.0
 10
116.2430338251059
 20
-139.0590399500442
 30
0.0
  0
SPLINE
  5
107
330
F9
100
AcDbEntity
  8
レイヤー 1
100
AcDbSpline
210
0.0
220
0.0
230
1.0
 70
     9
 71
     3
 72
    47
 73
    43
 74
     0
 42
0.0000000001
 43
0.0000000001
 40
0.0
 40
0.0
 40
0.0
 40
0.0
 40
1.0
 40
1.0
 40
1.0
 40
2.0
 40
2.0
 40
2.0
 40
3.0
 40
3.0
 40
3.0
 40
4.0
 40
4.0
 40
4.0
 40
5.0
 40
5.0
 40
5.0
 40
6.0
 40
6.0
 40
6.0
 40
7.0
 40
7.0
 40
7.0
 40
8.0
 40
8.0
 40
8.0
 40
9.0
 40
9.0
 40
9.0
 40
10.0
 40
10.0
 40
10.0
 40
11.0
 40
11.0
 40
11.0
 40
12.0
 40
12.0
 40
12.0
 40
13.0
 40
13.0
 40
13.0
 40
14.0
 40
14.0
 40
14.0
 40
14.0
 10
116.3446641419208
 20
-139.5878621070301
 30
0.0
 10
116.3446641419208
 20
-139.5878621070301
 30
0.0
 10
116.2430338251059
 20
-139.5878621070301
 30
0.0
 10
116.2430338251059
 20
-139.5878621070301
 30
0.0
 10
116.2430338251059
 20
-139.6746785132584
 30
0.0
 10
116.2220187426459
 20
-140.0639743030916
 30
0.0
 10
116.0253037904381
 20
-140.2839436498248
 30
0.0
 10
115.8726860604415
 20
-140.4530978381506
 30
0.0
 10
115.665635821778
 20
-140.5230332765012
 30
0.0
 10
115.5808864728409
 20
-140.5504217856089
 30
0.0
 10
115.5808864728409
 20
-140.5504217856089
 30
0.0
 10
115.3862385779242
 20
-140.3833346545743
 30
0.0
 10
115.3862385779242
 20
-140.3833346545743
 30
0.0
 10
115.4837347801568
 20
-140.3705878012789
 30
0.0
 10
115.659090140356
 20
-140.3473334067534
 30
0.0
 10
115.8475368633992
 20
-140.1590589384845
 30
0.0
 10
115.9216064163321
 20
-140.0872286976171
 30
0.0
 10
116.0253037904381
 20
-139.9475300756902
 30
0.0
 10
116.0253037904381
 20
-139.5878621070301
 30
0.0
 10
116.0253037904381
 20
-139.5878621070301
 30
0.0
 10
115.7944823929264
 20
-139.5878621070301
 30
0.0
 10
115.7944823929264
 20
-139.5878621070301
 30
0.0
 10
115.6084472367229
 20
-139.5878621070301
 30
0.0
 10
115.4220675709709
 20
-139.5921684763867
 30
0.0
 10
115.2360324147674
 20
-139.6069823869732
 30
0.0
 10
115.2360324147674
 20
-139.6069823869732
 30
0.0
 10
115.2360324147674
 20
-139.38701304024
 30
0.0
 10
115.2360324147674
 20
-139.38701304024
 30
0.0
 10
115.4244791378105
 20
-139.4018269508266
 30
0.0
 10
115.7100775535377
 20
-139.4059610654089
 30
0.0
 10
115.7944823929264
 20
-139.4059610654089
 30
0.0
 10
115.7944823929264
 20
-139.4059610654089
 30
0.0
 10
116.3446641419208
 20
-139.4059610654089
 30
0.0
 10
116.3446641419208
 20
-139.4059610654089
 30
0.0
 10
116.3636121670896
 20
-139.4059610654089
 30
0.0
 10
116.6809054612812
 20
-139.4059610654089
 30
0.0
 10
116.9093152919532
 20
-139.38701304024
 30
0.0
 10
116.9093152919532
 20
-139.38701304024
 30
0.0
 10
116.9093152919532
 20
-139.6069823869732
 30
0.0
 10
116.9093152919532
 20
-139.6069823869732
 30
0.0
 10
116.7212130784586
 20
-139.5921684763867
 30
0.0
 10
116.5327663554154
 20
-139.5878621070301
 30
0.0
 10
116.3446641419208
 20
-139.5878621070301
 30
0.0
  0
HATCH
  5
108
330
F9
100
AcDbEntity
  8
レイヤー 1
 62
   250
420
  2299925
440
 33554687
100
AcDbHatch
 10
0.0
 20
0.0
 30
0.0
210
0.0
220
0.0
230
1.0
  2
SOLID
 70
     1
 71
     1
 91
        2
 92
        1
 93
        1
 72
     4
 94
        3
 73
     0
 74
     0
 95
       29
 96
       25
 40
0.0
 40
0.0
 40
0.0
 40
0.0
 40
1.0
 40
1.0
 40
1.0
 40
2.0
 40
2.0
 40
2.0
 40
3.0
 40
3.0
 40
3.0
 40
4.0
 40
4.0
 40
4.0
 40
5.0
 40
5.0
 40
5.0
 40
6.0
 40
6.0
 40
6.0
 40
7.0
 40
7.0
 40
7.0
 40
8.0
 40
8.0
 40
8.0
 40
8.0
 10
116.2430338251059
 20
-139.0590399500442
 10
116.2430338251059
 20
-139.0590399500442
 10
115.8895670283192
 20
-139.0590399500442
 10
115.8895670283192
 20
-139.0590399500442
 10
115.7776014250486
 20
-139.0590399500442
 10
115.638075057896
 20
-139.065413376692
 10
115.5302435692077
 20
-139.0781602299874
 10
115.5302435692077
 20
-139.0781602299874
 10
115.5302435692077
 20
-138.8432047178933
 10
115.5302435692077
 20
-138.8432047178933
 10
115.6484103443518
 20
-138.8580186284799
 10
115.8327229528126
 20
-138.8623249978365
 10
115.8895670283192
 20
-138.8623249978365
 10
115.8895670283192
 20
-138.8623249978365
 10
116.2430338251059
 20
-138.8623249978365
 10
116.2430338251059
 20
-138.8623249978365
 10
116.2619818502748
 20
-138.8623249978365
 10
116.4652424839045
 20
-138.8623249978365
 10
116.6068359083483
 20
-138.8432047178933
 10
116.6068359083483
 20
-138.8432047178933
 10
116.6068359083483
 20
-139.0781602299874
 10
116.6068359083483
 20
-139.0781602299874
 10
116.4504285733179
 20
-139.0590399500442
 10
116.2599147929836
 20
-139.0590399500442
 10
116.2430338251059
 20
-139.0590399500442
 97
        0
 97
        1
330
106
 92
        1
 93
        1
 72
     4
 94
        3
 73
     0
 74
     0
 95
       47
 96
       43
 40
0.0
 40
0.0
 40
0.0
 40
0.0
 40
1.0
 40
1.0
 40
1.0
 40
2.0
 40
2.0
 40
2.0
 40
3.0
 40
3.0
 40
3.0
 40
4.0
 40
4.0
 40
4.0
 40
5.0
 40
5.0
 40
5.0
 40
6.0
 40
6.0
 40
6.0
 40
7.0
 40
7.0
 40
7.0
 40
8.0
 40
8.0
 40
8.0
 40
9.0
 40
9.0
 40
9.0
 40
10.0
 40
10.0
 40
10.0
 40
11.0
 40
11.0
 40
11.0
 40
12.0
 40
12.0
 40
12.0
 40
13.0
 40
13.0
 40
13.0
 40
14.0
 40
14.0
 40
14.0
 40
14.0
 10
116.3446641419208
 20
-139.5878621070301
 10
116.3446641419208
 20
-139.5878621070301
 10
116.2430338251059
 20
-139.5878621070301
 10
116.2430338251059
 20
-139.5878621070301
 10
116.2430338251059
 20
-139.6746785132584
 10
116.2220187426459
 20
-140.0639743030916
 10
116.0253037904381
 20
-140.2839436498248
 10
115.8726860604415
 20
-140.4530978381506
 10
115.665635821778
 20
-140.5230332765012
 10
115.5808864728409
 20
-140.5504217856089
 10
115.5808864728409
 20
-140.5504217856089
 10
115.3862385779242
 20
-140.3833346545743
 10
115.3862385779242
 20
-140.3833346545743
 10
115.4837347801568
 20
-140.3705878012789
 10
115.659090140356
 20
-140.3473334067534
 10
115.8475368633992
 20
-140.1590589384845
 10
115.9216064163321
 20
-140.0872286976171
 10
116.0253037904381
 20
-139.9475300756902
 10
116.0253037904381
 20
-139.5878621070301
 10
116.0253037904381
 20
-139.5878621070301
 10
115.7944823929264
 20
-139.5878621070301
 10
115.7944823929264
 20
-139.5878621070301
 10
115.6084472367229
 20
-139.5878621070301
 10
115.4220675709709
 20
-139.5921684763867
 10
115.2360324147674
 20
-139.6069823869732
 10
115.2360324147674
 20
-139.6069823869732
 10
115.2360324147674
 20
-139.38701304024
 10
115.2360324147674
 20
-139.38701304024
 10
115.4244791378105
 20
-139.4018269508266
 10
115.7100775535377
 20
-139.4059610654089
 10
115.7944823929264
 20
-139.4059610654089
 10
115.7944823929264
 20
-139.4059610654089
 10
116.3446641419208
 20
-139.4059610654089
 10
116.3446641419208
 20
-139.4059610654089
 10
116.3636121670896
 20
-139.4059610654089
 10
116.6809054612812
 20
-139.4059610654089
 10
116.9093152919532
 20
-139.38701304024
 10
116.9093152919532
 20
-139.38701304024
 10
116.9093152919532
 20
-139.6069823869732
 10
116.9093152919532
 20
-139.6069823869732
 10
116.7212130784586
 20
-139.5921684763867
 10
116.5327663554154
 20
-139.5878621070301
 10
116.3446641419208
 20
-139.5878621070301
 97
        0
 97
        1
330
107
 75
     2
 76
     1
 98
        1
 10
0.0
 20
0.0
450
        0
451
        0
460
0.0
461
0.0
452
        0
462
0.0
453
        0
470

  0
SPLINE
  5
109
330
F9
100
AcDbEntity
  8
レイヤー 1
100
AcDbSpline
210
0.0
220
0.0
230
1.0
 70
     9
 71
     3
 72
    29
 73
    25
 74
     0
 42
0.0000000001
 43
0.0000000001
 40
0.0
 40
0.0
 40
0.0
 40
0.0
 40
1.0
 40
1.0
 40
1.0
 40
2.0
 40
2.0
 40
2.0
 40
3.0
 40
3.0
 40
3.0
 40
4.0
 40
4.0
 40
4.0
 40
5.0
 40
5.0
 40
5.0
 40
6.0
 40
6.0
 40
6.0
 40
7.0
 40
7.0
 40
7.0
 40
8.0
 40
8.0
 40
8.0
 40
8.0
 10
118.1905463029176
 20
-139.7508151234824
 30
0.0
 10
118.1905463029176
 20
-139.7508151234824
 30
0.0
 10
117.7061658776915
 20
-139.7508151234824
 30
0.0
 10
117.7061658776915
 20
-139.7508151234824
 30
0.0
 10
117.6786051138095
 20
-139.7508151234824
 30
0.0
 10
117.361311819618
 20
-139.7508151234824
 30
0.0
 10
117.1497829568237
 20
-139.776136575299
 30
0.0
 10
117.1497829568237
 20
-139.776136575299
 30
0.0
 10
117.1497829568237
 20
-139.5456596873358
 30
0.0
 10
117.1497829568237
 20
-139.5456596873358
 30
0.0
 10
117.3082573491451
 20
-139.5689140818612
 30
0.0
 10
117.4987711294795
 20
-139.5709811391524
 30
0.0
 10
117.7061658776915
 20
-139.5709811391524
 30
0.0
 10
117.7061658776915
 20
-139.5709811391524
 30
0.0
 10
118.1905463029176
 20
-139.5709811391524
 30
0.0
 10
118.1905463029176
 20
-139.5709811391524
 30
0.0
 10
118.3765814591211
 20
-139.5709811391524
 30
0.0
 10
118.5629611248731
 20
-139.5689140818612
 30
0.0
 10
118.7469292237855
 20
-139.5456596873358
 30
0.0
 10
118.7469292237855
 20
-139.5456596873358
 30
0.0
 10
118.7469292237855
 20
-139.776136575299
 30
0.0
 10
118.7469292237855
 20
-139.776136575299
 30
0.0
 10
118.5629611248731
 20
-139.7528821807735
 30
0.0
 10
118.3152587594837
 20
-139.7508151234824
 30
0.0
 10
118.1905463029176
 20
-139.7508151234824
 30
0.0
  0
HATCH
  5
10A
330
F9
100
AcDbEntity
  8
レイヤー 1
 62
   250
420
  2299925
440
 33554687
100
AcDbHatch
 10
0.0
 20
0.0
 30
0.0
210
0.0
220
0.0
230
1.0
  2
SOLID
 70
     1
 71
     1
 91
        1
 92
        1
 93
        1
 72
     4
 94
        3
 73
     0
 74
     0
 95
       29
 96
       25
 40
0.0
 40
0.0
 40
0.0
 40
0.0
 40
1.0
 40
1.0
 40
1.0
 40
2.0
 40
2.0
 40
2.0
 40
3.0
 40
3.0
 40
3.0
 40
4.0
 40
4.0
 40
4.0
 40
5.0
 40
5.0
 40
5.0
 40
6.0
 40
6.0
 40
6.0
 40
7.0
 40
7.0
 40
7.0
 40
8.0
 40
8.0
 40
8.0
 40
8.0
 10
118.1905463029176
 20
-139.7508151234824
 10
118.1905463029176
 20
-139.7508151234824
 10
117.7061658776915
 20
-139.7508151234824
 10
117.7061658776915
 20
-139.7508151234824
 10
117.6786051138095
 20
-139.7508151234824
 10
117.361311819618
 20
-139.7508151234824
 10
117.1497829568237
 20
-139.776136575299
 10
117.1497829568237
 20
-139.776136575299
 10
117.1497829568237
 20
-139.5456596873358
 10
117.1497829568237
 20
-139.5456596873358
 10
117.3082573491451
 20
-139.5689140818612
 10
117.4987711294795
 20
-139.5709811391524
 10
117.7061658776915
 20
-139.5709811391524
 10
117.7061658776915
 20
-139.5709811391524
 10
118.1905463029176
 20
-139.5709811391524
 10
118.1905463029176
 20
-139.5709811391524
 10
118.3765814591211
 20
-139.5709811391524
 10
118.5629611248731
 20
-139.5689140818612
 10
118.7469292237855
 20
-139.5456596873358
 10
118.7469292237855
 20
-139.5456596873358
 10
118.7469292237855
 20
-139.776136575299
 10
118.7469292237855
 20
-139.776136575299
 10
118.5629611248731
 20
-139.7528821807735
 10
118.3152587594837
 20
-139.7508151234824
 10
118.1905463029176
 20
-139.7508151234824
 97
        0
 97
        1
330
109
 75
     2
 76
     1
 98
        1
 10
0.0
 20
0.0
450
        0
451
        0
460
0.0
461
0.0
452
        0
462
0.0
453
        0
470

  0
SPLINE
  5
10B
330
F9
100
AcDbEntity
  8
レイヤー 1
100
AcDbSpline
210
0.0
220
0.0
230
1.0
 70
     9
 71
     3
 72
    17
 73
    13
 74
     0
 42
0.0000000001
 43
0.0000000001
 40
0.0
 40
0.0
 40
0.0
 40
0.0
 40
1.0
 40
1.0
 40
1.0
 40
2.0
 40
2.0
 40
2.0
 40
3.0
 40
3.0
 40
3.0
 40
4.0
 40
4.0
 40
4.0
 40
4.0
 10
120.6093478431115
 20
-138.783949075547
 30
0.0
 10
120.5545708248961
 20
-138.783949075547
 30
0.0
 10
120.5101290931363
 20
-138.8283908073068
 30
0.0
 10
120.5101290931363
 20
-138.8835123350708
 30
0.0
 10
120.5101290931363
 20
-138.9405286653516
 30
0.0
 10
120.5545708248961
 20
-138.9892767664679
 30
0.0
 10
120.6134819576938
 20
-138.9892767664679
 30
0.0
 10
120.6727376000401
 20
-138.9892767664679
 30
0.0
 10
120.7130452172176
 20
-138.9384616080605
 30
0.0
 10
120.7130452172176
 20
-138.8855793923619
 30
0.0
 10
120.7130452172176
 20
-138.8283908073068
 30
0.0
 10
120.6665364281667
 20
-138.783949075547
 30
0.0
 10
120.6093478431115
 20
-138.783949075547
 30
0.0
  0
SPLINE
  5
10C
330
F9
100
AcDbEntity
  8
レイヤー 1
100
AcDbSpline
210
0.0
220
0.0
230
1.0
 70
     9
 71
     3
 72
    17
 73
    13
 74
     0
 42
0.0000000001
 43
0.0000000001
 40
0.0
 40
0.0
 40
0.0
 40
0.0
 40
1.0
 40
1.0
 40
1.0
 40
2.0
 40
2.0
 40
2.0
 40
3.0
 40
3.0
 40
3.0
 40
4.0
 40
4.0
 40
4.0
 40
4.0
 10
120.6114149004027
 20
-139.113989223034
 30
0.0
 10
120.4846353865455
 20
-139.113989223034
 30
0.0
 10
120.3830050697306
 20
-139.0125311609934
 30
0.0
 10
120.3830050697306
 20
-138.8855793923619
 30
0.0
 10
120.3830050697306
 20
-138.7586276237305
 30
0.0
 10
120.4846353865455
 20
-138.6549302496244
 30
0.0
 10
120.6114149004027
 20
-138.6549302496244
 30
0.0
 10
120.7385389238084
 20
-138.6549302496244
 30
0.0
 10
120.8422362979144
 20
-138.7586276237305
 30
0.0
 10
120.8422362979144
 20
-138.8855793923619
 30
0.0
 10
120.8422362979144
 20
-139.0125311609934
 30
0.0
 10
120.7385389238084
 20
-139.113989223034
 30
0.0
 10
120.6114149004027
 20
-139.113989223034
 30
0.0
  0
SPLINE
  5
10D
330
F9
100
AcDbEntity
  8
レイヤー 1
100
AcDbSpline
210
0.0
220
0.0
230
1.0
 70
     9
 71
     3
 72
    44
 73
    40
 74
     0
 42
0.0000000001
 43
0.0000000001
 40
0.0
 40
0.0
 40
0.0
 40
0.0
 40
1.0
 40
1.0
 40
1.0
 40
2.0
 40
2.0
 40
2.0
 40
3.0
 40
3.0
 40
3.0
 40
4.0
 40
4.0
 40
4.0
 40
5.0
 40
5.0
 40
5.0
 40
6.0
 40
6.0
 40
6.0
 40
7.0
 40
7.0
 40
7.0
 40
8.0
 40
8.0
 40
8.0
 40
9.0
 40
9.0
 40
9.0
 40
10.0
 40
10.0
 40
10.0
 40
11.0
 40
11.0
 40
11.0
 40
12.0
 40
12.0
 40
12.0
 40
13.0
 40
13.0
 40
13.0
 40
13.0
 10
120.4019530948995
 20
-139.3129434873072
 30
0.0
 10
120.2899874916289
 20
-139.6810519399061
 30
0.0
 10
120.2393445879957
 20
-139.8396985870019
 30
0.0
 10
120.0426296357879
 20
-140.0892957549082
 30
0.0
 10
119.8583170273271
 20
-140.3199448976457
 30
0.0
 10
119.6216389674904
 20
-140.5059800538492
 30
0.0
 10
119.3422417236366
 20
-140.5991698867252
 30
0.0
 10
119.3422417236366
 20
-140.5991698867252
 30
0.0
 10
119.1496608860112
 20
-140.4193359023951
 30
0.0
 10
119.1496608860112
 20
-140.4193359023951
 30
0.0
 10
119.7907931558162
 20
-140.2670626819471
 30
0.0
 10
120.1208333033031
 20
-139.7106797610793
 30
0.0
 10
120.1842230602317
 20
-139.2705688128386
 30
0.0
 10
120.1842230602317
 20
-139.2705688128386
 30
0.0
 10
119.4183783338607
 20
-139.2705688128386
 30
0.0
 10
119.4183783338607
 20
-139.2705688128386
 30
0.0
 10
119.3253607557589
 20
-139.2705688128386
 30
0.0
 10
119.1413926568466
 20
-139.2748751821952
 30
0.0
 10
118.9846408122677
 20
-139.293823207364
 30
0.0
 10
118.9846408122677
 20
-139.293823207364
 30
0.0
 10
118.9846408122677
 20
-139.0738538606308
 30
0.0
 10
118.9846408122677
 20
-139.0738538606308
 30
0.0
 10
119.071457218496
 20
-139.0950411978651
 30
0.0
 10
119.3232936984678
 20
-139.0950411978651
 30
0.0
 10
119.422512448443
 20
-139.0950411978651
 30
0.0
 10
119.422512448443
 20
-139.0950411978651
 30
0.0
 10
119.8541829127448
 20
-139.0950411978651
 30
0.0
 10
119.8541829127448
 20
-139.0950411978651
 30
0.0
 10
119.8965575872133
 20
-139.0950411978651
 30
0.0
 10
120.1311685897589
 20
-139.0928018857997
 30
0.0
 10
120.1694091496451
 20
-139.0866007139262
 30
0.0
 10
120.2117838241137
 20
-139.0802272872785
 30
0.0
 10
120.2138508814049
 20
-139.0781602299874
 30
0.0
 10
120.2751735810423
 20
-139.03785261281
 30
0.0
 10
120.2751735810423
 20
-139.03785261281
 30
0.0
 10
120.4632757945369
 20
-139.1923651453234
 30
0.0
 10
120.4632757945369
 20
-139.1923651453234
 30
0.0
 10
120.4339924829123
 20
-139.2219929664966
 30
0.0
 10
120.4191785723257
 20
-139.2536878449609
 30
0.0
 10
120.4019530948995
 20
-139.3129434873072
 30
0.0
  0
HATCH
  5
10E
330
F9
100
AcDbEntity
  8
レイヤー 1
 62
   250
420
  2299925
440
 33554687
100
AcDbHatch
 10
0.0
 20
0.0
 30
0.0
210
0.0
220
0.0
230
1.0
  2
SOLID
 70
     1
 71
     1
 91
        3
 92
        1
 93
        1
 72
     4
 94
        3
 73
     0
 74
     0
 95
       17
 96
       13
 40
0.0
 40
0.0
 40
0.0
 40
0.0
 40
1.0
 40
1.0
 40
1.0
 40
2.0
 40
2.0
 40
2.0
 40
3.0
 40
3.0
 40
3.0
 40
4.0
 40
4.0
 40
4.0
 40
4.0
 10
120.6093478431115
 20
-138.783949075547
 10
120.5545708248961
 20
-138.783949075547
 10
120.5101290931363
 20
-138.8283908073068
 10
120.5101290931363
 20
-138.8835123350708
 10
120.5101290931363
 20
-138.9405286653516
 10
120.5545708248961
 20
-138.9892767664679
 10
120.6134819576938
 20
-138.9892767664679
 10
120.6727376000401
 20
-138.9892767664679
 10
120.7130452172176
 20
-138.9384616080605
 10
120.7130452172176
 20
-138.8855793923619
 10
120.7130452172176
 20
-138.8283908073068
 10
120.6665364281667
 20
-138.783949075547
 10
120.6093478431115
 20
-138.783949075547
 97
        0
 97
        1
330
10B
 92
        1
 93
        1
 72
     4
 94
        3
 73
     0
 74
     0
 95
       17
 96
       13
 40
0.0
 40
0.0
 40
0.0
 40
0.0
 40
1.0
 40
1.0
 40
1.0
 40
2.0
 40
2.0
 40
2.0
 40
3.0
 40
3.0
 40
3.0
 40
4.0
 40
4.0
 40
4.0
 40
4.0
 10
120.6114149004027
 20
-139.113989223034
 10
120.4846353865455
 20
-139.113989223034
 10
120.3830050697306
 20
-139.0125311609934
 10
120.3830050697306
 20
-138.8855793923619
 10
120.3830050697306
 20
-138.7586276237305
 10
120.4846353865455
 20
-138.6549302496244
 10
120.6114149004027
 20
-138.6549302496244
 10
120.7385389238084
 20
-138.6549302496244
 10
120.8422362979144
 20
-138.7586276237305
 10
120.8422362979144
 20
-138.8855793923619
 10
120.8422362979144
 20
-139.0125311609934
 10
120.7385389238084
 20
-139.113989223034
 10
120.6114149004027
 20
-139.113989223034
 97
        0
 97
        1
330
10C
 92
        1
 93
        1
 72
     4
 94
        3
 73
     0
 74
     0
 95
       44
 96
       40
 40
0.0
 40
0.0
 40
0.0
 40
0.0
 40
1.0
 40
1.0
 40
1.0
 40
2.0
 40
2.0
 40
2.0
 40
3.0
 40
3.0
 40
3.0
 40
4.0
 40
4.0
 40
4.0
 40
5.0
 40
5.0
 40
5.0
 40
6.0
 40
6.0
 40
6.0
 40
7.0
 40
7.0
 40
7.0
 40
8.0
 40
8.0
 40
8.0
 40
9.0
 40
9.0
 40
9.0
 40
10.0
 40
10.0
 40
10.0
 40
11.0
 40
11.0
 40
11.0
 40
12.0
 40
12.0
 40
12.0
 40
13.0
 40
13.0
 40
13.0
 40
13.0
 10
120.4019530948995
 20
-139.3129434873072
 10
120.2899874916289
 20
-139.6810519399061
 10
120.2393445879957
 20
-139.8396985870019
 10
120.0426296357879
 20
-140.0892957549082
 10
119.8583170273271
 20
-140.3199448976457
 10
119.6216389674904
 20
-140.5059800538492
 10
119.3422417236366
 20
-140.5991698867252
 10
119.3422417236366
 20
-140.5991698867252
 10
119.1496608860112
 20
-140.4193359023951
 10
119.1496608860112
 20
-140.4193359023951
 10
119.7907931558162
 20
-140.2670626819471
 10
120.1208333033031
 20
-139.7106797610793
 10
120.1842230602317
 20
-139.2705688128386
 10
120.1842230602317
 20
-139.2705688128386
 10
119.4183783338607
 20
-139.2705688128386
 10
119.4183783338607
 20
-139.2705688128386
 10
119.3253607557589
 20
-139.2705688128386
 10
119.1413926568466
 20
-139.2748751821952
 10
118.9846408122677
 20
-139.293823207364
 10
118.9846408122677
 20
-139.293823207364
 10
118.9846408122677
 20
-139.0738538606308
 10
118.9846408122677
 20
-139.0738538606308
 10
119.071457218496
 20
-139.0950411978651
 10
119.3232936984678
 20
-139.0950411978651
 10
119.422512448443
 20
-139.0950411978651
 10
119.422512448443
 20
-139.0950411978651
 10
119.8541829127448
 20
-139.0950411978651
 10
119.8541829127448
 20
-139.0950411978651
 10
119.8965575872133
 20
-139.0950411978651
 10
120.1311685897589
 20
-139.0928018857997
 10
120.1694091496451
 20
-139.0866007139262
 10
120.2117838241137
 20
-139.0802272872785
 10
120.2138508814049
 20
-139.0781602299874
 10
120.2751735810423
 20
-139.03785261281
 10
120.2751735810423
 20
-139.03785261281
 10
120.4632757945369
 20
-139.1923651453234
 10
120.4632757945369
 20
-139.1923651453234
 10
120.4339924829123
 20
-139.2219929664966
 10
120.4191785723257
 20
-139.2536878449609
 10
120.4019530948995
 20
-139.3129434873072
 97
        0
 97
        1
330
10D
 75
     2
 76
     1
 98
        1
 10
0.0
 20
0.0
450
        0
451
        0
460
0.0
461
0.0
452
        0
462
0.0
453
        0
470

  0
ENDBLK
  5
FC
330
F9
100
AcDbEntity
  8
0
100
AcDbBlockEnd
  0
ENDSEC
  0
SECTION
  2
ENTITIES
  0
SPLINE
  5
79
330
70
100
AcDbEntity
  8
レイヤー 1
 62
   250
420
  2299925
370
     9
100
AcDbSpline
210
0.0
220
0.0
230
1.0
 70
     9
 71
     3
 72
    17
 73
    13
 74
     0
 42
0.0000000001
 43
0.0000000001
 40
0.0
 40
0.0
 40
0.0
 40
0.0
 40
1.0
 40
1.0
 40
1.0
 40
2.0
 40
2.0
 40
2.0
 40
3.0
 40
3.0
 40
3.0
 40
4.0
 40
4.0
 40
4.0
 40
4.0
 10
122.3239623224758
 20
-137.898865377568
 30
0.0
 10
122.3239623224758
 20
-137.8437327168929
 30
0.0
 10
122.2791948236179
 20
-137.798965218035
 30
0.0
 10
122.224055658358
 20
-137.798965218035
 30
0.0
 10
122.1689517708749
 20
-137.798965218035
 30
0.0
 10
122.1241489942401
 20
-137.8437327168929
 30
0.0
 10
122.1241489942401
 20
-137.898865377568
 30
0.0
 10
122.1241489942401
 20
-137.9539757696359
 30
0.0
 10
122.1689517708749
 20
-137.9987785462707
 30
0.0
 10
122.224055658358
 20
-137.9987785462707
 30
0.0
 10
122.2791948236179
 20
-137.9987785462707
 30
0.0
 10
122.3239623224758
 20
-137.9539757696359
 30
0.0
 10
122.3239623224758
 20
-137.898865377568
 30
0.0
  0
SPLINE
  5
7A
330
70
100
AcDbEntity
  8
レイヤー 1
 62
   250
420
  2299925
370
     9
100
AcDbSpline
210
0.0
220
0.0
230
1.0
 70
     9
 71
     3
 72
    17
 73
    13
 74
     0
 42
0.0000000001
 43
0.0000000001
 40
0.0
 40
0.0
 40
0.0
 40
0.0
 40
1.0
 40
1.0
 40
1.0
 40
2.0
 40
2.0
 40
2.0
 40
3.0
 40
3.0
 40
3.0
 40
4.0
 40
4.0
 40
4.0
 40
4.0
 10
90.32504313883626
 20
-137.898865377568
 30
0.0
 10
90.32504313883626
 20
-137.8437327168929
 30
0.0
 10
90.28027778162742
 20
-137.798965218035
 30
0.0
 10
90.22513647471811
 20
-137.798965218035
 30
0.0
 10
90.16967980946626
 20
-137.798965218035
 30
0.0
 10
90.12491231060836
 20
-137.8437327168929
 30
0.0
 10
90.12491231060836
 20
-137.898865377568
 30
0.0
 10
90.12491231060836
 20
-137.9539757696359
 30
0.0
 10
90.16967980946626
 20
-137.9987785462707
 30
0.0
 10
90.22513647471811
 20
-137.9987785462707
 30
0.0
 10
90.28027778162742
 20
-137.9987785462707
 30
0.0
 10
90.32504313883626
 20
-137.9539757696359
 30
0.0
 10
90.32504313883626
 20
-137.898865377568
 30
0.0
  0
LINE
  5
7B
330
70
100
AcDbEntity
  8
レイヤー 1
 62
   250
420
  2299925
370
     9
100
AcDbLine
 10
90.22513647471811
 20
-137.898865377568
 30
0.0
 11
122.224055658358
 21
-137.898865377568
 31
0.0
  0
LINE
  5
7C
330
70
100
AcDbEntity
  8
レイヤー 1
 62
   250
420
  2299925
370
     9
100
AcDbLine
 10
90.22513647471811
 20
-141.0594014878886
 30
0.0
 11
90.22513647471811
 21
-136.8990931555961
 31
0.0
  0
LINE
  5
7D
330
70
100
AcDbEntity
  8
レイヤー 1
 62
   250
420
  2299925
370
     9
100
AcDbLine
 10
122.224055658358
 20
-141.0594014878886
 30
0.0
 11
122.224055658358
 21
-136.8990931555961
 31
0.0
  0
INSERT
  5
7F
330
70
100
AcDbEntity
  8
レイヤー 1
100
AcDbBlockReference
  2
Block_0
 10
0.0
 20
0.0
 30
0.0
  0
SPLINE
  5
8A
330
70
100
AcDbEntity
  8
レイヤー 1
 62
   250
420
  2299925
370
     9
100
AcDbSpline
210
0.0
220
0.0
230
1.0
 70
     9
 71
     3
 72
    17
 73
    13
 74
     0
 42
0.0000000001
 43
0.0000000001
 40
0.0
 40
0.0
 40
0.0
 40
0.0
 40
1.0
 40
1.0
 40
1.0
 40
2.0
 40
2.0
 40
2.0
 40
3.0
 40
3.0
 40
3.0
 40
4.0
 40
4.0
 40
4.0
 40
4.0
 10
112.3242295220347
 20
-161.1532709273099
 30
0.0
 10
112.3242295220347
 20
-161.0981376791792
 30
0.0
 10
112.2794620231768
 20
-161.0533701803213
 30
0.0
 10
112.2243228579169
 20
-161.0533701803213
 30
0.0
 10
112.1692189704338
 20
-161.0533701803213
 30
0.0
 10
112.124416193799
 20
-161.0981376791792
 30
0.0
 10
112.124416193799
 20
-161.1532709273099
 30
0.0
 10
112.124416193799
 20
-161.2083807319222
 30
0.0
 10
112.1692189704338
 20
-161.253183508557
 30
0.0
 10
112.2243228579169
 20
-161.253183508557
 30
0.0
 10
112.2794620231768
 20
-161.253183508557
 30
0.0
 10
112.3242295220347
 20
-161.2083807319222
 30
0.0
 10
112.3242295220347
 20
-161.1532709273099
 30
0.0
  0
SPLINE
  5
8B
330
70
100
AcDbEntity
  8
レイヤー 1
 62
   250
420
  2299925
370
     9
100
AcDbSpline
210
0.0
220
0.0
230
1.0
 70
     9
 71
     3
 72
    17
 73
    13
 74
     0
 42
0.0000000001
 43
0.0000000001
 40
0.0
 40
0.0
 40
0.0
 40
0.0
 40
1.0
 40
1.0
 40
1.0
 40
2.0
 40
2.0
 40
2.0
 40
3.0
 40
3.0
 40
3.0
 40
4.0
 40
4.0
 40
4.0
 40
4.0
 10
102.3243203327089
 20
-161.1532709273099
 30
0.0
 10
102.3243203327089
 20
-161.0981376791792
 30
0.0
 10
102.2798703338429
 20
-161.0533701803213
 30
0.0
 10
102.224413668591
 20
-161.0533701803213
 30
0.0
 10
102.1689570033392
 20
-161.0533701803213
 30
0.0
 10
102.1241542267044
 20
-161.0981376791792
 30
0.0
 10
102.1241542267044
 20
-161.1532709273099
 30
0.0
 10
102.1241542267044
 20
-161.2083807319222
 30
0.0
 10
102.1689570033392
 20
-161.253183508557
 30
0.0
 10
102.224413668591
 20
-161.253183508557
 30
0.0
 10
102.2798703338429
 20
-161.253183508557
 30
0.0
 10
102.3243203327089
 20
-161.2083807319222
 30
0.0
 10
102.3243203327089
 20
-161.1532709273099
 30
0.0
  0
SPLINE
  5
8C
330
70
100
AcDbEntity
  8
レイヤー 1
 62
   250
420
  2299925
370
     9
100
AcDbSpline
210
0.0
220
0.0
230
1.0
 70
     9
 71
     3
 72
    17
 73
    13
 74
     0
 42
0.0000000001
 43
0.0000000001
 40
0.0
 40
0.0
 40
0.0
 40
0.0
 40
1.0
 40
1.0
 40
1.0
 40
2.0
 40
2.0
 40
2.0
 40
3.0
 40
3.0
 40
3.0
 40
4.0
 40
4.0
 40
4.0
 40
4.0
 10
90.32437500383862
 20
-161.1532709273099
 30
0.0
 10
90.32437500383862
 20
-161.0981376791792
 30
0.0
 10
90.2795722260719
 20
-161.0533701803213
 30
0.0
 10
90.22446619695742
 20
-161.0533701803213
 30
0.0
 10
90.16932703169748
 20
-161.0533701803213
 30
0.0
 10
90.12455953283959
 20
-161.0981376791792
 30
0.0
 10
90.12455953283959
 20
-161.1532709273099
 30
0.0
 10
90.12455953283959
 20
-161.2083807319222
 30
0.0
 10
90.16932703169748
 20
-161.253183508557
 30
0.0
 10
90.22446619695742
 20
-161.253183508557
 30
0.0
 10
90.2795722260719
 20
-161.253183508557
 30
0.0
 10
90.32437500383862
 20
-161.2083807319222
 30
0.0
 10
90.32437500383862
 20
-161.1532709273099
 30
0.0
  0
LINE
  5
8D
330
70
100
AcDbEntity
  8
レイヤー 1
 62
   250
420
  2299925
370
     9
100
AcDbLine
 10
102.224413668591
 20
-161.1532709273099
 30
0.0
 11
112.2243228579169
 21
-161.1532709273099
 31
0.0
  0
LINE
  5
8E
330
70
100
AcDbEntity
  8
レイヤー 1
 62
   250
420
  2299925
370
     9
100
AcDbLine
 10
102.224413668591
 20
-159.693235492799
 30
0.0
 11
102.224413668591
 21
-162.1530431492824
 31
0.0
  0
LINE
  5
8F
330
70
100
AcDbEntity
  8
レイヤー 1
 62
   250
420
  2299925
370
     9
100
AcDbLine
 10
112.2243228579169
 20
-159.693235492799
 30
0.0
 11
112.2243228579169
 21
-162.1530431492824
 31
0.0
  0
INSERT
  5
91
330
70
100
AcDbEntity
  8
レイヤー 1
100
AcDbBlockReference
  2
Block_2
 10
0.0
 20
0.0
 30
0.0
  0
LINE
  5
9D
330
70
100
AcDbEntity
  8
レイヤー 1
 62
   250
420
  2299925
370
     9
100
AcDbLine
 10
102.224413668591
 20
-161.1532709273099
 30
0.0
 11
90.22446619695742
 21
-161.1532709273099
 31
0.0
  0
LINE
  5
9E
330
70
100
AcDbEntity
  8
レイヤー 1
 62
   250
420
  2299925
370
     9
100
AcDbLine
 10
90.22446619695742
 20
-147.7931946852832
 30
0.0
 11
90.22446619695742
 21
-162.1530431492824
 31
0.0
  0
INSERT
  5
A0
330
70
100
AcDbEntity
  8
レイヤー 1
100
AcDbBlockReference
  2
Block_4
 10
0.0
 20
0.0
 30
0.0
  0
SPLINE
  5
AB
330
70
100
AcDbEntity
  8
レイヤー 1
 62
   250
420
  2299925
370
     9
100
AcDbSpline
210
0.0
220
0.0
230
1.0
 70
     9
 71
     3
 72
    17
 73
    13
 74
     0
 42
0.0000000001
 43
0.0000000001
 40
0.0
 40
0.0
 40
0.0
 40
0.0
 40
1.0
 40
1.0
 40
1.0
 40
2.0
 40
2.0
 40
2.0
 40
3.0
 40
3.0
 40
3.0
 40
4.0
 40
4.0
 40
4.0
 40
4.0
 10
126.2841044436664
 20
-143.4585789625352
 30
0.0
 10
126.2841044436664
 20
-143.4034397972752
 30
0.0
 10
126.2393016670316
 20
-143.3586722984173
 30
0.0
 10
126.183492224011
 20
-143.3586722984173
 30
0.0
 10
126.1283883365279
 20
-143.3586722984173
 30
0.0
 10
126.0835855598932
 20
-143.4034397972752
 30
0.0
 10
126.0835855598932
 20
-143.4585789625352
 30
0.0
 10
126.0835855598932
 20
-143.5136764872758
 30
0.0
 10
126.1283883365279
 20
-143.5584792650419
 30
0.0
 10
126.183492224011
 20
-143.5584792650419
 30
0.0
 10
126.2393016670316
 20
-143.5584792650419
 30
0.0
 10
126.2841044436664
 20
-143.5136764872758
 30
0.0
 10
126.2841044436664
 20
-143.4585789625352
 30
0.0
  0
SPLINE
  5
AC
330
70
100
AcDbEntity
  8
レイヤー 1
 62
   250
420
  2299925
370
     9
100
AcDbSpline
210
0.0
220
0.0
230
1.0
 70
     9
 71
     3
 72
    17
 73
    13
 74
     0
 42
0.0000000001
 43
0.0000000001
 40
0.0
 40
0.0
 40
0.0
 40
0.0
 40
1.0
 40
1.0
 40
1.0
 40
2.0
 40
2.0
 40
2.0
 40
3.0
 40
3.0
 40
3.0
 40
4.0
 40
4.0
 40
4.0
 40
4.0
 10
126.2841044436664
 20
-144.4590214370118
 30
0.0
 10
126.2841044436664
 20
-144.4032119939912
 30
0.0
 10
126.2393016670316
 20
-144.3591147728939
 30
0.0
 10
126.183492224011
 20
-144.3591147728939
 30
0.0
 10
126.1283883365279
 20
-144.3591147728939
 30
0.0
 10
126.0835855598932
 20
-144.4032119939912
 30
0.0
 10
126.0835855598932
 20
-144.4590214370118
 30
0.0
 10
126.0835855598932
 20
-144.5141542648032
 30
0.0
 10
126.1283883365279
 20
-144.5589281011296
 30
0.0
 10
126.183492224011
 20
-144.5589281011296
 30
0.0
 10
126.2393016670316
 20
-144.5589281011296
 30
0.0
 10
126.2841044436664
 20
-144.5141542648032
 30
0.0
 10
126.2841044436664
 20
-144.4590214370118
 30
0.0
  0
SPLINE
  5
AD
330
70
100
AcDbEntity
  8
レイヤー 1
 62
   250
420
  2299925
370
     9
100
AcDbSpline
210
0.0
220
0.0
230
1.0
 70
     9
 71
     3
 72
    17
 73
    13
 74
     0
 42
0.0000000001
 43
0.0000000001
 40
0.0
 40
0.0
 40
0.0
 40
0.0
 40
1.0
 40
1.0
 40
1.0
 40
2.0
 40
2.0
 40
2.0
 40
3.0
 40
3.0
 40
3.0
 40
4.0
 40
4.0
 40
4.0
 40
4.0
 10
126.2841044436664
 20
-154.358847573335
 30
0.0
 10
126.2841044436664
 20
-154.3037375956892
 30
0.0
 10
126.2393016670316
 20
-154.2589348179224
 30
0.0
 10
126.183492224011
 20
-154.2589348179224
 30
0.0
 10
126.1283883365279
 20
-154.2589348179224
 30
0.0
 10
126.0835855598932
 20
-154.3037375956892
 30
0.0
 10
126.0835855598932
 20
-154.358847573335
 30
0.0
 10
126.0835855598932
 20
-154.413986738595
 30
0.0
 10
126.1283883365279
 20
-154.4587542374529
 30
0.0
 10
126.183492224011
 20
-154.4587542374529
 30
0.0
 10
126.2393016670316
 20
-154.4587542374529
 30
0.0
 10
126.2841044436664
 20
-154.413986738595
 30
0.0
 10
126.2841044436664
 20
-154.358847573335
 30
0.0
  0
SPLINE
  5
AE
330
70
100
AcDbEntity
  8
レイヤー 1
 62
   250
420
  2299925
370
     9
100
AcDbSpline
210
0.0
220
0.0
230
1.0
 70
     9
 71
     3
 72
    17
 73
    13
 74
     0
 42
0.0000000001
 43
0.0000000001
 40
0.0
 40
0.0
 40
0.0
 40
0.0
 40
1.0
 40
1.0
 40
1.0
 40
2.0
 40
2.0
 40
2.0
 40
3.0
 40
3.0
 40
3.0
 40
4.0
 40
4.0
 40
4.0
 40
4.0
 10
126.2841044436664
 20
-157.3588344412434
 30
0.0
 10
126.2841044436664
 20
-157.3037305537604
 30
0.0
 10
126.2393016670316
 20
-157.2589277771256
 30
0.0
 10
126.183492224011
 20
-157.2589277771256
 30
0.0
 10
126.1283883365279
 20
-157.2589277771256
 30
0.0
 10
126.0835855598932
 20
-157.3037305537604
 30
0.0
 10
126.0835855598932
 20
-157.3588344412434
 30
0.0
 10
126.0835855598932
 20
-157.4139736065034
 30
0.0
 10
126.1283883365279
 20
-157.4587411053613
 30
0.0
 10
126.183492224011
 20
-157.4587411053613
 30
0.0
 10
126.2393016670316
 20
-157.4587411053613
 30
0.0
 10
126.2841044436664
 20
-157.4139736065034
 30
0.0
 10
126.2841044436664
 20
-157.3588344412434
 30
0.0
  0
LINE
  5
AF
330
70
100
AcDbEntity
  8
レイヤー 1
 62
   250
420
  2299925
370
     9
100
AcDbLine
 10
126.183492224011
 20
-143.4585789625352
 30
0.0
 11
126.183492224011
 21
-139.6882665587239
 31
0.0
  0
LINE
  5
B0
330
70
100
AcDbEntity
  8
レイヤー 1
 62
   250
420
  2299925
370
     9
100
AcDbLine
 10
126.183492224011
 20
-143.4585789625352
 30
0.0
 11
126.183492224011
 21
-144.4590214370118
 31
0.0
  0
LINE
  5
B1
330
70
100
AcDbEntity
  8
レイヤー 1
 62
   250
420
  2299925
370
     9
100
AcDbLine
 10
124.4737194898531
 20
-143.4585789625352
 30
0.0
 11
127.1839699762645
 21
-143.4585789625352
 31
0.0
  0
LINE
  5
B2
330
70
100
AcDbEntity
  8
レイヤー 1
 62
   250
420
  2299925
370
     9
100
AcDbLine
 10
124.4737194898531
 20
-144.4590214370118
 30
0.0
 11
127.1839699762645
 21
-144.4590214370118
 31
0.0
  0
INSERT
  5
B4
330
70
100
AcDbEntity
  8
レイヤー 1
100
AcDbBlockReference
  2
Block_6
 10
0.0
 20
0.0
 30
0.0
  0
LINE
  5
B9
330
70
100
AcDbEntity
  8
レイヤー 1
 62
   250
420
  2299925
370
     9
100
AcDbLine
 10
126.183492224011
 20
-154.358847573335
 30
0.0
 11
126.183492224011
 21
-157.3588344412434
 31
0.0
  0
LINE
  5
BA
330
70
100
AcDbEntity
  8
レイヤー 1
 62
   250
420
  2299925
370
     9
100
AcDbLine
 10
114.7244236274673
 20
-157.3588344412434
 30
0.0
 11
127.1839699762645
 21
-157.3588344412434
 31
0.0
  0
INSERT
  5
BC
330
70
100
AcDbEntity
  8
レイヤー 1
100
AcDbBlockReference
  2
Block_7
 10
0.0
 20
0.0
 30
0.0
  0
LINE
  5
C1
330
70
100
AcDbEntity
  8
レイヤー 1
 62
   250
420
  2299925
370
     9
100
AcDbLine
 10
126.183492224011
 20
-144.4590214370118
 30
0.0
 11
126.183492224011
 21
-154.358847573335
 31
0.0
  0
LINE
  5
C2
330
70
100
AcDbEntity
  8
レイヤー 1
 62
   250
420
  2299925
370
     9
100
AcDbLine
 10
114.7244236274673
 20
-154.358847573335
 30
0.0
 11
127.1839699762645
 21
-154.358847573335
 31
0.0
  0
INSERT
  5
C4
330
70
100
AcDbEntity
  8
レイヤー 1
100
AcDbBlockReference
  2
Block_8
 10
0.0
 20
0.0
 30
0.0
  0
SPLINE
  5
D4
330
70
100
AcDbEntity
  8
レイヤー 1
 62
   250
420
  2299925
370
     9
100
AcDbSpline
210
0.0
220
0.0
230
1.0
 70
     9
 71
     3
 72
    17
 73
    13
 74
     0
 42
0.0000000001
 43
0.0000000001
 40
0.0
 40
0.0
 40
0.0
 40
0.0
 40
1.0
 40
1.0
 40
1.0
 40
2.0
 40
2.0
 40
2.0
 40
3.0
 40
3.0
 40
3.0
 40
4.0
 40
4.0
 40
4.0
 40
4.0
 10
86.82485267257767
 20
-145.5593705756065
 30
0.0
 10
86.82485267257767
 20
-145.5035611325855
 30
0.0
 10
86.78004989594324
 20
-145.4594639114883
 30
0.0
 10
86.72494600845952
 20
-145.4594639114883
 30
0.0
 10
86.66980684319989
 20
-145.4594639114883
 30
0.0
 10
86.62503934434202
 20
-145.5035611325855
 30
0.0
 10
86.62503934434202
 20
-145.5593705756065
 30
0.0
 10
86.62503934434202
 20
-145.6145097408661
 30
0.0
 10
86.66980684319989
 20
-145.6592709311833
 30
0.0
 10
86.72494600845952
 20
-145.6592709311833
 30
0.0
 10
86.78004989594324
 20
-145.6592709311833
 30
0.0
 10
86.82485267257767
 20
-145.6145097408661
 30
0.0
 10
86.82485267257767
 20
-145.5593705756065
 30
0.0
  0
SPLINE
  5
D5
330
70
100
AcDbEntity
  8
レイヤー 1
 62
   250
420
  2299925
370
     9
100
AcDbSpline
210
0.0
220
0.0
230
1.0
 70
     9
 71
     3
 72
    17
 73
    13
 74
     0
 42
0.0000000001
 43
0.0000000001
 40
0.0
 40
0.0
 40
0.0
 40
0.0
 40
1.0
 40
1.0
 40
1.0
 40
2.0
 40
2.0
 40
2.0
 40
3.0
 40
3.0
 40
3.0
 40
4.0
 40
4.0
 40
4.0
 40
4.0
 10
86.82485267257767
 20
-143.5591559044137
 30
0.0
 10
86.82485267257767
 20
-143.5033464613931
 30
0.0
 10
86.78004989594324
 20
-143.4585789625352
 30
0.0
 10
86.72494600845952
 20
-143.4585789625352
 30
0.0
 10
86.66980684319989
 20
-143.4585789625352
 30
0.0
 10
86.62503934434202
 20
-143.5033464613931
 30
0.0
 10
86.62503934434202
 20
-143.5591559044137
 30
0.0
 10
86.62503934434202
 20
-143.6142950696736
 30
0.0
 10
86.66980684319989
 20
-143.6590625685315
 30
0.0
 10
86.72494600845952
 20
-143.6590625685315
 30
0.0
 10
86.78004989594324
 20
-143.6590625685315
 30
0.0
 10
86.82485267257767
 20
-143.6142950696736
 30
0.0
 10
86.82485267257767
 20
-143.5591559044137
 30
0.0
  0
LINE
  5
D6
330
70
100
AcDbEntity
  8
レイヤー 1
 62
   250
420
  2299925
370
     9
100
AcDbLine
 10
86.72494600845952
 20
-143.5591559044137
 30
0.0
 11
86.72494600845952
 21
-145.5593705756065
 31
0.0
  0
LINE
  5
D7
330
70
100
AcDbEntity
  8
レイヤー 1
 62
   250
420
  2299925
370
     9
100
AcDbLine
 10
85.26490465681971
 20
-143.5591559044137
 30
0.0
 11
87.72468292739887
 21
-143.5591559044137
 31
0.0
  0
LINE
  5
D8
330
70
100
AcDbEntity
  8
レイヤー 1
 62
   250
420
  2299925
370
     9
100
AcDbLine
 10
85.26490465681971
 20
-145.5593705756065
 30
0.0
 11
87.72468292739887
 21
-145.5593705756065
 31
0.0
  0
INSERT
  5
DA
330
70
100
AcDbEntity
  8
レイヤー 1
100
AcDbBlockReference
  2
Block_10
 10
0.0
 20
0.0
 30
0.0
  0
LINE
  5
DF
330
70
100
AcDbEntity
  8
レイヤー 1
 62
   250
420
  2299925
370
    25
100
AcDbLine
 10
90.22481897472589
 20
-143.5591559044137
 30
0.0
 11
102.2251192241286
 21
-143.5591559044137
 31
0.0
  0
LINE
  5
E0
330
70
100
AcDbEntity
  8
レイヤー 1
 62
   250
420
  2299925
370
    25
100
AcDbLine
 10
102.2247664463598
 20
-143.5591559044137
 30
0.0
 11
122.224055658358
 21
-143.5591559044137
 31
0.0
  0
LINE
  5
E1
330
70
100
AcDbEntity
  8
レイヤー 1
 62
   250
420
  2299925
370
    25
100
AcDbLine
 10
103.2245386430757
 20
-144.5589281011296
 30
0.0
 11
122.224055658358
 21
-144.5589281011296
 31
0.0
  0
LINE
  5
E2
330
70
100
AcDbEntity
  8
レイヤー 1
 62
   250
420
  2299925
370
    25
100
AcDbLine
 10
90.22481897472589
 20
-145.5593705756065
 30
0.0
 11
102.2251192241286
 21
-145.5593705756065
 31
0.0
  0
LINE
  5
E3
330
70
100
AcDbEntity
  8
レイヤー 1
 62
   250
420
  2299925
370
    25
100
AcDbLine
 10
90.22481897472589
 20
-143.5591559044137
 30
0.0
 11
90.22481897472589
 21
-145.5593705756065
 31
0.0
  0
LINE
  5
E4
330
70
100
AcDbEntity
  8
レイヤー 1
 62
   250
420
  2299925
370
    25
100
AcDbLine
 10
122.224055658358
 20
-143.5591559044137
 30
0.0
 11
122.224055658358
 21
-144.5589281011296
 31
0.0
  0
LINE
  5
E5
330
70
100
AcDbEntity
  8
レイヤー 1
 62
   250
420
  2299925
370
    25
100
AcDbLine
 10
103.2245386430757
 20
-144.5589281011296
 30
0.0
 11
103.2245386430757
 21
-154.358847573335
 31
0.0
  0
LINE
  5
E6
330
70
100
AcDbEntity
  8
レイヤー 1
 62
   250
420
  2299925
370
    25
100
AcDbLine
 10
102.2251192241286
 20
-143.6163348205832
 30
0.0
 11
102.2251192241286
 21
-154.358847573335
 31
0.0
  0
LINE
  5
E7
330
70
100
AcDbEntity
  8
レイヤー 1
 62
   250
420
  2299925
370
    25
100
AcDbLine
 10
102.2251192241286
 20
-154.358847573335
 30
0.0
 11
102.7318844889777
 21
-154.8446225609419
 31
0.0
  0
LINE
  5
E8
330
70
100
AcDbEntity
  8
レイヤー 1
 62
   250
420
  2299925
370
    25
100
AcDbLine
 10
103.2245386430757
 20
-154.358847573335
 30
0.0
 11
102.7318844889777
 21
-154.8446225609419
 31
0.0
  0
LINE
  5
E9
330
70
100
AcDbEntity
  8
レイヤー 1
 62
   250
420
  2299925
370
    25
100
AcDbLine
 10
103.2245386430757
 20
-154.358847573335
 30
0.0
 11
112.2243228579169
 21
-154.358847573335
 31
0.0
  0
LINE
  5
EA
330
70
100
AcDbEntity
  8
レイヤー 1
 62
   250
420
  2299925
370
    25
100
AcDbLine
 10
102.224413668591
 20
-157.3588344412434
 30
0.0
 11
112.2243228579169
 21
-157.3588344412434
 31
0.0
  0
LINE
  5
EB
330
70
100
AcDbEntity
  8
レイヤー 1
 62
   250
420
  2299925
370
    25
100
AcDbLine
 10
102.2251192241286
 20
-154.358847573335
 30
0.0
 11
102.2251192241286
 21
-157.3588344412434
 31
0.0
  0
LINE
  5
EC
330
70
100
AcDbEntity
  8
レイヤー 1
 62
   250
420
  2299925
370
    25
100
AcDbLine
 10
112.2243228579169
 20
-154.358847573335
 30
0.0
 11
112.2243228579169
 21
-157.3588344412434
 31
0.0
  0
INSERT
  5
EE
330
70
100
AcDbEntity
  8
レイヤー 1
100
AcDbBlockReference
  2
Block_11
 10
0.0
 20
0.0
 30
0.0
  0
ENDSEC
  0
SECTION
  2
OBJECTS
  0
DICTIONARY
  5
C
330
0
100
AcDbDictionary
281
     1
  3
ACAD_COLOR
350
63
  3
ACAD_DETAILVIEWSTYLE
350
6A
  3
ACAD_GROUP
350
D
  3
ACAD_LAYOUT
350
62
  3
ACAD_MATERIAL
350
10
  3
ACAD_MLEADERSTYLE
350
66
  3
ACAD_MLINESTYLE
350
5F
  3
ACAD_PLOTSETTINGS
350
61
  3
ACAD_PLOTSTYLENAME
350
E
  3
ACAD_SCALELIST
350
42
  3
ACAD_SECTIONVIEWSTYLE
350
68
  3
ACAD_TABLESTYLE
350
64
  3
ACAD_VISUALSTYLE
350
29
  3
ACDB_RECOMPOSE_DATA
350
117
  3
AcDbVariableDictionary
350
10F
  0
DICTIONARY
  5
63
102
{ACAD_REACTORS
330
C
102
}
330
C
100
AcDbDictionary
281
     1
  0
DICTIONARY
  5
6A
102
{ACAD_REACTORS
330
C
102
}
330
C
100
AcDbDictionary
281
     1
  3
Imperial24
350
6B
  0
DICTIONARY
  5
D
102
{ACAD_REACTORS
330
C
102
}
330
C
100
AcDbDictionary
281
     1
  0
DICTIONARY
  5
62
102
{ACAD_REACTORS
330
C
102
}
330
C
100
AcDbDictionary
281
     1
  3
Layout1
350
6F
  3
Layout2
350
77
  3
Model
350
73
  0
DICTIONARY
  5
10
102
{ACAD_REACTORS
330
C
102
}
330
C
100
AcDbDictionary
281
     1
  3
ByBlock
350
19
  3
ByLayer
350
11
  3
Global
350
21
  0
DICTIONARY
  5
66
102
{ACAD_REACTORS
330
C
102
}
330
C
100
AcDbDictionary
281
     1
  3
Standard
350
67
  0
DICTIONARY
  5
5F
102
{ACAD_REACTORS
330
C
102
}
330
C
100
AcDbDictionary
281
     1
  3
Standard
350
60
  0
DICTIONARY
  5
61
102
{ACAD_REACTORS
330
C
102
}
330
C
100
AcDbDictionary
281
     1
  0
ACDBDICTIONARYWDFLT
  5
E
102
{ACAD_REACTORS
330
C
102
}
330
C
100
AcDbDictionary
281
     1
  3
Normal
350
F
100
AcDbDictionaryWithDefault
340
F
  0
DICTIONARY
  5
42
102
{ACAD_REACTORS
330
C
102
}
330
C
100
AcDbDictionary
281
     1
  3
A0
350
43
  3
A1
350
44
  3
A2
350
45
  3
A3
350
46
  3
A4
350
47
  3
A5
350
48
  3
A6
350
49
  3
A7
350
4A
  3
A8
350
4B
  3
A9
350
4C
  3
B0
350
4D
  3
B1
350
4E
  3
B2
350
4F
  3
B3
350
50
  3
B4
350
51
  3
B5
350
52
  3
B6
350
53
  0
DICTIONARY
  5
68
102
{ACAD_REACTORS
330
C
102
}
330
C
100
AcDbDictionary
281
     1
  3
Imperial24
350
69
  0
DICTIONARY
  5
64
102
{ACAD_REACTORS
330
C
102
}
330
C
100
AcDbDictionary
281
     1
  3
Standard
350
65
  0
DICTIONARY
  5
29
102
{ACAD_REACTORS
330
C
102
}
330
C
100
AcDbDictionary
281
     1
  3
2dWireframe
350
2F
  3
Basic
350
2E
  3
Brighten
350
35
  3
ColorChange
350
39
  3
Conceptual
350
32
  3
Dim
350
34
  3
EdgeColorOff
350
41
  3
Facepattern
350
38
  3
Flat
350
2A
  3
FlatWithEdges
350
2B
  3
Gouraud
350
2C
  3
GouraudWithEdges
350
2D
  3
Hidden
350
31
  3
JitterOff
350
3F
  3
Linepattern
350
37
  3
OverhangOff
350
40
  3
Realistic
350
33
  3
Shaded
350
3E
  3
Shaded with edges
350
3D
  3
Shades of Gray
350
3A
  3
Sketchy
350
3B
  3
Thicken
350
36
  3
Wireframe
350
30
  3
X-Ray
350
3C
  0
XRECORD
  5
117
102
{ACAD_REACTORS
330
C
102
}
330
C
100
AcDbXrecord
280
     1
 90
        1
330
65
  0
DICTIONARY
  5
10F
102
{ACAD_REACTORS
330
C
102
}
330
C
100
AcDbDictionary
281
     1
  3
CANNOSCALE
350
114
  3
CMLEADERSTYLE
350
111
  3
CTABLESTYLE
350
110
  3
CVIEWDETAILSTYLE
350
112
  3
CVIEWSECTIONSTYLE
350
113
  0
ACDBDETAILVIEWSTYLE
  5
6B
102
{ACAD_XDICTIONARY
360
14C
102
}
102
{ACAD_REACTORS
330
6A
102
}
330
6A
100
AcDbModelDocViewStyle
 70
     0
  3
Imperial24
290
     0
100
AcDbDetailViewStyle
 70
     0
 71
     0
 90
        3
 71
     1
340
55
 62
   256
 40
0.24
340
0
 62
   256
 40
0.24
300

 40
0.36
280
     3
 71
     2
340
5D
 90
       25
 62
   256
 71
     3
340
55
 62
   256
 40
0.24
 90
        1
 40
0.75
 90
        1
300
%<\AcVar ViewType \f "%tc1">% %<\AcVar ViewDetailId>%\PSCALE %<\AcVar ViewScale \f "%sn">%
 71
     4
340
5D
 90
       25
 62
   256
340
5D
 90
       25
 62
   256
280
     0
  0
LAYOUT
  5
6F
102
{ACAD_REACTORS
330
62
102
}
330
62
100
AcDbPlotSettings
  1

  2

  4

  6

 40
0.0
 41
0.0
 42
0.0
 43
0.0
 44
0.0
 45
0.0
 46
0.0
 47
0.0
 48
0.0
 49
0.0
140
0.0
141
0.0
142
1.0
143
1.0
 70
   688
 72
     0
 73
     0
 74
     5
  7

 75
    16
147
1.0
 76
     0
 77
     2
 78
   300
148
0.0
149
0.0
100
AcDbLayout
  1
Layout1
 70
     1
 71
     1
 10
0.0
 20
0.0
 11
12.0
 21
9.0
 12
0.0
 22
0.0
 32
0.0
 14
0.0
 24
0.0
 34
0.0
 15
0.0
 25
0.0
 35
0.0
146
0.0
 13
0.0
 23
0.0
 33
0.0
 16
1.0
 26
0.0
 36
0.0
 17
0.0
 27
1.0
 37
0.0
 76
     0
330
6C
  0
LAYOUT
  5
77
102
{ACAD_REACTORS
330
62
102
}
330
62
100
AcDbPlotSettings
  1

  2

  4

  6

 40
0.0
 41
0.0
 42
0.0
 43
0.0
 44
0.0
 45
0.0
 46
0.0
 47
0.0
 48
0.0
 49
0.0
140
0.0
141
0.0
142
1.0
143
1.0
 70
   688
 72
     0
 73
     0
 74
     5
  7

 75
    16
147
1.0
 76
     0
 77
     2
 78
   300
148
0.0
149
0.0
100
AcDbLayout
  1
Layout2
 70
     1
 71
     2
 10
0.0
 20
0.0
 11
12.0
 21
9.0
 12
0.0
 22
0.0
 32
0.0
 14
0.0
 24
0.0
 34
0.0
 15
0.0
 25
0.0
 35
0.0
146
0.0
 13
0.0
 23
0.0
 33
0.0
 16
1.0
 26
0.0
 36
0.0
 17
0.0
 27
1.0
 37
0.0
 76
     0
330
74
  0
LAYOUT
  5
73
102
{ACAD_REACTORS
330
62
102
}
330
62
100
AcDbPlotSettings
  1

  2

  4

  6

 40
0.0
 41
0.0
 42
0.0
 43
0.0
 44
0.0
 45
0.0
 46
0.0
 47
0.0
 48
0.0
 49
0.0
140
0.0
141
0.0
142
1.0
143
1.0
 70
  1712
 72
     0
 73
     0
 74
     0
  7

 75
     0
147
1.0
 76
     0
 77
     2
 78
   300
148
0.0
149
0.0
100
AcDbLayout
  1
Model
 70
     1
 71
     0
 10
0.0
 20
0.0
 11
12.0
 21
9.0
 12
0.0
 22
0.0
 32
0.0
 14
0.0
 24
0.0
 34
0.0
 15
0.0
 25
0.0
 35
0.0
146
0.0
 13
0.0
 23
0.0
 33
0.0
 16
1.0
 26
0.0
 36
0.0
 17
0.0
 27
1.0
 37
0.0
 76
     0
330
70
  0
MATERIAL
  5
19
102
{ACAD_XDICTIONARY
360
1A
102
}
102
{ACAD_REACTORS
330
10
102
}
330
10
100
AcDbMaterial
  1
ByBlock
 72
     0
 43
0.0208333333333333
 43
0.0
 43
0.0
 43
0.0
 43
0.0
 43
0.0208333333333333
 43
0.0
 43
0.0
 43
0.0
 43
0.0
 43
1.0
 43
0.0
 43
0.0
 43
0.0
 43
0.0
 43
1.0
 77
     0
 47
0.0208333333333333
 47
0.0
 47
0.0
 47
0.0
 47
0.0
 47
0.0208333333333333
 47
0.0
 47
0.0
 47
0.0
 47
0.0
 47
1.0
 47
0.0
 47
0.0
 47
0.0
 47
0.0
 47
1.0
171
     0
 49
0.0208333333333333
 49
0.0
 49
0.0
 49
0.0
 49
0.0
 49
0.0208333333333333
 49
0.0
 49
0.0
 49
0.0
 49
0.0
 49
1.0
 49
0.0
 49
0.0
 49
0.0
 49
0.0
 49
1.0
175
     0
142
0.0208333333333333
142
0.0
142
0.0
142
0.0
142
0.0
142
0.0208333333333333
142
0.0
142
0.0
142
0.0
142
0.0
142
1.0
142
0.0
142
0.0
142
0.0
142
0.0
142
1.0
179
     0
144
0.0208333333333333
144
0.0
144
0.0
144
0.0
144
0.0
144
0.0208333333333333
144
0.0
144
0.0
144
0.0
144
0.0
144
1.0
144
0.0
144
0.0
144
0.0
144
0.0
144
1.0
147
0.0208333333333333
147
0.0
147
0.0
147
0.0
147
0.0
147
0.0208333333333333
147
0.0
147
0.0
147
0.0
147
0.0
147
1.0
147
0.0
147
0.0
147
0.0
147
0.0
147
1.0
  0
MATERIAL
  5
11
102
{ACAD_XDICTIONARY
360
12
102
}
102
{ACAD_REACTORS
330
10
102
}
330
10
100
AcDbMaterial
  1
ByLayer
 72
     0
 43
0.0208333333333333
 43
0.0
 43
0.0
 43
0.0
 43
0.0
 43
0.0208333333333333
 43
0.0
 43
0.0
 43
0.0
 43
0.0
 43
1.0
 43
0.0
 43
0.0
 43
0.0
 43
0.0
 43
1.0
 77
     0
 47
0.0208333333333333
 47
0.0
 47
0.0
 47
0.0
 47
0.0
 47
0.0208333333333333
 47
0.0
 47
0.0
 47
0.0
 47
0.0
 47
1.0
 47
0.0
 47
0.0
 47
0.0
 47
0.0
 47
1.0
171
     0
 49
0.0208333333333333
 49
0.0
 49
0.0
 49
0.0
 49
0.0
 49
0.0208333333333333
 49
0.0
 49
0.0
 49
0.0
 49
0.0
 49
1.0
 49
0.0
 49
0.0
 49
0.0
 49
0.0
 49
1.0
175
     0
142
0.0208333333333333
142
0.0
142
0.0
142
0.0
142
0.0
142
0.0208333333333333
142
0.0
142
0.0
142
0.0
142
0.0
142
1.0
142
0.0
142
0.0
142
0.0
142
0.0
142
1.0
179
     0
144
0.0208333333333333
144
0.0
144
0.0
144
0.0
144
0.0
144
0.0208333333333333
144
0.0
144
0.0
144
0.0
144
0.0
144
1.0
144
0.0
144
0.0
144
0.0
144
0.0
144
1.0
147
0.0208333333333333
147
0.0
147
0.0
147
0.0
147
0.0
147
0.0208333333333333
147
0.0
147
0.0
147
0.0
147
0.0
147
1.0
147
0.0
147
0.0
147
0.0
147
0.0
147
1.0
  0
MATERIAL
  5
21
102
{ACAD_XDICTIONARY
360
22
102
}
102
{ACAD_REACTORS
330
10
102
}
330
10
100
AcDbMaterial
  1
Global
 72
     0
 43
0.0208333333333333
 43
0.0
 43
0.0
 43
0.0
 43
0.0
 43
0.0208333333333333
 43
0.0
 43
0.0
 43
0.0
 43
0.0
 43
1.0
 43
0.0
 43
0.0
 43
0.0
 43
0.0
 43
1.0
 77
     0
 47
0.0208333333333333
 47
0.0
 47
0.0
 47
0.0
 47
0.0
 47
0.0208333333333333
 47
0.0
 47
0.0
 47
0.0
 47
0.0
 47
1.0
 47
0.0
 47
0.0
 47
0.0
 47
0.0
 47
1.0
171
     0
 49
0.0208333333333333
 49
0.0
 49
0.0
 49
0.0
 49
0.0
 49
0.0208333333333333
 49
0.0
 49
0.0
 49
0.0
 49
0.0
 49
1.0
 49
0.0
 49
0.0
 49
0.0
 49
0.0
 49
1.0
175
     0
142
0.0208333333333333
142
0.0
142
0.0
142
0.0
142
0.0
142
0.0208333333333333
142
0.0
142
0.0
142
0.0
142
0.0
142
1.0
142
0.0
142
0.0
142
0.0
142
0.0
142
1.0
179
     0
144
0.0208333333333333
144
0.0
144
0.0
144
0.0
144
0.0
144
0.0208333333333333
144
0.0
144
0.0
144
0.0
144
0.0
144
1.0
144
0.0
144
0.0
144
0.0
144
0.0
144
1.0
147
0.0208333333333333
147
0.0
147
0.0
147
0.0
147
0.0
147
0.0208333333333333
147
0.0
147
0.0
147
0.0
147
0.0
147
1.0
147
0.0
147
0.0
147
0.0
147
0.0
147
1.0
  0
MLEADERSTYLE
  5
67
102
{ACAD_XDICTIONARY
360
148
102
}
102
{ACAD_REACTORS
330
66
102
}
330
66
100
AcDbMLeaderStyle
179
     2
170
     2
171
     1
172
     0
 90
        2
 40
0.0
 41
0.0
173
     1
 91
-1056964608
340
5B
 92
       -2
290
     1
 42
0.09
291
     1
 43
0.36
  3
Standard
 44
0.18
300

342
55
174
     1
178
     6
175
     1
176
     0
 93
-1056964608
 45
0.18
292
     0
297
     0
 46
0.18
 94
-1056964608
 47
1.0
 49
1.0
140
1.0
293
     1
141
0.0
294
     1
177
     0
142
1.0
295
     0
296
     0
143
0.125
271
     0
272
     9
273
     9
  0
MLINESTYLE
  5
60
102
{ACAD_REACTORS
330
5F
102
}
330
5F
100
AcDbMlineStyle
  2
STANDARD
 70
     0
  3

 62
   256
 51
90.0
 52
90.0
 71
     2
 49
0.5
 62
   256
  6
BYLAYER
 49
-0.5
 62
   256
  6
BYLAYER
  0
ACDBPLACEHOLDER
  5
F
102
{ACAD_REACTORS
330
E
102
}
330
E
  0
SCALE
  5
43
102
{ACAD_REACTORS
330
42
102
}
330
42
100
AcDbScale
 70
     0
300
1:1
140
1.0
141
1.0
290
     1
  0
SCALE
  5
44
102
{ACAD_REACTORS
330
42
102
}
330
42
100
AcDbScale
 70
     0
300
1/128" = 1'-0"
140
0.0078125
141
12.0
290
     0
  0
SCALE
  5
45
102
{ACAD_REACTORS
330
42
102
}
330
42
100
AcDbScale
 70
     0
300
1/64" = 1'-0"
140
0.015625
141
12.0
290
     0
  0
SCALE
  5
46
102
{ACAD_REACTORS
330
42
102
}
330
42
100
AcDbScale
 70
     0
300
1/32" = 1'-0"
140
0.03125
141
12.0
290
     0
  0
SCALE
  5
47
102
{ACAD_REACTORS
330
42
102
}
330
42
100
AcDbScale
 70
     0
300
1/16" = 1'-0"
140
0.0625
141
12.0
290
     0
  0
SCALE
  5
48
102
{ACAD_REACTORS
330
42
102
}
330
42
100
AcDbScale
 70
     0
300
3/32" = 1'-0"
140
0.09375
141
12.0
290
     0
  0
SCALE
  5
49
102
{ACAD_REACTORS
330
42
102
}
330
42
100
AcDbScale
 70
     0
300
1/8" = 1'-0"
140
0.125
141
12.0
290
     0
  0
SCALE
  5
4A
102
{ACAD_REACTORS
330
42
102
}
330
42
100
AcDbScale
 70
     0
300
3/16" = 1'-0"
140
0.1875
141
12.0
290
     0
  0
SCALE
  5
4B
102
{ACAD_REACTORS
330
42
102
}
330
42
100
AcDbScale
 70
     0
300
1/4" = 1'-0"
140
0.25
141
12.0
290
     0
  0
SCALE
  5
4C
102
{ACAD_REACTORS
330
42
102
}
330
42
100
AcDbScale
 70
     0
300
3/8" = 1'-0"
140
0.375
141
12.0
290
     0
  0
SCALE
  5
4D
102
{ACAD_REACTORS
330
42
102
}
330
42
100
AcDbScale
 70
     0
300
1/2" = 1'-0"
140
0.5
141
12.0
290
     0
  0
SCALE
  5
4E
102
{ACAD_REACTORS
330
42
102
}
330
42
100
AcDbScale
 70
     0
300
3/4" = 1'-0"
140
0.75
141
12.0
290
     0
  0
SCALE
  5
4F
102
{ACAD_REACTORS
330
42
102
}
330
42
100
AcDbScale
 70
     0
300
1" = 1'-0"
140
1.0
141
12.0
290
     0
  0
SCALE
  5
50
102
{ACAD_REACTORS
330
42
102
}
330
42
100
AcDbScale
 70
     0
300
1-1/2" = 1'-0"
140
1.5
141
12.0
290
     0
  0
SCALE
  5
51
102
{ACAD_REACTORS
330
42
102
}
330
42
100
AcDbScale
 70
     0
300
3" = 1'-0"
140
3.0
141
12.0
290
     0
  0
SCALE
  5
52
102
{ACAD_REACTORS
330
42
102
}
330
42
100
AcDbScale
 70
     0
300
6" = 1'-0"
140
6.0
141
12.0
290
     0
  0
SCALE
  5
53
102
{ACAD_REACTORS
330
42
102
}
330
42
100
AcDbScale
 70
     0
300
1'-0" = 1'-0"
140
12.0
141
12.0
290
     0
  0
ACDBSECTIONVIEWSTYLE
  5
69
102
{ACAD_XDICTIONARY
360
14A
102
}
102
{ACAD_REACTORS
330
68
102
}
330
68
100
AcDbModelDocViewStyle
 70
     0
  3
Imperial24
290
     0
100
AcDbSectionViewStyle
 70
     0
 71
     0
 90
       78
 71
     1
340
55
 62
   256
 40
0.24
340
0
340
0
 62
   256
 40
0.24
300
I, O, Q, S, X, Z
 40
0.48
 90
        3
 40
0.18
 90
        1
 71
     2
340
5D
 90
       25
 62
   256
340
5D
 90
       50
 62
   256
 40
0.24
 40
0.0
 40
0.24
 71
     3
340
55
 62
   256
 40
0.24
 90
        1
 40
0.75
 90
        1
300
%<\AcVar ViewType \f "%tc1">% %<\AcVar ViewSectionStartId>%-%<\AcVar ViewSectionEndId>%\PSCALE %<\AcVar ViewScale \f "%sn">%
 71
     4
 62
   256
 62
   257
300
ANSI31
 40
1.0
 90
        0
290
     0
290
     0
 90
        6
 40
0.0
 40
1.570796326794896
 40
0.2617993877991494
 40
1.308996938995747
 40
-0.2617993877991494
 40
1.832595714594046
  0
TABLESTYLE
  5
65
102
{ACAD_XDICTIONARY
360
115
102
}
102
{ACAD_REACTORS
330
64
102
}
330
64
100
AcDbTableStyle
280
     0
  3
Standard
 70
     0
 71
     0
 40
0.06
 41
0.06
280
     0
281
     0
  7
Standard
140
0.18
170
     2
 62
     0
 63
     7
283
     0
 90
      512
 91
        0
  1

274
    -2
284
     1
 64
     0
275
    -2
285
     1
 65
     0
276
    -2
286
     1
 66
     0
277
    -2
287
     1
 67
     0
278
    -2
288
     1
 68
     0
279
    -2
289
     1
 69
     0
  7
Standard
140
0.25
170
     5
 62
     0
 63
     7
283
     0
 90
      512
 91
        0
  1

274
    -2
284
     1
 64
     0
275
    -2
285
     1
 65
     0
276
    -2
286
     1
 66
     0
277
    -2
287
     1
 67
     0
278
    -2
288
     1
 68
     0
279
    -2
289
     1
 69
     0
  7
Standard
140
0.18
170
     5
 62
     0
 63
     7
283
     0
 90
      512
 91
        0
  1

274
    -2
284
     1
 64
     0
275
    -2
285
     1
 65
     0
276
    -2
286
     1
 66
     0
277
    -2
287
     1
 67
     0
278
    -2
288
     1
 68
     0
279
    -2
289
     1
 69
     0
  0
VISUALSTYLE
  5
2F
102
{ACAD_XDICTIONARY
360
122
102
}
102
{ACAD_REACTORS
330
29
102
}
330
29
100
AcDbVisualStyle
  2
2dWireframe
 70
     4
177
     2
291
     0
 71
     0
176
     1
 72
     2
176
     1
 73
     0
176
     1
 90
        0
176
     1
 40
0.6
176
     1
 41
30.0
176
     1
 63
     7
421
 16777215
176
     1
 74
     1
176
     1
 91
        4
176
     1
 64
     7
176
     1
 65
   257
176
     1
 75
     1
176
     1
175
     1
176
     1
 42
1.0
176
     1
 92
        0
176
     1
 66
   257
176
     1
 43
1.0
176
     1
 76
     1
176
     1
 77
     6
176
     1
 78
     2
176
     1
 67
     7
176
     1
 79
     5
176
     1
170
     0
176
     1
171
     0
176
     1
290
     0
176
     1
 93
        1
176
     1
 44
0.0
176
     1
173
     0
176
     1
1001
ACAD
1000
AcDbSavedByObjectVersion
1070
     0
  0
VISUALSTYLE
  5
2E
102
{ACAD_XDICTIONARY
360
120
102
}
102
{ACAD_REACTORS
330
29
102
}
330
29
100
AcDbVisualStyle
  2
Basic
 70
     7
177
     2
291
     1
 71
     1
176
     1
 72
     0
176
     1
 73
     1
176
     1
 90
        0
176
     1
 40
0.6
176
     1
 41
30.0
176
     1
 63
     7
421
 16777215
176
     1
 74
     0
176
     1
 91
        4
176
     1
 64
     7
176
     1
 65
   257
176
     1
 75
     1
176
     1
175
     1
176
     1
 42
1.0
176
     1
 92
        8
176
     1
 66
     7
176
     1
 43
1.0
176
     1
 76
     1
176
     1
 77
     6
176
     1
 78
     2
176
     1
 67
     7
176
     1
 79
     5
176
     1
170
     0
176
     1
171
     0
176
     1
290
     0
176
     1
 93
        1
176
     1
 44
0.0
176
     1
173
     0
176
     1
1001
ACAD
1000
AcDbSavedByObjectVersion
1070
     0
  0
VISUALSTYLE
  5
35
102
{ACAD_XDICTIONARY
360
12E
102
}
102
{ACAD_REACTORS
330
29
102
}
330
29
100
AcDbVisualStyle
  2
Brighten
 70
    12
177
     2
291
     1
 71
     2
176
     1
 72
     2
176
     1
 73
     0
176
     1
 90
        0
176
     1
 40
0.6
176
     1
 41
30.0
176
     1
 63
     7
421
 16777215
176
     1
 74
     1
176
     1
 91
        4
176
     1
 64
     7
176
     1
 65
   257
176
     1
 75
     1
176
     1
175
     1
176
     1
 42
1.0
176
     1
 92
        8
176
     1
 66
     7
176
     1
 43
1.0
176
     1
 76
     1
176
     1
 77
     6
176
     1
 78
     2
176
     1
 67
     7
176
     1
 79
     5
176
     1
170
     0
176
     1
171
     0
176
     1
290
     0
176
     1
 93
        1
176
     1
 44
50.0
176
     1
173
     0
176
     1
1001
ACAD
1000
AcDbSavedByObjectVersion
1070
     0
  0
VISUALSTYLE
  5
39
102
{ACAD_XDICTIONARY
360
136
102
}
102
{ACAD_REACTORS
330
29
102
}
330
29
100
AcDbVisualStyle
  2
ColorChange
 70
    16
177
     2
291
     1
 71
     2
176
     1
 72
     2
176
     1
 73
     3
176
     1
 90
        0
176
     1
 40
0.6
176
     1
 41
30.0
176
     1
 63
     8
421
  8421504
176
     1
 74
     1
176
     1
 91
        4
176
     1
 64
     7
176
     1
 65
   257
176
     1
 75
     1
176
     1
175
     1
176
     1
 42
1.0
176
     1
 92
        8
176
     1
 66
     8
424
  8421504
176
     1
 43
1.0
176
     1
 76
     1
176
     1
 77
     6
176
     1
 78
     2
176
     1
 67
     7
176
     1
 79
     5
176
     1
170
     0
176
     1
171
     0
176
     1
290
     0
176
     1
 93
        1
176
     1
 44
0.0
176
     1
173
     0
176
     1
1001
ACAD
1000
AcDbSavedByObjectVersion
1070
     0
  0
VISUALSTYLE
  5
32
102
{ACAD_XDICTIONARY
360
128
102
}
102
{ACAD_REACTORS
330
29
102
}
330
29
100
AcDbVisualStyle
  2
Conceptual
 70
     9
177
     2
291
     0
 71
     3
176
     1
 72
     2
176
     1
 73
     0
176
     1
 90
        0
176
     1
 40
0.6
176
     1
 41
30.0
176
     1
 63
     7
421
 16777215
176
     1
 74
     2
176
     1
 91
        2
176
     1
 64
     7
176
     1
 65
   257
176
     1
 75
     1
176
     1
175
     1
176
     1
 42
179.0
176
     1
 92
        8
176
     1
 66
     7
176
     1
 43
1.0
176
     1
 76
     1
176
     1
 77
     6
176
     1
 78
     2
176
     1
 67
     7
176
     1
 79
     3
176
     1
170
     0
176
     1
171
     0
176
     1
290
     0
176
     1
 93
        1
176
     1
 44
0.0
176
     1
173
     0
176
     1
1001
ACAD
1000
AcDbSavedByObjectVersion
1070
     0
  0
VISUALSTYLE
  5
34
102
{ACAD_XDICTIONARY
360
12C
102
}
102
{ACAD_REACTORS
330
29
102
}
330
29
100
AcDbVisualStyle
  2
Dim
 70
    11
177
     2
291
     1
 71
     2
176
     1
 72
     2
176
     1
 73
     0
176
     1
 90
        0
176
     1
 40
0.6
176
     1
 41
30.0
176
     1
 63
     7
421
 16777215
176
     1
 74
     1
176
     1
 91
        4
176
     1
 64
     7
176
     1
 65
   257
176
     1
 75
     1
176
     1
175
     1
176
     1
 42
1.0
176
     1
 92
        8
176
     1
 66
     7
176
     1
 43
1.0
176
     1
 76
     1
176
     1
 77
     6
176
     1
 78
     2
176
     1
 67
     7
176
     1
 79
     5
176
     1
170
     0
176
     1
171
     0
176
     1
290
     0
176
     1
 93
        1
176
     1
 44
-50.0
176
     1
173
     0
176
     1
1001
ACAD
1000
AcDbSavedByObjectVersion
1070
     0
  0
VISUALSTYLE
  5
41
102
{ACAD_XDICTIONARY
360
146
102
}
102
{ACAD_REACTORS
330
29
102
}
330
29
100
AcDbVisualStyle
  2
EdgeColorOff
 70
    22
177
     2
291
     1
 71
     2
176
     0
 72
     2
176
     0
 73
     0
176
     0
 90
        0
176
     0
 40
0.6
176
     0
 41
30.0
176
     0
 63
     7
421
 16777215
176
     0
 74
     1
176
     0
 91
        4
176
     0
 64
     7
176
     0
 65
   257
176
     0
 75
     1
176
     0
175
     1
176
     0
 42
1.0
176
     0
 92
        8
176
     2
 66
     7
176
     0
 43
1.0
176
     0
 76
     1
176
     0
 77
     6
176
     0
 78
     2
176
     0
 67
     7
176
     0
 79
     5
176
     0
170
     0
176
     0
171
     0
176
     0
290
     0
176
     0
 93
        1
176
     0
 44
0.0
176
     0
173
     0
176
     0
1001
ACAD
1000
AcDbSavedByObjectVersion
1070
     0
  0
VISUALSTYLE
  5
38
102
{ACAD_XDICTIONARY
360
134
102
}
102
{ACAD_REACTORS
330
29
102
}
330
29
100
AcDbVisualStyle
  2
Facepattern
 70
    15
177
     2
291
     1
 71
     2
176
     1
 72
     2
176
     1
 73
     0
176
     1
 90
        0
176
     1
 40
0.6
176
     1
 41
30.0
176
     1
 63
     7
421
 16777215
176
     1
 74
     1
176
     1
 91
        4
176
     1
 64
     7
176
     1
 65
   257
176
     1
 75
     1
176
     1
175
     1
176
     1
 42
1.0
176
     1
 92
        8
176
     1
 66
     7
176
     1
 43
1.0
176
     1
 76
     1
176
     1
 77
     6
176
     1
 78
     2
176
     1
 67
     7
176
     1
 79
     5
176
     1
170
     0
176
     1
171
     0
176
     1
290
     0
176
     1
 93
        1
176
     1
 44
0.0
176
     1
173
     0
176
     1
1001
ACAD
1000
AcDbSavedByObjectVersion
1070
     0
  0
VISUALSTYLE
  5
2A
102
{ACAD_XDICTIONARY
360
118
102
}
102
{ACAD_REACTORS
330
29
102
}
330
29
100
AcDbVisualStyle
  2
Flat
 70
     0
177
     2
291
     1
 71
     2
176
     1
 72
     1
176
     1
 73
     1
176
     1
 90
        2
176
     1
 40
0.6
176
     1
 41
30.0
176
     1
 63
     7
421
 16777215
176
     1
 74
     0
176
     1
 91
        0
176
     1
 64
     7
176
     1
 65
   257
176
     1
 75
     1
176
     1
175
     1
176
     1
 42
1.0
176
     1
 92
        8
176
     1
 66
     7
176
     1
 43
1.0
176
     1
 76
     1
176
     1
 77
     6
176
     1
 78
     2
176
     1
 67
     7
176
     1
 79
     5
176
     1
170
     0
176
     1
171
     0
176
     1
290
     0
176
     1
 93
       13
176
     1
 44
0.0
176
     1
173
     0
176
     1
1001
ACAD
1000
AcDbSavedByObjectVersion
1070
     0
  0
VISUALSTYLE
  5
2B
102
{ACAD_XDICTIONARY
360
11A
102
}
102
{ACAD_REACTORS
330
29
102
}
330
29
100
AcDbVisualStyle
  2
FlatWithEdges
 70
     1
177
     2
291
     1
 71
     2
176
     1
 72
     1
176
     1
 73
     1
176
     1
 90
        2
176
     1
 40
0.6
176
     1
 41
30.0
176
     1
 63
     7
421
 16777215
176
     1
 74
     1
176
     1
 91
        0
176
     1
 64
     7
176
     1
 65
   257
176
     1
 75
     1
176
     1
175
     1
176
     1
 42
1.0
176
     1
 92
        0
176
     1
 66
   257
176
     1
 43
1.0
176
     1
 76
     1
176
     1
 77
     6
176
     1
 78
     2
176
     1
 67
     7
176
     1
 79
     5
176
     1
170
     0
176
     1
171
     0
176
     1
290
     0
176
     1
 93
       13
176
     1
 44
0.0
176
     1
173
     0
176
     1
1001
ACAD
1000
AcDbSavedByObjectVersion
1070
     0
  0
VISUALSTYLE
  5
2C
102
{ACAD_XDICTIONARY
360
11C
102
}
102
{ACAD_REACTORS
330
29
102
}
330
29
100
AcDbVisualStyle
  2
Gouraud
 70
     2
177
     2
291
     1
 71
     2
176
     1
 72
     2
176
     1
 73
     1
176
     1
 90
        2
176
     1
 40
0.6
176
     1
 41
30.0
176
     1
 63
     7
421
 16777215
176
     1
 74
     0
176
     1
 91
        0
176
     1
 64
     7
176
     1
 65
   257
176
     1
 75
     1
176
     1
175
     1
176
     1
 42
1.0
176
     1
 92
        0
176
     1
 66
     7
176
     1
 43
1.0
176
     1
 76
     1
176
     1
 77
     6
176
     1
 78
     2
176
     1
 67
     7
176
     1
 79
     5
176
     1
170
     0
176
     1
171
     0
176
     1
290
     0
176
     1
 93
       13
176
     1
 44
0.0
176
     1
173
     0
176
     1
1001
ACAD
1000
AcDbSavedByObjectVersion
1070
     0
  0
VISUALSTYLE
  5
2D
102
{ACAD_XDICTIONARY
360
11E
102
}
102
{ACAD_REACTORS
330
29
102
}
330
29
100
AcDbVisualStyle
  2
GouraudWithEdges
 70
     3
177
     2
291
     1
 71
     2
176
     1
 72
     2
176
     1
 73
     1
176
     1
 90
        2
176
     1
 40
0.6
176
     1
 41
30.0
176
     1
 63
     7
421
 16777215
176
     1
 74
     1
176
     1
 91
        0
176
     1
 64
     7
176
     1
 65
   257
176
     1
 75
     1
176
     1
175
     1
176
     1
 42
1.0
176
     1
 92
        0
176
     1
 66
   257
176
     1
 43
1.0
176
     1
 76
     1
176
     1
 77
     6
176
     1
 78
     2
176
     1
 67
     7
176
     1
 79
     5
176
     1
170
     0
176
     1
171
     0
176
     1
290
     0
176
     1
 93
       13
176
     1
 44
0.0
176
     1
173
     0
176
     1
1001
ACAD
1000
AcDbSavedByObjectVersion
1070
     0
  0
VISUALSTYLE
  5
31
102
{ACAD_XDICTIONARY
360
126
102
}
102
{ACAD_REACTORS
330
29
102
}
330
29
100
AcDbVisualStyle
  2
Hidden
 70
     6
177
     2
291
     0
 71
     1
176
     1
 72
     2
176
     1
 73
     2
176
     1
 90
        0
176
     1
 40
0.6
176
     1
 41
30.0
176
     1
 63
     7
421
 16777215
176
     1
 74
     2
176
     1
 91
        2
176
     1
 64
     7
176
     1
 65
   257
176
     1
 75
     2
176
     1
175
     1
176
     1
 42
40.0
176
     1
 92
        0
176
     1
 66
   257
176
     1
 43
1.0
176
     1
 76
     1
176
     1
 77
     6
176
     1
 78
     2
176
     1
 67
     7
176
     1
 79
     3
176
     1
170
     0
176
     1
171
     0
176
     1
290
     0
176
     1
 93
        1
176
     1
 44
0.0
176
     1
173
     0
176
     1
1001
ACAD
1000
AcDbSavedByObjectVersion
1070
     0
  0
VISUALSTYLE
  5
3F
102
{ACAD_XDICTIONARY
360
142
102
}
102
{ACAD_REACTORS
330
29
102
}
330
29
100
AcDbVisualStyle
  2
JitterOff
 70
    20
177
     2
291
     1
 71
     2
176
     0
 72
     2
176
     0
 73
     0
176
     0
 90
        0
176
     0
 40
0.6
176
     0
 41
30.0
176
     0
 63
     7
421
 16777215
176
     0
 74
     1
176
     0
 91
        4
176
     0
 64
     7
176
     0
 65
   257
176
     0
 75
     1
176
     0
175
     1
176
     0
 42
1.0
176
     0
 92
       10
176
     2
 66
     7
176
     0
 43
1.0
176
     0
 76
     1
176
     0
 77
     6
176
     0
 78
     2
176
     0
 67
     7
176
     0
 79
     5
176
     0
170
     0
176
     0
171
     0
176
     0
290
     0
176
     0
 93
        1
176
     0
 44
0.0
176
     0
173
     0
176
     0
1001
ACAD
1000
AcDbSavedByObjectVersion
1070
     0
  0
VISUALSTYLE
  5
37
102
{ACAD_XDICTIONARY
360
132
102
}
102
{ACAD_REACTORS
330
29
102
}
330
29
100
AcDbVisualStyle
  2
Linepattern
 70
    14
177
     2
291
     1
 71
     2
176
     1
 72
     2
176
     1
 73
     0
176
     1
 90
        0
176
     1
 40
0.6
176
     1
 41
30.0
176
     1
 63
     7
421
 16777215
176
     1
 74
     1
176
     1
 91
        4
176
     1
 64
     7
176
     1
 65
   257
176
     1
 75
     7
176
     1
175
     7
176
     1
 42
1.0
176
     1
 92
        8
176
     1
 66
     7
176
     1
 43
1.0
176
     1
 76
     1
176
     1
 77
     6
176
     1
 78
     2
176
     1
 67
     7
176
     1
 79
     5
176
     1
170
     0
176
     1
171
     0
176
     1
290
     0
176
     1
 93
        1
176
     1
 44
0.0
176
     1
173
     0
176
     1
1001
ACAD
1000
AcDbSavedByObjectVersion
1070
     0
  0
VISUALSTYLE
  5
40
102
{ACAD_XDICTIONARY
360
144
102
}
102
{ACAD_REACTORS
330
29
102
}
330
29
100
AcDbVisualStyle
  2
OverhangOff
 70
    21
177
     2
291
     1
 71
     2
176
     0
 72
     2
176
     0
 73
     0
176
     0
 90
        0
176
     0
 40
0.6
176
     0
 41
30.0
176
     0
 63
     7
421
 16777215
176
     0
 74
     1
176
     0
 91
        4
176
     0
 64
     7
176
     0
 65
   257
176
     0
 75
     1
176
     0
175
     1
176
     0
 42
1.0
176
     0
 92
        9
176
     2
 66
     7
176
     0
 43
1.0
176
     0
 76
     1
176
     0
 77
     6
176
     0
 78
     2
176
     0
 67
     7
176
     0
 79
     5
176
     0
170
     0
176
     0
171
     0
176
     0
290
     0
176
     0
 93
        1
176
     0
 44
0.0
176
     0
173
     0
176
     0
1001
ACAD
1000
AcDbSavedByObjectVersion
1070
     0
  0
VISUALSTYLE
  5
33
102
{ACAD_XDICTIONARY
360
12A
102
}
102
{ACAD_REACTORS
330
29
102
}
330
29
100
AcDbVisualStyle
  2
Realistic
 70
     8
177
     2
291
     0
 71
     2
176
     1
 72
     3
176
     1
 73
     0
176
     1
 90
        2
176
     1
 40
0.6
176
     1
 41
30.0
176
     1
 63
     7
421
 16777215
176
     1
 74
     0
176
     1
 91
        0
176
     1
 64
     7
176
     1
 65
   257
176
     1
 75
     1
176
     1
175
     1
176
     1
 42
1.0
176
     1
 92
        8
176
     1
 66
   257
176
     1
 43
1.0
176
     1
 76
     1
176
     1
 77
     6
176
     1
 78
     2
176
     1
 67
     7
176
     1
 79
     3
176
     1
170
     0
176
     1
171
     0
176
     1
290
     0
176
     1
 93
       13
176
     1
 44
0.0
176
     1
173
     0
176
     1
1001
ACAD
1000
AcDbSavedByObjectVersion
1070
     0
  0
VISUALSTYLE
  5
3E
102
{ACAD_XDICTIONARY
360
140
102
}
102
{ACAD_REACTORS
330
29
102
}
330
29
100
AcDbVisualStyle
  2
Shaded
 70
    27
177
     2
291
     0
 71
     2
176
     1
 72
     2
176
     1
 73
     1
176
     1
 90
        2
176
     1
 40
0.6
176
     1
 41
30.0
176
     1
 63
     7
421
 16777215
176
     1
 74
     0
176
     1
 91
        4
176
     1
 64
     7
176
     1
 65
   257
176
     1
 75
     1
176
     1
175
     1
176
     1
 42
1.0
176
     1
 92
        8
176
     1
 66
   257
176
     1
 43
1.0
176
     1
 76
     1
176
     1
 77
     6
176
     1
 78
     2
176
     1
 67
     8
425
  7895160
176
     1
 79
     3
176
     1
170
     0
176
     1
171
     0
176
     1
290
     0
176
     1
 93
        5
176
     1
 44
0.0
176
     1
173
     0
176
     1
1001
ACAD
1000
AcDbSavedByObjectVersion
1070
     0
  0
VISUALSTYLE
  5
3D
102
{ACAD_XDICTIONARY
360
13E
102
}
102
{ACAD_REACTORS
330
29
102
}
330
29
100
AcDbVisualStyle
  2
Shaded with edges
 70
    26
177
     2
291
     0
 71
     2
176
     1
 72
     2
176
     1
 73
     1
176
     1
 90
        2
176
     1
 40
0.6
176
     1
 41
30.0
176
     1
 63
     7
421
 16777215
176
     1
 74
     1
176
     1
 91
        2
176
     1
 64
     7
176
     1
 65
   257
176
     1
 75
     2
176
     1
175
     1
176
     1
 42
1.0
176
     1
 92
        8
176
     1
 66
   257
176
     1
 43
1.0
176
     1
 76
     1
176
     1
 77
     6
176
     1
 78
     2
176
     1
 67
     7
176
     1
 79
     3
176
     1
170
     0
176
     1
171
     0
176
     1
290
     0
176
     1
 93
        5
176
     1
 44
0.0
176
     1
173
     0
176
     1
1001
ACAD
1000
AcDbSavedByObjectVersion
1070
     0
  0
VISUALSTYLE
  5
3A
102
{ACAD_XDICTIONARY
360
138
102
}
102
{ACAD_REACTORS
330
29
102
}
330
29
100
AcDbVisualStyle
  2
Shades of Gray
 70
    23
177
     2
291
     0
 71
     2
176
     1
 72
     2
176
     1
 73
     3
176
     1
 90
        0
176
     1
 40
0.6
176
     1
 41
30.0
176
     1
 63
     7
421
 16777215
176
     1
 74
     2
176
     1
 91
        2
176
     1
 64
     7
176
     1
 65
     7
176
     1
 75
     1
176
     1
175
     1
176
     1
 42
40.0
176
     1
 92
        8
176
     1
 66
     7
176
     1
 43
1.0
176
     1
 76
     1
176
     1
 77
     6
176
     1
 78
     2
176
     1
 67
     7
176
     1
 79
     3
176
     1
170
     0
176
     1
171
     0
176
     1
290
     0
176
     1
 93
        1
176
     1
 44
0.0
176
     1
173
     0
176
     1
1001
ACAD
1000
AcDbSavedByObjectVersion
1070
     0
  0
VISUALSTYLE
  5
3B
102
{ACAD_XDICTIONARY
360
13A
102
}
102
{ACAD_REACTORS
330
29
102
}
330
29
100
AcDbVisualStyle
  2
Sketchy
 70
    24
177
     2
291
     0
 71
     1
176
     1
 72
     2
176
     1
 73
     2
176
     1
 90
        0
176
     1
 40
0.6
176
     1
 41
30.0
176
     1
 63
     7
421
 16777215
176
     1
 74
     2
176
     1
 91
        2
176
     1
 64
     7
176
     1
 65
     7
176
     1
 75
     1
176
     1
175
     1
176
     1
 42
40.0
176
     1
 92
       11
176
     1
 66
     7
176
     1
 43
1.0
176
     1
 76
     1
176
     1
 77
     6
176
     1
 78
     2
176
     1
 67
     7
176
     1
 79
     6
176
     1
170
     0
176
     1
171
     0
176
     1
290
     0
176
     1
 93
        1
176
     1
 44
0.0
176
     1
173
     0
176
     1
1001
ACAD
1000
AcDbSavedByObjectVersion
1070
     0
  0
VISUALSTYLE
  5
36
102
{ACAD_XDICTIONARY
360
130
102
}
102
{ACAD_REACTORS
330
29
102
}
330
29
100
AcDbVisualStyle
  2
Thicken
 70
    13
177
     2
291
     1
 71
     2
176
     1
 72
     2
176
     1
 73
     0
176
     1
 90
        0
176
     1
 40
0.6
176
     1
 41
30.0
176
     1
 63
     7
421
 16777215
176
     1
 74
     1
176
     1
 91
        4
176
     1
 64
     7
176
     1
 65
   257
176
     1
 75
     1
176
     1
175
     1
176
     1
 42
1.0
176
     1
 92
       12
176
     1
 66
     7
176
     1
 43
1.0
176
     1
 76
     1
176
     1
 77
     6
176
     1
 78
     2
176
     1
 67
     7
176
     1
 79
     5
176
     1
170
     0
176
     1
171
     0
176
     1
290
     0
176
     1
 93
        1
176
     1
 44
0.0
176
     1
173
     0
176
     1
1001
ACAD
1000
AcDbSavedByObjectVersion
1070
     0
  0
VISUALSTYLE
  5
30
102
{ACAD_XDICTIONARY
360
124
102
}
102
{ACAD_REACTORS
330
29
102
}
330
29
100
AcDbVisualStyle
  2
Wireframe
 70
     5
177
     2
291
     0
 71
     0
176
     1
 72
     2
176
     1
 73
     0
176
     1
 90
        0
176
     1
 40
0.6
176
     1
 41
30.0
176
     1
 63
     7
421
 16777215
176
     1
 74
     1
176
     1
 91
        4
176
     1
 64
     7
176
     1
 65
   257
176
     1
 75
     1
176
     1
175
     1
176
     1
 42
1.0
176
     1
 92
        0
176
     1
 66
   257
176
     1
 43
1.0
176
     1
 76
     1
176
     1
 77
     6
176
     1
 78
     2
176
     1
 67
     7
176
     1
 79
     3
176
     1
170
     0
176
     1
171
     0
176
     1
290
     0
176
     1
 93
        1
176
     1
 44
0.0
176
     1
173
     0
176
     1
1001
ACAD
1000
AcDbSavedByObjectVersion
1070
     0
  0
VISUALSTYLE
  5
3C
102
{ACAD_XDICTIONARY
360
13C
102
}
102
{ACAD_REACTORS
330
29
102
}
330
29
100
AcDbVisualStyle
  2
X-Ray
 70
    25
177
     2
291
     0
 71
     2
176
     1
 72
     2
176
     1
 73
     1
176
     1
 90
        1
176
     1
 40
0.5
176
     1
 41
30.0
176
     1
 63
     7
421
 16777215
176
     1
 74
     1
176
     1
 91
        0
176
     1
 64
     7
176
     1
 65
   257
176
     1
 75
     1
176
     1
175
     1
176
     1
 42
1.0
176
     1
 92
        8
176
     1
 66
     7
176
     1
 43
1.0
176
     1
 76
     1
176
     1
 77
     6
176
     1
 78
     2
176
     1
 67
     7
176
     1
 79
     3
176
     1
170
     0
176
     1
171
     0
176
     1
290
     0
176
     1
 93
       13
176
     1
 44
0.0
176
     1
173
     0
176
     1
1001
ACAD
1000
AcDbSavedByObjectVersion
1070
     0
  0
DICTIONARYVAR
  5
114
102
{ACAD_REACTORS
330
10F
102
}
330
10F
100
DictionaryVariables
280
     0
  1
1:1
  0
DICTIONARYVAR
  5
111
102
{ACAD_REACTORS
330
10F
102
}
330
10F
100
DictionaryVariables
280
     0
  1
STANDARD
  0
DICTIONARYVAR
  5
110
102
{ACAD_REACTORS
330
10F
102
}
330
10F
100
DictionaryVariables
280
     0
  1
STANDARD
  0
DICTIONARYVAR
  5
112
102
{ACAD_REACTORS
330
10F
102
}
330
10F
100
DictionaryVariables
280
     0
  1
Imperial24
  0
DICTIONARYVAR
  5
113
102
{ACAD_REACTORS
330
10F
102
}
330
10F
100
DictionaryVariables
280
     0
  1
Imperial24
  0
DICTIONARY
  5
14C
330
6B
100
AcDbDictionary
280
     1
281
     1
  3
ACAD_XREC_ROUNDTRIP
360
14D
  0
DICTIONARY
  5
1A
330
19
100
AcDbDictionary
280
     1
281
     1
  3
BUMPTILE
360
1C
  3
DIFFUSETILE
360
1B
  3
OPACITYTILE
360
1F
  3
REFLECTIONTILE
360
1E
  3
REFRACTIONTILE
360
20
  3
SPECULARTILE
360
1D
  0
DICTIONARY
  5
12
330
11
100
AcDbDictionary
280
     1
281
     1
  3
BUMPTILE
360
14
  3
DIFFUSETILE
360
13
  3
OPACITYTILE
360
17
  3
REFLECTIONTILE
360
16
  3
REFRACTIONTILE
360
18
  3
SPECULARTILE
360
15
  0
DICTIONARY
  5
22
330
21
100
AcDbDictionary
280
     1
281
     1
  3
BUMPTILE
360
24
  3
DIFFUSETILE
360
23
  3
OPACITYTILE
360
27
  3
REFLECTIONTILE
360
26
  3
REFRACTIONTILE
360
28
  3
SPECULARTILE
360
25
  0
DICTIONARY
  5
148
330
67
100
AcDbDictionary
280
     1
281
     1
  3
ACAD_XREC_ROUNDTRIP
360
149
  0
DICTIONARY
  5
14A
330
69
100
AcDbDictionary
280
     1
281
     1
  3
ACAD_XREC_ROUNDTRIP
360
14B
  0
DICTIONARY
  5
115
330
65
100
AcDbDictionary
280
     1
281
     1
  3
ACAD_ROUNDTRIP_2008_TABLESTYLE_CELLSTYLEMAP
360
116
  0
DICTIONARY
  5
122
330
2F
100
AcDbDictionary
280
     1
281
     1
  3
ACAD_XREC_ROUNDTRIP
360
123
  0
DICTIONARY
  5
120
330
2E
100
AcDbDictionary
280
     1
281
     1
  3
ACAD_XREC_ROUNDTRIP
360
121
  0
DICTIONARY
  5
12E
330
35
100
AcDbDictionary
280
     1
281
     1
  3
ACAD_XREC_ROUNDTRIP
360
12F
  0
DICTIONARY
  5
136
330
39
100
AcDbDictionary
280
     1
281
     1
  3
ACAD_XREC_ROUNDTRIP
360
137
  0
DICTIONARY
  5
128
330
32
100
AcDbDictionary
280
     1
281
     1
  3
ACAD_XREC_ROUNDTRIP
360
129
  0
DICTIONARY
  5
12C
330
34
100
AcDbDictionary
280
     1
281
     1
  3
ACAD_XREC_ROUNDTRIP
360
12D
  0
DICTIONARY
  5
146
330
41
100
AcDbDictionary
280
     1
281
     1
  3
ACAD_XREC_ROUNDTRIP
360
147
  0
DICTIONARY
  5
134
330
38
100
AcDbDictionary
280
     1
281
     1
  3
ACAD_XREC_ROUNDTRIP
360
135
  0
DICTIONARY
  5
118
330
2A
100
AcDbDictionary
280
     1
281
     1
  3
ACAD_XREC_ROUNDTRIP
360
119
  0
DICTIONARY
  5
11A
330
2B
100
AcDbDictionary
280
     1
281
     1
  3
ACAD_XREC_ROUNDTRIP
360
11B
  0
DICTIONARY
  5
11C
330
2C
100
AcDbDictionary
280
     1
281
     1
  3
ACAD_XREC_ROUNDTRIP
360
11D
  0
DICTIONARY
  5
11E
330
2D
100
AcDbDictionary
280
     1
281
     1
  3
ACAD_XREC_ROUNDTRIP
360
11F
  0
DICTIONARY
  5
126
330
31
100
AcDbDictionary
280
     1
281
     1
  3
ACAD_XREC_ROUNDTRIP
360
127
  0
DICTIONARY
  5
142
330
3F
100
AcDbDictionary
280
     1
281
     1
  3
ACAD_XREC_ROUNDTRIP
360
143
  0
DICTIONARY
  5
132
330
37
100
AcDbDictionary
280
     1
281
     1
  3
ACAD_XREC_ROUNDTRIP
360
133
  0
DICTIONARY
  5
144
330
40
100
AcDbDictionary
280
     1
281
     1
  3
ACAD_XREC_ROUNDTRIP
360
145
  0
DICTIONARY
  5
12A
330
33
100
AcDbDictionary
280
     1
281
     1
  3
ACAD_XREC_ROUNDTRIP
360
12B
  0
DICTIONARY
  5
140
330
3E
100
AcDbDictionary
280
     1
281
     1
  3
ACAD_XREC_ROUNDTRIP
360
141
  0
DICTIONARY
  5
13E
330
3D
100
AcDbDictionary
280
     1
281
     1
  3
ACAD_XREC_ROUNDTRIP
360
13F
  0
DICTIONARY
  5
138
330
3A
100
AcDbDictionary
280
     1
281
     1
  3
ACAD_XREC_ROUNDTRIP
360
139
  0
DICTIONARY
  5
13A
330
3B
100
AcDbDictionary
280
     1
281
     1
  3
ACAD_XREC_ROUNDTRIP
360
13B
  0
DICTIONARY
  5
130
330
36
100
AcDbDictionary
280
     1
281
     1
  3
ACAD_XREC_ROUNDTRIP
360
131
  0
DICTIONARY
  5
124
330
30
100
AcDbDictionary
280
     1
281
     1
  3
ACAD_XREC_ROUNDTRIP
360
125
  0
DICTIONARY
  5
13C
330
3C
100
AcDbDictionary
280
     1
281
     1
  3
ACAD_XREC_ROUNDTRIP
360
13D
  0
XRECORD
  5
14D
102
{ACAD_REACTORS
330
14C
102
}
330
14C
100
AcDbXrecord
280
     1
102
DISPLAYNAME
  1
Imperial24
102
FLAGS
 90
        0
  0
XRECORD
  5
1C
102
{ACAD_REACTORS
330
1A
102
}
330
1A
100
AcDbXrecord
280
     1
270
     1
271
     1
  0
XRECORD
  5
1B
102
{ACAD_REACTORS
330
1A
102
}
330
1A
100
AcDbXrecord
280
     1
270
     1
271
     1
  0
XRECORD
  5
1F
102
{ACAD_REACTORS
330
1A
102
}
330
1A
100
AcDbXrecord
280
     1
270
     1
271
     1
  0
XRECORD
  5
1E
102
{ACAD_REACTORS
330
1A
102
}
330
1A
100
AcDbXrecord
280
     1
270
     1
271
     1
  0
XRECORD
  5
20
102
{ACAD_REACTORS
330
1A
102
}
330
1A
100
AcDbXrecord
280
     1
270
     1
271
     1
  0
XRECORD
  5
1D
102
{ACAD_REACTORS
330
1A
102
}
330
1A
100
AcDbXrecord
280
     1
270
     1
271
     1
  0
XRECORD
  5
14
102
{ACAD_REACTORS
330
12
102
}
330
12
100
AcDbXrecord
280
     1
270
     1
271
     1
  0
XRECORD
  5
13
102
{ACAD_REACTORS
330
12
102
}
330
12
100
AcDbXrecord
280
     1
270
     1
271
     1
  0
XRECORD
  5
17
102
{ACAD_REACTORS
330
12
102
}
330
12
100
AcDbXrecord
280
     1
270
     1
271
     1
  0
XRECORD
  5
16
102
{ACAD_REACTORS
330
12
102
}
330
12
100
AcDbXrecord
280
     1
270
     1
271
     1
  0
XRECORD
  5
18
102
{ACAD_REACTORS
330
12
102
}
330
12
100
AcDbXrecord
280
     1
270
     1
271
     1
  0
XRECORD
  5
15
102
{ACAD_REACTORS
330
12
102
}
330
12
100
AcDbXrecord
280
     1
270
     1
271
     1
  0
XRECORD
  5
24
102
{ACAD_REACTORS
330
22
102
}
330
22
100
AcDbXrecord
280
     1
270
     1
271
     1
  0
XRECORD
  5
23
102
{ACAD_REACTORS
330
22
102
}
330
22
100
AcDbXrecord
280
     1
270
     1
271
     1
  0
XRECORD
  5
27
102
{ACAD_REACTORS
330
22
102
}
330
22
100
AcDbXrecord
280
     1
270
     1
271
     1
  0
XRECORD
  5
26
102
{ACAD_REACTORS
330
22
102
}
330
22
100
AcDbXrecord
280
     1
270
     1
271
     1
  0
XRECORD
  5
28
102
{ACAD_REACTORS
330
22
102
}
330
22
100
AcDbXrecord
280
     1
270
     1
271
     1
  0
XRECORD
  5
25
102
{ACAD_REACTORS
330
22
102
}
330
22
100
AcDbXrecord
280
     1
270
     1
271
     1
  0
XRECORD
  5
149
102
{ACAD_REACTORS
330
148
102
}
330
148
100
AcDbXrecord
280
     1
102
ACAD_ROUNDTRIP_2012_MLEADER_STYLE
298
     1
  0
XRECORD
  5
14B
102
{ACAD_REACTORS
330
14A
102
}
330
14A
100
AcDbXrecord
280
     1
102
DISPLAYNAME
  1
Imperial24
102
FLAGS
 90
        0
  0
CELLSTYLEMAP
  5
116
102
{ACAD_REACTORS
330
115
102
}
330
115
100
AcDbCellStyleMap
 90
        3
300
CELLSTYLE
  1
TABLEFORMAT_BEGIN
 90
        5
170
     1
 91
        0
 92
    32768
 62
   257
 93
        1
300
CONTENTFORMAT
  1
CONTENTFORMAT_BEGIN
 90
        0
 91
        0
 92
      512
 93
        0
300

 40
0.0
140
1.0
 94
        5
 62
     0
340
55
144
0.25
309
CONTENTFORMAT_END
171
     0
 94
        0
309
TABLEFORMAT_END
  1
CELLSTYLE_BEGIN
 90
        1
 91
        1
300
_TITLE
309
CELLSTYLE_END
300
CELLSTYLE
  1
TABLEFORMAT_BEGIN
 90
        5
170
     1
 91
        0
 92
        0
 62
   257
 93
        1
300
CONTENTFORMAT
  1
CONTENTFORMAT_BEGIN
 90
        0
 91
        0
 92
      512
 93
        0
300

 40
0.0
140
1.0
 94
        5
 62
     0
340
55
144
0.18
309
CONTENTFORMAT_END
171
     0
 94
        0
309
TABLEFORMAT_END
  1
CELLSTYLE_BEGIN
 90
        2
 91
        1
300
_HEADER
309
CELLSTYLE_END
300
CELLSTYLE
  1
TABLEFORMAT_BEGIN
 90
        5
170
     1
 91
        0
 92
        0
 62
   257
 93
        1
300
CONTENTFORMAT
  1
CONTENTFORMAT_BEGIN
 90
        0
 91
        0
 92
      512
 93
        0
300

 40
0.0
140
1.0
 94
        2
 62
     0
340
55
144
0.18
309
CONTENTFORMAT_END
171
     0
 94
        0
309
TABLEFORMAT_END
  1
CELLSTYLE_BEGIN
 90
        3
 91
        2
300
_DATA
309
CELLSTYLE_END
  0
XRECORD
  5
123
102
{ACAD_REACTORS
330
122
102
}
330
122
100
AcDbXrecord
280
     1
102
RTVSPost2010Prop28
280
     1
102
RTVSPost2010PropOp28
 70
     1
102
RTVSPost2010Prop29
280
     1
102
RTVSPost2010PropOp29
 70
     1
102
RTVSPost2010Prop30
280
     0
102
RTVSPost2010PropOp30
 70
     1
102
RTVSPost2010Prop31
280
     0
102
RTVSPost2010PropOp31
 70
     1
102
RTVSPost2010Prop32
280
     0
102
RTVSPost2010PropOp32
 70
     1
102
RTVSPost2010Prop33
280
     0
102
RTVSPost2010PropOp33
 70
     1
102
RTVSPost2010Prop34
280
     0
102
RTVSPost2010PropOp34
 70
     1
102
RTVSPost2010Prop35
280
     0
102
RTVSPost2010PropOp35
 70
     1
102
RTVSPost2010Prop36
280
     0
102
RTVSPost2010PropOp36
 70
     1
102
RTVSPost2010Prop37
 90
       50
102
RTVSPost2010PropOp37
 70
     1
102
RTVSPost2010Prop38
140
0.0
102
RTVSPost2010PropOp38
 70
     1
102
RTVSPost2010Prop39
140
1.0
102
RTVSPost2010PropOp39
 70
     1
102
RTVSPost2010Prop40
 90
        0
102
RTVSPost2010PropOp40
 70
     1
102
RTVSPost2010Prop41ColorIndex
 90
       18
102
RTVSPost2010Prop41ColorRGB
 90
        0
102
RTVSPost2010PropOp41
 70
     1
102
RTVSPost2010Prop42
 90
       50
102
RTVSPost2010PropOp42
 70
     1
102
RTVSPost2010Prop43
 90
        3
102
RTVSPost2010PropOp43
 70
     1
102
RTVSPost2010Prop44ColorIndex
 90
        5
102
RTVSPost2010Prop44ColorRGB
 90
      255
102
RTVSPost2010PropOp44
 70
     1
102
RTVSPost2010Prop45
280
     0
102
RTVSPost2010PropOp45
 70
     1
102
RTVSPost2010Prop46
 90
       50
102
RTVSPost2010PropOp46
 70
     1
102
RTVSPost2010Prop47
 90
       50
102
RTVSPost2010PropOp47
 70
     1
102
RTVSPost2010Prop48
 90
       50
102
RTVSPost2010PropOp48
 70
     1
102
RTVSPost2010Prop49
280
     0
102
RTVSPost2010PropOp49
 70
     1
102
RTVSPost2010Prop50
 90
       50
102
RTVSPost2010PropOp50
 70
     1
102
RTVSPost2010Prop51ColorIndex
 90
      256
102
RTVSPost2010Prop51ColorRGB
 90
-16777216
102
RTVSPost2010PropOp51
 70
     0
102
RTVSPost2010Prop52
140
1.0
102
RTVSPost2010PropOp52
 70
     0
102
RTVSPost2010Prop53
 90
        2
102
RTVSPost2010PropOp53
 70
     1
102
RTVSPost2010Prop54
  1
strokes_ogs.tif
102
RTVSPost2010PropOp54
 70
     1
102
RTVSPost2010Prop55
280
     0
102
RTVSPost2010PropOp55
 70
     1
102
RTVSPost2010Prop56
140
1.0
102
RTVSPost2010PropOp56
 70
     1
102
RTVSPost2010Prop57
140
1.0
102
RTVSPost2010PropOp57
 70
     1
  0
XRECORD
  5
121
102
{ACAD_REACTORS
330
120
102
}
330
120
100
AcDbXrecord
280
     1
102
RTVSPost2010Prop28
280
     0
102
RTVSPost2010PropOp28
 70
     1
102
RTVSPost2010Prop29
280
     1
102
RTVSPost2010PropOp29
 70
     1
102
RTVSPost2010Prop30
280
     1
102
RTVSPost2010PropOp30
 70
     1
102
RTVSPost2010Prop31
280
     0
102
RTVSPost2010PropOp31
 70
     1
102
RTVSPost2010Prop32
280
     0
102
RTVSPost2010PropOp32
 70
     1
102
RTVSPost2010Prop33
280
     0
102
RTVSPost2010PropOp33
 70
     1
102
RTVSPost2010Prop34
280
     0
102
RTVSPost2010PropOp34
 70
     1
102
RTVSPost2010Prop35
280
     0
102
RTVSPost2010PropOp35
 70
     1
102
RTVSPost2010Prop36
280
     0
102
RTVSPost2010PropOp36
 70
     1
102
RTVSPost2010Prop37
 90
       50
102
RTVSPost2010PropOp37
 70
     1
102
RTVSPost2010Prop38
140
0.0
102
RTVSPost2010PropOp38
 70
     1
102
RTVSPost2010Prop39
140
1.0
102
RTVSPost2010PropOp39
 70
     1
102
RTVSPost2010Prop40
 90
        0
102
RTVSPost2010PropOp40
 70
     1
102
RTVSPost2010Prop41ColorIndex
 90
       18
102
RTVSPost2010Prop41ColorRGB
 90
        0
102
RTVSPost2010PropOp41
 70
     1
102
RTVSPost2010Prop42
 90
       50
102
RTVSPost2010PropOp42
 70
     1
102
RTVSPost2010Prop43
 90
        3
102
RTVSPost2010PropOp43
 70
     1
102
RTVSPost2010Prop44ColorIndex
 90
        5
102
RTVSPost2010Prop44ColorRGB
 90
      255
102
RTVSPost2010PropOp44
 70
     1
102
RTVSPost2010Prop45
280
     0
102
RTVSPost2010PropOp45
 70
     1
102
RTVSPost2010Prop46
 90
       50
102
RTVSPost2010PropOp46
 70
     1
102
RTVSPost2010Prop47
 90
       50
102
RTVSPost2010PropOp47
 70
     1
102
RTVSPost2010Prop48
 90
       50
102
RTVSPost2010PropOp48
 70
     1
102
RTVSPost2010Prop49
280
     0
102
RTVSPost2010PropOp49
 70
     1
102
RTVSPost2010Prop50
 90
       50
102
RTVSPost2010PropOp50
 70
     1
102
RTVSPost2010Prop51ColorIndex
 90
      256
102
RTVSPost2010Prop51ColorRGB
 90
-16777216
102
RTVSPost2010PropOp51
 70
     0
102
RTVSPost2010Prop52
140
1.0
102
RTVSPost2010PropOp52
 70
     0
102
RTVSPost2010Prop53
 90
        2
102
RTVSPost2010PropOp53
 70
     1
102
RTVSPost2010Prop54
  1
strokes_ogs.tif
102
RTVSPost2010PropOp54
 70
     1
102
RTVSPost2010Prop55
280
     0
102
RTVSPost2010PropOp55
 70
     1
102
RTVSPost2010Prop56
140
1.0
102
RTVSPost2010PropOp56
 70
     1
102
RTVSPost2010Prop57
140
1.0
102
RTVSPost2010PropOp57
 70
     1
  0
XRECORD
  5
12F
102
{ACAD_REACTORS
330
12E
102
}
330
12E
100
AcDbXrecord
280
     1
102
RTVSPost2010Prop28
280
     0
102
RTVSPost2010PropOp28
 70
     1
102
RTVSPost2010Prop29
280
     1
102
RTVSPost2010PropOp29
 70
     1
102
RTVSPost2010Prop30
280
     1
102
RTVSPost2010PropOp30
 70
     1
102
RTVSPost2010Prop31
280
     0
102
RTVSPost2010PropOp31
 70
     1
102
RTVSPost2010Prop32
280
     0
102
RTVSPost2010PropOp32
 70
     1
102
RTVSPost2010Prop33
280
     0
102
RTVSPost2010PropOp33
 70
     1
102
RTVSPost2010Prop34
280
     0
102
RTVSPost2010PropOp34
 70
     1
102
RTVSPost2010Prop35
280
     0
102
RTVSPost2010PropOp35
 70
     1
102
RTVSPost2010Prop36
280
     0
102
RTVSPost2010PropOp36
 70
     1
102
RTVSPost2010Prop37
 90
       50
102
RTVSPost2010PropOp37
 70
     1
102
RTVSPost2010Prop38
140
0.0
102
RTVSPost2010PropOp38
 70
     1
102
RTVSPost2010Prop39
140
1.0
102
RTVSPost2010PropOp39
 70
     1
102
RTVSPost2010Prop40
 90
        0
102
RTVSPost2010PropOp40
 70
     1
102
RTVSPost2010Prop41ColorIndex
 90
       18
102
RTVSPost2010Prop41ColorRGB
 90
        0
102
RTVSPost2010PropOp41
 70
     1
102
RTVSPost2010Prop42
 90
       50
102
RTVSPost2010PropOp42
 70
     1
102
RTVSPost2010Prop43
 90
        3
102
RTVSPost2010PropOp43
 70
     1
102
RTVSPost2010Prop44ColorIndex
 90
        5
102
RTVSPost2010Prop44ColorRGB
 90
      255
102
RTVSPost2010PropOp44
 70
     1
102
RTVSPost2010Prop45
280
     0
102
RTVSPost2010PropOp45
 70
     1
102
RTVSPost2010Prop46
 90
       50
102
RTVSPost2010PropOp46
 70
     1
102
RTVSPost2010Prop47
 90
       50
102
RTVSPost2010PropOp47
 70
     1
102
RTVSPost2010Prop48
 90
       50
102
RTVSPost2010PropOp48
 70
     1
102
RTVSPost2010Prop49
280
     0
102
RTVSPost2010PropOp49
 70
     1
102
RTVSPost2010Prop50
 90
       50
102
RTVSPost2010PropOp50
 70
     1
102
RTVSPost2010Prop51ColorIndex
 90
      256
102
RTVSPost2010Prop51ColorRGB
 90
-16777216
102
RTVSPost2010PropOp51
 70
     0
102
RTVSPost2010Prop52
140
1.0
102
RTVSPost2010PropOp52
 70
     0
102
RTVSPost2010Prop53
 90
        2
102
RTVSPost2010PropOp53
 70
     1
102
RTVSPost2010Prop54
  1
strokes_ogs.tif
102
RTVSPost2010PropOp54
 70
     1
102
RTVSPost2010Prop55
280
     0
102
RTVSPost2010PropOp55
 70
     1
102
RTVSPost2010Prop56
140
1.0
102
RTVSPost2010PropOp56
 70
     1
102
RTVSPost2010Prop57
140
1.0
102
RTVSPost2010PropOp57
 70
     1
  0
XRECORD
  5
137
102
{ACAD_REACTORS
330
136
102
}
330
136
100
AcDbXrecord
280
     1
102
RTVSPost2010Prop28
280
     0
102
RTVSPost2010PropOp28
 70
     1
102
RTVSPost2010Prop29
280
     1
102
RTVSPost2010PropOp29
 70
     1
102
RTVSPost2010Prop30
280
     1
102
RTVSPost2010PropOp30
 70
     1
102
RTVSPost2010Prop31
280
     0
102
RTVSPost2010PropOp31
 70
     1
102
RTVSPost2010Prop32
280
     0
102
RTVSPost2010PropOp32
 70
     1
102
RTVSPost2010Prop33
280
     0
102
RTVSPost2010PropOp33
 70
     1
102
RTVSPost2010Prop34
280
     0
102
RTVSPost2010PropOp34
 70
     1
102
RTVSPost2010Prop35
280
     0
102
RTVSPost2010PropOp35
 70
     1
102
RTVSPost2010Prop36
280
     0
102
RTVSPost2010PropOp36
 70
     1
102
RTVSPost2010Prop37
 90
       50
102
RTVSPost2010PropOp37
 70
     1
102
RTVSPost2010Prop38
140
0.0
102
RTVSPost2010PropOp38
 70
     1
102
RTVSPost2010Prop39
140
1.0
102
RTVSPost2010PropOp39
 70
     1
102
RTVSPost2010Prop40
 90
        0
102
RTVSPost2010PropOp40
 70
     1
102
RTVSPost2010Prop41ColorIndex
 90
       18
102
RTVSPost2010Prop41ColorRGB
 90
        0
102
RTVSPost2010PropOp41
 70
     1
102
RTVSPost2010Prop42
 90
       50
102
RTVSPost2010PropOp42
 70
     1
102
RTVSPost2010Prop43
 90
        3
102
RTVSPost2010PropOp43
 70
     1
102
RTVSPost2010Prop44ColorIndex
 90
        5
102
RTVSPost2010Prop44ColorRGB
 90
      255
102
RTVSPost2010PropOp44
 70
     1
102
RTVSPost2010Prop45
280
     0
102
RTVSPost2010PropOp45
 70
     1
102
RTVSPost2010Prop46
 90
       50
102
RTVSPost2010PropOp46
 70
     1
102
RTVSPost2010Prop47
 90
       50
102
RTVSPost2010PropOp47
 70
     1
102
RTVSPost2010Prop48
 90
       50
102
RTVSPost2010PropOp48
 70
     1
102
RTVSPost2010Prop49
280
     0
102
RTVSPost2010PropOp49
 70
     1
102
RTVSPost2010Prop50
 90
       50
102
RTVSPost2010PropOp50
 70
     1
102
RTVSPost2010Prop51ColorIndex
 90
      256
102
RTVSPost2010Prop51ColorRGB
 90
-16777216
102
RTVSPost2010PropOp51
 70
     0
102
RTVSPost2010Prop52
140
1.0
102
RTVSPost2010PropOp52
 70
     0
102
RTVSPost2010Prop53
 90
        2
102
RTVSPost2010PropOp53
 70
     1
102
RTVSPost2010Prop54
  1
strokes_ogs.tif
102
RTVSPost2010PropOp54
 70
     1
102
RTVSPost2010Prop55
280
     0
102
RTVSPost2010PropOp55
 70
     1
102
RTVSPost2010Prop56
140
1.0
102
RTVSPost2010PropOp56
 70
     1
102
RTVSPost2010Prop57
140
1.0
102
RTVSPost2010PropOp57
 70
     1
  0
XRECORD
  5
129
102
{ACAD_REACTORS
330
128
102
}
330
128
100
AcDbXrecord
280
     1
102
RTVSPost2010Prop28
280
     0
102
RTVSPost2010PropOp28
 70
     1
102
RTVSPost2010Prop29
280
     1
102
RTVSPost2010PropOp29
 70
     1
102
RTVSPost2010Prop30
280
     1
102
RTVSPost2010PropOp30
 70
     1
102
RTVSPost2010Prop31
280
     0
102
RTVSPost2010PropOp31
 70
     1
102
RTVSPost2010Prop32
280
     0
102
RTVSPost2010PropOp32
 70
     1
102
RTVSPost2010Prop33
280
     0
102
RTVSPost2010PropOp33
 70
     1
102
RTVSPost2010Prop34
280
     0
102
RTVSPost2010PropOp34
 70
     1
102
RTVSPost2010Prop35
280
     0
102
RTVSPost2010PropOp35
 70
     1
102
RTVSPost2010Prop36
280
     0
102
RTVSPost2010PropOp36
 70
     1
102
RTVSPost2010Prop37
 90
       50
102
RTVSPost2010PropOp37
 70
     1
102
RTVSPost2010Prop38
140
0.0
102
RTVSPost2010PropOp38
 70
     1
102
RTVSPost2010Prop39
140
1.0
102
RTVSPost2010PropOp39
 70
     1
102
RTVSPost2010Prop40
 90
        0
102
RTVSPost2010PropOp40
 70
     1
102
RTVSPost2010Prop41ColorIndex
 90
       18
102
RTVSPost2010Prop41ColorRGB
 90
        0
102
RTVSPost2010PropOp41
 70
     1
102
RTVSPost2010Prop42
 90
       50
102
RTVSPost2010PropOp42
 70
     1
102
RTVSPost2010Prop43
 90
        3
102
RTVSPost2010PropOp43
 70
     1
102
RTVSPost2010Prop44ColorIndex
 90
        5
102
RTVSPost2010Prop44ColorRGB
 90
      255
102
RTVSPost2010PropOp44
 70
     1
102
RTVSPost2010Prop45
280
     0
102
RTVSPost2010PropOp45
 70
     1
102
RTVSPost2010Prop46
 90
       50
102
RTVSPost2010PropOp46
 70
     1
102
RTVSPost2010Prop47
 90
       50
102
RTVSPost2010PropOp47
 70
     1
102
RTVSPost2010Prop48
 90
       50
102
RTVSPost2010PropOp48
 70
     1
102
RTVSPost2010Prop49
280
     0
102
RTVSPost2010PropOp49
 70
     1
102
RTVSPost2010Prop50
 90
       50
102
RTVSPost2010PropOp50
 70
     1
102
RTVSPost2010Prop51ColorIndex
 90
      256
102
RTVSPost2010Prop51ColorRGB
 90
-16777216
102
RTVSPost2010PropOp51
 70
     0
102
RTVSPost2010Prop52
140
1.0
102
RTVSPost2010PropOp52
 70
     0
102
RTVSPost2010Prop53
 90
        2
102
RTVSPost2010PropOp53
 70
     1
102
RTVSPost2010Prop54
  1
strokes_ogs.tif
102
RTVSPost2010PropOp54
 70
     1
102
RTVSPost2010Prop55
280
     0
102
RTVSPost2010PropOp55
 70
     1
102
RTVSPost2010Prop56
140
1.0
102
RTVSPost2010PropOp56
 70
     1
102
RTVSPost2010Prop57
140
1.0
102
RTVSPost2010PropOp57
 70
     1
  0
XRECORD
  5
12D
102
{ACAD_REACTORS
330
12C
102
}
330
12C
100
AcDbXrecord
280
     1
102
RTVSPost2010Prop28
280
     0
102
RTVSPost2010PropOp28
 70
     1
102
RTVSPost2010Prop29
280
     1
102
RTVSPost2010PropOp29
 70
     1
102
RTVSPost2010Prop30
280
     1
102
RTVSPost2010PropOp30
 70
     1
102
RTVSPost2010Prop31
280
     0
102
RTVSPost2010PropOp31
 70
     1
102
RTVSPost2010Prop32
280
     0
102
RTVSPost2010PropOp32
 70
     1
102
RTVSPost2010Prop33
280
     0
102
RTVSPost2010PropOp33
 70
     1
102
RTVSPost2010Prop34
280
     0
102
RTVSPost2010PropOp34
 70
     1
102
RTVSPost2010Prop35
280
     0
102
RTVSPost2010PropOp35
 70
     1
102
RTVSPost2010Prop36
280
     0
102
RTVSPost2010PropOp36
 70
     1
102
RTVSPost2010Prop37
 90
       50
102
RTVSPost2010PropOp37
 70
     1
102
RTVSPost2010Prop38
140
0.0
102
RTVSPost2010PropOp38
 70
     1
102
RTVSPost2010Prop39
140
1.0
102
RTVSPost2010PropOp39
 70
     1
102
RTVSPost2010Prop40
 90
        0
102
RTVSPost2010PropOp40
 70
     1
102
RTVSPost2010Prop41ColorIndex
 90
       18
102
RTVSPost2010Prop41ColorRGB
 90
        0
102
RTVSPost2010PropOp41
 70
     1
102
RTVSPost2010Prop42
 90
       50
102
RTVSPost2010PropOp42
 70
     1
102
RTVSPost2010Prop43
 90
        3
102
RTVSPost2010PropOp43
 70
     1
102
RTVSPost2010Prop44ColorIndex
 90
        5
102
RTVSPost2010Prop44ColorRGB
 90
      255
102
RTVSPost2010PropOp44
 70
     1
102
RTVSPost2010Prop45
280
     0
102
RTVSPost2010PropOp45
 70
     1
102
RTVSPost2010Prop46
 90
       50
102
RTVSPost2010PropOp46
 70
     1
102
RTVSPost2010Prop47
 90
       50
102
RTVSPost2010PropOp47
 70
     1
102
RTVSPost2010Prop48
 90
       50
102
RTVSPost2010PropOp48
 70
     1
102
RTVSPost2010Prop49
280
     0
102
RTVSPost2010PropOp49
 70
     1
102
RTVSPost2010Prop50
 90
       50
102
RTVSPost2010PropOp50
 70
     1
102
RTVSPost2010Prop51ColorIndex
 90
      256
102
RTVSPost2010Prop51ColorRGB
 90
-16777216
102
RTVSPost2010PropOp51
 70
     0
102
RTVSPost2010Prop52
140
1.0
102
RTVSPost2010PropOp52
 70
     0
102
RTVSPost2010Prop53
 90
        2
102
RTVSPost2010PropOp53
 70
     1
102
RTVSPost2010Prop54
  1
strokes_ogs.tif
102
RTVSPost2010PropOp54
 70
     1
102
RTVSPost2010Prop55
280
     0
102
RTVSPost2010PropOp55
 70
     1
102
RTVSPost2010Prop56
140
1.0
102
RTVSPost2010PropOp56
 70
     1
102
RTVSPost2010Prop57
140
1.0
102
RTVSPost2010PropOp57
 70
     1
  0
XRECORD
  5
147
102
{ACAD_REACTORS
330
146
102
}
330
146
100
AcDbXrecord
280
     1
102
RTVSPost2010Prop28
280
     0
102
RTVSPost2010PropOp28
 70
     0
102
RTVSPost2010Prop29
280
     1
102
RTVSPost2010PropOp29
 70
     0
102
RTVSPost2010Prop30
280
     1
102
RTVSPost2010PropOp30
 70
     0
102
RTVSPost2010Prop31
280
     0
102
RTVSPost2010PropOp31
 70
     0
102
RTVSPost2010Prop32
280
     0
102
RTVSPost2010PropOp32
 70
     0
102
RTVSPost2010Prop33
280
     0
102
RTVSPost2010PropOp33
 70
     0
102
RTVSPost2010Prop34
280
     0
102
RTVSPost2010PropOp34
 70
     0
102
RTVSPost2010Prop35
280
     0
102
RTVSPost2010PropOp35
 70
     0
102
RTVSPost2010Prop36
280
     0
102
RTVSPost2010PropOp36
 70
     0
102
RTVSPost2010Prop37
 90
       50
102
RTVSPost2010PropOp37
 70
     0
102
RTVSPost2010Prop38
140
0.0
102
RTVSPost2010PropOp38
 70
     0
102
RTVSPost2010Prop39
140
1.0
102
RTVSPost2010PropOp39
 70
     0
102
RTVSPost2010Prop40
 90
        0
102
RTVSPost2010PropOp40
 70
     0
102
RTVSPost2010Prop41ColorIndex
 90
       18
102
RTVSPost2010Prop41ColorRGB
 90
        0
102
RTVSPost2010PropOp41
 70
     0
102
RTVSPost2010Prop42
 90
       50
102
RTVSPost2010PropOp42
 70
     0
102
RTVSPost2010Prop43
 90
        3
102
RTVSPost2010PropOp43
 70
     0
102
RTVSPost2010Prop44ColorIndex
 90
        5
102
RTVSPost2010Prop44ColorRGB
 90
      255
102
RTVSPost2010PropOp44
 70
     0
102
RTVSPost2010Prop45
280
     0
102
RTVSPost2010PropOp45
 70
     0
102
RTVSPost2010Prop46
 90
       50
102
RTVSPost2010PropOp46
 70
     0
102
RTVSPost2010Prop47
 90
       50
102
RTVSPost2010PropOp47
 70
     0
102
RTVSPost2010Prop48
 90
       50
102
RTVSPost2010PropOp48
 70
     0
102
RTVSPost2010Prop49
280
     0
102
RTVSPost2010PropOp49
 70
     0
102
RTVSPost2010Prop50
 90
       50
102
RTVSPost2010PropOp50
 70
     0
102
RTVSPost2010Prop51ColorIndex
 90
      256
102
RTVSPost2010Prop51ColorRGB
 90
-16777216
102
RTVSPost2010PropOp51
 70
     0
102
RTVSPost2010Prop52
140
1.0
102
RTVSPost2010PropOp52
 70
     0
102
RTVSPost2010Prop53
 90
        2
102
RTVSPost2010PropOp53
 70
     0
102
RTVSPost2010Prop54
  1
strokes_ogs.tif
102
RTVSPost2010PropOp54
 70
     0
102
RTVSPost2010Prop55
280
     0
102
RTVSPost2010PropOp55
 70
     0
102
RTVSPost2010Prop56
140
1.0
102
RTVSPost2010PropOp56
 70
     0
102
RTVSPost2010Prop57
140
1.0
102
RTVSPost2010PropOp57
 70
     0
  0
XRECORD
  5
135
102
{ACAD_REACTORS
330
134
102
}
330
134
100
AcDbXrecord
280
     1
102
RTVSPost2010Prop28
280
     0
102
RTVSPost2010PropOp28
 70
     1
102
RTVSPost2010Prop29
280
     1
102
RTVSPost2010PropOp29
 70
     1
102
RTVSPost2010Prop30
280
     1
102
RTVSPost2010PropOp30
 70
     1
102
RTVSPost2010Prop31
280
     0
102
RTVSPost2010PropOp31
 70
     1
102
RTVSPost2010Prop32
280
     0
102
RTVSPost2010PropOp32
 70
     1
102
RTVSPost2010Prop33
280
     0
102
RTVSPost2010PropOp33
 70
     1
102
RTVSPost2010Prop34
280
     0
102
RTVSPost2010PropOp34
 70
     1
102
RTVSPost2010Prop35
280
     0
102
RTVSPost2010PropOp35
 70
     1
102
RTVSPost2010Prop36
280
     0
102
RTVSPost2010PropOp36
 70
     1
102
RTVSPost2010Prop37
 90
       50
102
RTVSPost2010PropOp37
 70
     1
102
RTVSPost2010Prop38
140
0.0
102
RTVSPost2010PropOp38
 70
     1
102
RTVSPost2010Prop39
140
1.0
102
RTVSPost2010PropOp39
 70
     1
102
RTVSPost2010Prop40
 90
        0
102
RTVSPost2010PropOp40
 70
     1
102
RTVSPost2010Prop41ColorIndex
 90
       18
102
RTVSPost2010Prop41ColorRGB
 90
        0
102
RTVSPost2010PropOp41
 70
     1
102
RTVSPost2010Prop42
 90
       50
102
RTVSPost2010PropOp42
 70
     1
102
RTVSPost2010Prop43
 90
        3
102
RTVSPost2010PropOp43
 70
     1
102
RTVSPost2010Prop44ColorIndex
 90
        5
102
RTVSPost2010Prop44ColorRGB
 90
      255
102
RTVSPost2010PropOp44
 70
     1
102
RTVSPost2010Prop45
280
     0
102
RTVSPost2010PropOp45
 70
     1
102
RTVSPost2010Prop46
 90
       50
102
RTVSPost2010PropOp46
 70
     1
102
RTVSPost2010Prop47
 90
       50
102
RTVSPost2010PropOp47
 70
     1
102
RTVSPost2010Prop48
 90
       50
102
RTVSPost2010PropOp48
 70
     1
102
RTVSPost2010Prop49
280
     0
102
RTVSPost2010PropOp49
 70
     1
102
RTVSPost2010Prop50
 90
       50
102
RTVSPost2010PropOp50
 70
     1
102
RTVSPost2010Prop51ColorIndex
 90
      256
102
RTVSPost2010Prop51ColorRGB
 90
-16777216
102
RTVSPost2010PropOp51
 70
     0
102
RTVSPost2010Prop52
140
1.0
102
RTVSPost2010PropOp52
 70
     0
102
RTVSPost2010Prop53
 90
        2
102
RTVSPost2010PropOp53
 70
     1
102
RTVSPost2010Prop54
  1
strokes_ogs.tif
102
RTVSPost2010PropOp54
 70
     1
102
RTVSPost2010Prop55
280
     0
102
RTVSPost2010PropOp55
 70
     1
102
RTVSPost2010Prop56
140
1.0
102
RTVSPost2010PropOp56
 70
     1
102
RTVSPost2010Prop57
140
1.0
102
RTVSPost2010PropOp57
 70
     1
  0
XRECORD
  5
119
102
{ACAD_REACTORS
330
118
102
}
330
118
100
AcDbXrecord
280
     1
102
RTVSPost2010Prop28
280
     0
102
RTVSPost2010PropOp28
 70
     1
102
RTVSPost2010Prop29
280
     1
102
RTVSPost2010PropOp29
 70
     1
102
RTVSPost2010Prop30
280
     1
102
RTVSPost2010PropOp30
 70
     1
102
RTVSPost2010Prop31
280
     0
102
RTVSPost2010PropOp31
 70
     1
102
RTVSPost2010Prop32
280
     0
102
RTVSPost2010PropOp32
 70
     1
102
RTVSPost2010Prop33
280
     0
102
RTVSPost2010PropOp33
 70
     1
102
RTVSPost2010Prop34
280
     0
102
RTVSPost2010PropOp34
 70
     1
102
RTVSPost2010Prop35
280
     0
102
RTVSPost2010PropOp35
 70
     1
102
RTVSPost2010Prop36
280
     0
102
RTVSPost2010PropOp36
 70
     1
102
RTVSPost2010Prop37
 90
       50
102
RTVSPost2010PropOp37
 70
     1
102
RTVSPost2010Prop38
140
0.0
102
RTVSPost2010PropOp38
 70
     1
102
RTVSPost2010Prop39
140
1.0
102
RTVSPost2010PropOp39
 70
     1
102
RTVSPost2010Prop40
 90
        0
102
RTVSPost2010PropOp40
 70
     1
102
RTVSPost2010Prop41ColorIndex
 90
       18
102
RTVSPost2010Prop41ColorRGB
 90
        0
102
RTVSPost2010PropOp41
 70
     1
102
RTVSPost2010Prop42
 90
       50
102
RTVSPost2010PropOp42
 70
     1
102
RTVSPost2010Prop43
 90
        3
102
RTVSPost2010PropOp43
 70
     1
102
RTVSPost2010Prop44ColorIndex
 90
        5
102
RTVSPost2010Prop44ColorRGB
 90
      255
102
RTVSPost2010PropOp44
 70
     1
102
RTVSPost2010Prop45
280
     0
102
RTVSPost2010PropOp45
 70
     1
102
RTVSPost2010Prop46
 90
       50
102
RTVSPost2010PropOp46
 70
     1
102
RTVSPost2010Prop47
 90
       50
102
RTVSPost2010PropOp47
 70
     1
102
RTVSPost2010Prop48
 90
       50
102
RTVSPost2010PropOp48
 70
     1
102
RTVSPost2010Prop49
280
     0
102
RTVSPost2010PropOp49
 70
     1
102
RTVSPost2010Prop50
 90
       50
102
RTVSPost2010PropOp50
 70
     1
102
RTVSPost2010Prop51ColorIndex
 90
      256
102
RTVSPost2010Prop51ColorRGB
 90
-16777216
102
RTVSPost2010PropOp51
 70
     0
102
RTVSPost2010Prop52
140
1.0
102
RTVSPost2010PropOp52
 70
     0
102
RTVSPost2010Prop53
 90
        2
102
RTVSPost2010PropOp53
 70
     1
102
RTVSPost2010Prop54
  1
strokes_ogs.tif
102
RTVSPost2010PropOp54
 70
     1
102
RTVSPost2010Prop55
280
     0
102
RTVSPost2010PropOp55
 70
     1
102
RTVSPost2010Prop56
140
1.0
102
RTVSPost2010PropOp56
 70
     1
102
RTVSPost2010Prop57
140
1.0
102
RTVSPost2010PropOp57
 70
     1
  0
XRECORD
  5
11B
102
{ACAD_REACTORS
330
11A
102
}
330
11A
100
AcDbXrecord
280
     1
102
RTVSPost2010Prop28
280
     0
102
RTVSPost2010PropOp28
 70
     1
102
RTVSPost2010Prop29
280
     1
102
RTVSPost2010PropOp29
 70
     1
102
RTVSPost2010Prop30
280
     1
102
RTVSPost2010PropOp30
 70
     1
102
RTVSPost2010Prop31
280
     0
102
RTVSPost2010PropOp31
 70
     1
102
RTVSPost2010Prop32
280
     0
102
RTVSPost2010PropOp32
 70
     1
102
RTVSPost2010Prop33
280
     0
102
RTVSPost2010PropOp33
 70
     1
102
RTVSPost2010Prop34
280
     0
102
RTVSPost2010PropOp34
 70
     1
102
RTVSPost2010Prop35
280
     0
102
RTVSPost2010PropOp35
 70
     1
102
RTVSPost2010Prop36
280
     0
102
RTVSPost2010PropOp36
 70
     1
102
RTVSPost2010Prop37
 90
       50
102
RTVSPost2010PropOp37
 70
     1
102
RTVSPost2010Prop38
140
0.0
102
RTVSPost2010PropOp38
 70
     1
102
RTVSPost2010Prop39
140
1.0
102
RTVSPost2010PropOp39
 70
     1
102
RTVSPost2010Prop40
 90
        0
102
RTVSPost2010PropOp40
 70
     1
102
RTVSPost2010Prop41ColorIndex
 90
       18
102
RTVSPost2010Prop41ColorRGB
 90
        0
102
RTVSPost2010PropOp41
 70
     1
102
RTVSPost2010Prop42
 90
       50
102
RTVSPost2010PropOp42
 70
     1
102
RTVSPost2010Prop43
 90
        3
102
RTVSPost2010PropOp43
 70
     1
102
RTVSPost2010Prop44ColorIndex
 90
        5
102
RTVSPost2010Prop44ColorRGB
 90
      255
102
RTVSPost2010PropOp44
 70
     1
102
RTVSPost2010Prop45
280
     0
102
RTVSPost2010PropOp45
 70
     1
102
RTVSPost2010Prop46
 90
       50
102
RTVSPost2010PropOp46
 70
     1
102
RTVSPost2010Prop47
 90
       50
102
RTVSPost2010PropOp47
 70
     1
102
RTVSPost2010Prop48
 90
       50
102
RTVSPost2010PropOp48
 70
     1
102
RTVSPost2010Prop49
280
     0
102
RTVSPost2010PropOp49
 70
     1
102
RTVSPost2010Prop50
 90
       50
102
RTVSPost2010PropOp50
 70
     1
102
RTVSPost2010Prop51ColorIndex
 90
      256
102
RTVSPost2010Prop51ColorRGB
 90
-16777216
102
RTVSPost2010PropOp51
 70
     0
102
RTVSPost2010Prop52
140
1.0
102
RTVSPost2010PropOp52
 70
     0
102
RTVSPost2010Prop53
 90
        2
102
RTVSPost2010PropOp53
 70
     1
102
RTVSPost2010Prop54
  1
strokes_ogs.tif
102
RTVSPost2010PropOp54
 70
     1
102
RTVSPost2010Prop55
280
     0
102
RTVSPost2010PropOp55
 70
     1
102
RTVSPost2010Prop56
140
1.0
102
RTVSPost2010PropOp56
 70
     1
102
RTVSPost2010Prop57
140
1.0
102
RTVSPost2010PropOp57
 70
     1
  0
XRECORD
  5
11D
102
{ACAD_REACTORS
330
11C
102
}
330
11C
100
AcDbXrecord
280
     1
102
RTVSPost2010Prop28
280
     0
102
RTVSPost2010PropOp28
 70
     1
102
RTVSPost2010Prop29
280
     1
102
RTVSPost2010PropOp29
 70
     1
102
RTVSPost2010Prop30
280
     1
102
RTVSPost2010PropOp30
 70
     1
102
RTVSPost2010Prop31
280
     0
102
RTVSPost2010PropOp31
 70
     1
102
RTVSPost2010Prop32
280
     0
102
RTVSPost2010PropOp32
 70
     1
102
RTVSPost2010Prop33
280
     0
102
RTVSPost2010PropOp33
 70
     1
102
RTVSPost2010Prop34
280
     0
102
RTVSPost2010PropOp34
 70
     1
102
RTVSPost2010Prop35
280
     0
102
RTVSPost2010PropOp35
 70
     1
102
RTVSPost2010Prop36
280
     0
102
RTVSPost2010PropOp36
 70
     1
102
RTVSPost2010Prop37
 90
       50
102
RTVSPost2010PropOp37
 70
     1
102
RTVSPost2010Prop38
140
0.0
102
RTVSPost2010PropOp38
 70
     1
102
RTVSPost2010Prop39
140
1.0
102
RTVSPost2010PropOp39
 70
     1
102
RTVSPost2010Prop40
 90
        0
102
RTVSPost2010PropOp40
 70
     1
102
RTVSPost2010Prop41ColorIndex
 90
       18
102
RTVSPost2010Prop41ColorRGB
 90
        0
102
RTVSPost2010PropOp41
 70
     1
102
RTVSPost2010Prop42
 90
       50
102
RTVSPost2010PropOp42
 70
     1
102
RTVSPost2010Prop43
 90
        3
102
RTVSPost2010PropOp43
 70
     1
102
RTVSPost2010Prop44ColorIndex
 90
        5
102
RTVSPost2010Prop44ColorRGB
 90
      255
102
RTVSPost2010PropOp44
 70
     1
102
RTVSPost2010Prop45
280
     0
102
RTVSPost2010PropOp45
 70
     1
102
RTVSPost2010Prop46
 90
       50
102
RTVSPost2010PropOp46
 70
     1
102
RTVSPost2010Prop47
 90
       50
102
RTVSPost2010PropOp47
 70
     1
102
RTVSPost2010Prop48
 90
       50
102
RTVSPost2010PropOp48
 70
     1
102
RTVSPost2010Prop49
280
     0
102
RTVSPost2010PropOp49
 70
     1
102
RTVSPost2010Prop50
 90
       50
102
RTVSPost2010PropOp50
 70
     1
102
RTVSPost2010Prop51ColorIndex
 90
      256
102
RTVSPost2010Prop51ColorRGB
 90
-16777216
102
RTVSPost2010PropOp51
 70
     0
102
RTVSPost2010Prop52
140
1.0
102
RTVSPost2010PropOp52
 70
     0
102
RTVSPost2010Prop53
 90
        2
102
RTVSPost2010PropOp53
 70
     1
102
RTVSPost2010Prop54
  1
strokes_ogs.tif
102
RTVSPost2010PropOp54
 70
     1
102
RTVSPost2010Prop55
280
     0
102
RTVSPost2010PropOp55
 70
     1
102
RTVSPost2010Prop56
140
1.0
102
RTVSPost2010PropOp56
 70
     1
102
RTVSPost2010Prop57
140
1.0
102
RTVSPost2010PropOp57
 70
     1
  0
XRECORD
  5
11F
102
{ACAD_REACTORS
330
11E
102
}
330
11E
100
AcDbXrecord
280
     1
102
RTVSPost2010Prop28
280
     0
102
RTVSPost2010PropOp28
 70
     1
102
RTVSPost2010Prop29
280
     1
102
RTVSPost2010PropOp29
 70
     1
102
RTVSPost2010Prop30
280
     1
102
RTVSPost2010PropOp30
 70
     1
102
RTVSPost2010Prop31
280
     0
102
RTVSPost2010PropOp31
 70
     1
102
RTVSPost2010Prop32
280
     0
102
RTVSPost2010PropOp32
 70
     1
102
RTVSPost2010Prop33
280
     0
102
RTVSPost2010PropOp33
 70
     1
102
RTVSPost2010Prop34
280
     0
102
RTVSPost2010PropOp34
 70
     1
102
RTVSPost2010Prop35
280
     0
102
RTVSPost2010PropOp35
 70
     1
102
RTVSPost2010Prop36
280
     0
102
RTVSPost2010PropOp36
 70
     1
102
RTVSPost2010Prop37
 90
       50
102
RTVSPost2010PropOp37
 70
     1
102
RTVSPost2010Prop38
140
0.0
102
RTVSPost2010PropOp38
 70
     1
102
RTVSPost2010Prop39
140
1.0
102
RTVSPost2010PropOp39
 70
     1
102
RTVSPost2010Prop40
 90
        0
102
RTVSPost2010PropOp40
 70
     1
102
RTVSPost2010Prop41ColorIndex
 90
       18
102
RTVSPost2010Prop41ColorRGB
 90
        0
102
RTVSPost2010PropOp41
 70
     1
102
RTVSPost2010Prop42
 90
       50
102
RTVSPost2010PropOp42
 70
     1
102
RTVSPost2010Prop43
 90
        3
102
RTVSPost2010PropOp43
 70
     1
102
RTVSPost2010Prop44ColorIndex
 90
        5
102
RTVSPost2010Prop44ColorRGB
 90
      255
102
RTVSPost2010PropOp44
 70
     1
102
RTVSPost2010Prop45
280
     0
102
RTVSPost2010PropOp45
 70
     1
102
RTVSPost2010Prop46
 90
       50
102
RTVSPost2010PropOp46
 70
     1
102
RTVSPost2010Prop47
 90
       50
102
RTVSPost2010PropOp47
 70
     1
102
RTVSPost2010Prop48
 90
       50
102
RTVSPost2010PropOp48
 70
     1
102
RTVSPost2010Prop49
280
     0
102
RTVSPost2010PropOp49
 70
     1
102
RTVSPost2010Prop50
 90
       50
102
RTVSPost2010PropOp50
 70
     1
102
RTVSPost2010Prop51ColorIndex
 90
      256
102
RTVSPost2010Prop51ColorRGB
 90
-16777216
102
RTVSPost2010PropOp51
 70
     0
102
RTVSPost2010Prop52
140
1.0
102
RTVSPost2010PropOp52
 70
     0
102
RTVSPost2010Prop53
 90
        2
102
RTVSPost2010PropOp53
 70
     1
102
RTVSPost2010Prop54
  1
strokes_ogs.tif
102
RTVSPost2010PropOp54
 70
     1
102
RTVSPost2010Prop55
280
     0
102
RTVSPost2010PropOp55
 70
     1
102
RTVSPost2010Prop56
140
1.0
102
RTVSPost2010PropOp56
 70
     1
102
RTVSPost2010Prop57
140
1.0
102
RTVSPost2010PropOp57
 70
     1
  0
XRECORD
  5
127
102
{ACAD_REACTORS
330
126
102
}
330
126
100
AcDbXrecord
280
     1
102
RTVSPost2010Prop28
280
     0
102
RTVSPost2010PropOp28
 70
     1
102
RTVSPost2010Prop29
280
     1
102
RTVSPost2010PropOp29
 70
     1
102
RTVSPost2010Prop30
280
     1
102
RTVSPost2010PropOp30
 70
     1
102
RTVSPost2010Prop31
280
     0
102
RTVSPost2010PropOp31
 70
     1
102
RTVSPost2010Prop32
280
     0
102
RTVSPost2010PropOp32
 70
     1
102
RTVSPost2010Prop33
280
     0
102
RTVSPost2010PropOp33
 70
     1
102
RTVSPost2010Prop34
280
     0
102
RTVSPost2010PropOp34
 70
     1
102
RTVSPost2010Prop35
280
     0
102
RTVSPost2010PropOp35
 70
     1
102
RTVSPost2010Prop36
280
     0
102
RTVSPost2010PropOp36
 70
     1
102
RTVSPost2010Prop37
 90
       50
102
RTVSPost2010PropOp37
 70
     1
102
RTVSPost2010Prop38
140
0.0
102
RTVSPost2010PropOp38
 70
     1
102
RTVSPost2010Prop39
140
1.0
102
RTVSPost2010PropOp39
 70
     1
102
RTVSPost2010Prop40
 90
        0
102
RTVSPost2010PropOp40
 70
     1
102
RTVSPost2010Prop41ColorIndex
 90
       18
102
RTVSPost2010Prop41ColorRGB
 90
        0
102
RTVSPost2010PropOp41
 70
     1
102
RTVSPost2010Prop42
 90
       50
102
RTVSPost2010PropOp42
 70
     1
102
RTVSPost2010Prop43
 90
        3
102
RTVSPost2010PropOp43
 70
     1
102
RTVSPost2010Prop44ColorIndex
 90
        5
102
RTVSPost2010Prop44ColorRGB
 90
      255
102
RTVSPost2010PropOp44
 70
     1
102
RTVSPost2010Prop45
280
     0
102
RTVSPost2010PropOp45
 70
     1
102
RTVSPost2010Prop46
 90
       50
102
RTVSPost2010PropOp46
 70
     1
102
RTVSPost2010Prop47
 90
       50
102
RTVSPost2010PropOp47
 70
     1
102
RTVSPost2010Prop48
 90
       50
102
RTVSPost2010PropOp48
 70
     1
102
RTVSPost2010Prop49
280
     0
102
RTVSPost2010PropOp49
 70
     1
102
RTVSPost2010Prop50
 90
       50
102
RTVSPost2010PropOp50
 70
     1
102
RTVSPost2010Prop51ColorIndex
 90
      256
102
RTVSPost2010Prop51ColorRGB
 90
-16777216
102
RTVSPost2010PropOp51
 70
     0
102
RTVSPost2010Prop52
140
1.0
102
RTVSPost2010PropOp52
 70
     0
102
RTVSPost2010Prop53
 90
        2
102
RTVSPost2010PropOp53
 70
     1
102
RTVSPost2010Prop54
  1
strokes_ogs.tif
102
RTVSPost2010PropOp54
 70
     1
102
RTVSPost2010Prop55
280
     0
102
RTVSPost2010PropOp55
 70
     1
102
RTVSPost2010Prop56
140
1.0
102
RTVSPost2010PropOp56
 70
     1
102
RTVSPost2010Prop57
140
1.0
102
RTVSPost2010PropOp57
 70
     1
  0
XRECORD
  5
143
102
{ACAD_REACTORS
330
142
102
}
330
142
100
AcDbXrecord
280
     1
102
RTVSPost2010Prop28
280
     0
102
RTVSPost2010PropOp28
 70
     0
102
RTVSPost2010Prop29
280
     1
102
RTVSPost2010PropOp29
 70
     0
102
RTVSPost2010Prop30
280
     1
102
RTVSPost2010PropOp30
 70
     0
102
RTVSPost2010Prop31
280
     0
102
RTVSPost2010PropOp31
 70
     0
102
RTVSPost2010Prop32
280
     0
102
RTVSPost2010PropOp32
 70
     0
102
RTVSPost2010Prop33
280
     0
102
RTVSPost2010PropOp33
 70
     0
102
RTVSPost2010Prop34
280
     0
102
RTVSPost2010PropOp34
 70
     0
102
RTVSPost2010Prop35
280
     0
102
RTVSPost2010PropOp35
 70
     0
102
RTVSPost2010Prop36
280
     0
102
RTVSPost2010PropOp36
 70
     0
102
RTVSPost2010Prop37
 90
       50
102
RTVSPost2010PropOp37
 70
     0
102
RTVSPost2010Prop38
140
0.0
102
RTVSPost2010PropOp38
 70
     0
102
RTVSPost2010Prop39
140
1.0
102
RTVSPost2010PropOp39
 70
     0
102
RTVSPost2010Prop40
 90
        0
102
RTVSPost2010PropOp40
 70
     0
102
RTVSPost2010Prop41ColorIndex
 90
       18
102
RTVSPost2010Prop41ColorRGB
 90
        0
102
RTVSPost2010PropOp41
 70
     0
102
RTVSPost2010Prop42
 90
       50
102
RTVSPost2010PropOp42
 70
     0
102
RTVSPost2010Prop43
 90
        3
102
RTVSPost2010PropOp43
 70
     0
102
RTVSPost2010Prop44ColorIndex
 90
        5
102
RTVSPost2010Prop44ColorRGB
 90
      255
102
RTVSPost2010PropOp44
 70
     0
102
RTVSPost2010Prop45
280
     0
102
RTVSPost2010PropOp45
 70
     0
102
RTVSPost2010Prop46
 90
       50
102
RTVSPost2010PropOp46
 70
     0
102
RTVSPost2010Prop47
 90
       50
102
RTVSPost2010PropOp47
 70
     0
102
RTVSPost2010Prop48
 90
       50
102
RTVSPost2010PropOp48
 70
     0
102
RTVSPost2010Prop49
280
     0
102
RTVSPost2010PropOp49
 70
     0
102
RTVSPost2010Prop50
 90
       50
102
RTVSPost2010PropOp50
 70
     0
102
RTVSPost2010Prop51ColorIndex
 90
      256
102
RTVSPost2010Prop51ColorRGB
 90
-16777216
102
RTVSPost2010PropOp51
 70
     0
102
RTVSPost2010Prop52
140
1.0
102
RTVSPost2010PropOp52
 70
     0
102
RTVSPost2010Prop53
 90
        2
102
RTVSPost2010PropOp53
 70
     0
102
RTVSPost2010Prop54
  1
strokes_ogs.tif
102
RTVSPost2010PropOp54
 70
     0
102
RTVSPost2010Prop55
280
     0
102
RTVSPost2010PropOp55
 70
     0
102
RTVSPost2010Prop56
140
1.0
102
RTVSPost2010PropOp56
 70
     0
102
RTVSPost2010Prop57
140
1.0
102
RTVSPost2010PropOp57
 70
     0
  0
XRECORD
  5
133
102
{ACAD_REACTORS
330
132
102
}
330
132
100
AcDbXrecord
280
     1
102
RTVSPost2010Prop28
280
     0
102
RTVSPost2010PropOp28
 70
     1
102
RTVSPost2010Prop29
280
     1
102
RTVSPost2010PropOp29
 70
     1
102
RTVSPost2010Prop30
280
     1
102
RTVSPost2010PropOp30
 70
     1
102
RTVSPost2010Prop31
280
     0
102
RTVSPost2010PropOp31
 70
     1
102
RTVSPost2010Prop32
280
     0
102
RTVSPost2010PropOp32
 70
     1
102
RTVSPost2010Prop33
280
     0
102
RTVSPost2010PropOp33
 70
     1
102
RTVSPost2010Prop34
280
     0
102
RTVSPost2010PropOp34
 70
     1
102
RTVSPost2010Prop35
280
     0
102
RTVSPost2010PropOp35
 70
     1
102
RTVSPost2010Prop36
280
     0
102
RTVSPost2010PropOp36
 70
     1
102
RTVSPost2010Prop37
 90
       50
102
RTVSPost2010PropOp37
 70
     1
102
RTVSPost2010Prop38
140
0.0
102
RTVSPost2010PropOp38
 70
     1
102
RTVSPost2010Prop39
140
1.0
102
RTVSPost2010PropOp39
 70
     1
102
RTVSPost2010Prop40
 90
        0
102
RTVSPost2010PropOp40
 70
     1
102
RTVSPost2010Prop41ColorIndex
 90
       18
102
RTVSPost2010Prop41ColorRGB
 90
        0
102
RTVSPost2010PropOp41
 70
     1
102
RTVSPost2010Prop42
 90
       50
102
RTVSPost2010PropOp42
 70
     1
102
RTVSPost2010Prop43
 90
        3
102
RTVSPost2010PropOp43
 70
     1
102
RTVSPost2010Prop44ColorIndex
 90
        5
102
RTVSPost2010Prop44ColorRGB
 90
      255
102
RTVSPost2010PropOp44
 70
     1
102
RTVSPost2010Prop45
280
     0
102
RTVSPost2010PropOp45
 70
     1
102
RTVSPost2010Prop46
 90
       50
102
RTVSPost2010PropOp46
 70
     1
102
RTVSPost2010Prop47
 90
       50
102
RTVSPost2010PropOp47
 70
     1
102
RTVSPost2010Prop48
 90
       50
102
RTVSPost2010PropOp48
 70
     1
102
RTVSPost2010Prop49
280
     0
102
RTVSPost2010PropOp49
 70
     1
102
RTVSPost2010Prop50
 90
       50
102
RTVSPost2010PropOp50
 70
     1
102
RTVSPost2010Prop51ColorIndex
 90
      256
102
RTVSPost2010Prop51ColorRGB
 90
-16777216
102
RTVSPost2010PropOp51
 70
     0
102
RTVSPost2010Prop52
140
1.0
102
RTVSPost2010PropOp52
 70
     0
102
RTVSPost2010Prop53
 90
        2
102
RTVSPost2010PropOp53
 70
     1
102
RTVSPost2010Prop54
  1
strokes_ogs.tif
102
RTVSPost2010PropOp54
 70
     1
102
RTVSPost2010Prop55
280
     0
102
RTVSPost2010PropOp55
 70
     1
102
RTVSPost2010Prop56
140
1.0
102
RTVSPost2010PropOp56
 70
     1
102
RTVSPost2010Prop57
140
1.0
102
RTVSPost2010PropOp57
 70
     1
  0
XRECORD
  5
145
102
{ACAD_REACTORS
330
144
102
}
330
144
100
AcDbXrecord
280
     1
102
RTVSPost2010Prop28
280
     0
102
RTVSPost2010PropOp28
 70
     0
102
RTVSPost2010Prop29
280
     1
102
RTVSPost2010PropOp29
 70
     0
102
RTVSPost2010Prop30
280
     1
102
RTVSPost2010PropOp30
 70
     0
102
RTVSPost2010Prop31
280
     0
102
RTVSPost2010PropOp31
 70
     0
102
RTVSPost2010Prop32
280
     0
102
RTVSPost2010PropOp32
 70
     0
102
RTVSPost2010Prop33
280
     0
102
RTVSPost2010PropOp33
 70
     0
102
RTVSPost2010Prop34
280
     0
102
RTVSPost2010PropOp34
 70
     0
102
RTVSPost2010Prop35
280
     0
102
RTVSPost2010PropOp35
 70
     0
102
RTVSPost2010Prop36
280
     0
102
RTVSPost2010PropOp36
 70
     0
102
RTVSPost2010Prop37
 90
       50
102
RTVSPost2010PropOp37
 70
     0
102
RTVSPost2010Prop38
140
0.0
102
RTVSPost2010PropOp38
 70
     0
102
RTVSPost2010Prop39
140
1.0
102
RTVSPost2010PropOp39
 70
     0
102
RTVSPost2010Prop40
 90
        0
102
RTVSPost2010PropOp40
 70
     0
102
RTVSPost2010Prop41ColorIndex
 90
       18
102
RTVSPost2010Prop41ColorRGB
 90
        0
102
RTVSPost2010PropOp41
 70
     0
102
RTVSPost2010Prop42
 90
       50
102
RTVSPost2010PropOp42
 70
     0
102
RTVSPost2010Prop43
 90
        3
102
RTVSPost2010PropOp43
 70
     0
102
RTVSPost2010Prop44ColorIndex
 90
        5
102
RTVSPost2010Prop44ColorRGB
 90
      255
102
RTVSPost2010PropOp44
 70
     0
102
RTVSPost2010Prop45
280
     0
102
RTVSPost2010PropOp45
 70
     0
102
RTVSPost2010Prop46
 90
       50
102
RTVSPost2010PropOp46
 70
     0
102
RTVSPost2010Prop47
 90
       50
102
RTVSPost2010PropOp47
 70
     0
102
RTVSPost2010Prop48
 90
       50
102
RTVSPost2010PropOp48
 70
     0
102
RTVSPost2010Prop49
280
     0
102
RTVSPost2010PropOp49
 70
     0
102
RTVSPost2010Prop50
 90
       50
102
RTVSPost2010PropOp50
 70
     0
102
RTVSPost2010Prop51ColorIndex
 90
      256
102
RTVSPost2010Prop51ColorRGB
 90
-16777216
102
RTVSPost2010PropOp51
 70
     0
102
RTVSPost2010Prop52
140
1.0
102
RTVSPost2010PropOp52
 70
     0
102
RTVSPost2010Prop53
 90
        2
102
RTVSPost2010PropOp53
 70
     0
102
RTVSPost2010Prop54
  1
strokes_ogs.tif
102
RTVSPost2010PropOp54
 70
     0
102
RTVSPost2010Prop55
280
     0
102
RTVSPost2010PropOp55
 70
     0
102
RTVSPost2010Prop56
140
1.0
102
RTVSPost2010PropOp56
 70
     0
102
RTVSPost2010Prop57
140
1.0
102
RTVSPost2010PropOp57
 70
     0
  0
XRECORD
  5
12B
102
{ACAD_REACTORS
330
12A
102
}
330
12A
100
AcDbXrecord
280
     1
102
RTVSPost2010Prop28
280
     0
102
RTVSPost2010PropOp28
 70
     1
102
RTVSPost2010Prop29
280
     1
102
RTVSPost2010PropOp29
 70
     1
102
RTVSPost2010Prop30
280
     1
102
RTVSPost2010PropOp30
 70
     1
102
RTVSPost2010Prop31
280
     0
102
RTVSPost2010PropOp31
 70
     1
102
RTVSPost2010Prop32
280
     0
102
RTVSPost2010PropOp32
 70
     1
102
RTVSPost2010Prop33
280
     0
102
RTVSPost2010PropOp33
 70
     1
102
RTVSPost2010Prop34
280
     0
102
RTVSPost2010PropOp34
 70
     1
102
RTVSPost2010Prop35
280
     0
102
RTVSPost2010PropOp35
 70
     1
102
RTVSPost2010Prop36
280
     0
102
RTVSPost2010PropOp36
 70
     1
102
RTVSPost2010Prop37
 90
       50
102
RTVSPost2010PropOp37
 70
     1
102
RTVSPost2010Prop38
140
0.0
102
RTVSPost2010PropOp38
 70
     1
102
RTVSPost2010Prop39
140
1.0
102
RTVSPost2010PropOp39
 70
     1
102
RTVSPost2010Prop40
 90
        0
102
RTVSPost2010PropOp40
 70
     1
102
RTVSPost2010Prop41ColorIndex
 90
       18
102
RTVSPost2010Prop41ColorRGB
 90
        0
102
RTVSPost2010PropOp41
 70
     1
102
RTVSPost2010Prop42
 90
       50
102
RTVSPost2010PropOp42
 70
     1
102
RTVSPost2010Prop43
 90
        3
102
RTVSPost2010PropOp43
 70
     1
102
RTVSPost2010Prop44ColorIndex
 90
        5
102
RTVSPost2010Prop44ColorRGB
 90
      255
102
RTVSPost2010PropOp44
 70
     1
102
RTVSPost2010Prop45
280
     0
102
RTVSPost2010PropOp45
 70
     1
102
RTVSPost2010Prop46
 90
       50
102
RTVSPost2010PropOp46
 70
     1
102
RTVSPost2010Prop47
 90
       50
102
RTVSPost2010PropOp47
 70
     1
102
RTVSPost2010Prop48
 90
       50
102
RTVSPost2010PropOp48
 70
     1
102
RTVSPost2010Prop49
280
     0
102
RTVSPost2010PropOp49
 70
     1
102
RTVSPost2010Prop50
 90
       50
102
RTVSPost2010PropOp50
 70
     1
102
RTVSPost2010Prop51ColorIndex
 90
      256
102
RTVSPost2010Prop51ColorRGB
 90
-16777216
102
RTVSPost2010PropOp51
 70
     0
102
RTVSPost2010Prop52
140
1.0
102
RTVSPost2010PropOp52
 70
     0
102
RTVSPost2010Prop53
 90
        2
102
RTVSPost2010PropOp53
 70
     1
102
RTVSPost2010Prop54
  1
strokes_ogs.tif
102
RTVSPost2010PropOp54
 70
     1
102
RTVSPost2010Prop55
280
     0
102
RTVSPost2010PropOp55
 70
     1
102
RTVSPost2010Prop56
140
1.0
102
RTVSPost2010PropOp56
 70
     1
102
RTVSPost2010Prop57
140
1.0
102
RTVSPost2010PropOp57
 70
     1
  0
XRECORD
  5
141
102
{ACAD_REACTORS
330
140
102
}
330
140
100
AcDbXrecord
280
     1
102
RTVSPost2010Prop28
280
     0
102
RTVSPost2010PropOp28
 70
     1
102
RTVSPost2010Prop29
280
     1
102
RTVSPost2010PropOp29
 70
     1
102
RTVSPost2010Prop30
280
     1
102
RTVSPost2010PropOp30
 70
     1
102
RTVSPost2010Prop31
280
     0
102
RTVSPost2010PropOp31
 70
     1
102
RTVSPost2010Prop32
280
     0
102
RTVSPost2010PropOp32
 70
     1
102
RTVSPost2010Prop33
280
     0
102
RTVSPost2010PropOp33
 70
     1
102
RTVSPost2010Prop34
280
     0
102
RTVSPost2010PropOp34
 70
     1
102
RTVSPost2010Prop35
280
     0
102
RTVSPost2010PropOp35
 70
     1
102
RTVSPost2010Prop36
280
     0
102
RTVSPost2010PropOp36
 70
     1
102
RTVSPost2010Prop37
 90
       50
102
RTVSPost2010PropOp37
 70
     1
102
RTVSPost2010Prop38
140
0.0
102
RTVSPost2010PropOp38
 70
     1
102
RTVSPost2010Prop39
140
1.0
102
RTVSPost2010PropOp39
 70
     1
102
RTVSPost2010Prop40
 90
        0
102
RTVSPost2010PropOp40
 70
     1
102
RTVSPost2010Prop41ColorIndex
 90
       18
102
RTVSPost2010Prop41ColorRGB
 90
        0
102
RTVSPost2010PropOp41
 70
     1
102
RTVSPost2010Prop42
 90
       50
102
RTVSPost2010PropOp42
 70
     1
102
RTVSPost2010Prop43
 90
        3
102
RTVSPost2010PropOp43
 70
     1
102
RTVSPost2010Prop44ColorIndex
 90
        5
102
RTVSPost2010Prop44ColorRGB
 90
      255
102
RTVSPost2010PropOp44
 70
     1
102
RTVSPost2010Prop45
280
     0
102
RTVSPost2010PropOp45
 70
     1
102
RTVSPost2010Prop46
 90
       50
102
RTVSPost2010PropOp46
 70
     1
102
RTVSPost2010Prop47
 90
       50
102
RTVSPost2010PropOp47
 70
     1
102
RTVSPost2010Prop48
 90
       50
102
RTVSPost2010PropOp48
 70
     1
102
RTVSPost2010Prop49
280
     0
102
RTVSPost2010PropOp49
 70
     1
102
RTVSPost2010Prop50
 90
       50
102
RTVSPost2010PropOp50
 70
     1
102
RTVSPost2010Prop51ColorIndex
 90
      256
102
RTVSPost2010Prop51ColorRGB
 90
-16777216
102
RTVSPost2010PropOp51
 70
     0
102
RTVSPost2010Prop52
140
1.0
102
RTVSPost2010PropOp52
 70
     0
102
RTVSPost2010Prop53
 90
        2
102
RTVSPost2010PropOp53
 70
     1
102
RTVSPost2010Prop54
  1
strokes_ogs.tif
102
RTVSPost2010PropOp54
 70
     1
102
RTVSPost2010Prop55
280
     0
102
RTVSPost2010PropOp55
 70
     1
102
RTVSPost2010Prop56
140
1.0
102
RTVSPost2010PropOp56
 70
     1
102
RTVSPost2010Prop57
140
1.0
102
RTVSPost2010PropOp57
 70
     1
  0
XRECORD
  5
13F
102
{ACAD_REACTORS
330
13E
102
}
330
13E
100
AcDbXrecord
280
     1
102
RTVSPost2010Prop28
280
     0
102
RTVSPost2010PropOp28
 70
     1
102
RTVSPost2010Prop29
280
     1
102
RTVSPost2010PropOp29
 70
     1
102
RTVSPost2010Prop30
280
     1
102
RTVSPost2010PropOp30
 70
     1
102
RTVSPost2010Prop31
280
     0
102
RTVSPost2010PropOp31
 70
     1
102
RTVSPost2010Prop32
280
     0
102
RTVSPost2010PropOp32
 70
     1
102
RTVSPost2010Prop33
280
     0
102
RTVSPost2010PropOp33
 70
     1
102
RTVSPost2010Prop34
280
     0
102
RTVSPost2010PropOp34
 70
     1
102
RTVSPost2010Prop35
280
     0
102
RTVSPost2010PropOp35
 70
     1
102
RTVSPost2010Prop36
280
     0
102
RTVSPost2010PropOp36
 70
     1
102
RTVSPost2010Prop37
 90
       50
102
RTVSPost2010PropOp37
 70
     1
102
RTVSPost2010Prop38
140
0.0
102
RTVSPost2010PropOp38
 70
     1
102
RTVSPost2010Prop39
140
1.0
102
RTVSPost2010PropOp39
 70
     1
102
RTVSPost2010Prop40
 90
        0
102
RTVSPost2010PropOp40
 70
     1
102
RTVSPost2010Prop41ColorIndex
 90
       18
102
RTVSPost2010Prop41ColorRGB
 90
        0
102
RTVSPost2010PropOp41
 70
     1
102
RTVSPost2010Prop42
 90
       50
102
RTVSPost2010PropOp42
 70
     1
102
RTVSPost2010Prop43
 90
        3
102
RTVSPost2010PropOp43
 70
     1
102
RTVSPost2010Prop44ColorIndex
 90
        5
102
RTVSPost2010Prop44ColorRGB
 90
      255
102
RTVSPost2010PropOp44
 70
     1
102
RTVSPost2010Prop45
280
     0
102
RTVSPost2010PropOp45
 70
     1
102
RTVSPost2010Prop46
 90
       50
102
RTVSPost2010PropOp46
 70
     1
102
RTVSPost2010Prop47
 90
       50
102
RTVSPost2010PropOp47
 70
     1
102
RTVSPost2010Prop48
 90
       50
102
RTVSPost2010PropOp48
 70
     1
102
RTVSPost2010Prop49
280
     0
102
RTVSPost2010PropOp49
 70
     1
102
RTVSPost2010Prop50
 90
       50
102
RTVSPost2010PropOp50
 70
     1
102
RTVSPost2010Prop51ColorIndex
 90
      256
102
RTVSPost2010Prop51ColorRGB
 90
-16777216
102
RTVSPost2010PropOp51
 70
     0
102
RTVSPost2010Prop52
140
1.0
102
RTVSPost2010PropOp52
 70
     0
102
RTVSPost2010Prop53
 90
        2
102
RTVSPost2010PropOp53
 70
     1
102
RTVSPost2010Prop54
  1
strokes_ogs.tif
102
RTVSPost2010PropOp54
 70
     1
102
RTVSPost2010Prop55
280
     0
102
RTVSPost2010PropOp55
 70
     1
102
RTVSPost2010Prop56
140
1.0
102
RTVSPost2010PropOp56
 70
     1
102
RTVSPost2010Prop57
140
1.0
102
RTVSPost2010PropOp57
 70
     1
  0
XRECORD
  5
139
102
{ACAD_REACTORS
330
138
102
}
330
138
100
AcDbXrecord
280
     1
102
RTVSPost2010Prop28
280
     0
102
RTVSPost2010PropOp28
 70
     1
102
RTVSPost2010Prop29
280
     1
102
RTVSPost2010PropOp29
 70
     1
102
RTVSPost2010Prop30
280
     1
102
RTVSPost2010PropOp30
 70
     1
102
RTVSPost2010Prop31
280
     0
102
RTVSPost2010PropOp31
 70
     1
102
RTVSPost2010Prop32
280
     0
102
RTVSPost2010PropOp32
 70
     1
102
RTVSPost2010Prop33
280
     0
102
RTVSPost2010PropOp33
 70
     1
102
RTVSPost2010Prop34
280
     0
102
RTVSPost2010PropOp34
 70
     1
102
RTVSPost2010Prop35
280
     0
102
RTVSPost2010PropOp35
 70
     1
102
RTVSPost2010Prop36
280
     0
102
RTVSPost2010PropOp36
 70
     1
102
RTVSPost2010Prop37
 90
       50
102
RTVSPost2010PropOp37
 70
     1
102
RTVSPost2010Prop38
140
0.0
102
RTVSPost2010PropOp38
 70
     1
102
RTVSPost2010Prop39
140
1.0
102
RTVSPost2010PropOp39
 70
     1
102
RTVSPost2010Prop40
 90
        0
102
RTVSPost2010PropOp40
 70
     1
102
RTVSPost2010Prop41ColorIndex
 90
       18
102
RTVSPost2010Prop41ColorRGB
 90
        0
102
RTVSPost2010PropOp41
 70
     1
102
RTVSPost2010Prop42
 90
       50
102
RTVSPost2010PropOp42
 70
     1
102
RTVSPost2010Prop43
 90
        3
102
RTVSPost2010PropOp43
 70
     1
102
RTVSPost2010Prop44ColorIndex
 90
        5
102
RTVSPost2010Prop44ColorRGB
 90
      255
102
RTVSPost2010PropOp44
 70
     1
102
RTVSPost2010Prop45
280
     0
102
RTVSPost2010PropOp45
 70
     1
102
RTVSPost2010Prop46
 90
       50
102
RTVSPost2010PropOp46
 70
     1
102
RTVSPost2010Prop47
 90
       50
102
RTVSPost2010PropOp47
 70
     1
102
RTVSPost2010Prop48
 90
       50
102
RTVSPost2010PropOp48
 70
     1
102
RTVSPost2010Prop49
280
     0
102
RTVSPost2010PropOp49
 70
     1
102
RTVSPost2010Prop50
 90
       50
102
RTVSPost2010PropOp50
 70
     1
102
RTVSPost2010Prop51ColorIndex
 90
      256
102
RTVSPost2010Prop51ColorRGB
 90
-16777216
102
RTVSPost2010PropOp51
 70
     0
102
RTVSPost2010Prop52
140
1.0
102
RTVSPost2010PropOp52
 70
     0
102
RTVSPost2010Prop53
 90
        2
102
RTVSPost2010PropOp53
 70
     1
102
RTVSPost2010Prop54
  1
strokes_ogs.tif
102
RTVSPost2010PropOp54
 70
     1
102
RTVSPost2010Prop55
280
     0
102
RTVSPost2010PropOp55
 70
     1
102
RTVSPost2010Prop56
140
1.0
102
RTVSPost2010PropOp56
 70
     1
102
RTVSPost2010Prop57
140
1.0
102
RTVSPost2010PropOp57
 70
     1
  0
XRECORD
  5
13B
102
{ACAD_REACTORS
330
13A
102
}
330
13A
100
AcDbXrecord
280
     1
102
RTVSPost2010Prop28
280
     0
102
RTVSPost2010PropOp28
 70
     1
102
RTVSPost2010Prop29
280
     1
102
RTVSPost2010PropOp29
 70
     1
102
RTVSPost2010Prop30
280
     1
102
RTVSPost2010PropOp30
 70
     1
102
RTVSPost2010Prop31
280
     0
102
RTVSPost2010PropOp31
 70
     1
102
RTVSPost2010Prop32
280
     0
102
RTVSPost2010PropOp32
 70
     1
102
RTVSPost2010Prop33
280
     0
102
RTVSPost2010PropOp33
 70
     1
102
RTVSPost2010Prop34
280
     0
102
RTVSPost2010PropOp34
 70
     1
102
RTVSPost2010Prop35
280
     0
102
RTVSPost2010PropOp35
 70
     1
102
RTVSPost2010Prop36
280
     0
102
RTVSPost2010PropOp36
 70
     1
102
RTVSPost2010Prop37
 90
       50
102
RTVSPost2010PropOp37
 70
     1
102
RTVSPost2010Prop38
140
0.0
102
RTVSPost2010PropOp38
 70
     1
102
RTVSPost2010Prop39
140
1.0
102
RTVSPost2010PropOp39
 70
     1
102
RTVSPost2010Prop40
 90
        0
102
RTVSPost2010PropOp40
 70
     1
102
RTVSPost2010Prop41ColorIndex
 90
       18
102
RTVSPost2010Prop41ColorRGB
 90
        0
102
RTVSPost2010PropOp41
 70
     1
102
RTVSPost2010Prop42
 90
       50
102
RTVSPost2010PropOp42
 70
     1
102
RTVSPost2010Prop43
 90
        3
102
RTVSPost2010PropOp43
 70
     1
102
RTVSPost2010Prop44ColorIndex
 90
        5
102
RTVSPost2010Prop44ColorRGB
 90
      255
102
RTVSPost2010PropOp44
 70
     1
102
RTVSPost2010Prop45
280
     0
102
RTVSPost2010PropOp45
 70
     1
102
RTVSPost2010Prop46
 90
       50
102
RTVSPost2010PropOp46
 70
     1
102
RTVSPost2010Prop47
 90
       50
102
RTVSPost2010PropOp47
 70
     1
102
RTVSPost2010Prop48
 90
       50
102
RTVSPost2010PropOp48
 70
     1
102
RTVSPost2010Prop49
280
     0
102
RTVSPost2010PropOp49
 70
     1
102
RTVSPost2010Prop50
 90
       50
102
RTVSPost2010PropOp50
 70
     1
102
RTVSPost2010Prop51ColorIndex
 90
      256
102
RTVSPost2010Prop51ColorRGB
 90
-16777216
102
RTVSPost2010PropOp51
 70
     0
102
RTVSPost2010Prop52
140
1.0
102
RTVSPost2010PropOp52
 70
     0
102
RTVSPost2010Prop53
 90
        2
102
RTVSPost2010PropOp53
 70
     1
102
RTVSPost2010Prop54
  1
strokes_ogs.tif
102
RTVSPost2010PropOp54
 70
     1
102
RTVSPost2010Prop55
280
     0
102
RTVSPost2010PropOp55
 70
     1
102
RTVSPost2010Prop56
140
1.0
102
RTVSPost2010PropOp56
 70
     1
102
RTVSPost2010Prop57
140
1.0
102
RTVSPost2010PropOp57
 70
     1
  0
XRECORD
  5
131
102
{ACAD_REACTORS
330
130
102
}
330
130
100
AcDbXrecord
280
     1
102
RTVSPost2010Prop28
280
     0
102
RTVSPost2010PropOp28
 70
     1
102
RTVSPost2010Prop29
280
     1
102
RTVSPost2010PropOp29
 70
     1
102
RTVSPost2010Prop30
280
     1
102
RTVSPost2010PropOp30
 70
     1
102
RTVSPost2010Prop31
280
     0
102
RTVSPost2010PropOp31
 70
     1
102
RTVSPost2010Prop32
280
     0
102
RTVSPost2010PropOp32
 70
     1
102
RTVSPost2010Prop33
280
     0
102
RTVSPost2010PropOp33
 70
     1
102
RTVSPost2010Prop34
280
     0
102
RTVSPost2010PropOp34
 70
     1
102
RTVSPost2010Prop35
280
     0
102
RTVSPost2010PropOp35
 70
     1
102
RTVSPost2010Prop36
280
     0
102
RTVSPost2010PropOp36
 70
     1
102
RTVSPost2010Prop37
 90
       50
102
RTVSPost2010PropOp37
 70
     1
102
RTVSPost2010Prop38
140
0.0
102
RTVSPost2010PropOp38
 70
     1
102
RTVSPost2010Prop39
140
1.0
102
RTVSPost2010PropOp39
 70
     1
102
RTVSPost2010Prop40
 90
        0
102
RTVSPost2010PropOp40
 70
     1
102
RTVSPost2010Prop41ColorIndex
 90
       18
102
RTVSPost2010Prop41ColorRGB
 90
        0
102
RTVSPost2010PropOp41
 70
     1
102
RTVSPost2010Prop42
 90
       50
102
RTVSPost2010PropOp42
 70
     1
102
RTVSPost2010Prop43
 90
        3
102
RTVSPost2010PropOp43
 70
     1
102
RTVSPost2010Prop44ColorIndex
 90
        5
102
RTVSPost2010Prop44ColorRGB
 90
      255
102
RTVSPost2010PropOp44
 70
     1
102
RTVSPost2010Prop45
280
     0
102
RTVSPost2010PropOp45
 70
     1
102
RTVSPost2010Prop46
 90
       50
102
RTVSPost2010PropOp46
 70
     1
102
RTVSPost2010Prop47
 90
       50
102
RTVSPost2010PropOp47
 70
     1
102
RTVSPost2010Prop48
 90
       50
102
RTVSPost2010PropOp48
 70
     1
102
RTVSPost2010Prop49
280
     0
102
RTVSPost2010PropOp49
 70
     1
102
RTVSPost2010Prop50
 90
       50
102
RTVSPost2010PropOp50
 70
     1
102
RTVSPost2010Prop51ColorIndex
 90
      256
102
RTVSPost2010Prop51ColorRGB
 90
-16777216
102
RTVSPost2010PropOp51
 70
     0
102
RTVSPost2010Prop52
140
1.0
102
RTVSPost2010PropOp52
 70
     0
102
RTVSPost2010Prop53
 90
        2
102
RTVSPost2010PropOp53
 70
     1
102
RTVSPost2010Prop54
  1
strokes_ogs.tif
102
RTVSPost2010PropOp54
 70
     1
102
RTVSPost2010Prop55
280
     0
102
RTVSPost2010PropOp55
 70
     1
102
RTVSPost2010Prop56
140
1.0
102
RTVSPost2010PropOp56
 70
     1
102
RTVSPost2010Prop57
140
1.0
102
RTVSPost2010PropOp57
 70
     1
  0
XRECORD
  5
125
102
{ACAD_REACTORS
330
124
102
}
330
124
100
AcDbXrecord
280
     1
102
RTVSPost2010Prop28
280
     0
102
RTVSPost2010PropOp28
 70
     1
102
RTVSPost2010Prop29
280
     1
102
RTVSPost2010PropOp29
 70
     1
102
RTVSPost2010Prop30
280
     1
102
RTVSPost2010PropOp30
 70
     1
102
RTVSPost2010Prop31
280
     0
102
RTVSPost2010PropOp31
 70
     1
102
RTVSPost2010Prop32
280
     0
102
RTVSPost2010PropOp32
 70
     1
102
RTVSPost2010Prop33
280
     0
102
RTVSPost2010PropOp33
 70
     1
102
RTVSPost2010Prop34
280
     0
102
RTVSPost2010PropOp34
 70
     1
102
RTVSPost2010Prop35
280
     0
102
RTVSPost2010PropOp35
 70
     1
102
RTVSPost2010Prop36
280
     0
102
RTVSPost2010PropOp36
 70
     1
102
RTVSPost2010Prop37
 90
       50
102
RTVSPost2010PropOp37
 70
     1
102
RTVSPost2010Prop38
140
0.0
102
RTVSPost2010PropOp38
 70
     1
102
RTVSPost2010Prop39
140
1.0
102
RTVSPost2010PropOp39
 70
     1
102
RTVSPost2010Prop40
 90
        0
102
RTVSPost2010PropOp40
 70
     1
102
RTVSPost2010Prop41ColorIndex
 90
       18
102
RTVSPost2010Prop41ColorRGB
 90
        0
102
RTVSPost2010PropOp41
 70
     1
102
RTVSPost2010Prop42
 90
       50
102
RTVSPost2010PropOp42
 70
     1
102
RTVSPost2010Prop43
 90
        3
102
RTVSPost2010PropOp43
 70
     1
102
RTVSPost2010Prop44ColorIndex
 90
        5
102
RTVSPost2010Prop44ColorRGB
 90
      255
102
RTVSPost2010PropOp44
 70
     1
102
RTVSPost2010Prop45
280
     0
102
RTVSPost2010PropOp45
 70
     1
102
RTVSPost2010Prop46
 90
       50
102
RTVSPost2010PropOp46
 70
     1
102
RTVSPost2010Prop47
 90
       50
102
RTVSPost2010PropOp47
 70
     1
102
RTVSPost2010Prop48
 90
       50
102
RTVSPost2010PropOp48
 70
     1
102
RTVSPost2010Prop49
280
     0
102
RTVSPost2010PropOp49
 70
     1
102
RTVSPost2010Prop50
 90
       50
102
RTVSPost2010PropOp50
 70
     1
102
RTVSPost2010Prop51ColorIndex
 90
      256
102
RTVSPost2010Prop51ColorRGB
 90
-16777216
102
RTVSPost2010PropOp51
 70
     0
102
RTVSPost2010Prop52
140
1.0
102
RTVSPost2010PropOp52
 70
     0
102
RTVSPost2010Prop53
 90
        2
102
RTVSPost2010PropOp53
 70
     1
102
RTVSPost2010Prop54
  1
strokes_ogs.tif
102
RTVSPost2010PropOp54
 70
     1
102
RTVSPost2010Prop55
280
     0
102
RTVSPost2010PropOp55
 70
     1
102
RTVSPost2010Prop56
140
1.0
102
RTVSPost2010PropOp56
 70
     1
102
RTVSPost2010Prop57
140
1.0
102
RTVSPost2010PropOp57
 70
     1
  0
XRECORD
  5
13D
102
{ACAD_REACTORS
330
13C
102
}
330
13C
100
AcDbXrecord
280
     1
102
RTVSPost2010Prop28
280
     0
102
RTVSPost2010PropOp28
 70
     1
102
RTVSPost2010Prop29
280
     1
102
RTVSPost2010PropOp29
 70
     1
102
RTVSPost2010Prop30
280
     1
102
RTVSPost2010PropOp30
 70
     1
102
RTVSPost2010Prop31
280
     0
102
RTVSPost2010PropOp31
 70
     1
102
RTVSPost2010Prop32
280
     0
102
RTVSPost2010PropOp32
 70
     1
102
RTVSPost2010Prop33
280
     0
102
RTVSPost2010PropOp33
 70
     1
102
RTVSPost2010Prop34
280
     0
102
RTVSPost2010PropOp34
 70
     1
102
RTVSPost2010Prop35
280
     0
102
RTVSPost2010PropOp35
 70
     1
102
RTVSPost2010Prop36
280
     0
102
RTVSPost2010PropOp36
 70
     1
102
RTVSPost2010Prop37
 90
       50
102
RTVSPost2010PropOp37
 70
     1
102
RTVSPost2010Prop38
140
0.0
102
RTVSPost2010PropOp38
 70
     1
102
RTVSPost2010Prop39
140
1.0
102
RTVSPost2010PropOp39
 70
     1
102
RTVSPost2010Prop40
 90
        0
102
RTVSPost2010PropOp40
 70
     1
102
RTVSPost2010Prop41ColorIndex
 90
       18
102
RTVSPost2010Prop41ColorRGB
 90
        0
102
RTVSPost2010PropOp41
 70
     1
102
RTVSPost2010Prop42
 90
       50
102
RTVSPost2010PropOp42
 70
     1
102
RTVSPost2010Prop43
 90
        3
102
RTVSPost2010PropOp43
 70
     1
102
RTVSPost2010Prop44ColorIndex
 90
        5
102
RTVSPost2010Prop44ColorRGB
 90
      255
102
RTVSPost2010PropOp44
 70
     1
102
RTVSPost2010Prop45
280
     0
102
RTVSPost2010PropOp45
 70
     1
102
RTVSPost2010Prop46
 90
       50
102
RTVSPost2010PropOp46
 70
     1
102
RTVSPost2010Prop47
 90
       50
102
RTVSPost2010PropOp47
 70
     1
102
RTVSPost2010Prop48
 90
       50
102
RTVSPost2010PropOp48
 70
     1
102
RTVSPost2010Prop49
280
     0
102
RTVSPost2010PropOp49
 70
     1
102
RTVSPost2010Prop50
 90
       50
102
RTVSPost2010PropOp50
 70
     1
102
RTVSPost2010Prop51ColorIndex
 90
      256
102
RTVSPost2010Prop51ColorRGB
 90
-16777216
102
RTVSPost2010PropOp51
 70
     0
102
RTVSPost2010Prop52
140
1.0
102
RTVSPost2010PropOp52
 70
     0
102
RTVSPost2010Prop53
 90
        2
102
RTVSPost2010PropOp53
 70
     1
102
RTVSPost2010Prop54
  1
strokes_ogs.tif
102
RTVSPost2010PropOp54
 70
     1
102
RTVSPost2010Prop55
280
     0
102
RTVSPost2010PropOp55
 70
     1
102
RTVSPost2010Prop56
140
1.0
102
RTVSPost2010PropOp56
 70
     1
102
RTVSPost2010Prop57
140
1.0
102
RTVSPost2010PropOp57
 70
     1
  0
ENDSEC
  0
EOF
