  0
SECTION
  2
HEADER
  9
$ACADVER
  1
AC1024
  9
$ACADMAINTVER
 70
     6
  9
$DWGCODEPAGE
  3
UNDEFINED
  9
$INSBASE
 10
0.0
 20
0.0
 30
0.0
  9
$EXTMIN
 10
1.000000000000000E+20
 20
1.000000000000000E+20
 30
1.000000000000000E+20
  9
$EXTMAX
 10
-1.000000000000000E+20
 20
-1.000000000000000E+20
 30
-1.000000000000000E+20
  9
$LIMMIN
 10
0.0
 20
0.0
  9
$LIMMAX
 10
12.0
 20
9.0
  9
$ORTHOMODE
 70
     0
  9
$REGENMODE
 70
     1
  9
$FILLMODE
 70
     1
  9
$QTEXTMODE
 70
     0
  9
$MIRRTEXT
 70
     1
  9
$LTSCALE
 40
1.0
  9
$ATTMODE
 70
     1
  9
$TEXTSIZE
 40
0.2
  9
$TRACEWID
 40
0.05
  9
$TEXTSTYLE
  7
Standard
  9
$CLAYER
  8
0
  9
$CELTYPE
  6
ByLayer
  9
$CECOLOR
 62
   256
  9
$CELTSCALE
 40
1.0
  9
$DISPSILH
 70
     0
  9
$DIMSCALE
 40
1.0
  9
$DIMASZ
 40
0.18
  9
$DIMEXO
 40
0.0625
  9
$DIMDLI
 40
0.38
  9
$DIMRND
 40
0.0
  9
$DIMDLE
 40
0.0
  9
$DIMEXE
 40
0.18
  9
$DIMTP
 40
0.0
  9
$DIMTM
 40
0.0
  9
$DIMTXT
 40
0.18
  9
$DIMCEN
 40
0.09
  9
$DIMTSZ
 40
0.0
  9
$DIMTOL
 70
     0
  9
$DIMLIM
 70
     0
  9
$DIMTIH
 70
     1
  9
$DIMTOH
 70
     1
  9
$DIMSE1
 70
     0
  9
$DIMSE2
 70
     0
  9
$DIMTAD
 70
     0
  9
$DIMZIN
 70
     0
  9
$DIMBLK
  1

  9
$DIMASO
 70
     1
  9
$DIMSHO
 70
     1
  9
$DIMPOST
  1

  9
$DIMAPOST
  1

  9
$DIMALT
 70
     0
  9
$DIMALTD
 70
     2
  9
$DIMALTF
 40
25.4
  9
$DIMLFAC
 40
1.0
  9
$DIMTOFL
 70
     0
  9
$DIMTVP
 40
0.0
  9
$DIMTIX
 70
     0
  9
$DIMSOXD
 70
     0
  9
$DIMSAH
 70
     0
  9
$DIMBLK1
  1

  9
$DIMBLK2
  1

  9
$DIMSTYLE
  2
Standard
  9
$DIMCLRD
 70
     0
  9
$DIMCLRE
 70
     0
  9
$DIMCLRT
 70
     0
  9
$DIMTFAC
 40
1.0
  9
$DIMGAP
 40
0.09
  9
$DIMJUST
 70
     0
  9
$DIMSD1
 70
     0
  9
$DIMSD2
 70
     0
  9
$DIMTOLJ
 70
     1
  9
$DIMTZIN
 70
     0
  9
$DIMALTZ
 70
     0
  9
$DIMALTTZ
 70
     0
  9
$DIMUPT
 70
     0
  9
$DIMDEC
 70
     4
  9
$DIMTDEC
 70
     4
  9
$DIMALTU
 70
     2
  9
$DIMALTTD
 70
     2
  9
$DIMTXSTY
  7
Standard
  9
$DIMAUNIT
 70
     0
  9
$DIMADEC
 70
     0
  9
$DIMALTRND
 40
0.0
  9
$DIMAZIN
 70
     0
  9
$DIMDSEP
 70
    46
  9
$DIMATFIT
 70
     3
  9
$DIMFRAC
 70
     0
  9
$DIMLDRBLK
  1

  9
$DIMLUNIT
 70
     2
  9
$DIMLWD
 70
    -2
  9
$DIMLWE
 70
    -2
  9
$DIMTMOVE
 70
     0
  9
$DIMFXL
 40
1.0
  9
$DIMFXLON
 70
     0
  9
$DIMJOGANG
 40
0.7853981633974483
  9
$DIMTFILL
 70
     0
  9
$DIMTFILLCLR
 70
     0
  9
$DIMARCSYM
 70
     0
  9
$DIMLTYPE
  6

  9
$DIMLTEX1
  6

  9
$DIMLTEX2
  6

  9
$DIMTXTDIRECTION
 70
     0
  9
$LUNITS
 70
     2
  9
$LUPREC
 70
     4
  9
$SKETCHINC
 40
0.1
  9
$FILLETRAD
 40
0.5
  9
$AUNITS
 70
     0
  9
$AUPREC
 70
     0
  9
$MENU
  1
.
  9
$ELEVATION
 40
0.0
  9
$PELEVATION
 40
0.0
  9
$THICKNESS
 40
0.0
  9
$LIMCHECK
 70
     0
  9
$CHAMFERA
 40
0.5
  9
$CHAMFERB
 40
0.5
  9
$CHAMFERC
 40
1.0
  9
$CHAMFERD
 40
0.0
  9
$SKPOLY
 70
     0
  9
$TDCREATE
 40
2457917.592141192
  9
$TDUCREATE
 40
2457917.217141204
  9
$TDUPDATE
 40
2457917.592141192
  9
$TDUUPDATE
 40
2457917.217141204
  9
$TDINDWG
 40
0.0000000116
  9
$TDUSRTIMER
 40
0.0000000116
  9
$USRTIMER
 70
     1
  9
$ANGBASE
 50
0.0
  9
$ANGDIR
 70
     0
  9
$PDMODE
 70
     0
  9
$PDSIZE
 40
0.0
  9
$PLINEWID
 40
0.0
  9
$SPLFRAME
 70
     0
  9
$SPLINETYPE
 70
     6
  9
$SPLINESEGS
 70
     8
  9
$HANDSEED
  5
110
  9
$SURFTAB1
 70
     6
  9
$SURFTAB2
 70
     6
  9
$SURFTYPE
 70
     6
  9
$SURFU
 70
     6
  9
$SURFV
 70
     6
  9
$UCSBASE
  2

  9
$UCSNAME
  2

  9
$UCSORG
 10
0.0
 20
0.0
 30
0.0
  9
$UCSXDIR
 10
1.0
 20
0.0
 30
0.0
  9
$UCSYDIR
 10
0.0
 20
1.0
 30
0.0
  9
$UCSORTHOREF
  2

  9
$UCSORTHOVIEW
 70
     0
  9
$UCSORGTOP
 10
0.0
 20
0.0
 30
0.0
  9
$UCSORGBOTTOM
 10
0.0
 20
0.0
 30
0.0
  9
$UCSORGLEFT
 10
0.0
 20
0.0
 30
0.0
  9
$UCSORGRIGHT
 10
0.0
 20
0.0
 30
0.0
  9
$UCSORGFRONT
 10
0.0
 20
0.0
 30
0.0
  9
$UCSORGBACK
 10
0.0
 20
0.0
 30
0.0
  9
$PUCSBASE
  2

  9
$PUCSNAME
  2

  9
$PUCSORG
 10
0.0
 20
0.0
 30
0.0
  9
$PUCSXDIR
 10
1.0
 20
0.0
 30
0.0
  9
$PUCSYDIR
 10
0.0
 20
1.0
 30
0.0
  9
$PUCSORTHOREF
  2

  9
$PUCSORTHOVIEW
 70
     0
  9
$PUCSORGTOP
 10
0.0
 20
0.0
 30
0.0
  9
$PUCSORGBOTTOM
 10
0.0
 20
0.0
 30
0.0
  9
$PUCSORGLEFT
 10
0.0
 20
0.0
 30
0.0
  9
$PUCSORGRIGHT
 10
0.0
 20
0.0
 30
0.0
  9
$PUCSORGFRONT
 10
0.0
 20
0.0
 30
0.0
  9
$PUCSORGBACK
 10
0.0
 20
0.0
 30
0.0
  9
$USERI1
 70
     0
  9
$USERI2
 70
     0
  9
$USERI3
 70
     0
  9
$USERI4
 70
     0
  9
$USERI5
 70
     0
  9
$USERR1
 40
0.0
  9
$USERR2
 40
0.0
  9
$USERR3
 40
0.0
  9
$USERR4
 40
0.0
  9
$USERR5
 40
0.0
  9
$WORLDVIEW
 70
     1
  9
$SHADEDGE
 70
     3
  9
$SHADEDIF
 70
    70
  9
$TILEMODE
 70
     1
  9
$MAXACTVP
 70
    64
  9
$PINSBASE
 10
0.0
 20
0.0
 30
0.0
  9
$PLIMCHECK
 70
     0
  9
$PEXTMIN
 10
1.000000000000000E+20
 20
1.000000000000000E+20
 30
1.000000000000000E+20
  9
$PEXTMAX
 10
-1.000000000000000E+20
 20
-1.000000000000000E+20
 30
-1.000000000000000E+20
  9
$PLIMMIN
 10
0.0
 20
0.0
  9
$PLIMMAX
 10
12.0
 20
9.0
  9
$UNITMODE
 70
     0
  9
$VISRETAIN
 70
     1
  9
$PLINEGEN
 70
     0
  9
$PSLTSCALE
 70
     1
  9
$TREEDEPTH
 70
  3020
  9
$CMLSTYLE
  2
Standard
  9
$CMLJUST
 70
     0
  9
$CMLSCALE
 40
1.0
  9
$PROXYGRAPHICS
 70
     1
  9
$MEASUREMENT
 70
     0
  9
$CELWEIGHT
370
    -1
  9
$ENDCAPS
280
     0
  9
$JOINSTYLE
280
     0
  9
$LWDISPLAY
290
     1
  9
$INSUNITS
 70
     1
  9
$HYPERLINKBASE
  1

  9
$STYLESHEET
  1

  9
$XEDIT
290
     1
  9
$CEPSNTYPE
380
     0
  9
$PSTYLEMODE
290
     1
  9
$FINGERPRINTGUID
  2
{18B1AAF9-C5BE-846B-86A7-2169B2BA4AFE}
  9
$VERSIONGUID
  2
{FAEB1C32-E019-11D5-929B-00C0DF256EC4}
  9
$EXTNAMES
290
     1
  9
$PSVPSCALE
 40
0.0
  9
$OLESTARTUP
290
     0
  9
$SORTENTS
280
   127
  9
$INDEXCTL
280
     0
  9
$HIDETEXT
280
     1
  9
$XCLIPFRAME
280
     2
  9
$HALOGAP
280
     0
  9
$OBSCOLOR
 70
   257
  9
$OBSLTYPE
280
     0
  9
$INTERSECTIONDISPLAY
280
     0
  9
$INTERSECTIONCOLOR
 70
   257
  9
$DIMASSOC
280
     2
  9
$PROJECTNAME
  1

  9
$CAMERADISPLAY
290
     0
  9
$LENSLENGTH
 40
50.0
  9
$CAMERAHEIGHT
 40
0.0
  9
$STEPSPERSEC
 40
2.0
  9
$STEPSIZE
 40
6.0
  9
$3DDWFPREC
 40
2.0
  9
$PSOLWIDTH
 40
0.25
  9
$PSOLHEIGHT
 40
4.0
  9
$LOFTANG1
 40
1.570796326794897
  9
$LOFTANG2
 40
1.570796326794897
  9
$LOFTMAG1
 40
0.0
  9
$LOFTMAG2
 40
0.0
  9
$LOFTPARAM
 70
     7
  9
$LOFTNORMALS
280
     1
  9
$LATITUDE
 40
37.795
  9
$LONGITUDE
 40
-122.394
  9
$NORTHDIRECTION
 40
0.0
  9
$TIMEZONE
 70
 -8000
  9
$LIGHTGLYPHDISPLAY
280
     1
  9
$TILEMODELIGHTSYNCH
280
     1
  9
$CMATERIAL
347
3C
  9
$SOLIDHIST
280
     1
  9
$SHOWHIST
280
     1
  9
$DWFFRAME
280
     2
  9
$DGNFRAME
280
     2
  9
$REALWORLDSCALE
290
     1
  9
$INTERFERECOLOR
 62
   256
  9
$CSHADOW
280
     0
  9
$SHADOWPLANELOCATION
 40
0.0
  0
ENDSEC
  0
SECTION
  2
CLASSES
  0
CLASS
  1
ACDBDICTIONARYWDFLT
  2
AcDbDictionaryWithDefault
  3
ObjectDBX Classes
 90
        0
 91
        4
280
     0
281
     0
  0
CLASS
  1
VISUALSTYLE
  2
AcDbVisualStyle
  3
ObjectDBX Classes
 90
     4095
 91
        4
280
     0
281
     0
  0
CLASS
  1
MATERIAL
  2
AcDbMaterial
  3
ObjectDBX Classes
 90
     1153
 91
        4
280
     0
281
     0
  0
CLASS
  1
SUN
  2
AcDbSun
  3
SCENEOE
 90
     1024
 91
        4
280
     0
281
     0
  0
ENDSEC
  0
SECTION
  2
TABLES
  0
TABLE
  2
VPORT
  5
8
330
0
100
AcDbSymbolTable
 70
     1
  0
VPORT
  5
29
330
8
100
AcDbSymbolTableRecord
100
AcDbViewportTableRecord
  2
*Active
 70
     0
 10
0.0
 20
0.0
 11
1.0
 21
1.0
 12
0.0
 22
0.0
 13
0.0
 23
0.0
 14
0.5
 24
0.5
 15
0.5
 25
0.5
 16
0.0
 26
0.0
 36
1.0
 17
91.00082462281999
 27
-128.4993055234307
 37
0.0
 40
256.9986110468615
 41
0.7081814508812795
 42
50.0
 43
0.0
 44
0.0
 50
0.0
 51
0.0
 71
     0
 72
   100
 73
     1
 74
     3
 75
     0
 76
     0
 77
     0
 78
     0
281
     0
 65
     1
110
0.0
120
0.0
130
0.0
111
1.0
121
0.0
131
0.0
112
0.0
122
1.0
132
0.0
 79
     0
146
0.0
 60
     3
 61
     5
292
     1
282
     1
141
0.0
142
0.0
 63
   250
361
3F
  0
ENDTAB
  0
TABLE
  2
LTYPE
  5
5
330
0
100
AcDbSymbolTable
 70
     1
  0
LTYPE
  5
14
330
5
100
AcDbSymbolTableRecord
100
AcDbLinetypeTableRecord
  2
ByBlock
 70
     0
  3

 72
    65
 73
     0
 40
0.0
  0
LTYPE
  5
15
330
5
100
AcDbSymbolTableRecord
100
AcDbLinetypeTableRecord
  2
ByLayer
 70
     0
  3

 72
    65
 73
     0
 40
0.0
  0
LTYPE
  5
16
330
5
100
AcDbSymbolTableRecord
100
AcDbLinetypeTableRecord
  2
Continuous
 70
     0
  3
Solid line
 72
    65
 73
     0
 40
0.0
  0
ENDTAB
  0
TABLE
  2
LAYER
  5
2
330
0
100
AcDbSymbolTable
 70
     2
  0
LAYER
  5
10
330
2
100
AcDbSymbolTableRecord
100
AcDbLayerTableRecord
  2
0
 70
     0
 62
     7
  6
Continuous
370
    -3
390
F
347
3E
  0
LAYER
  5
40
330
2
100
AcDbSymbolTableRecord
100
AcDbLayerTableRecord
  2
_U+30EC_U+30A4_U+30E4_U+30FC 1
 70
     0
 62
     7
  6
Continuous
370
    -3
390
F
347
3E
  0
ENDTAB
  0
TABLE
  2
STYLE
  5
3
330
0
100
AcDbSymbolTable
 70
     1
  0
STYLE
  5
11
330
3
100
AcDbSymbolTableRecord
100
AcDbTextStyleTableRecord
  2
Standard
 70
     0
 40
0.0
 41
1.0
 50
0.0
 71
     0
 42
0.2
  3
txt
  4

  0
ENDTAB
  0
TABLE
  2
VIEW
  5
6
330
0
100
AcDbSymbolTable
 70
     0
  0
ENDTAB
  0
TABLE
  2
UCS
  5
7
330
0
100
AcDbSymbolTable
 70
     0
  0
ENDTAB
  0
TABLE
  2
APPID
  5
9
330
0
100
AcDbSymbolTable
 70
     1
  0
APPID
  5
12
330
9
100
AcDbSymbolTableRecord
100
AcDbRegAppTableRecord
  2
ACAD
 70
     0
  0
ENDTAB
  0
TABLE
  2
DIMSTYLE
  5
A
330
0
100
AcDbSymbolTable
 70
     1
100
AcDbDimStyleTable
  0
DIMSTYLE
105
27
330
A
100
AcDbSymbolTableRecord
100
AcDbDimStyleTableRecord
  2
Standard
 70
     0
178
     0
340
11
  0
ENDTAB
  0
TABLE
  2
BLOCK_RECORD
  5
1
330
0
100
AcDbSymbolTable
 70
     8
  0
BLOCK_RECORD
  5
1F
330
1
100
AcDbSymbolTableRecord
100
AcDbBlockTableRecord
  2
*Model_Space
340
22
 70
     0
280
     1
281
     0
  0
BLOCK_RECORD
  5
1B
330
1
100
AcDbSymbolTableRecord
100
AcDbBlockTableRecord
  2
*Paper_Space
340
1E
 70
     0
280
     1
281
     0
  0
BLOCK_RECORD
  5
23
330
1
100
AcDbSymbolTableRecord
100
AcDbBlockTableRecord
  2
*Paper_Space0
340
26
 70
     0
280
     1
281
     0
  0
BLOCK_RECORD
  5
4F
330
1
100
AcDbSymbolTableRecord
100
AcDbBlockTableRecord
  2
block 2
340
0
102
{BLKREFS
331
50
102
}
 70
     0
280
     1
281
     0
  0
BLOCK_RECORD
  5
66
330
1
100
AcDbSymbolTableRecord
100
AcDbBlockTableRecord
  2
block 3
340
0
102
{BLKREFS
331
67
102
}
 70
     0
280
     1
281
     0
  0
BLOCK_RECORD
  5
77
330
1
100
AcDbSymbolTableRecord
100
AcDbBlockTableRecord
  2
block 4
340
0
102
{BLKREFS
331
78
102
}
 70
     0
280
     1
281
     0
  0
BLOCK_RECORD
  5
93
330
1
100
AcDbSymbolTableRecord
100
AcDbBlockTableRecord
  2
block 5
340
0
102
{BLKREFS
331
94
102
}
 70
     0
280
     1
281
     0
  0
BLOCK_RECORD
  5
A1
330
1
100
AcDbSymbolTableRecord
100
AcDbBlockTableRecord
  2
block 6
340
0
102
{BLKREFS
331
A2
102
}
 70
     0
280
     1
281
     0
  0
BLOCK_RECORD
  5
AF
330
1
100
AcDbSymbolTableRecord
100
AcDbBlockTableRecord
  2
block 7
340
0
102
{BLKREFS
331
B0
102
}
 70
     0
280
     1
281
     0
  0
BLOCK_RECORD
  5
D0
330
1
100
AcDbSymbolTableRecord
100
AcDbBlockTableRecord
  2
block 8
340
0
102
{BLKREFS
331
D1
102
}
 70
     0
280
     1
281
     0
  0
ENDTAB
  0
ENDSEC
  0
SECTION
  2
BLOCKS
  0
BLOCK
  5
20
330
1F
100
AcDbEntity
  8
0
100
AcDbBlockBegin
  2
*Model_Space
 70
     0
 10
0.0
 20
0.0
 30
0.0
  3
*Model_Space
  1

  0
ENDBLK
  5
21
330
1F
100
AcDbEntity
  8
0
100
AcDbBlockEnd
  0
BLOCK
  5
1C
330
1B
100
AcDbEntity
 67
     1
  8
0
100
AcDbBlockBegin
  2
*Paper_Space
 70
     0
 10
0.0
 20
0.0
 30
0.0
  3
*Paper_Space
  1

  0
ENDBLK
  5
1D
330
1B
100
AcDbEntity
 67
     1
  8
0
100
AcDbBlockEnd
  0
BLOCK
  5
24
330
23
100
AcDbEntity
  8
0
100
AcDbBlockBegin
  2
*Paper_Space0
 70
     0
 10
0.0
 20
0.0
 30
0.0
  3
*Paper_Space0
  1

  0
ENDBLK
  5
25
330
23
100
AcDbEntity
  8
0
100
AcDbBlockEnd
  0
BLOCK
  5
51
330
4F
100
AcDbEntity
  8
0
100
AcDbBlockBegin
  2
block 2
 70
     0
 10
0.0
 20
0.0
 30
0.0
  3
block 2
  1

  0
SPLINE
  5
53
330
4F
100
AcDbEntity
  8
_U+30EC_U+30A4_U+30E4_U+30FC 1
370
     0
100
AcDbSpline
210
0.0
220
0.0
230
1.0
 70
    11
 71
     3
 72
    62
 73
    58
 74
     0
 42
0.0000000001
 43
0.0000000001
 12
1.0
 22
0.0
 32
0.0
 13
1.0
 23
0.0
 33
0.0
 40
0.0
 40
0.0
 40
0.0
 40
0.0
 40
1.0
 40
1.0
 40
1.0
 40
2.0
 40
2.0
 40
2.0
 40
3.0
 40
3.0
 40
3.0
 40
4.0
 40
4.0
 40
4.0
 40
5.0
 40
5.0
 40
5.0
 40
6.0
 40
6.0
 40
6.0
 40
7.0
 40
7.0
 40
7.0
 40
8.0
 40
8.0
 40
8.0
 40
9.0
 40
9.0
 40
9.0
 40
10.0
 40
10.0
 40
10.0
 40
11.0
 40
11.0
 40
11.0
 40
12.0
 40
12.0
 40
12.0
 40
13.0
 40
13.0
 40
13.0
 40
14.0
 40
14.0
 40
14.0
 40
15.0
 40
15.0
 40
15.0
 40
16.0
 40
16.0
 40
16.0
 40
17.0
 40
17.0
 40
17.0
 40
18.0
 40
18.0
 40
18.0
 40
19.0
 40
19.0
 40
19.0
 40
19.0
 10
91.49174531132846
 20
-117.2850029546197
 30
0.0
 10
91.41147458652213
 20
-117.2850029546197
 30
0.0
 10
91.22767874238406
 20
-117.2638156173854
 30
0.0
 10
91.12225882053541
 20
-117.0776082064077
 30
0.0
 10
91.05955808270386
 20
-116.9654703483628
 30
0.0
 10
91.05611298721861
 20
-116.8660793436134
 30
0.0
 10
91.05232338218484
 20
-116.7815022494505
 30
0.0
 10
91.05232338218484
 20
-116.7815022494505
 30
0.0
 10
91.23835853838833
 20
-116.7815022494505
 30
0.0
 10
91.23835853838833
 20
-116.7815022494505
 30
0.0
 10
91.24008108613096
 20
-116.8555718023833
 30
0.0
 10
91.24903833439261
 20
-117.0903550597031
 30
0.0
 10
91.48830021584321
 20
-117.0903550597031
 30
0.0
 10
91.60439993369613
 20
-117.0903550597031
 30
0.0
 10
91.73324650484447
 20
-117.0205918761268
 30
0.0
 10
91.73324650484447
 20
-116.7920097906805
 30
0.0
 10
91.73324650484447
 20
-116.6757378180533
 30
0.0
 10
91.70086260728313
 20
-116.626989716937
 30
0.0
 10
91.67399086249817
 20
-116.5952948384727
 30
0.0
 10
91.61163463421515
 20
-116.5212252855398
 30
0.0
 10
91.51344941288554
 20
-116.5086506870187
 30
0.0
 10
91.46694062383466
 20
-116.5086506870187
 30
0.0
 10
91.45074867505399
 20
-116.5086506870187
 30
0.0
 10
91.42043183478378
 20
-116.5107177443098
 30
0.0
 10
91.39700518548409
 20
-116.5148518588921
 30
0.0
 10
91.39700518548409
 20
-116.5148518588921
 30
0.0
 10
91.39700518548409
 20
-116.3202039639755
 30
0.0
 10
91.39700518548409
 20
-116.3202039639755
 30
0.0
 10
91.42938908304544
 20
-116.3265773906232
 30
0.0
 10
91.46521807609203
 20
-116.3288167026886
 30
0.0
 10
91.4703857193199
 20
-116.3288167026886
 30
0.0
 10
91.52585175663243
 20
-116.3288167026886
 30
0.0
 10
91.69397241631262
 20
-116.3076293654543
 30
0.0
 10
91.69397241631262
 20
-116.0706067960692
 30
0.0
 10
91.69397241631262
 20
-115.8930121238045
 30
0.0
 10
91.58304034168758
 20
-115.8378905960405
 30
0.0
 10
91.49002276358583
 20
-115.8378905960405
 30
0.0
 10
91.26695283091591
 20
-115.8378905960405
 30
0.0
 10
91.25971813039688
 20
-116.0706067960692
 30
0.0
 10
91.25627303491163
 20
-116.1426092917109
 30
0.0
 10
91.25627303491163
 20
-116.1426092917109
 30
0.0
 10
91.08470727974618
 20
-116.1426092917109
 30
0.0
 10
91.08470727974618
 20
-116.1426092917109
 30
0.0
 10
91.09159747071669
 20
-116.0177245803706
 30
0.0
 10
91.11502412001639
 20
-115.6411756438328
 30
0.0
 10
91.50070255959011
 20
-115.6411756438328
 30
0.0
 10
91.69018281127885
 20
-115.6411756438328
 30
0.0
 10
91.89413246400564
 20
-115.7681274124642
 30
0.0
 10
91.89413246400564
 20
-116.0642333694214
 30
0.0
 10
91.89413246400564
 20
-116.2504407803992
 30
0.0
 10
91.81351722965078
 20
-116.3329508172709
 30
0.0
 10
91.7294568998107
 20
-116.3942735169084
 30
0.0
 10
91.78147784163797
 20
-116.4218342807904
 30
0.0
 10
91.93512910028011
 20
-116.502277260371
 30
0.0
 10
91.93512910028011
 20
-116.7794351921593
 30
0.0
 10
91.93512910028011
 20
-117.1179158235851
 30
0.0
 10
91.72601180432545
 20
-117.2850029546197
 30
0.0
 10
91.49174531132846
 20
-117.2850029546197
 30
0.0
  0
HATCH
  5
54
330
4F
100
AcDbEntity
  8
_U+30EC_U+30A4_U+30E4_U+30FC 1
 62
   179
420
  2234388
100
AcDbHatch
 10
0.0
 20
0.0
 30
0.0
210
0.0
220
0.0
230
1.0
  2
SOLID
 70
     1
 71
     0
 91
        1
 92
        1
 93
        1
 72
     4
 94
        3
 73
     0
 74
     1
 95
       62
 96
       58
 40
0.0
 40
0.0
 40
0.0
 40
0.0
 40
1.0
 40
1.0
 40
1.0
 40
2.0
 40
2.0
 40
2.0
 40
3.0
 40
3.0
 40
3.0
 40
4.0
 40
4.0
 40
4.0
 40
5.0
 40
5.0
 40
5.0
 40
6.0
 40
6.0
 40
6.0
 40
7.0
 40
7.0
 40
7.0
 40
8.0
 40
8.0
 40
8.0
 40
9.0
 40
9.0
 40
9.0
 40
10.0
 40
10.0
 40
10.0
 40
11.0
 40
11.0
 40
11.0
 40
12.0
 40
12.0
 40
12.0
 40
13.0
 40
13.0
 40
13.0
 40
14.0
 40
14.0
 40
14.0
 40
15.0
 40
15.0
 40
15.0
 40
16.0
 40
16.0
 40
16.0
 40
17.0
 40
17.0
 40
17.0
 40
18.0
 40
18.0
 40
18.0
 40
19.0
 40
19.0
 40
19.0
 40
19.0
 10
91.49174531132846
 20
-117.2850029546197
 10
91.41147458652213
 20
-117.2850029546197
 10
91.22767874238406
 20
-117.2638156173854
 10
91.12225882053541
 20
-117.0776082064077
 10
91.05955808270386
 20
-116.9654703483628
 10
91.05611298721861
 20
-116.8660793436134
 10
91.05232338218484
 20
-116.7815022494505
 10
91.05232338218484
 20
-116.7815022494505
 10
91.23835853838833
 20
-116.7815022494505
 10
91.23835853838833
 20
-116.7815022494505
 10
91.24008108613096
 20
-116.8555718023833
 10
91.24903833439261
 20
-117.0903550597031
 10
91.48830021584321
 20
-117.0903550597031
 10
91.60439993369613
 20
-117.0903550597031
 10
91.73324650484447
 20
-117.0205918761268
 10
91.73324650484447
 20
-116.7920097906805
 10
91.73324650484447
 20
-116.6757378180533
 10
91.70086260728313
 20
-116.626989716937
 10
91.67399086249817
 20
-116.5952948384727
 10
91.61163463421515
 20
-116.5212252855398
 10
91.51344941288554
 20
-116.5086506870187
 10
91.46694062383466
 20
-116.5086506870187
 10
91.45074867505399
 20
-116.5086506870187
 10
91.42043183478378
 20
-116.5107177443098
 10
91.39700518548409
 20
-116.5148518588921
 10
91.39700518548409
 20
-116.5148518588921
 10
91.39700518548409
 20
-116.3202039639755
 10
91.39700518548409
 20
-116.3202039639755
 10
91.42938908304544
 20
-116.3265773906232
 10
91.46521807609203
 20
-116.3288167026886
 10
91.4703857193199
 20
-116.3288167026886
 10
91.52585175663243
 20
-116.3288167026886
 10
91.69397241631262
 20
-116.3076293654543
 10
91.69397241631262
 20
-116.0706067960692
 10
91.69397241631262
 20
-115.8930121238045
 10
91.58304034168758
 20
-115.8378905960405
 10
91.49002276358583
 20
-115.8378905960405
 10
91.26695283091591
 20
-115.8378905960405
 10
91.25971813039688
 20
-116.0706067960692
 10
91.25627303491163
 20
-116.1426092917109
 10
91.25627303491163
 20
-116.1426092917109
 10
91.08470727974618
 20
-116.1426092917109
 10
91.08470727974618
 20
-116.1426092917109
 10
91.09159747071669
 20
-116.0177245803706
 10
91.11502412001639
 20
-115.6411756438328
 10
91.50070255959011
 20
-115.6411756438328
 10
91.69018281127885
 20
-115.6411756438328
 10
91.89413246400564
 20
-115.7681274124642
 10
91.89413246400564
 20
-116.0642333694214
 10
91.89413246400564
 20
-116.2504407803992
 10
91.81351722965078
 20
-116.3329508172709
 10
91.7294568998107
 20
-116.3942735169084
 10
91.78147784163797
 20
-116.4218342807904
 10
91.93512910028011
 20
-116.502277260371
 10
91.93512910028011
 20
-116.7794351921593
 10
91.93512910028011
 20
-117.1179158235851
 10
91.72601180432545
 20
-117.2850029546197
 10
91.49174531132846
 20
-117.2850029546197
 97
        0
 97
        0
 75
     2
 76
     1
 98
        0
  0
SPLINE
  5
55
330
4F
100
AcDbEntity
  8
_U+30EC_U+30A4_U+30E4_U+30FC 1
370
     0
100
AcDbSpline
210
0.0
220
0.0
230
1.0
 70
    11
 71
     3
 72
    44
 73
    40
 74
     0
 42
0.0000000001
 43
0.0000000001
 12
1.0
 22
0.0
 32
0.0
 13
1.0
 23
0.0
 33
0.0
 40
0.0
 40
0.0
 40
0.0
 40
0.0
 40
1.0
 40
1.0
 40
1.0
 40
2.0
 40
2.0
 40
2.0
 40
3.0
 40
3.0
 40
3.0
 40
4.0
 40
4.0
 40
4.0
 40
5.0
 40
5.0
 40
5.0
 40
6.0
 40
6.0
 40
6.0
 40
7.0
 40
7.0
 40
7.0
 40
8.0
 40
8.0
 40
8.0
 40
9.0
 40
9.0
 40
9.0
 40
10.0
 40
10.0
 40
10.0
 40
11.0
 40
11.0
 40
11.0
 40
12.0
 40
12.0
 40
12.0
 40
13.0
 40
13.0
 40
13.0
 40
13.0
 10
92.5721272555028
 20
-116.6524834235279
 30
0.0
 10
92.38815915659046
 20
-116.8111300706236
 30
0.0
 10
92.30961097952677
 20
-116.8851996235565
 30
0.0
 10
92.2686143432523
 20
-117.0290323600657
 30
0.0
 10
92.2686143432523
 20
-117.0290323600657
 30
0.0
 10
92.92593856183797
 20
-117.0290323600657
 30
0.0
 10
92.92593856183797
 20
-117.0290323600657
 30
0.0
 10
92.92593856183797
 20
-117.0290323600657
 30
0.0
 10
92.92593856183797
 20
-117.2341877962123
 30
0.0
 10
92.92593856183797
 20
-117.2341877962123
 30
0.0
 10
92.92593856183797
 20
-117.2341877962123
 30
0.0
 10
92.05742999000648
 20
-117.2341877962123
 30
0.0
 10
92.05742999000648
 20
-117.2341877962123
 30
0.0
 10
92.08430173479142
 20
-116.8765868848434
 30
0.0
 10
92.13976777210395
 20
-116.7983832173282
 30
0.0
 10
92.46498478591154
 20
-116.5000379483055
 30
0.0
 10
92.68133678238523
 20
-116.3012559388066
 30
0.0
 10
92.73680281969774
 20
-116.2335598125215
 30
0.0
 10
92.73680281969774
 20
-116.09610050266
 30
0.0
 10
92.73680281969774
 20
-115.9775892179674
 30
0.0
 10
92.67582462960883
 20
-115.8465033347537
 30
0.0
 10
92.50977102721978
 20
-115.8465033347537
 30
0.0
 10
92.28997393526085
 20
-115.8465033347537
 30
0.0
 10
92.28273923474183
 20
-116.0769802227169
 30
0.0
 10
92.27929413925656
 20
-116.1934244501183
 30
0.0
 10
92.27929413925656
 20
-116.1934244501183
 30
0.0
 10
92.08981388756783
 20
-116.1934244501183
 30
0.0
 10
92.08981388756783
 20
-116.1934244501183
 30
0.0
 10
92.09704858808685
 20
-116.0664726814869
 30
0.0
 10
92.10566132679998
 20
-115.954334823442
 30
0.0
 10
92.17387421740793
 20
-115.8358235387494
 30
0.0
 10
92.26654728596114
 20
-115.6751098343625
 30
0.0
 10
92.42398814963707
 20
-115.6411756438328
 30
0.0
 10
92.52217337096668
 20
-115.6411756438328
 30
0.0
 10
92.75643986396368
 20
-115.6411756438328
 30
0.0
 10
92.93145071461436
 20
-115.8253159975194
 30
0.0
 10
92.93145071461436
 20
-116.0981675599512
 30
0.0
 10
92.93145071461436
 20
-116.3265773906232
 30
0.0
 10
92.83326549328474
 20
-116.4261406501469
 30
0.0
 10
92.5721272555028
 20
-116.6524834235279
 30
0.0
  0
HATCH
  5
56
330
4F
100
AcDbEntity
  8
_U+30EC_U+30A4_U+30E4_U+30FC 1
 62
   179
420
  2234388
100
AcDbHatch
 10
0.0
 20
0.0
 30
0.0
210
0.0
220
0.0
230
1.0
  2
SOLID
 70
     1
 71
     0
 91
        1
 92
        1
 93
        1
 72
     4
 94
        3
 73
     0
 74
     1
 95
       44
 96
       40
 40
0.0
 40
0.0
 40
0.0
 40
0.0
 40
1.0
 40
1.0
 40
1.0
 40
2.0
 40
2.0
 40
2.0
 40
3.0
 40
3.0
 40
3.0
 40
4.0
 40
4.0
 40
4.0
 40
5.0
 40
5.0
 40
5.0
 40
6.0
 40
6.0
 40
6.0
 40
7.0
 40
7.0
 40
7.0
 40
8.0
 40
8.0
 40
8.0
 40
9.0
 40
9.0
 40
9.0
 40
10.0
 40
10.0
 40
10.0
 40
11.0
 40
11.0
 40
11.0
 40
12.0
 40
12.0
 40
12.0
 40
13.0
 40
13.0
 40
13.0
 40
13.0
 10
92.5721272555028
 20
-116.6524834235279
 10
92.38815915659046
 20
-116.8111300706236
 10
92.30961097952677
 20
-116.8851996235565
 10
92.2686143432523
 20
-117.0290323600657
 10
92.2686143432523
 20
-117.0290323600657
 10
92.92593856183797
 20
-117.0290323600657
 10
92.92593856183797
 20
-117.0290323600657
 10
92.92593856183797
 20
-117.0290323600657
 10
92.92593856183797
 20
-117.2341877962123
 10
92.92593856183797
 20
-117.2341877962123
 10
92.92593856183797
 20
-117.2341877962123
 10
92.05742999000648
 20
-117.2341877962123
 10
92.05742999000648
 20
-117.2341877962123
 10
92.08430173479142
 20
-116.8765868848434
 10
92.13976777210395
 20
-116.7983832173282
 10
92.46498478591154
 20
-116.5000379483055
 10
92.68133678238523
 20
-116.3012559388066
 10
92.73680281969774
 20
-116.2335598125215
 10
92.73680281969774
 20
-116.09610050266
 10
92.73680281969774
 20
-115.9775892179674
 10
92.67582462960883
 20
-115.8465033347537
 10
92.50977102721978
 20
-115.8465033347537
 10
92.28997393526085
 20
-115.8465033347537
 10
92.28273923474183
 20
-116.0769802227169
 10
92.27929413925656
 20
-116.1934244501183
 10
92.27929413925656
 20
-116.1934244501183
 10
92.08981388756783
 20
-116.1934244501183
 10
92.08981388756783
 20
-116.1934244501183
 10
92.09704858808685
 20
-116.0664726814869
 10
92.10566132679998
 20
-115.954334823442
 10
92.17387421740793
 20
-115.8358235387494
 10
92.26654728596114
 20
-115.6751098343625
 10
92.42398814963707
 20
-115.6411756438328
 10
92.52217337096668
 20
-115.6411756438328
 10
92.75643986396368
 20
-115.6411756438328
 10
92.93145071461436
 20
-115.8253159975194
 10
92.93145071461436
 20
-116.0981675599512
 10
92.93145071461436
 20
-116.3265773906232
 10
92.83326549328474
 20
-116.4261406501469
 10
92.5721272555028
 20
-116.6524834235279
 97
        0
 97
        0
 75
     2
 76
     1
 98
        0
  0
ENDBLK
  5
52
330
4F
100
AcDbEntity
  8
0
100
AcDbBlockEnd
  0
BLOCK
  5
68
330
66
100
AcDbEntity
  8
0
100
AcDbBlockBegin
  2
block 3
 70
     0
 10
0.0
 20
0.0
 30
0.0
  3
block 3
  1

  0
SPLINE
  5
6A
330
66
100
AcDbEntity
  8
_U+30EC_U+30A4_U+30E4_U+30FC 1
370
     0
100
AcDbSpline
210
0.0
220
0.0
230
1.0
 70
    11
 71
     3
 72
    26
 73
    22
 74
     0
 42
0.0000000001
 43
0.0000000001
 12
1.0
 22
0.0
 32
0.0
 13
1.0
 23
0.0
 33
0.0
 40
0.0
 40
0.0
 40
0.0
 40
0.0
 40
1.0
 40
1.0
 40
1.0
 40
2.0
 40
2.0
 40
2.0
 40
3.0
 40
3.0
 40
3.0
 40
4.0
 40
4.0
 40
4.0
 40
5.0
 40
5.0
 40
5.0
 40
6.0
 40
6.0
 40
6.0
 40
7.0
 40
7.0
 40
7.0
 40
7.0
 10
92.45740557584399
 20
-140.4885823216487
 30
0.0
 10
92.45740557584399
 20
-140.4885823216487
 30
0.0
 10
92.45740557584399
 20
-139.3844292186261
 30
0.0
 10
92.45740557584399
 20
-139.3844292186261
 30
0.0
 10
92.45740557584399
 20
-139.3844292186261
 30
0.0
 10
92.17869735108728
 20
-139.3844292186261
 30
0.0
 10
92.17869735108728
 20
-139.3844292186261
 30
0.0
 10
92.17869735108728
 20
-139.3844292186261
 30
0.0
 10
92.17869735108728
 20
-139.2362901127604
 30
0.0
 10
92.17869735108728
 20
-139.2362901127604
 30
0.0
 10
92.45912812358661
 20
-139.2214762021738
 30
0.0
 10
92.49840221211846
 20
-139.0585231857215
 30
0.0
 10
92.52355140916079
 20
-138.9441460156112
 30
0.0
 10
92.52355140916079
 20
-138.9441460156112
 30
0.0
 10
92.64688582753273
 20
-138.9441460156112
 30
0.0
 10
92.64688582753273
 20
-138.9441460156112
 30
0.0
 10
92.64688582753273
 20
-138.9441460156112
 30
0.0
 10
92.64688582753273
 20
-140.4885823216487
 30
0.0
 10
92.64688582753273
 20
-140.4885823216487
 30
0.0
 10
92.64688582753273
 20
-140.4885823216487
 30
0.0
 10
92.45740557584399
 20
-140.4885823216487
 30
0.0
 10
92.45740557584399
 20
-140.4885823216487
 30
0.0
  0
HATCH
  5
6B
330
66
100
AcDbEntity
  8
_U+30EC_U+30A4_U+30E4_U+30FC 1
 62
   179
420
  2234388
100
AcDbHatch
 10
0.0
 20
0.0
 30
0.0
210
0.0
220
0.0
230
1.0
  2
SOLID
 70
     1
 71
     0
 91
        1
 92
        1
 93
        1
 72
     4
 94
        3
 73
     0
 74
     1
 95
       26
 96
       22
 40
0.0
 40
0.0
 40
0.0
 40
0.0
 40
1.0
 40
1.0
 40
1.0
 40
2.0
 40
2.0
 40
2.0
 40
3.0
 40
3.0
 40
3.0
 40
4.0
 40
4.0
 40
4.0
 40
5.0
 40
5.0
 40
5.0
 40
6.0
 40
6.0
 40
6.0
 40
7.0
 40
7.0
 40
7.0
 40
7.0
 10
92.45740557584399
 20
-140.4885823216487
 10
92.45740557584399
 20
-140.4885823216487
 10
92.45740557584399
 20
-139.3844292186261
 10
92.45740557584399
 20
-139.3844292186261
 10
92.45740557584399
 20
-139.3844292186261
 10
92.17869735108728
 20
-139.3844292186261
 10
92.17869735108728
 20
-139.3844292186261
 10
92.17869735108728
 20
-139.3844292186261
 10
92.17869735108728
 20
-139.2362901127604
 10
92.17869735108728
 20
-139.2362901127604
 10
92.45912812358661
 20
-139.2214762021738
 10
92.49840221211846
 20
-139.0585231857215
 10
92.52355140916079
 20
-138.9441460156112
 10
92.52355140916079
 20
-138.9441460156112
 10
92.64688582753273
 20
-138.9441460156112
 10
92.64688582753273
 20
-138.9441460156112
 10
92.64688582753273
 20
-138.9441460156112
 10
92.64688582753273
 20
-140.4885823216487
 10
92.64688582753273
 20
-140.4885823216487
 10
92.64688582753273
 20
-140.4885823216487
 10
92.45740557584399
 20
-140.4885823216487
 10
92.45740557584399
 20
-140.4885823216487
 97
        0
 97
        0
 75
     2
 76
     1
 98
        0
  0
SPLINE
  5
6C
330
66
100
AcDbEntity
  8
_U+30EC_U+30A4_U+30E4_U+30FC 1
370
     0
100
AcDbSpline
210
0.0
220
0.0
230
1.0
 70
    11
 71
     3
 72
    29
 73
    25
 74
     0
 42
0.0000000001
 43
0.0000000001
 12
1.0
 22
0.0
 32
0.0
 13
1.0
 23
0.0
 33
0.0
 40
0.0
 40
0.0
 40
0.0
 40
0.0
 40
1.0
 40
1.0
 40
1.0
 40
2.0
 40
2.0
 40
2.0
 40
3.0
 40
3.0
 40
3.0
 40
4.0
 40
4.0
 40
4.0
 40
5.0
 40
5.0
 40
5.0
 40
6.0
 40
6.0
 40
6.0
 40
7.0
 40
7.0
 40
7.0
 40
8.0
 40
8.0
 40
8.0
 40
8.0
 10
93.82889808852195
 20
-140.3108153946098
 30
0.0
 10
93.73794756771134
 20
-140.520277200113
 30
0.0
 10
93.59118650003971
 20
-140.5392252252819
 30
0.0
 10
93.49300127871008
 20
-140.5392252252819
 30
0.0
 10
93.35726451659124
 20
-140.5392252252819
 30
0.0
 10
93.23737519370455
 20
-140.492716436231
 30
0.0
 10
93.15710446889823
 20
-140.3108153946098
 30
0.0
 10
93.06959904357288
 20
-140.1161674996932
 30
0.0
 10
93.0534070947922
 20
-139.879144930308
 30
0.0
 10
93.0534070947922
 20
-139.7165364234042
 30
0.0
 10
93.0534070947922
 20
-139.5725314321208
 30
0.0
 10
93.06753198628174
 20
-139.320694952149
 30
0.0
 10
93.15710446889823
 20
-139.1219129426501
 30
0.0
 10
93.24805498970882
 20
-138.9189968185689
 30
0.0
 10
93.3841362613762
 20
-138.8955701692692
 30
0.0
 10
93.49300127871008
 20
-138.8955701692692
 30
0.0
 10
93.6270154930863
 20
-138.8955701692692
 30
0.0
 10
93.74862736371563
 20
-138.9400119010289
 30
0.0
 10
93.82889808852195
 20
-139.1219129426501
 30
0.0
 10
93.91295841836204
 20
-139.3144937802755
 30
0.0
 10
93.93259546262797
 20
-139.5429036109476
 30
0.0
 10
93.93259546262797
 20
-139.7165364234042
 30
0.0
 10
93.93259546262797
 20
-139.8877576690211
 30
0.0
 10
93.91468096610467
 20
-140.1182345569843
 30
0.0
 10
93.82889808852195
 20
-140.3108153946098
 30
0.0
  0
SPLINE
  5
6D
330
66
100
AcDbEntity
  8
_U+30EC_U+30A4_U+30E4_U+30FC 1
370
     0
100
AcDbSpline
210
0.0
220
0.0
230
1.0
 70
    11
 71
     3
 72
    17
 73
    13
 74
     0
 42
0.0000000001
 43
0.0000000001
 12
1.0
 22
0.0
 32
0.0
 13
1.0
 23
0.0
 33
0.0
 40
0.0
 40
0.0
 40
0.0
 40
0.0
 40
1.0
 40
1.0
 40
1.0
 40
2.0
 40
2.0
 40
2.0
 40
3.0
 40
3.0
 40
3.0
 40
4.0
 40
4.0
 40
4.0
 40
4.0
 10
93.49300127871008
 20
-139.0881510068946
 30
0.0
 10
93.2821614350128
 20
-139.0881510068946
 30
0.0
 10
93.24288734648096
 20
-139.3716823653307
 30
0.0
 10
93.24288734648096
 20
-139.7165364234042
 30
0.0
 10
93.24288734648096
 20
-140.0358967748869
 30
0.0
 10
93.27320418675114
 20
-140.3445773303652
 30
0.0
 10
93.49300127871008
 20
-140.3445773303652
 30
0.0
 10
93.70211857466475
 20
-140.3445773303652
 30
0.0
 10
93.74311521093922
 20
-140.0634575387689
 30
0.0
 10
93.74311521093922
 20
-139.7165364234042
 30
0.0
 10
93.74311521093922
 20
-139.396831562373
 30
0.0
 10
93.7110758229264
 20
-139.0881510068946
 30
0.0
 10
93.49300127871008
 20
-139.0881510068946
 30
0.0
  0
HATCH
  5
6E
330
66
100
AcDbEntity
  8
_U+30EC_U+30A4_U+30E4_U+30FC 1
 62
   179
420
  2234388
100
AcDbHatch
 10
0.0
 20
0.0
 30
0.0
210
0.0
220
0.0
230
1.0
  2
SOLID
 70
     1
 71
     0
 91
        2
 92
        1
 93
        1
 72
     4
 94
        3
 73
     0
 74
     1
 95
       29
 96
       25
 40
0.0
 40
0.0
 40
0.0
 40
0.0
 40
1.0
 40
1.0
 40
1.0
 40
2.0
 40
2.0
 40
2.0
 40
3.0
 40
3.0
 40
3.0
 40
4.0
 40
4.0
 40
4.0
 40
5.0
 40
5.0
 40
5.0
 40
6.0
 40
6.0
 40
6.0
 40
7.0
 40
7.0
 40
7.0
 40
8.0
 40
8.0
 40
8.0
 40
8.0
 10
93.82889808852195
 20
-140.3108153946098
 10
93.73794756771134
 20
-140.520277200113
 10
93.59118650003971
 20
-140.5392252252819
 10
93.49300127871008
 20
-140.5392252252819
 10
93.35726451659124
 20
-140.5392252252819
 10
93.23737519370455
 20
-140.492716436231
 10
93.15710446889823
 20
-140.3108153946098
 10
93.06959904357288
 20
-140.1161674996932
 10
93.0534070947922
 20
-139.879144930308
 10
93.0534070947922
 20
-139.7165364234042
 10
93.0534070947922
 20
-139.5725314321208
 10
93.06753198628174
 20
-139.320694952149
 10
93.15710446889823
 20
-139.1219129426501
 10
93.24805498970882
 20
-138.9189968185689
 10
93.3841362613762
 20
-138.8955701692692
 10
93.49300127871008
 20
-138.8955701692692
 10
93.6270154930863
 20
-138.8955701692692
 10
93.74862736371563
 20
-138.9400119010289
 10
93.82889808852195
 20
-139.1219129426501
 10
93.91295841836204
 20
-139.3144937802755
 10
93.93259546262797
 20
-139.5429036109476
 10
93.93259546262797
 20
-139.7165364234042
 10
93.93259546262797
 20
-139.8877576690211
 10
93.91468096610467
 20
-140.1182345569843
 10
93.82889808852195
 20
-140.3108153946098
 97
        0
 97
        0
 92
        1
 93
        1
 72
     4
 94
        3
 73
     0
 74
     1
 95
       17
 96
       13
 40
0.0
 40
0.0
 40
0.0
 40
0.0
 40
1.0
 40
1.0
 40
1.0
 40
2.0
 40
2.0
 40
2.0
 40
3.0
 40
3.0
 40
3.0
 40
4.0
 40
4.0
 40
4.0
 40
4.0
 10
93.49300127871008
 20
-139.0881510068946
 10
93.2821614350128
 20
-139.0881510068946
 10
93.24288734648096
 20
-139.3716823653307
 10
93.24288734648096
 20
-139.7165364234042
 10
93.24288734648096
 20
-140.0358967748869
 10
93.27320418675114
 20
-140.3445773303652
 10
93.49300127871008
 20
-140.3445773303652
 10
93.70211857466475
 20
-140.3445773303652
 10
93.74311521093922
 20
-140.0634575387689
 10
93.74311521093922
 20
-139.7165364234042
 10
93.74311521093922
 20
-139.396831562373
 10
93.7110758229264
 20
-139.0881510068946
 10
93.49300127871008
 20
-139.0881510068946
 97
        0
 97
        0
 75
     2
 76
     1
 98
        0
  0
ENDBLK
  5
69
330
66
100
AcDbEntity
  8
0
100
AcDbBlockEnd
  0
BLOCK
  5
79
330
77
100
AcDbEntity
  8
0
100
AcDbBlockBegin
  2
block 4
 70
     0
 10
0.0
 20
0.0
 30
0.0
  3
block 4
  1

  0
SPLINE
  5
7B
330
77
100
AcDbEntity
  8
_U+30EC_U+30A4_U+30E4_U+30FC 1
370
     0
100
AcDbSpline
210
0.0
220
0.0
230
1.0
 70
    11
 71
     3
 72
    26
 73
    22
 74
     0
 42
0.0000000001
 43
0.0000000001
 12
1.0
 22
0.0
 32
0.0
 13
1.0
 23
0.0
 33
0.0
 40
0.0
 40
0.0
 40
0.0
 40
0.0
 40
1.0
 40
1.0
 40
1.0
 40
2.0
 40
2.0
 40
2.0
 40
3.0
 40
3.0
 40
3.0
 40
4.0
 40
4.0
 40
4.0
 40
5.0
 40
5.0
 40
5.0
 40
6.0
 40
6.0
 40
6.0
 40
7.0
 40
7.0
 40
7.0
 40
7.0
 10
81.45756020098978
 20
-140.4885823216487
 30
0.0
 10
81.45756020098978
 20
-140.4885823216487
 30
0.0
 10
81.45756020098978
 20
-139.3844292186261
 30
0.0
 10
81.45756020098978
 20
-139.3844292186261
 30
0.0
 10
81.45756020098978
 20
-139.3844292186261
 30
0.0
 10
81.1786797214588
 20
-139.3844292186261
 30
0.0
 10
81.1786797214588
 20
-139.3844292186261
 30
0.0
 10
81.1786797214588
 20
-139.3844292186261
 30
0.0
 10
81.1786797214588
 20
-139.2362901127604
 30
0.0
 10
81.1786797214588
 20
-139.2362901127604
 30
0.0
 10
81.4592827487324
 20
-139.2214762021738
 30
0.0
 10
81.49855683726426
 20
-139.0585231857215
 30
0.0
 10
81.52353377953231
 20
-138.9441460156112
 30
0.0
 10
81.52353377953231
 20
-138.9441460156112
 30
0.0
 10
81.64686819790425
 20
-138.9441460156112
 30
0.0
 10
81.64686819790425
 20
-138.9441460156112
 30
0.0
 10
81.64686819790425
 20
-138.9441460156112
 30
0.0
 10
81.64686819790425
 20
-140.4885823216487
 30
0.0
 10
81.64686819790425
 20
-140.4885823216487
 30
0.0
 10
81.64686819790425
 20
-140.4885823216487
 30
0.0
 10
81.45756020098978
 20
-140.4885823216487
 30
0.0
 10
81.45756020098978
 20
-140.4885823216487
 30
0.0
  0
HATCH
  5
7C
330
77
100
AcDbEntity
  8
_U+30EC_U+30A4_U+30E4_U+30FC 1
 62
   179
420
  2234388
100
AcDbHatch
 10
0.0
 20
0.0
 30
0.0
210
0.0
220
0.0
230
1.0
  2
SOLID
 70
     1
 71
     0
 91
        1
 92
        1
 93
        1
 72
     4
 94
        3
 73
     0
 74
     1
 95
       26
 96
       22
 40
0.0
 40
0.0
 40
0.0
 40
0.0
 40
1.0
 40
1.0
 40
1.0
 40
2.0
 40
2.0
 40
2.0
 40
3.0
 40
3.0
 40
3.0
 40
4.0
 40
4.0
 40
4.0
 40
5.0
 40
5.0
 40
5.0
 40
6.0
 40
6.0
 40
6.0
 40
7.0
 40
7.0
 40
7.0
 40
7.0
 10
81.45756020098978
 20
-140.4885823216487
 10
81.45756020098978
 20
-140.4885823216487
 10
81.45756020098978
 20
-139.3844292186261
 10
81.45756020098978
 20
-139.3844292186261
 10
81.45756020098978
 20
-139.3844292186261
 10
81.1786797214588
 20
-139.3844292186261
 10
81.1786797214588
 20
-139.3844292186261
 10
81.1786797214588
 20
-139.3844292186261
 10
81.1786797214588
 20
-139.2362901127604
 10
81.1786797214588
 20
-139.2362901127604
 10
81.4592827487324
 20
-139.2214762021738
 10
81.49855683726426
 20
-139.0585231857215
 10
81.52353377953231
 20
-138.9441460156112
 10
81.52353377953231
 20
-138.9441460156112
 10
81.64686819790425
 20
-138.9441460156112
 10
81.64686819790425
 20
-138.9441460156112
 10
81.64686819790425
 20
-138.9441460156112
 10
81.64686819790425
 20
-140.4885823216487
 10
81.64686819790425
 20
-140.4885823216487
 10
81.64686819790425
 20
-140.4885823216487
 10
81.45756020098978
 20
-140.4885823216487
 10
81.45756020098978
 20
-140.4885823216487
 97
        0
 97
        0
 75
     2
 76
     1
 98
        0
  0
SPLINE
  5
7D
330
77
100
AcDbEntity
  8
_U+30EC_U+30A4_U+30E4_U+30FC 1
370
     0
100
AcDbSpline
210
0.0
220
0.0
230
1.0
 70
    11
 71
     3
 72
    44
 73
    40
 74
     0
 42
0.0000000001
 43
0.0000000001
 12
1.0
 22
0.0
 32
0.0
 13
1.0
 23
0.0
 33
0.0
 40
0.0
 40
0.0
 40
0.0
 40
0.0
 40
1.0
 40
1.0
 40
1.0
 40
2.0
 40
2.0
 40
2.0
 40
3.0
 40
3.0
 40
3.0
 40
4.0
 40
4.0
 40
4.0
 40
5.0
 40
5.0
 40
5.0
 40
6.0
 40
6.0
 40
6.0
 40
7.0
 40
7.0
 40
7.0
 40
8.0
 40
8.0
 40
8.0
 40
9.0
 40
9.0
 40
9.0
 40
10.0
 40
10.0
 40
10.0
 40
11.0
 40
11.0
 40
11.0
 40
12.0
 40
12.0
 40
12.0
 40
13.0
 40
13.0
 40
13.0
 40
13.0
 10
82.57170408091957
 20
-139.90670569419
 30
0.0
 10
82.38756372723297
 20
-140.06552459606
 30
0.0
 10
82.30901555016928
 20
-140.1395941489929
 30
0.0
 10
82.26784665912054
 20
-140.2832546307278
 30
0.0
 10
82.26784665912054
 20
-140.2832546307278
 30
0.0
 10
82.92551538725473
 20
-140.2832546307278
 30
0.0
 10
82.92551538725473
 20
-140.2832546307278
 30
0.0
 10
82.92551538725473
 20
-140.2832546307278
 30
0.0
 10
82.92551538725473
 20
-140.4885823216487
 30
0.0
 10
82.92551538725473
 20
-140.4885823216487
 30
0.0
 10
82.92551538725473
 20
-140.4885823216487
 30
0.0
 10
82.05700681542325
 20
-140.4885823216487
 30
0.0
 10
82.05700681542325
 20
-140.4885823216487
 30
0.0
 10
82.08370630543394
 20
-140.1309814102798
 30
0.0
 10
82.13917234274646
 20
-140.0527777427646
 30
0.0
 10
82.46438935655405
 20
-139.754432473742
 30
0.0
 10
82.68074135302774
 20
-139.555650464243
 30
0.0
 10
82.736035135566
 20
-139.4877820831836
 30
0.0
 10
82.736035135566
 20
-139.3503227733221
 30
0.0
 10
82.736035135566
 20
-139.2318114886295
 30
0.0
 10
82.67522920025134
 20
-139.1008978601901
 30
0.0
 10
82.5091755978623
 20
-139.1008978601901
 30
0.0
 10
82.28937850590336
 20
-139.1008978601901
 30
0.0
 10
82.28214380538432
 20
-139.3313747481533
 30
0.0
 10
82.27852645512482
 20
-139.4478189755547
 30
0.0
 10
82.27852645512482
 20
-139.4478189755547
 30
0.0
 10
82.08921845821034
 20
-139.4478189755547
 30
0.0
 10
82.08921845821034
 20
-139.4478189755547
 30
0.0
 10
82.0962809039551
 20
-139.320694952149
 30
0.0
 10
82.10523815221676
 20
-139.2087293488784
 30
0.0
 10
82.17310653327617
 20
-139.0902180641858
 30
0.0
 10
82.26612411137792
 20
-138.9293321050246
 30
0.0
 10
82.42339272027957
 20
-138.8955701692692
 30
0.0
 10
82.5215779416092
 20
-138.8955701692692
 30
0.0
 10
82.75567217983192
 20
-138.8955701692692
 30
0.0
 10
82.93085528525687
 20
-139.0795382681815
 30
0.0
 10
82.93085528525687
 20
-139.3523898306133
 30
0.0
 10
82.93085528525687
 20
-139.5811441708339
 30
0.0
 10
82.83267006392725
 20
-139.6803629208091
 30
0.0
 10
82.57170408091957
 20
-139.90670569419
 30
0.0
  0
HATCH
  5
7E
330
77
100
AcDbEntity
  8
_U+30EC_U+30A4_U+30E4_U+30FC 1
 62
   179
420
  2234388
100
AcDbHatch
 10
0.0
 20
0.0
 30
0.0
210
0.0
220
0.0
230
1.0
  2
SOLID
 70
     1
 71
     0
 91
        1
 92
        1
 93
        1
 72
     4
 94
        3
 73
     0
 74
     1
 95
       44
 96
       40
 40
0.0
 40
0.0
 40
0.0
 40
0.0
 40
1.0
 40
1.0
 40
1.0
 40
2.0
 40
2.0
 40
2.0
 40
3.0
 40
3.0
 40
3.0
 40
4.0
 40
4.0
 40
4.0
 40
5.0
 40
5.0
 40
5.0
 40
6.0
 40
6.0
 40
6.0
 40
7.0
 40
7.0
 40
7.0
 40
8.0
 40
8.0
 40
8.0
 40
9.0
 40
9.0
 40
9.0
 40
10.0
 40
10.0
 40
10.0
 40
11.0
 40
11.0
 40
11.0
 40
12.0
 40
12.0
 40
12.0
 40
13.0
 40
13.0
 40
13.0
 40
13.0
 10
82.57170408091957
 20
-139.90670569419
 10
82.38756372723297
 20
-140.06552459606
 10
82.30901555016928
 20
-140.1395941489929
 10
82.26784665912054
 20
-140.2832546307278
 10
82.26784665912054
 20
-140.2832546307278
 10
82.92551538725473
 20
-140.2832546307278
 10
82.92551538725473
 20
-140.2832546307278
 10
82.92551538725473
 20
-140.2832546307278
 10
82.92551538725473
 20
-140.4885823216487
 10
82.92551538725473
 20
-140.4885823216487
 10
82.92551538725473
 20
-140.4885823216487
 10
82.05700681542325
 20
-140.4885823216487
 10
82.05700681542325
 20
-140.4885823216487
 10
82.08370630543394
 20
-140.1309814102798
 10
82.13917234274646
 20
-140.0527777427646
 10
82.46438935655405
 20
-139.754432473742
 10
82.68074135302774
 20
-139.555650464243
 10
82.736035135566
 20
-139.4877820831836
 10
82.736035135566
 20
-139.3503227733221
 10
82.736035135566
 20
-139.2318114886295
 10
82.67522920025134
 20
-139.1008978601901
 10
82.5091755978623
 20
-139.1008978601901
 10
82.28937850590336
 20
-139.1008978601901
 10
82.28214380538432
 20
-139.3313747481533
 10
82.27852645512482
 20
-139.4478189755547
 10
82.27852645512482
 20
-139.4478189755547
 10
82.08921845821034
 20
-139.4478189755547
 10
82.08921845821034
 20
-139.4478189755547
 10
82.0962809039551
 20
-139.320694952149
 10
82.10523815221676
 20
-139.2087293488784
 10
82.17310653327617
 20
-139.0902180641858
 10
82.26612411137792
 20
-138.9293321050246
 10
82.42339272027957
 20
-138.8955701692692
 10
82.5215779416092
 20
-138.8955701692692
 10
82.75567217983192
 20
-138.8955701692692
 10
82.93085528525687
 20
-139.0795382681815
 10
82.93085528525687
 20
-139.3523898306133
 10
82.93085528525687
 20
-139.5811441708339
 10
82.83267006392725
 20
-139.6803629208091
 10
82.57170408091957
 20
-139.90670569419
 97
        0
 97
        0
 75
     2
 76
     1
 98
        0
  0
ENDBLK
  5
7A
330
77
100
AcDbEntity
  8
0
100
AcDbBlockEnd
  0
BLOCK
  5
95
330
93
100
AcDbEntity
  8
0
100
AcDbBlockBegin
  2
block 5
 70
     0
 10
0.0
 20
0.0
 30
0.0
  3
block 5
  1

  0
SPLINE
  5
97
330
93
100
AcDbEntity
  8
_U+30EC_U+30A4_U+30E4_U+30FC 1
370
     0
100
AcDbSpline
210
0.0
220
0.0
230
1.0
 70
    11
 71
     3
 72
    26
 73
    22
 74
     0
 42
0.0000000001
 43
0.0000000001
 12
1.0
 22
0.0
 32
0.0
 13
1.0
 23
0.0
 33
0.0
 40
0.0
 40
0.0
 40
0.0
 40
0.0
 40
1.0
 40
1.0
 40
1.0
 40
2.0
 40
2.0
 40
2.0
 40
3.0
 40
3.0
 40
3.0
 40
4.0
 40
4.0
 40
4.0
 40
5.0
 40
5.0
 40
5.0
 40
6.0
 40
6.0
 40
6.0
 40
7.0
 40
7.0
 40
7.0
 40
7.0
 10
111.6176486266095
 20
-120.5225314368833
 30
0.0
 10
111.6176486266095
 20
-120.5225314368833
 30
0.0
 10
110.5134955235869
 20
-120.5225314368833
 30
0.0
 10
110.5134955235869
 20
-120.5225314368833
 30
0.0
 10
110.5134955235869
 20
-120.5225314368833
 30
0.0
 10
110.5134955235869
 20
-120.8014119164142
 30
0.0
 10
110.5134955235869
 20
-120.8014119164142
 30
0.0
 10
110.5134955235869
 20
-120.8014119164142
 30
0.0
 10
110.3653564177212
 20
-120.8014119164142
 30
0.0
 10
110.3653564177212
 20
-120.8014119164142
 30
0.0
 10
110.3505425071346
 20
-120.5208088891406
 30
0.0
 10
110.1875894906823
 20
-120.4815348006088
 30
0.0
 10
110.073212320572
 20
-120.4563856035665
 30
0.0
 10
110.073212320572
 20
-120.4563856035665
 30
0.0
 10
110.073212320572
 20
-120.3332234399688
 30
0.0
 10
110.073212320572
 20
-120.3332234399688
 30
0.0
 10
110.073212320572
 20
-120.3332234399688
 30
0.0
 10
111.6176486266095
 20
-120.3332234399688
 30
0.0
 10
111.6176486266095
 20
-120.3332234399688
 30
0.0
 10
111.6176486266095
 20
-120.3332234399688
 30
0.0
 10
111.6176486266095
 20
-120.5225314368833
 30
0.0
 10
111.6176486266095
 20
-120.5225314368833
 30
0.0
  0
HATCH
  5
98
330
93
100
AcDbEntity
  8
_U+30EC_U+30A4_U+30E4_U+30FC 1
 62
   179
420
  2234388
100
AcDbHatch
 10
0.0
 20
0.0
 30
0.0
210
0.0
220
0.0
230
1.0
  2
SOLID
 70
     1
 71
     0
 91
        1
 92
        1
 93
        1
 72
     4
 94
        3
 73
     0
 74
     1
 95
       26
 96
       22
 40
0.0
 40
0.0
 40
0.0
 40
0.0
 40
1.0
 40
1.0
 40
1.0
 40
2.0
 40
2.0
 40
2.0
 40
3.0
 40
3.0
 40
3.0
 40
4.0
 40
4.0
 40
4.0
 40
5.0
 40
5.0
 40
5.0
 40
6.0
 40
6.0
 40
6.0
 40
7.0
 40
7.0
 40
7.0
 40
7.0
 10
111.6176486266095
 20
-120.5225314368833
 10
111.6176486266095
 20
-120.5225314368833
 10
110.5134955235869
 20
-120.5225314368833
 10
110.5134955235869
 20
-120.5225314368833
 10
110.5134955235869
 20
-120.5225314368833
 10
110.5134955235869
 20
-120.8014119164142
 10
110.5134955235869
 20
-120.8014119164142
 10
110.5134955235869
 20
-120.8014119164142
 10
110.3653564177212
 20
-120.8014119164142
 10
110.3653564177212
 20
-120.8014119164142
 10
110.3505425071346
 20
-120.5208088891406
 10
110.1875894906823
 20
-120.4815348006088
 10
110.073212320572
 20
-120.4563856035665
 10
110.073212320572
 20
-120.4563856035665
 10
110.073212320572
 20
-120.3332234399688
 10
110.073212320572
 20
-120.3332234399688
 10
110.073212320572
 20
-120.3332234399688
 10
111.6176486266095
 20
-120.3332234399688
 10
111.6176486266095
 20
-120.3332234399688
 10
111.6176486266095
 20
-120.3332234399688
 10
111.6176486266095
 20
-120.5225314368833
 10
111.6176486266095
 20
-120.5225314368833
 97
        0
 97
        0
 75
     2
 76
     1
 98
        0
  0
ENDBLK
  5
96
330
93
100
AcDbEntity
  8
0
100
AcDbBlockEnd
  0
BLOCK
  5
A3
330
A1
100
AcDbEntity
  8
0
100
AcDbBlockBegin
  2
block 6
 70
     0
 10
0.0
 20
0.0
 30
0.0
  3
block 6
  1

  0
SPLINE
  5
A5
330
A1
100
AcDbEntity
  8
_U+30EC_U+30A4_U+30E4_U+30FC 1
370
     0
100
AcDbSpline
210
0.0
220
0.0
230
1.0
 70
    11
 71
     3
 72
    62
 73
    58
 74
     0
 42
0.0000000001
 43
0.0000000001
 12
1.0
 22
0.0
 32
0.0
 13
1.0
 23
0.0
 33
0.0
 40
0.0
 40
0.0
 40
0.0
 40
0.0
 40
1.0
 40
1.0
 40
1.0
 40
2.0
 40
2.0
 40
2.0
 40
3.0
 40
3.0
 40
3.0
 40
4.0
 40
4.0
 40
4.0
 40
5.0
 40
5.0
 40
5.0
 40
6.0
 40
6.0
 40
6.0
 40
7.0
 40
7.0
 40
7.0
 40
8.0
 40
8.0
 40
8.0
 40
9.0
 40
9.0
 40
9.0
 40
10.0
 40
10.0
 40
10.0
 40
11.0
 40
11.0
 40
11.0
 40
12.0
 40
12.0
 40
12.0
 40
13.0
 40
13.0
 40
13.0
 40
14.0
 40
14.0
 40
14.0
 40
15.0
 40
15.0
 40
15.0
 40
16.0
 40
16.0
 40
16.0
 40
17.0
 40
17.0
 40
17.0
 40
18.0
 40
18.0
 40
18.0
 40
19.0
 40
19.0
 40
19.0
 40
19.0
 10
111.6689805493397
 20
-135.8897243583887
 30
0.0
 10
111.6689805493397
 20
-135.969995083195
 30
0.0
 10
111.6479654668797
 20
-136.1539631821074
 30
0.0
 10
111.4619303106762
 20
-136.259383103956
 30
0.0
 10
111.349620197857
 20
-136.3220838417875
 30
0.0
 10
111.2504014478819
 20
-136.3255289372728
 30
0.0
 10
111.1656520989447
 20
-136.3293185423066
 30
0.0
 10
111.1656520989447
 20
-136.3293185423066
 30
0.0
 10
111.1656520989447
 20
-136.1432833861031
 30
0.0
 10
111.1656520989447
 20
-136.1432833861031
 30
0.0
 10
111.2397216518776
 20
-136.1415608383604
 30
0.0
 10
111.4743326544231
 20
-136.1326035900988
 30
0.0
 10
111.4743326544231
 20
-135.8931694538739
 30
0.0
 10
111.4743326544231
 20
-135.777069736021
 30
0.0
 10
111.404741725621
 20
-135.6482231648727
 30
0.0
 10
111.176331894949
 20
-135.6482231648727
 30
0.0
 10
111.0598876675475
 20
-135.6482231648727
 30
0.0
 10
111.0113118212055
 20
-135.680607062434
 30
0.0
 10
110.9796169427412
 20
-135.7071342976704
 30
0.0
 10
110.9055473898083
 20
-135.769835035502
 30
0.0
 10
110.8928005365129
 20
-135.8680202568316
 30
0.0
 10
110.8928005365129
 20
-135.9145290458825
 30
0.0
 10
110.8928005365129
 20
-135.9307209946631
 30
0.0
 10
110.8948675938041
 20
-135.9610378349334
 30
0.0
 10
110.8990017083864
 20
-135.9844644842331
 30
0.0
 10
110.8990017083864
 20
-135.9844644842331
 30
0.0
 10
110.7043538134698
 20
-135.9844644842331
 30
0.0
 10
110.7043538134698
 20
-135.9844644842331
 30
0.0
 10
110.7108994948917
 20
-135.9520805866717
 30
0.0
 10
110.7129665521829
 20
-135.9162515936251
 30
0.0
 10
110.7129665521829
 20
-135.9110839503972
 30
0.0
 10
110.7129665521829
 20
-135.8556179130847
 30
0.0
 10
110.6916069601743
 20
-135.6874972534045
 30
0.0
 10
110.4549289003377
 20
-135.6874972534045
 30
0.0
 10
110.2771619732988
 20
-135.6874972534045
 30
0.0
 10
110.2220404455348
 20
-135.7984293280296
 30
0.0
 10
110.2220404455348
 20
-135.8914469061313
 30
0.0
 10
110.2220404455348
 20
-136.1146890935755
 30
0.0
 10
110.4549289003377
 20
-136.1219237940945
 30
0.0
 10
110.5265868864309
 20
-136.1253688895798
 30
0.0
 10
110.5265868864309
 20
-136.1253688895798
 30
0.0
 10
110.5265868864309
 20
-136.2969346447452
 30
0.0
 10
110.5265868864309
 20
-136.2969346447452
 30
0.0
 10
110.4018744298648
 20
-136.2900444537747
 30
0.0
 10
110.025325493327
 20
-136.266617804475
 30
0.0
 10
110.025325493327
 20
-135.880767110127
 30
0.0
 10
110.025325493327
 20
-135.6912868584383
 30
0.0
 10
110.1524495167327
 20
-135.4873372057115
 30
0.0
 10
110.4483832189157
 20
-135.4873372057115
 30
0.0
 10
110.6347628846677
 20
-135.4873372057115
 30
0.0
 10
110.7171006667652
 20
-135.5679524400664
 30
0.0
 10
110.7784233664026
 20
-135.6520127699064
 30
0.0
 10
110.8059841302846
 20
-135.5999918280792
 30
0.0
 10
110.8862548550909
 20
-135.446340569437
 30
0.0
 10
111.1635850416535
 20
-135.446340569437
 30
0.0
 10
111.5018934183051
 20
-135.446340569437
 30
0.0
 10
111.6689805493397
 20
-135.6554578653917
 30
0.0
 10
111.6689805493397
 20
-135.8897243583887
 30
0.0
  0
HATCH
  5
A6
330
A1
100
AcDbEntity
  8
_U+30EC_U+30A4_U+30E4_U+30FC 1
 62
   179
420
  2234388
100
AcDbHatch
 10
0.0
 20
0.0
 30
0.0
210
0.0
220
0.0
230
1.0
  2
SOLID
 70
     1
 71
     0
 91
        1
 92
        1
 93
        1
 72
     4
 94
        3
 73
     0
 74
     1
 95
       62
 96
       58
 40
0.0
 40
0.0
 40
0.0
 40
0.0
 40
1.0
 40
1.0
 40
1.0
 40
2.0
 40
2.0
 40
2.0
 40
3.0
 40
3.0
 40
3.0
 40
4.0
 40
4.0
 40
4.0
 40
5.0
 40
5.0
 40
5.0
 40
6.0
 40
6.0
 40
6.0
 40
7.0
 40
7.0
 40
7.0
 40
8.0
 40
8.0
 40
8.0
 40
9.0
 40
9.0
 40
9.0
 40
10.0
 40
10.0
 40
10.0
 40
11.0
 40
11.0
 40
11.0
 40
12.0
 40
12.0
 40
12.0
 40
13.0
 40
13.0
 40
13.0
 40
14.0
 40
14.0
 40
14.0
 40
15.0
 40
15.0
 40
15.0
 40
16.0
 40
16.0
 40
16.0
 40
17.0
 40
17.0
 40
17.0
 40
18.0
 40
18.0
 40
18.0
 40
19.0
 40
19.0
 40
19.0
 40
19.0
 10
111.6689805493397
 20
-135.8897243583887
 10
111.6689805493397
 20
-135.969995083195
 10
111.6479654668797
 20
-136.1539631821074
 10
111.4619303106762
 20
-136.259383103956
 10
111.349620197857
 20
-136.3220838417875
 10
111.2504014478819
 20
-136.3255289372728
 10
111.1656520989447
 20
-136.3293185423066
 10
111.1656520989447
 20
-136.3293185423066
 10
111.1656520989447
 20
-136.1432833861031
 10
111.1656520989447
 20
-136.1432833861031
 10
111.2397216518776
 20
-136.1415608383604
 10
111.4743326544231
 20
-136.1326035900988
 10
111.4743326544231
 20
-135.8931694538739
 10
111.4743326544231
 20
-135.777069736021
 10
111.404741725621
 20
-135.6482231648727
 10
111.176331894949
 20
-135.6482231648727
 10
111.0598876675475
 20
-135.6482231648727
 10
111.0113118212055
 20
-135.680607062434
 10
110.9796169427412
 20
-135.7071342976704
 10
110.9055473898083
 20
-135.769835035502
 10
110.8928005365129
 20
-135.8680202568316
 10
110.8928005365129
 20
-135.9145290458825
 10
110.8928005365129
 20
-135.9307209946631
 10
110.8948675938041
 20
-135.9610378349334
 10
110.8990017083864
 20
-135.9844644842331
 10
110.8990017083864
 20
-135.9844644842331
 10
110.7043538134698
 20
-135.9844644842331
 10
110.7043538134698
 20
-135.9844644842331
 10
110.7108994948917
 20
-135.9520805866717
 10
110.7129665521829
 20
-135.9162515936251
 10
110.7129665521829
 20
-135.9110839503972
 10
110.7129665521829
 20
-135.8556179130847
 10
110.6916069601743
 20
-135.6874972534045
 10
110.4549289003377
 20
-135.6874972534045
 10
110.2771619732988
 20
-135.6874972534045
 10
110.2220404455348
 20
-135.7984293280296
 10
110.2220404455348
 20
-135.8914469061313
 10
110.2220404455348
 20
-136.1146890935755
 10
110.4549289003377
 20
-136.1219237940945
 10
110.5265868864309
 20
-136.1253688895798
 10
110.5265868864309
 20
-136.1253688895798
 10
110.5265868864309
 20
-136.2969346447452
 10
110.5265868864309
 20
-136.2969346447452
 10
110.4018744298648
 20
-136.2900444537747
 10
110.025325493327
 20
-136.266617804475
 10
110.025325493327
 20
-135.880767110127
 10
110.025325493327
 20
-135.6912868584383
 10
110.1524495167327
 20
-135.4873372057115
 10
110.4483832189157
 20
-135.4873372057115
 10
110.6347628846677
 20
-135.4873372057115
 10
110.7171006667652
 20
-135.5679524400664
 10
110.7784233664026
 20
-135.6520127699064
 10
110.8059841302846
 20
-135.5999918280792
 10
110.8862548550909
 20
-135.446340569437
 10
111.1635850416535
 20
-135.446340569437
 10
111.5018934183051
 20
-135.446340569437
 10
111.6689805493397
 20
-135.6554578653917
 10
111.6689805493397
 20
-135.8897243583887
 97
        0
 97
        0
 75
     2
 76
     1
 98
        0
  0
ENDBLK
  5
A4
330
A1
100
AcDbEntity
  8
0
100
AcDbBlockEnd
  0
BLOCK
  5
B1
330
AF
100
AcDbEntity
  8
0
100
AcDbBlockBegin
  2
block 7
 70
     0
 10
0.0
 20
0.0
 30
0.0
  3
block 7
  1

  0
SPLINE
  5
B3
330
AF
100
AcDbEntity
  8
_U+30EC_U+30A4_U+30E4_U+30FC 1
370
     0
100
AcDbSpline
210
0.0
220
0.0
230
1.0
 70
    11
 71
     3
 72
    32
 73
    28
 74
     0
 42
0.0000000001
 43
0.0000000001
 12
1.0
 22
0.0
 32
0.0
 13
1.0
 23
0.0
 33
0.0
 40
0.0
 40
0.0
 40
0.0
 40
0.0
 40
1.0
 40
1.0
 40
1.0
 40
2.0
 40
2.0
 40
2.0
 40
3.0
 40
3.0
 40
3.0
 40
4.0
 40
4.0
 40
4.0
 40
5.0
 40
5.0
 40
5.0
 40
6.0
 40
6.0
 40
6.0
 40
7.0
 40
7.0
 40
7.0
 40
8.0
 40
8.0
 40
8.0
 40
9.0
 40
9.0
 40
9.0
 40
9.0
 10
111.6693250588882
 20
-130.1322807834392
 30
0.0
 10
111.6693250588882
 20
-130.2786973415623
 30
0.0
 10
111.5997341300862
 20
-130.4860920897743
 30
0.0
 10
111.2676269253081
 20
-130.5181314777871
 30
0.0
 10
111.2676269253081
 20
-130.5181314777871
 30
0.0
 10
111.2676269253081
 20
-130.3376084743601
 30
0.0
 10
111.2676269253081
 20
-130.3376084743601
 30
0.0
 10
111.3268825676544
 20
-130.3286512260984
 30
0.0
 10
111.4746771639716
 20
-130.3017794813134
 30
0.0
 10
111.4746771639716
 20
-130.130213726148
 30
0.0
 10
111.4746771639716
 20
-129.8838893989526
 30
0.0
 10
111.1449815260332
 20
-129.8515055013913
 30
0.0
 10
110.9396538351123
 20
-129.840825705387
 30
0.0
 10
111.0199245599186
 20
-129.9176513347081
 30
0.0
 10
111.0771131449738
 20
-129.9748399197632
 30
0.0
 10
111.0771131449738
 20
-130.1284911784054
 30
0.0
 10
111.0771131449738
 20
-130.2804198893049
 30
0.0
 10
110.9713487135766
 20
-130.5360459743104
 30
0.0
 10
110.5651719558657
 20
-130.5360459743104
 30
0.0
 10
110.245811604383
 20
-130.5360459743104
 30
0.0
 10
110.0256700028755
 20
-130.3679253146302
 30
0.0
 10
110.0256700028755
 20
-130.0998968858778
 30
0.0
 10
110.0256700028755
 20
-129.6658148547363
 30
0.0
 10
110.5799858664522
 20
-129.6568576064747
 30
0.0
 10
110.7935817865377
 20
-129.6568576064747
 30
0.0
 10
111.0240586745009
 20
-129.6568576064747
 30
0.0
 10
111.6693250588882
 20
-129.6727050457068
 30
0.0
 10
111.6693250588882
 20
-130.1322807834392
 30
0.0
  0
SPLINE
  5
B4
330
AF
100
AcDbEntity
  8
_U+30EC_U+30A4_U+30E4_U+30FC 1
370
     0
100
AcDbSpline
210
0.0
220
0.0
230
1.0
 70
    11
 71
     3
 72
    17
 73
    13
 74
     0
 42
0.0000000001
 43
0.0000000001
 12
1.0
 22
0.0
 32
0.0
 13
1.0
 23
0.0
 33
0.0
 40
0.0
 40
0.0
 40
0.0
 40
0.0
 40
1.0
 40
1.0
 40
1.0
 40
2.0
 40
2.0
 40
2.0
 40
3.0
 40
3.0
 40
3.0
 40
4.0
 40
4.0
 40
4.0
 40
4.0
 10
110.218250840501
 20
-130.0981743381352
 30
0.0
 10
110.218250840501
 20
-130.198426616756
 30
0.0
 10
110.2754394255561
 20
-130.3465657226217
 30
0.0
 10
110.5610378412834
 20
-130.3465657226217
 30
0.0
 10
110.7873806146643
 20
-130.3465657226217
 30
0.0
 10
110.8824652500572
 20
-130.2287434570262
 30
0.0
 10
110.8824652500572
 20
-130.1143662869159
 30
0.0
 10
110.8824652500572
 20
-129.8928466472143
 30
0.0
 10
110.673003444554
 20
-129.860462749653
 30
0.0
 10
110.5565592171525
 20
-129.860462749653
 30
0.0
 10
110.3812038569533
 20
-129.860462749653
 30
0.0
 10
110.218250840501
 20
-129.9410779840078
 30
0.0
 10
110.218250840501
 20
-130.0981743381352
 30
0.0
  0
HATCH
  5
B5
330
AF
100
AcDbEntity
  8
_U+30EC_U+30A4_U+30E4_U+30FC 1
 62
   179
420
  2234388
100
AcDbHatch
 10
0.0
 20
0.0
 30
0.0
210
0.0
220
0.0
230
1.0
  2
SOLID
 70
     1
 71
     0
 91
        2
 92
        1
 93
        1
 72
     4
 94
        3
 73
     0
 74
     1
 95
       32
 96
       28
 40
0.0
 40
0.0
 40
0.0
 40
0.0
 40
1.0
 40
1.0
 40
1.0
 40
2.0
 40
2.0
 40
2.0
 40
3.0
 40
3.0
 40
3.0
 40
4.0
 40
4.0
 40
4.0
 40
5.0
 40
5.0
 40
5.0
 40
6.0
 40
6.0
 40
6.0
 40
7.0
 40
7.0
 40
7.0
 40
8.0
 40
8.0
 40
8.0
 40
9.0
 40
9.0
 40
9.0
 40
9.0
 10
111.6693250588882
 20
-130.1322807834392
 10
111.6693250588882
 20
-130.2786973415623
 10
111.5997341300862
 20
-130.4860920897743
 10
111.2676269253081
 20
-130.5181314777871
 10
111.2676269253081
 20
-130.5181314777871
 10
111.2676269253081
 20
-130.3376084743601
 10
111.2676269253081
 20
-130.3376084743601
 10
111.3268825676544
 20
-130.3286512260984
 10
111.4746771639716
 20
-130.3017794813134
 10
111.4746771639716
 20
-130.130213726148
 10
111.4746771639716
 20
-129.8838893989526
 10
111.1449815260332
 20
-129.8515055013913
 10
110.9396538351123
 20
-129.840825705387
 10
111.0199245599186
 20
-129.9176513347081
 10
111.0771131449738
 20
-129.9748399197632
 10
111.0771131449738
 20
-130.1284911784054
 10
111.0771131449738
 20
-130.2804198893049
 10
110.9713487135766
 20
-130.5360459743104
 10
110.5651719558657
 20
-130.5360459743104
 10
110.245811604383
 20
-130.5360459743104
 10
110.0256700028755
 20
-130.3679253146302
 10
110.0256700028755
 20
-130.0998968858778
 10
110.0256700028755
 20
-129.6658148547363
 10
110.5799858664522
 20
-129.6568576064747
 10
110.7935817865377
 20
-129.6568576064747
 10
111.0240586745009
 20
-129.6568576064747
 10
111.6693250588882
 20
-129.6727050457068
 10
111.6693250588882
 20
-130.1322807834392
 97
        0
 97
        0
 92
        1
 93
        1
 72
     4
 94
        3
 73
     0
 74
     1
 95
       17
 96
       13
 40
0.0
 40
0.0
 40
0.0
 40
0.0
 40
1.0
 40
1.0
 40
1.0
 40
2.0
 40
2.0
 40
2.0
 40
3.0
 40
3.0
 40
3.0
 40
4.0
 40
4.0
 40
4.0
 40
4.0
 10
110.218250840501
 20
-130.0981743381352
 10
110.218250840501
 20
-130.198426616756
 10
110.2754394255561
 20
-130.3465657226217
 10
110.5610378412834
 20
-130.3465657226217
 10
110.7873806146643
 20
-130.3465657226217
 10
110.8824652500572
 20
-130.2287434570262
 10
110.8824652500572
 20
-130.1143662869159
 10
110.8824652500572
 20
-129.8928466472143
 10
110.673003444554
 20
-129.860462749653
 10
110.5565592171525
 20
-129.860462749653
 10
110.3812038569533
 20
-129.860462749653
 10
110.218250840501
 20
-129.9410779840078
 10
110.218250840501
 20
-130.0981743381352
 97
        0
 97
        0
 75
     2
 76
     1
 98
        0
  0
POLYLINE
  5
B6
330
AF
100
AcDbEntity
  8
_U+30EC_U+30A4_U+30E4_U+30FC 1
370
     0
100
AcDb2dPolyline
 66
     1
 10
0.0
 20
0.0
 30
0.0
  0
VERTEX
  5
B7
330
B6
100
AcDbEntity
  8
_U+30EC_U+30A4_U+30E4_U+30FC 1
370
     0
100
AcDbVertex
100
AcDb2dVertex
 10
111.6186821552551
 20
-129.4735785266594
 30
0.0
  0
VERTEX
  5
B8
330
B6
100
AcDbEntity
  8
_U+30EC_U+30A4_U+30E4_U+30FC 1
370
     0
100
AcDbVertex
100
AcDb2dVertex
 10
111.3668456752833
 20
-129.4735785266594
 30
0.0
  0
VERTEX
  5
B9
330
B6
100
AcDbEntity
  8
_U+30EC_U+30A4_U+30E4_U+30FC 1
370
     0
100
AcDbVertex
100
AcDb2dVertex
 10
111.3668456752833
 20
-129.2610161352195
 30
0.0
  0
VERTEX
  5
BA
330
B6
100
AcDbEntity
  8
_U+30EC_U+30A4_U+30E4_U+30FC 1
370
     0
100
AcDbVertex
100
AcDb2dVertex
 10
111.6186821552551
 20
-129.2610161352195
 30
0.0
  0
VERTEX
  5
BB
330
B6
100
AcDbEntity
  8
_U+30EC_U+30A4_U+30E4_U+30FC 1
370
     0
100
AcDbVertex
100
AcDb2dVertex
 10
111.6186821552551
 20
-129.4735785266594
 30
0.0
  0
SEQEND
  5
BC
330
B6
100
AcDbEntity
  8
_U+30EC_U+30A4_U+30E4_U+30FC 1
370
     0
  0
HATCH
  5
BD
330
AF
100
AcDbEntity
  8
_U+30EC_U+30A4_U+30E4_U+30FC 1
 62
   179
420
  2234388
100
AcDbHatch
 10
0.0
 20
0.0
 30
0.0
210
0.0
220
0.0
230
1.0
  2
SOLID
 70
     1
 71
     0
 91
        1
 92
        1
 93
        4
 72
     1
 10
111.6186821552551
 20
-129.4735785266594
 11
111.3668456752833
 21
-129.4735785266594
 72
     1
 10
111.3668456752833
 20
-129.4735785266594
 11
111.3668456752833
 21
-129.2610161352195
 72
     1
 10
111.3668456752833
 20
-129.2610161352195
 11
111.6186821552551
 21
-129.2610161352195
 72
     1
 10
111.6186821552551
 20
-129.2610161352195
 11
111.6186821552551
 21
-129.4735785266594
 97
        0
 75
     2
 76
     1
 98
        0
  0
SPLINE
  5
BE
330
AF
100
AcDbEntity
  8
_U+30EC_U+30A4_U+30E4_U+30FC 1
370
     0
100
AcDbSpline
210
0.0
220
0.0
230
1.0
 70
    11
 71
     3
 72
    29
 73
    25
 74
     0
 42
0.0000000001
 43
0.0000000001
 12
1.0
 22
0.0
 32
0.0
 13
1.0
 23
0.0
 33
0.0
 40
0.0
 40
0.0
 40
0.0
 40
0.0
 40
1.0
 40
1.0
 40
1.0
 40
2.0
 40
2.0
 40
2.0
 40
3.0
 40
3.0
 40
3.0
 40
4.0
 40
4.0
 40
4.0
 40
5.0
 40
5.0
 40
5.0
 40
6.0
 40
6.0
 40
6.0
 40
7.0
 40
7.0
 40
7.0
 40
8.0
 40
8.0
 40
8.0
 40
8.0
 10
111.6693250588882
 20
-128.6388318905834
 30
0.0
 10
111.6693250588882
 20
-128.8641411353187
 30
0.0
 10
111.5318657490268
 20
-129.0784260745012
 30
0.0
 10
111.182877576371
 20
-129.0784260745012
 30
0.0
 10
110.9269069818169
 20
-129.0784260745012
 30
0.0
 10
110.831822346424
 20
-128.9585367516145
 30
0.0
 10
110.7704996467865
 20
-128.8693087785466
 30
0.0
 10
110.7112440044402
 20
-128.9747287003952
 30
0.0
 10
110.59686683433
 20
-129.0391519859694
 30
0.0
 10
110.4359808751688
 20
-129.0391519859694
 30
0.0
 10
110.1610622554459
 20
-129.0391519859694
 30
0.0
 10
110.0256700028755
 20
-128.8710313262892
 30
0.0
 10
110.0256700028755
 20
-128.6388318905834
 30
0.0
 10
110.0256700028755
 20
-128.3993977543585
 30
0.0
 10
110.169674994159
 20
-128.2385117951973
 30
0.0
 10
110.4359808751688
 20
-128.2385117951973
 30
0.0
 10
110.59686683433
 20
-128.2385117951973
 30
0.0
 10
110.7112440044402
 20
-128.3046576285141
 30
0.0
 10
110.7704996467865
 20
-128.4100775503628
 30
0.0
 10
110.8211425504197
 20
-128.3349744687843
 30
0.0
 10
110.9162271858126
 20
-128.2009602544081
 30
0.0
 10
111.1787434617887
 20
-128.2009602544081
 30
0.0
 10
111.5532253410353
 20
-128.2009602544081
 30
0.0
 10
111.6693250588882
 20
-128.4369492951477
 30
0.0
 10
111.6693250588882
 20
-128.6388318905834
 30
0.0
  0
SPLINE
  5
BF
330
AF
100
AcDbEntity
  8
_U+30EC_U+30A4_U+30E4_U+30FC 1
370
     0
100
AcDbSpline
210
0.0
220
0.0
230
1.0
 70
    11
 71
     3
 72
    17
 73
    13
 74
     0
 42
0.0000000001
 43
0.0000000001
 12
1.0
 22
0.0
 32
0.0
 13
1.0
 23
0.0
 33
0.0
 40
0.0
 40
0.0
 40
0.0
 40
0.0
 40
1.0
 40
1.0
 40
1.0
 40
2.0
 40
2.0
 40
2.0
 40
3.0
 40
3.0
 40
3.0
 40
4.0
 40
4.0
 40
4.0
 40
4.0
 10
110.218250840501
 20
-128.6388318905834
 30
0.0
 10
110.218250840501
 20
-128.7780137481874
 30
0.0
 10
110.3133354758939
 20
-128.8496717342806
 30
0.0
 10
110.4487277284642
 20
-128.8496717342806
 30
0.0
 10
110.5713731277391
 20
-128.8496717342806
 30
0.0
 10
110.6898844124317
 20
-128.7890380537403
 30
0.0
 10
110.6898844124317
 20
-128.6388318905834
 30
0.0
 10
110.6898844124317
 20
-128.4886257274265
 30
0.0
 10
110.5713731277391
 20
-128.4279920468861
 30
0.0
 10
110.4487277284642
 20
-128.4279920468861
 30
0.0
 10
110.3133354758939
 20
-128.4279920468861
 30
0.0
 10
110.218250840501
 20
-128.5010280711734
 30
0.0
 10
110.218250840501
 20
-128.6388318905834
 30
0.0
  0
SPLINE
  5
C0
330
AF
100
AcDbEntity
  8
_U+30EC_U+30A4_U+30E4_U+30FC 1
370
     0
100
AcDbSpline
210
0.0
220
0.0
230
1.0
 70
    11
 71
     3
 72
    17
 73
    13
 74
     0
 42
0.0000000001
 43
0.0000000001
 12
1.0
 22
0.0
 32
0.0
 13
1.0
 23
0.0
 33
0.0
 40
0.0
 40
0.0
 40
0.0
 40
0.0
 40
1.0
 40
1.0
 40
1.0
 40
2.0
 40
2.0
 40
2.0
 40
3.0
 40
3.0
 40
3.0
 40
4.0
 40
4.0
 40
4.0
 40
4.0
 10
110.8783311354749
 20
-128.6388318905834
 30
0.0
 10
110.8783311354749
 20
-128.7604437612127
 30
0.0
 10
110.9651475417032
 20
-128.8889458228125
 30
0.0
 10
111.1680636657844
 20
-128.8889458228125
 30
0.0
 10
111.3733913567053
 20
-128.8889458228125
 30
0.0
 10
111.4746771639716
 20
-128.7818033532212
 30
0.0
 10
111.4746771639716
 20
-128.6388318905834
 30
0.0
 10
111.4746771639716
 20
-128.4813910269074
 30
0.0
 10
111.3520317646967
 20
-128.3887179583542
 30
0.0
 10
111.1742648376578
 20
-128.3887179583542
 30
0.0
 10
110.9524006884077
 20
-128.3887179583542
 30
0.0
 10
110.8783311354749
 20
-128.5261772682157
 30
0.0
 10
110.8783311354749
 20
-128.6388318905834
 30
0.0
  0
HATCH
  5
C1
330
AF
100
AcDbEntity
  8
_U+30EC_U+30A4_U+30E4_U+30FC 1
 62
   179
420
  2234388
100
AcDbHatch
 10
0.0
 20
0.0
 30
0.0
210
0.0
220
0.0
230
1.0
  2
SOLID
 70
     1
 71
     0
 91
        3
 92
        1
 93
        1
 72
     4
 94
        3
 73
     0
 74
     1
 95
       29
 96
       25
 40
0.0
 40
0.0
 40
0.0
 40
0.0
 40
1.0
 40
1.0
 40
1.0
 40
2.0
 40
2.0
 40
2.0
 40
3.0
 40
3.0
 40
3.0
 40
4.0
 40
4.0
 40
4.0
 40
5.0
 40
5.0
 40
5.0
 40
6.0
 40
6.0
 40
6.0
 40
7.0
 40
7.0
 40
7.0
 40
8.0
 40
8.0
 40
8.0
 40
8.0
 10
111.6693250588882
 20
-128.6388318905834
 10
111.6693250588882
 20
-128.8641411353187
 10
111.5318657490268
 20
-129.0784260745012
 10
111.182877576371
 20
-129.0784260745012
 10
110.9269069818169
 20
-129.0784260745012
 10
110.831822346424
 20
-128.9585367516145
 10
110.7704996467865
 20
-128.8693087785466
 10
110.7112440044402
 20
-128.9747287003952
 10
110.59686683433
 20
-129.0391519859694
 10
110.4359808751688
 20
-129.0391519859694
 10
110.1610622554459
 20
-129.0391519859694
 10
110.0256700028755
 20
-128.8710313262892
 10
110.0256700028755
 20
-128.6388318905834
 10
110.0256700028755
 20
-128.3993977543585
 10
110.169674994159
 20
-128.2385117951973
 10
110.4359808751688
 20
-128.2385117951973
 10
110.59686683433
 20
-128.2385117951973
 10
110.7112440044402
 20
-128.3046576285141
 10
110.7704996467865
 20
-128.4100775503628
 10
110.8211425504197
 20
-128.3349744687843
 10
110.9162271858126
 20
-128.2009602544081
 10
111.1787434617887
 20
-128.2009602544081
 10
111.5532253410353
 20
-128.2009602544081
 10
111.6693250588882
 20
-128.4369492951477
 10
111.6693250588882
 20
-128.6388318905834
 97
        0
 97
        0
 92
        1
 93
        1
 72
     4
 94
        3
 73
     0
 74
     1
 95
       17
 96
       13
 40
0.0
 40
0.0
 40
0.0
 40
0.0
 40
1.0
 40
1.0
 40
1.0
 40
2.0
 40
2.0
 40
2.0
 40
3.0
 40
3.0
 40
3.0
 40
4.0
 40
4.0
 40
4.0
 40
4.0
 10
110.218250840501
 20
-128.6388318905834
 10
110.218250840501
 20
-128.7780137481874
 10
110.3133354758939
 20
-128.8496717342806
 10
110.4487277284642
 20
-128.8496717342806
 10
110.5713731277391
 20
-128.8496717342806
 10
110.6898844124317
 20
-128.7890380537403
 10
110.6898844124317
 20
-128.6388318905834
 10
110.6898844124317
 20
-128.4886257274265
 10
110.5713731277391
 20
-128.4279920468861
 10
110.4487277284642
 20
-128.4279920468861
 10
110.3133354758939
 20
-128.4279920468861
 10
110.218250840501
 20
-128.5010280711734
 10
110.218250840501
 20
-128.6388318905834
 97
        0
 97
        0
 92
        1
 93
        1
 72
     4
 94
        3
 73
     0
 74
     1
 95
       17
 96
       13
 40
0.0
 40
0.0
 40
0.0
 40
0.0
 40
1.0
 40
1.0
 40
1.0
 40
2.0
 40
2.0
 40
2.0
 40
3.0
 40
3.0
 40
3.0
 40
4.0
 40
4.0
 40
4.0
 40
4.0
 10
110.8783311354749
 20
-128.6388318905834
 10
110.8783311354749
 20
-128.7604437612127
 10
110.9651475417032
 20
-128.8889458228125
 10
111.1680636657844
 20
-128.8889458228125
 10
111.3733913567053
 20
-128.8889458228125
 10
111.4746771639716
 20
-128.7818033532212
 10
111.4746771639716
 20
-128.6388318905834
 10
111.4746771639716
 20
-128.4813910269074
 10
111.3520317646967
 20
-128.3887179583542
 10
111.1742648376578
 20
-128.3887179583542
 10
110.9524006884077
 20
-128.3887179583542
 10
110.8783311354749
 20
-128.5261772682157
 10
110.8783311354749
 20
-128.6388318905834
 97
        0
 97
        0
 75
     2
 76
     1
 98
        0
  0
ENDBLK
  5
B2
330
AF
100
AcDbEntity
  8
0
100
AcDbBlockEnd
  0
BLOCK
  5
D2
330
D0
100
AcDbEntity
  8
0
100
AcDbBlockBegin
  2
block 8
 70
     0
 10
0.0
 20
0.0
 30
0.0
  3
block 8
  1

  0
SPLINE
  5
D4
330
D0
100
AcDbEntity
  8
_U+30EC_U+30A4_U+30E4_U+30FC 1
370
     0
100
AcDbSpline
210
0.0
220
0.0
230
1.0
 70
    11
 71
     3
 72
    44
 73
    40
 74
     0
 42
0.0000000001
 43
0.0000000001
 12
1.0
 22
0.0
 32
0.0
 13
1.0
 23
0.0
 33
0.0
 40
0.0
 40
0.0
 40
0.0
 40
0.0
 40
1.0
 40
1.0
 40
1.0
 40
2.0
 40
2.0
 40
2.0
 40
3.0
 40
3.0
 40
3.0
 40
4.0
 40
4.0
 40
4.0
 40
5.0
 40
5.0
 40
5.0
 40
6.0
 40
6.0
 40
6.0
 40
7.0
 40
7.0
 40
7.0
 40
8.0
 40
8.0
 40
8.0
 40
9.0
 40
9.0
 40
9.0
 40
10.0
 40
10.0
 40
10.0
 40
11.0
 40
11.0
 40
11.0
 40
12.0
 40
12.0
 40
12.0
 40
13.0
 40
13.0
 40
13.0
 40
13.0
 10
70.43084308135063
 20
-124.4692328247855
 30
0.0
 10
70.58948972844638
 20
-124.7021212795884
 30
0.0
 10
70.66355928137925
 20
-124.8015122843378
 30
0.0
 10
70.80739201788843
 20
-124.8535332261651
 30
0.0
 10
70.80739201788843
 20
-124.8535332261651
 30
0.0
 10
70.80739201788843
 20
-124.0215426664773
 30
0.0
 10
70.80739201788843
 20
-124.0215426664773
 30
0.0
 10
70.80739201788843
 20
-124.0215426664773
 30
0.0
 10
71.01254745403506
 20
-124.0215426664773
 30
0.0
 10
71.01254745403506
 20
-124.0215426664773
 30
0.0
 10
71.01254745403506
 20
-124.0215426664773
 30
0.0
 10
71.01254745403506
 20
-125.1203558714977
 30
0.0
 10
71.01254745403506
 20
-125.1203558714977
 30
0.0
 10
70.65494654266612
 20
-125.086421680968
 30
0.0
 10
70.57674287515096
 20
-125.0163139878431
 30
0.0
 10
70.27839760612832
 20
-124.6047973321301
 30
0.0
 10
70.07961559662941
 20
-124.3312567506012
 30
0.0
 10
70.01191947034424
 20
-124.2611490574764
 30
0.0
 10
69.87446016048278
 20
-124.2611490574764
 30
0.0
 10
69.75594887579018
 20
-124.2611490574764
 30
0.0
 10
69.62469073780217
 20
-124.3379746867975
 30
0.0
 10
69.62469073780217
 20
-124.548297766172
 30
0.0
 10
69.62469073780217
 20
-124.8264892266059
 30
0.0
 10
69.85533988053965
 20
-124.8354464748675
 30
0.0
 10
69.97178410794109
 20
-124.8399250989984
 30
0.0
 10
69.97178410794109
 20
-124.8399250989984
 30
0.0
 10
69.97178410794109
 20
-125.0797037447717
 30
0.0
 10
69.97178410794109
 20
-125.0797037447717
 30
0.0
 10
69.84483233930963
 20
-125.0705742417358
 30
0.0
 10
69.73269448126474
 20
-125.0592054266345
 30
0.0
 10
69.61418319657216
 20
-124.9734225490518
 30
0.0
 10
69.45346949218525
 20
-124.8557725382305
 30
0.0
 10
69.41953530165554
 20
-124.6568182739573
 30
0.0
 10
69.41953530165554
 20
-124.5324503269398
 30
0.0
 10
69.41953530165554
 20
-124.2363443699826
 30
0.0
 10
69.60367565534214
 20
-124.014824730281
 30
0.0
 10
69.87652721777393
 20
-124.014824730281
 30
0.0
 10
70.10493704844599
 20
-124.014824730281
 30
0.0
 10
70.20450030796971
 20
-124.1391926772985
 30
0.0
 10
70.43084308135063
 20
-124.4692328247855
 30
0.0
  0
HATCH
  5
D5
330
D0
100
AcDbEntity
  8
_U+30EC_U+30A4_U+30E4_U+30FC 1
 62
   179
420
  2234388
100
AcDbHatch
 10
0.0
 20
0.0
 30
0.0
210
0.0
220
0.0
230
1.0
  2
SOLID
 70
     1
 71
     0
 91
        1
 92
        1
 93
        1
 72
     4
 94
        3
 73
     0
 74
     1
 95
       44
 96
       40
 40
0.0
 40
0.0
 40
0.0
 40
0.0
 40
1.0
 40
1.0
 40
1.0
 40
2.0
 40
2.0
 40
2.0
 40
3.0
 40
3.0
 40
3.0
 40
4.0
 40
4.0
 40
4.0
 40
5.0
 40
5.0
 40
5.0
 40
6.0
 40
6.0
 40
6.0
 40
7.0
 40
7.0
 40
7.0
 40
8.0
 40
8.0
 40
8.0
 40
9.0
 40
9.0
 40
9.0
 40
10.0
 40
10.0
 40
10.0
 40
11.0
 40
11.0
 40
11.0
 40
12.0
 40
12.0
 40
12.0
 40
13.0
 40
13.0
 40
13.0
 40
13.0
 10
70.43084308135063
 20
-124.4692328247855
 10
70.58948972844638
 20
-124.7021212795884
 10
70.66355928137925
 20
-124.8015122843378
 10
70.80739201788843
 20
-124.8535332261651
 10
70.80739201788843
 20
-124.8535332261651
 10
70.80739201788843
 20
-124.0215426664773
 10
70.80739201788843
 20
-124.0215426664773
 10
70.80739201788843
 20
-124.0215426664773
 10
71.01254745403506
 20
-124.0215426664773
 10
71.01254745403506
 20
-124.0215426664773
 10
71.01254745403506
 20
-124.0215426664773
 10
71.01254745403506
 20
-125.1203558714977
 10
71.01254745403506
 20
-125.1203558714977
 10
70.65494654266612
 20
-125.086421680968
 10
70.57674287515096
 20
-125.0163139878431
 10
70.27839760612832
 20
-124.6047973321301
 10
70.07961559662941
 20
-124.3312567506012
 10
70.01191947034424
 20
-124.2611490574764
 10
69.87446016048278
 20
-124.2611490574764
 10
69.75594887579018
 20
-124.2611490574764
 10
69.62469073780217
 20
-124.3379746867975
 10
69.62469073780217
 20
-124.548297766172
 10
69.62469073780217
 20
-124.8264892266059
 10
69.85533988053965
 20
-124.8354464748675
 10
69.97178410794109
 20
-124.8399250989984
 10
69.97178410794109
 20
-124.8399250989984
 10
69.97178410794109
 20
-125.0797037447717
 10
69.97178410794109
 20
-125.0797037447717
 10
69.84483233930963
 20
-125.0705742417358
 10
69.73269448126474
 20
-125.0592054266345
 10
69.61418319657216
 20
-124.9734225490518
 10
69.45346949218525
 20
-124.8557725382305
 10
69.41953530165554
 20
-124.6568182739573
 10
69.41953530165554
 20
-124.5324503269398
 10
69.41953530165554
 20
-124.2363443699826
 10
69.60367565534214
 20
-124.014824730281
 10
69.87652721777393
 20
-124.014824730281
 10
70.10493704844599
 20
-124.014824730281
 10
70.20450030796971
 20
-124.1391926772985
 10
70.43084308135063
 20
-124.4692328247855
 97
        0
 97
        0
 75
     2
 76
     1
 98
        0
  0
ENDBLK
  5
D3
330
D0
100
AcDbEntity
  8
0
100
AcDbBlockEnd
  0
ENDSEC
  0
SECTION
  2
ENTITIES
  0
SPLINE
  5
41
330
1F
100
AcDbEntity
  8
_U+30EC_U+30A4_U+30E4_U+30FC 1
 62
   179
420
  2234388
370
     9
100
AcDbSpline
210
0.0
220
0.0
230
1.0
 70
    11
 71
     3
 72
    17
 73
    13
 74
     0
 42
0.0000000001
 43
0.0000000001
 12
1.0
 22
0.0
 32
0.0
 13
1.0
 23
0.0
 33
0.0
 40
0.0
 40
0.0
 40
0.0
 40
0.0
 40
1.0
 40
1.0
 40
1.0
 40
2.0
 40
2.0
 40
2.0
 40
3.0
 40
3.0
 40
3.0
 40
4.0
 40
4.0
 40
4.0
 40
4.0
 10
108.3541041801009
 20
-117.8329283038753
 30
0.0
 10
108.3541041801009
 20
-117.777824415
 30
0.0
 10
108.3093366812431
 20
-117.7330216372333
 30
0.0
 10
108.2541975159831
 20
-117.7330216372333
 30
0.0
 10
108.1990936285
 20
-117.7330216372333
 30
0.0
 10
108.1542908518653
 20
-117.777824415
 30
0.0
 10
108.1542908518653
 20
-117.8329283038753
 30
0.0
 10
108.1542908518653
 20
-117.888067470528
 30
0.0
 10
108.1990936285
 20
-117.9328702482944
 30
0.0
 10
108.2541975159831
 20
-117.9328702482944
 30
0.0
 10
108.3093366812431
 20
-117.9328702482944
 30
0.0
 10
108.3541041801009
 20
-117.888067470528
 30
0.0
 10
108.3541041801009
 20
-117.8329283038753
 30
0.0
  0
SPLINE
  5
42
330
1F
100
AcDbEntity
  8
_U+30EC_U+30A4_U+30E4_U+30FC 1
 62
   179
420
  2234388
370
     9
100
AcDbSpline
210
0.0
220
0.0
230
1.0
 70
    11
 71
     3
 72
    17
 73
    13
 74
     0
 42
0.0000000001
 43
0.0000000001
 12
1.0
 22
0.0
 32
0.0
 13
1.0
 23
0.0
 33
0.0
 40
0.0
 40
0.0
 40
0.0
 40
0.0
 40
1.0
 40
1.0
 40
1.0
 40
2.0
 40
2.0
 40
2.0
 40
3.0
 40
3.0
 40
3.0
 40
4.0
 40
4.0
 40
4.0
 40
4.0
 10
76.35518499646139
 20
-117.8329283038753
 30
0.0
 10
76.35518499646139
 20
-117.777824415
 30
0.0
 10
76.31041942536687
 20
-117.7330216372333
 30
0.0
 10
76.25527833234355
 20
-117.7330216372333
 30
0.0
 10
76.1998216670917
 20
-117.7330216372333
 30
0.0
 10
76.15505416823382
 20
-117.777824415
 30
0.0
 10
76.15505416823382
 20
-117.8329283038753
 30
0.0
 10
76.15505416823382
 20
-117.888067470528
 30
0.0
 10
76.1998216670917
 20
-117.9328702482944
 30
0.0
 10
76.25527833234355
 20
-117.9328702482944
 30
0.0
 10
76.31041942536687
 20
-117.9328702482944
 30
0.0
 10
76.35518499646139
 20
-117.888067470528
 30
0.0
 10
76.35518499646139
 20
-117.8329283038753
 30
0.0
  0
POLYLINE
  5
43
330
1F
100
AcDbEntity
  8
_U+30EC_U+30A4_U+30E4_U+30FC 1
 62
   179
420
  2234388
370
     9
100
AcDb2dPolyline
 66
     1
 10
0.0
 20
0.0
 30
0.0
  0
VERTEX
  5
44
330
43
100
AcDbEntity
  8
_U+30EC_U+30A4_U+30E4_U+30FC 1
 62
   179
420
  2234388
370
     9
100
AcDbVertex
100
AcDb2dVertex
 10
76.25527833234355
 20
-117.8329283038753
 30
0.0
  0
VERTEX
  5
45
330
43
100
AcDbEntity
  8
_U+30EC_U+30A4_U+30E4_U+30FC 1
 62
   179
420
  2234388
370
     9
100
AcDbVertex
100
AcDb2dVertex
 10
108.2541975159831
 20
-117.8329283038753
 30
0.0
  0
SEQEND
  5
46
330
43
100
AcDbEntity
  8
_U+30EC_U+30A4_U+30E4_U+30FC 1
 62
   179
420
  2234388
370
     9
  0
POLYLINE
  5
47
330
1F
100
AcDbEntity
  8
_U+30EC_U+30A4_U+30E4_U+30FC 1
 62
   179
420
  2234388
370
     9
100
AcDb2dPolyline
 66
     1
 10
0.0
 20
0.0
 30
0.0
  0
VERTEX
  5
48
330
47
100
AcDbEntity
  8
_U+30EC_U+30A4_U+30E4_U+30FC 1
 62
   179
420
  2234388
370
     9
100
AcDbVertex
100
AcDb2dVertex
 10
76.25527833234355
 20
-120.9934644141962
 30
0.0
  0
VERTEX
  5
49
330
47
100
AcDbEntity
  8
_U+30EC_U+30A4_U+30E4_U+30FC 1
 62
   179
420
  2234388
370
     9
100
AcDbVertex
100
AcDb2dVertex
 10
76.25527833234355
 20
-116.8331913596806
 30
0.0
  0
SEQEND
  5
4A
330
47
100
AcDbEntity
  8
_U+30EC_U+30A4_U+30E4_U+30FC 1
 62
   179
420
  2234388
370
     9
  0
POLYLINE
  5
4B
330
1F
100
AcDbEntity
  8
_U+30EC_U+30A4_U+30E4_U+30FC 1
 62
   179
420
  2234388
370
     9
100
AcDb2dPolyline
 66
     1
 10
0.0
 20
0.0
 30
0.0
  0
VERTEX
  5
4C
330
4B
100
AcDbEntity
  8
_U+30EC_U+30A4_U+30E4_U+30FC 1
 62
   179
420
  2234388
370
     9
100
AcDbVertex
100
AcDb2dVertex
 10
108.2541975159831
 20
-120.9934644141962
 30
0.0
  0
VERTEX
  5
4D
330
4B
100
AcDbEntity
  8
_U+30EC_U+30A4_U+30E4_U+30FC 1
 62
   179
420
  2234388
370
     9
100
AcDbVertex
100
AcDb2dVertex
 10
108.2541975159831
 20
-116.8331913596806
 30
0.0
  0
SEQEND
  5
4E
330
4B
100
AcDbEntity
  8
_U+30EC_U+30A4_U+30E4_U+30FC 1
 62
   179
420
  2234388
370
     9
  0
INSERT
  5
50
330
1F
100
AcDbEntity
  8
_U+30EC_U+30A4_U+30E4_U+30FC 1
100
AcDbBlockReference
  2
block 2
 10
0.0
 20
0.0
 30
0.0
  0
SPLINE
  5
57
330
1F
100
AcDbEntity
  8
_U+30EC_U+30A4_U+30E4_U+30FC 1
 62
   179
420
  2234388
370
     9
100
AcDbSpline
210
0.0
220
0.0
230
1.0
 70
    11
 71
     3
 72
    17
 73
    13
 74
     0
 42
0.0000000001
 43
0.0000000001
 12
1.0
 22
0.0
 32
0.0
 13
1.0
 23
0.0
 33
0.0
 40
0.0
 40
0.0
 40
0.0
 40
0.0
 40
1.0
 40
1.0
 40
1.0
 40
2.0
 40
2.0
 40
2.0
 40
3.0
 40
3.0
 40
3.0
 40
4.0
 40
4.0
 40
4.0
 40
4.0
 10
98.35437137965982
 20
-141.0873338536171
 30
0.0
 10
98.35437137965982
 20
-141.0322299647422
 30
0.0
 10
98.30960388080194
 20
-140.9874271869755
 30
0.0
 10
98.254464715542
 20
-140.9874271869755
 30
0.0
 10
98.19936082805893
 20
-140.9874271869755
 30
0.0
 10
98.15455805142416
 20
-141.0322299647422
 30
0.0
 10
98.15455805142416
 20
-141.0873338536171
 30
0.0
 10
98.15455805142416
 20
-141.1424730202702
 30
0.0
 10
98.19936082805893
 20
-141.1872405202587
 30
0.0
 10
98.254464715542
 20
-141.1872405202587
 30
0.0
 10
98.30960388080194
 20
-141.1872405202587
 30
0.0
 10
98.35437137965982
 20
-141.1424730202702
 30
0.0
 10
98.35437137965982
 20
-141.0873338536171
 30
0.0
  0
SPLINE
  5
58
330
1F
100
AcDbEntity
  8
_U+30EC_U+30A4_U+30E4_U+30FC 1
 62
   179
420
  2234388
370
     9
100
AcDbSpline
210
0.0
220
0.0
230
1.0
 70
    11
 71
     3
 72
    17
 73
    13
 74
     0
 42
0.0000000001
 43
0.0000000001
 12
1.0
 22
0.0
 32
0.0
 13
1.0
 23
0.0
 33
0.0
 40
0.0
 40
0.0
 40
0.0
 40
0.0
 40
1.0
 40
1.0
 40
1.0
 40
2.0
 40
2.0
 40
2.0
 40
3.0
 40
3.0
 40
3.0
 40
4.0
 40
4.0
 40
4.0
 40
4.0
 10
88.35446219033432
 20
-141.0873338536171
 30
0.0
 10
88.35446219033432
 20
-141.0322299647422
 30
0.0
 10
88.31001219146833
 20
-140.9874271869755
 30
0.0
 10
88.25455552621649
 20
-140.9874271869755
 30
0.0
 10
88.19909886096464
 20
-140.9874271869755
 30
0.0
 10
88.15429608432987
 20
-141.0322299647422
 30
0.0
 10
88.15429608432987
 20
-141.0873338536171
 30
0.0
 10
88.15429608432987
 20
-141.1424730202702
 30
0.0
 10
88.19909886096464
 20
-141.1872405202587
 30
0.0
 10
88.25455552621649
 20
-141.1872405202587
 30
0.0
 10
88.31001219146833
 20
-141.1872405202587
 30
0.0
 10
88.35446219033432
 20
-141.1424730202702
 30
0.0
 10
88.35446219033432
 20
-141.0873338536171
 30
0.0
  0
SPLINE
  5
59
330
1F
100
AcDbEntity
  8
_U+30EC_U+30A4_U+30E4_U+30FC 1
 62
   179
420
  2234388
370
     9
100
AcDbSpline
210
0.0
220
0.0
230
1.0
 70
    11
 71
     3
 72
    17
 73
    13
 74
     0
 42
0.0000000001
 43
0.0000000001
 12
1.0
 22
0.0
 32
0.0
 13
1.0
 23
0.0
 33
0.0
 40
0.0
 40
0.0
 40
0.0
 40
0.0
 40
1.0
 40
1.0
 40
1.0
 40
2.0
 40
2.0
 40
2.0
 40
3.0
 40
3.0
 40
3.0
 40
4.0
 40
4.0
 40
4.0
 40
4.0
 10
76.35451664757808
 20
-141.0873338536171
 30
0.0
 10
76.35451664757808
 20
-141.0322299647422
 30
0.0
 10
76.30971386981136
 20
-140.9874271869755
 30
0.0
 10
76.25460805458287
 20
-140.9874271869755
 30
0.0
 10
76.19946888932293
 20
-140.9874271869755
 30
0.0
 10
76.15470139046504
 20
-141.0322299647422
 30
0.0
 10
76.15470139046504
 20
-141.0873338536171
 30
0.0
 10
76.15470139046504
 20
-141.1424730202702
 30
0.0
 10
76.19946888932293
 20
-141.1872405202587
 30
0.0
 10
76.25460805458287
 20
-141.1872405202587
 30
0.0
 10
76.30971386981136
 20
-141.1872405202587
 30
0.0
 10
76.35451664757808
 20
-141.1424730202702
 30
0.0
 10
76.35451664757808
 20
-141.0873338536171
 30
0.0
  0
POLYLINE
  5
5A
330
1F
100
AcDbEntity
  8
_U+30EC_U+30A4_U+30E4_U+30FC 1
 62
   179
420
  2234388
370
     9
100
AcDb2dPolyline
 66
     1
 10
0.0
 20
0.0
 30
0.0
  0
VERTEX
  5
5B
330
5A
100
AcDbEntity
  8
_U+30EC_U+30A4_U+30E4_U+30FC 1
 62
   179
420
  2234388
370
     9
100
AcDbVertex
100
AcDb2dVertex
 10
88.25455552621649
 20
-141.0873338536171
 30
0.0
  0
VERTEX
  5
5C
330
5A
100
AcDbEntity
  8
_U+30EC_U+30A4_U+30E4_U+30FC 1
 62
   179
420
  2234388
370
     9
100
AcDbVertex
100
AcDb2dVertex
 10
98.254464715542
 20
-141.0873338536171
 30
0.0
  0
SEQEND
  5
5D
330
5A
100
AcDbEntity
  8
_U+30EC_U+30A4_U+30E4_U+30FC 1
 62
   179
420
  2234388
370
     9
  0
POLYLINE
  5
5E
330
1F
100
AcDbEntity
  8
_U+30EC_U+30A4_U+30E4_U+30FC 1
 62
   179
420
  2234388
370
     9
100
AcDb2dPolyline
 66
     1
 10
0.0
 20
0.0
 30
0.0
  0
VERTEX
  5
5F
330
5E
100
AcDbEntity
  8
_U+30EC_U+30A4_U+30E4_U+30FC 1
 62
   179
420
  2234388
370
     9
100
AcDbVertex
100
AcDb2dVertex
 10
88.25455552621649
 20
-139.6272924650934
 30
0.0
  0
VERTEX
  5
60
330
5E
100
AcDbEntity
  8
_U+30EC_U+30A4_U+30E4_U+30FC 1
 62
   179
420
  2234388
370
     9
100
AcDbVertex
100
AcDb2dVertex
 10
88.25455552621649
 20
-142.0871060755896
 30
0.0
  0
SEQEND
  5
61
330
5E
100
AcDbEntity
  8
_U+30EC_U+30A4_U+30E4_U+30FC 1
 62
   179
420
  2234388
370
     9
  0
POLYLINE
  5
62
330
1F
100
AcDbEntity
  8
_U+30EC_U+30A4_U+30E4_U+30FC 1
 62
   179
420
  2234388
370
     9
100
AcDb2dPolyline
 66
     1
 10
0.0
 20
0.0
 30
0.0
  0
VERTEX
  5
63
330
62
100
AcDbEntity
  8
_U+30EC_U+30A4_U+30E4_U+30FC 1
 62
   179
420
  2234388
370
     9
100
AcDbVertex
100
AcDb2dVertex
 10
98.254464715542
 20
-139.6272924650934
 30
0.0
  0
VERTEX
  5
64
330
62
100
AcDbEntity
  8
_U+30EC_U+30A4_U+30E4_U+30FC 1
 62
   179
420
  2234388
370
     9
100
AcDbVertex
100
AcDb2dVertex
 10
98.254464715542
 20
-142.0871060755896
 30
0.0
  0
SEQEND
  5
65
330
62
100
AcDbEntity
  8
_U+30EC_U+30A4_U+30E4_U+30FC 1
 62
   179
420
  2234388
370
     9
  0
INSERT
  5
67
330
1F
100
AcDbEntity
  8
_U+30EC_U+30A4_U+30E4_U+30FC 1
100
AcDbBlockReference
  2
block 3
 10
0.0
 20
0.0
 30
0.0
  0
POLYLINE
  5
6F
330
1F
100
AcDbEntity
  8
_U+30EC_U+30A4_U+30E4_U+30FC 1
 62
   179
420
  2234388
370
     9
100
AcDb2dPolyline
 66
     1
 10
0.0
 20
0.0
 30
0.0
  0
VERTEX
  5
70
330
6F
100
AcDbEntity
  8
_U+30EC_U+30A4_U+30E4_U+30FC 1
 62
   179
420
  2234388
370
     9
100
AcDbVertex
100
AcDb2dVertex
 10
88.25455552621649
 20
-141.0873338536171
 30
0.0
  0
VERTEX
  5
71
330
6F
100
AcDbEntity
  8
_U+30EC_U+30A4_U+30E4_U+30FC 1
 62
   179
420
  2234388
370
     9
100
AcDbVertex
100
AcDb2dVertex
 10
76.25460805458287
 20
-141.0873338536171
 30
0.0
  0
SEQEND
  5
72
330
6F
100
AcDbEntity
  8
_U+30EC_U+30A4_U+30E4_U+30FC 1
 62
   179
420
  2234388
370
     9
  0
POLYLINE
  5
73
330
1F
100
AcDbEntity
  8
_U+30EC_U+30A4_U+30E4_U+30FC 1
 62
   179
420
  2234388
370
     9
100
AcDb2dPolyline
 66
     1
 10
0.0
 20
0.0
 30
0.0
  0
VERTEX
  5
74
330
73
100
AcDbEntity
  8
_U+30EC_U+30A4_U+30E4_U+30FC 1
 62
   179
420
  2234388
370
     9
100
AcDbVertex
100
AcDb2dVertex
 10
76.25460805458287
 20
-127.727251356957
 30
0.0
  0
VERTEX
  5
75
330
73
100
AcDbEntity
  8
_U+30EC_U+30A4_U+30E4_U+30FC 1
 62
   179
420
  2234388
370
     9
100
AcDbVertex
100
AcDb2dVertex
 10
76.25460805458287
 20
-142.0871060755896
 30
0.0
  0
SEQEND
  5
76
330
73
100
AcDbEntity
  8
_U+30EC_U+30A4_U+30E4_U+30FC 1
 62
   179
420
  2234388
370
     9
  0
INSERT
  5
78
330
1F
100
AcDbEntity
  8
_U+30EC_U+30A4_U+30E4_U+30FC 1
100
AcDbBlockReference
  2
block 4
 10
0.0
 20
0.0
 30
0.0
  0
SPLINE
  5
7F
330
1F
100
AcDbEntity
  8
_U+30EC_U+30A4_U+30E4_U+30FC 1
 62
   179
420
  2234388
370
     9
100
AcDbSpline
210
0.0
220
0.0
230
1.0
 70
    11
 71
     3
 72
    17
 73
    13
 74
     0
 42
0.0000000001
 43
0.0000000001
 12
1.0
 22
0.0
 32
0.0
 13
1.0
 23
0.0
 33
0.0
 40
0.0
 40
0.0
 40
0.0
 40
0.0
 40
1.0
 40
1.0
 40
1.0
 40
2.0
 40
2.0
 40
2.0
 40
3.0
 40
3.0
 40
3.0
 40
4.0
 40
4.0
 40
4.0
 40
4.0
 10
112.3142463012915
 20
-123.3926355247075
 30
0.0
 10
112.3142463012915
 20
-123.3375316358322
 30
0.0
 10
112.2694435246568
 20
-123.2927288580659
 30
0.0
 10
112.2136340816361
 20
-123.2927288580659
 30
0.0
 10
112.1585301941531
 20
-123.2927288580659
 30
0.0
 10
112.1137274175183
 20
-123.3375316358322
 30
0.0
 10
112.1137274175183
 20
-123.3926355247075
 30
0.0
 10
112.1137274175183
 20
-123.4477746913603
 30
0.0
 10
112.1585301941531
 20
-123.4925421913491
 30
0.0
 10
112.2136340816361
 20
-123.4925421913491
 30
0.0
 10
112.2694435246568
 20
-123.4925421913491
 30
0.0
 10
112.3142463012915
 20
-123.4477746913603
 30
0.0
 10
112.3142463012915
 20
-123.3926355247075
 30
0.0
  0
SPLINE
  5
80
330
1F
100
AcDbEntity
  8
_U+30EC_U+30A4_U+30E4_U+30FC 1
 62
   179
420
  2234388
370
     9
100
AcDbSpline
210
0.0
220
0.0
230
1.0
 70
    11
 71
     3
 72
    17
 73
    13
 74
     0
 42
0.0000000001
 43
0.0000000001
 12
1.0
 22
0.0
 32
0.0
 13
1.0
 23
0.0
 33
0.0
 40
0.0
 40
0.0
 40
0.0
 40
0.0
 40
1.0
 40
1.0
 40
1.0
 40
2.0
 40
2.0
 40
2.0
 40
3.0
 40
3.0
 40
3.0
 40
4.0
 40
4.0
 40
4.0
 40
4.0
 10
112.3142463012915
 20
-124.3931133022349
 30
0.0
 10
112.3142463012915
 20
-124.3372685800269
 30
0.0
 10
112.2694435246568
 20
-124.2931713578158
 30
0.0
 10
112.2136340816361
 20
-124.2931713578158
 30
0.0
 10
112.1585301941531
 20
-124.2931713578158
 30
0.0
 10
112.1137274175183
 20
-124.3372685800269
 30
0.0
 10
112.1137274175183
 20
-124.3931133022349
 30
0.0
 10
112.1137274175183
 20
-124.4482171911101
 30
0.0
 10
112.1585301941531
 20
-124.4930199688769
 30
0.0
 10
112.2136340816361
 20
-124.4930199688769
 30
0.0
 10
112.2694435246568
 20
-124.4930199688769
 30
0.0
 10
112.3142463012915
 20
-124.4482171911101
 30
0.0
 10
112.3142463012915
 20
-124.3931133022349
 30
0.0
  0
SPLINE
  5
81
330
1F
100
AcDbEntity
  8
_U+30EC_U+30A4_U+30E4_U+30FC 1
 62
   179
420
  2234388
370
     9
100
AcDbSpline
210
0.0
220
0.0
230
1.0
 70
    11
 71
     3
 72
    17
 73
    13
 74
     0
 42
0.0000000001
 43
0.0000000001
 12
1.0
 22
0.0
 32
0.0
 13
1.0
 23
0.0
 33
0.0
 40
0.0
 40
0.0
 40
0.0
 40
0.0
 40
1.0
 40
1.0
 40
1.0
 40
2.0
 40
2.0
 40
2.0
 40
3.0
 40
3.0
 40
3.0
 40
4.0
 40
4.0
 40
4.0
 40
4.0
 10
112.3142463012915
 20
-134.2929396886488
 30
0.0
 10
112.3142463012915
 20
-134.2378005219964
 30
0.0
 10
112.2694435246568
 20
-134.1929977442297
 30
0.0
 10
112.2136340816361
 20
-134.1929977442297
 30
0.0
 10
112.1585301941531
 20
-134.1929977442297
 30
0.0
 10
112.1137274175183
 20
-134.2378005219964
 30
0.0
 10
112.1137274175183
 20
-134.2929396886488
 30
0.0
 10
112.1137274175183
 20
-134.3480435775244
 30
0.0
 10
112.1585301941531
 20
-134.3928463552905
 30
0.0
 10
112.2136340816361
 20
-134.3928463552905
 30
0.0
 10
112.2694435246568
 20
-134.3928463552905
 30
0.0
 10
112.3142463012915
 20
-134.3480435775244
 30
0.0
 10
112.3142463012915
 20
-134.2929396886488
 30
0.0
  0
SPLINE
  5
82
330
1F
100
AcDbEntity
  8
_U+30EC_U+30A4_U+30E4_U+30FC 1
 62
   179
420
  2234388
370
     9
100
AcDbSpline
210
0.0
220
0.0
230
1.0
 70
    11
 71
     3
 72
    17
 73
    13
 74
     0
 42
0.0000000001
 43
0.0000000001
 12
1.0
 22
0.0
 32
0.0
 13
1.0
 23
0.0
 33
0.0
 40
0.0
 40
0.0
 40
0.0
 40
0.0
 40
1.0
 40
1.0
 40
1.0
 40
2.0
 40
2.0
 40
2.0
 40
3.0
 40
3.0
 40
3.0
 40
4.0
 40
4.0
 40
4.0
 40
4.0
 10
112.3142463012915
 20
-137.2929266323432
 30
0.0
 10
112.3142463012915
 20
-137.2377874656908
 30
0.0
 10
112.2694435246568
 20
-137.1930199657016
 30
0.0
 10
112.2136340816361
 20
-137.1930199657016
 30
0.0
 10
112.1585301941531
 20
-137.1930199657016
 30
0.0
 10
112.1137274175183
 20
-137.2377874656908
 30
0.0
 10
112.1137274175183
 20
-137.2929266323432
 30
0.0
 10
112.1137274175183
 20
-137.3480305212187
 30
0.0
 10
112.1585301941531
 20
-137.3928332989848
 30
0.0
 10
112.2136340816361
 20
-137.3928332989848
 30
0.0
 10
112.2694435246568
 20
-137.3928332989848
 30
0.0
 10
112.3142463012915
 20
-137.3480305212187
 30
0.0
 10
112.3142463012915
 20
-137.2929266323432
 30
0.0
  0
POLYLINE
  5
83
330
1F
100
AcDbEntity
  8
_U+30EC_U+30A4_U+30E4_U+30FC 1
 62
   179
420
  2234388
370
     9
100
AcDb2dPolyline
 66
     1
 10
0.0
 20
0.0
 30
0.0
  0
VERTEX
  5
84
330
83
100
AcDbEntity
  8
_U+30EC_U+30A4_U+30E4_U+30FC 1
 62
   179
420
  2234388
370
     9
100
AcDbVertex
100
AcDb2dVertex
 10
112.2136340816361
 20
-123.3926355247075
 30
0.0
  0
VERTEX
  5
85
330
83
100
AcDbEntity
  8
_U+30EC_U+30A4_U+30E4_U+30FC 1
 62
   179
420
  2234388
370
     9
100
AcDbVertex
100
AcDb2dVertex
 10
112.2136340816361
 20
-119.6223230256501
 30
0.0
  0
SEQEND
  5
86
330
83
100
AcDbEntity
  8
_U+30EC_U+30A4_U+30E4_U+30FC 1
 62
   179
420
  2234388
370
     9
  0
POLYLINE
  5
87
330
1F
100
AcDbEntity
  8
_U+30EC_U+30A4_U+30E4_U+30FC 1
 62
   179
420
  2234388
370
     9
100
AcDb2dPolyline
 66
     1
 10
0.0
 20
0.0
 30
0.0
  0
VERTEX
  5
88
330
87
100
AcDbEntity
  8
_U+30EC_U+30A4_U+30E4_U+30FC 1
 62
   179
420
  2234388
370
     9
100
AcDbVertex
100
AcDb2dVertex
 10
112.2136340816361
 20
-123.3926355247075
 30
0.0
  0
VERTEX
  5
89
330
87
100
AcDbEntity
  8
_U+30EC_U+30A4_U+30E4_U+30FC 1
 62
   179
420
  2234388
370
     9
100
AcDbVertex
100
AcDb2dVertex
 10
112.2136340816361
 20
-124.3931133022349
 30
0.0
  0
SEQEND
  5
8A
330
87
100
AcDbEntity
  8
_U+30EC_U+30A4_U+30E4_U+30FC 1
 62
   179
420
  2234388
370
     9
  0
POLYLINE
  5
8B
330
1F
100
AcDbEntity
  8
_U+30EC_U+30A4_U+30E4_U+30FC 1
 62
   179
420
  2234388
370
     9
100
AcDb2dPolyline
 66
     1
 10
0.0
 20
0.0
 30
0.0
  0
VERTEX
  5
8C
330
8B
100
AcDbEntity
  8
_U+30EC_U+30A4_U+30E4_U+30FC 1
 62
   179
420
  2234388
370
     9
100
AcDbVertex
100
AcDb2dVertex
 10
110.5038613474783
 20
-123.3926355247075
 30
0.0
  0
VERTEX
  5
8D
330
8B
100
AcDbEntity
  8
_U+30EC_U+30A4_U+30E4_U+30FC 1
 62
   179
420
  2234388
370
     9
100
AcDbVertex
100
AcDb2dVertex
 10
113.2141118338896
 20
-123.3926355247075
 30
0.0
  0
SEQEND
  5
8E
330
8B
100
AcDbEntity
  8
_U+30EC_U+30A4_U+30E4_U+30FC 1
 62
   179
420
  2234388
370
     9
  0
POLYLINE
  5
8F
330
1F
100
AcDbEntity
  8
_U+30EC_U+30A4_U+30E4_U+30FC 1
 62
   179
420
  2234388
370
     9
100
AcDb2dPolyline
 66
     1
 10
0.0
 20
0.0
 30
0.0
  0
VERTEX
  5
90
330
8F
100
AcDbEntity
  8
_U+30EC_U+30A4_U+30E4_U+30FC 1
 62
   179
420
  2234388
370
     9
100
AcDbVertex
100
AcDb2dVertex
 10
110.5038613474783
 20
-124.3931133022349
 30
0.0
  0
VERTEX
  5
91
330
8F
100
AcDbEntity
  8
_U+30EC_U+30A4_U+30E4_U+30FC 1
 62
   179
420
  2234388
370
     9
100
AcDbVertex
100
AcDb2dVertex
 10
113.2141118338896
 20
-124.3931133022349
 30
0.0
  0
SEQEND
  5
92
330
8F
100
AcDbEntity
  8
_U+30EC_U+30A4_U+30E4_U+30FC 1
 62
   179
420
  2234388
370
     9
  0
INSERT
  5
94
330
1F
100
AcDbEntity
  8
_U+30EC_U+30A4_U+30E4_U+30FC 1
100
AcDbBlockReference
  2
block 5
 10
0.0
 20
0.0
 30
0.0
  0
POLYLINE
  5
99
330
1F
100
AcDbEntity
  8
_U+30EC_U+30A4_U+30E4_U+30FC 1
 62
   179
420
  2234388
370
     9
100
AcDb2dPolyline
 66
     1
 10
0.0
 20
0.0
 30
0.0
  0
VERTEX
  5
9A
330
99
100
AcDbEntity
  8
_U+30EC_U+30A4_U+30E4_U+30FC 1
 62
   179
420
  2234388
370
     9
100
AcDbVertex
100
AcDb2dVertex
 10
112.2136340816361
 20
-134.2929396886488
 30
0.0
  0
VERTEX
  5
9B
330
99
100
AcDbEntity
  8
_U+30EC_U+30A4_U+30E4_U+30FC 1
 62
   179
420
  2234388
370
     9
100
AcDbVertex
100
AcDb2dVertex
 10
112.2136340816361
 20
-137.2929266323432
 30
0.0
  0
SEQEND
  5
9C
330
99
100
AcDbEntity
  8
_U+30EC_U+30A4_U+30E4_U+30FC 1
 62
   179
420
  2234388
370
     9
  0
POLYLINE
  5
9D
330
1F
100
AcDbEntity
  8
_U+30EC_U+30A4_U+30E4_U+30FC 1
 62
   179
420
  2234388
370
     9
100
AcDb2dPolyline
 66
     1
 10
0.0
 20
0.0
 30
0.0
  0
VERTEX
  5
9E
330
9D
100
AcDbEntity
  8
_U+30EC_U+30A4_U+30E4_U+30FC 1
 62
   179
420
  2234388
370
     9
100
AcDbVertex
100
AcDb2dVertex
 10
100.7545654850924
 20
-137.2929266323432
 30
0.0
  0
VERTEX
  5
9F
330
9D
100
AcDbEntity
  8
_U+30EC_U+30A4_U+30E4_U+30FC 1
 62
   179
420
  2234388
370
     9
100
AcDbVertex
100
AcDb2dVertex
 10
113.2141118338896
 20
-137.2929266323432
 30
0.0
  0
SEQEND
  5
A0
330
9D
100
AcDbEntity
  8
_U+30EC_U+30A4_U+30E4_U+30FC 1
 62
   179
420
  2234388
370
     9
  0
INSERT
  5
A2
330
1F
100
AcDbEntity
  8
_U+30EC_U+30A4_U+30E4_U+30FC 1
100
AcDbBlockReference
  2
block 6
 10
0.0
 20
0.0
 30
0.0
  0
POLYLINE
  5
A7
330
1F
100
AcDbEntity
  8
_U+30EC_U+30A4_U+30E4_U+30FC 1
 62
   179
420
  2234388
370
     9
100
AcDb2dPolyline
 66
     1
 10
0.0
 20
0.0
 30
0.0
  0
VERTEX
  5
A8
330
A7
100
AcDbEntity
  8
_U+30EC_U+30A4_U+30E4_U+30FC 1
 62
   179
420
  2234388
370
     9
100
AcDbVertex
100
AcDb2dVertex
 10
112.2136340816361
 20
-124.3931133022349
 30
0.0
  0
VERTEX
  5
A9
330
A7
100
AcDbEntity
  8
_U+30EC_U+30A4_U+30E4_U+30FC 1
 62
   179
420
  2234388
370
     9
100
AcDbVertex
100
AcDb2dVertex
 10
112.2136340816361
 20
-134.2929396886488
 30
0.0
  0
SEQEND
  5
AA
330
A7
100
AcDbEntity
  8
_U+30EC_U+30A4_U+30E4_U+30FC 1
 62
   179
420
  2234388
370
     9
  0
POLYLINE
  5
AB
330
1F
100
AcDbEntity
  8
_U+30EC_U+30A4_U+30E4_U+30FC 1
 62
   179
420
  2234388
370
     9
100
AcDb2dPolyline
 66
     1
 10
0.0
 20
0.0
 30
0.0
  0
VERTEX
  5
AC
330
AB
100
AcDbEntity
  8
_U+30EC_U+30A4_U+30E4_U+30FC 1
 62
   179
420
  2234388
370
     9
100
AcDbVertex
100
AcDb2dVertex
 10
100.7545654850924
 20
-134.2929396886488
 30
0.0
  0
VERTEX
  5
AD
330
AB
100
AcDbEntity
  8
_U+30EC_U+30A4_U+30E4_U+30FC 1
 62
   179
420
  2234388
370
     9
100
AcDbVertex
100
AcDb2dVertex
 10
113.2141118338896
 20
-134.2929396886488
 30
0.0
  0
SEQEND
  5
AE
330
AB
100
AcDbEntity
  8
_U+30EC_U+30A4_U+30E4_U+30FC 1
 62
   179
420
  2234388
370
     9
  0
INSERT
  5
B0
330
1F
100
AcDbEntity
  8
_U+30EC_U+30A4_U+30E4_U+30FC 1
100
AcDbBlockReference
  2
block 7
 10
0.0
 20
0.0
 30
0.0
  0
SPLINE
  5
C2
330
1F
100
AcDbEntity
  8
_U+30EC_U+30A4_U+30E4_U+30FC 1
 62
   179
420
  2234388
370
     9
100
AcDbSpline
210
0.0
220
0.0
230
1.0
 70
    11
 71
     3
 72
    17
 73
    13
 74
     0
 42
0.0000000001
 43
0.0000000001
 12
1.0
 22
0.0
 32
0.0
 13
1.0
 23
0.0
 33
0.0
 40
0.0
 40
0.0
 40
0.0
 40
0.0
 40
1.0
 40
1.0
 40
1.0
 40
2.0
 40
2.0
 40
2.0
 40
3.0
 40
3.0
 40
3.0
 40
4.0
 40
4.0
 40
4.0
 40
4.0
 10
72.85499453020313
 20
-125.4934624686268
 30
0.0
 10
72.85499453020313
 20
-125.437653024196
 30
0.0
 10
72.81019175356836
 20
-125.3935558019848
 30
0.0
 10
72.75508786608529
 20
-125.3935558019848
 30
0.0
 10
72.69994870082535
 20
-125.3935558019848
 30
0.0
 10
72.65518120196747
 20
-125.437653024196
 30
0.0
 10
72.65518120196747
 20
-125.4934624686268
 30
0.0
 10
72.65518120196747
 20
-125.5485663575017
 30
0.0
 10
72.69994870082535
 20
-125.5933691352684
 30
0.0
 10
72.75508786608529
 20
-125.5933691352684
 30
0.0
 10
72.81019175356836
 20
-125.5933691352684
 30
0.0
 10
72.85499453020313
 20
-125.5485663575017
 30
0.0
 10
72.85499453020313
 20
-125.4934624686268
 30
0.0
  0
SPLINE
  5
C3
330
1F
100
AcDbEntity
  8
_U+30EC_U+30A4_U+30E4_U+30FC 1
 62
   179
420
  2234388
370
     9
100
AcDbSpline
210
0.0
220
0.0
230
1.0
 70
    11
 71
     3
 72
    17
 73
    13
 74
     0
 42
0.0000000001
 43
0.0000000001
 12
1.0
 22
0.0
 32
0.0
 13
1.0
 23
0.0
 33
0.0
 40
0.0
 40
0.0
 40
0.0
 40
0.0
 40
1.0
 40
1.0
 40
1.0
 40
2.0
 40
2.0
 40
2.0
 40
3.0
 40
3.0
 40
3.0
 40
4.0
 40
4.0
 40
4.0
 40
4.0
 10
72.85499453020313
 20
-123.4932477469043
 30
0.0
 10
72.85499453020313
 20
-123.4374383024739
 30
0.0
 10
72.81019175356836
 20
-123.3926355247075
 30
0.0
 10
72.75508786608529
 20
-123.3926355247075
 30
0.0
 10
72.69994870082535
 20
-123.3926355247075
 30
0.0
 10
72.65518120196747
 20
-123.4374383024739
 30
0.0
 10
72.65518120196747
 20
-123.4932477469043
 30
0.0
 10
72.65518120196747
 20
-123.5483516357796
 30
0.0
 10
72.69994870082535
 20
-123.5931544135463
 30
0.0
 10
72.75508786608529
 20
-123.5931544135463
 30
0.0
 10
72.81019175356836
 20
-123.5931544135463
 30
0.0
 10
72.85499453020313
 20
-123.5483516357796
 30
0.0
 10
72.85499453020313
 20
-123.4932477469043
 30
0.0
  0
POLYLINE
  5
C4
330
1F
100
AcDbEntity
  8
_U+30EC_U+30A4_U+30E4_U+30FC 1
 62
   179
420
  2234388
370
     9
100
AcDb2dPolyline
 66
     1
 10
0.0
 20
0.0
 30
0.0
  0
VERTEX
  5
C5
330
C4
100
AcDbEntity
  8
_U+30EC_U+30A4_U+30E4_U+30FC 1
 62
   179
420
  2234388
370
     9
100
AcDbVertex
100
AcDb2dVertex
 10
72.75508786608529
 20
-123.4932477469043
 30
0.0
  0
VERTEX
  5
C6
330
C4
100
AcDbEntity
  8
_U+30EC_U+30A4_U+30E4_U+30FC 1
 62
   179
420
  2234388
370
     9
100
AcDbVertex
100
AcDb2dVertex
 10
72.75508786608529
 20
-125.4934624686268
 30
0.0
  0
SEQEND
  5
C7
330
C4
100
AcDbEntity
  8
_U+30EC_U+30A4_U+30E4_U+30FC 1
 62
   179
420
  2234388
370
     9
  0
POLYLINE
  5
C8
330
1F
100
AcDbEntity
  8
_U+30EC_U+30A4_U+30E4_U+30FC 1
 62
   179
420
  2234388
370
     9
100
AcDb2dPolyline
 66
     1
 10
0.0
 20
0.0
 30
0.0
  0
VERTEX
  5
C9
330
C8
100
AcDbEntity
  8
_U+30EC_U+30A4_U+30E4_U+30FC 1
 62
   179
420
  2234388
370
     9
100
AcDbVertex
100
AcDb2dVertex
 10
71.29504651444516
 20
-123.4932477469043
 30
0.0
  0
VERTEX
  5
CA
330
C8
100
AcDbEntity
  8
_U+30EC_U+30A4_U+30E4_U+30FC 1
 62
   179
420
  2234388
370
     9
100
AcDbVertex
100
AcDb2dVertex
 10
73.75482478502433
 20
-123.4932477469043
 30
0.0
  0
SEQEND
  5
CB
330
C8
100
AcDbEntity
  8
_U+30EC_U+30A4_U+30E4_U+30FC 1
 62
   179
420
  2234388
370
     9
  0
POLYLINE
  5
CC
330
1F
100
AcDbEntity
  8
_U+30EC_U+30A4_U+30E4_U+30FC 1
 62
   179
420
  2234388
370
     9
100
AcDb2dPolyline
 66
     1
 10
0.0
 20
0.0
 30
0.0
  0
VERTEX
  5
CD
330
CC
100
AcDbEntity
  8
_U+30EC_U+30A4_U+30E4_U+30FC 1
 62
   179
420
  2234388
370
     9
100
AcDbVertex
100
AcDb2dVertex
 10
71.29504651444516
 20
-125.4934624686268
 30
0.0
  0
VERTEX
  5
CE
330
CC
100
AcDbEntity
  8
_U+30EC_U+30A4_U+30E4_U+30FC 1
 62
   179
420
  2234388
370
     9
100
AcDbVertex
100
AcDb2dVertex
 10
73.75482478502433
 20
-125.4934624686268
 30
0.0
  0
SEQEND
  5
CF
330
CC
100
AcDbEntity
  8
_U+30EC_U+30A4_U+30E4_U+30FC 1
 62
   179
420
  2234388
370
     9
  0
INSERT
  5
D1
330
1F
100
AcDbEntity
  8
_U+30EC_U+30A4_U+30E4_U+30FC 1
100
AcDbBlockReference
  2
block 8
 10
0.0
 20
0.0
 30
0.0
  0
POLYLINE
  5
D6
330
1F
100
AcDbEntity
  8
_U+30EC_U+30A4_U+30E4_U+30FC 1
 62
   179
420
  2234388
370
    25
100
AcDb2dPolyline
 66
     1
 10
0.0
 20
0.0
 30
0.0
  0
VERTEX
  5
D7
330
D6
100
AcDbEntity
  8
_U+30EC_U+30A4_U+30E4_U+30FC 1
 62
   179
420
  2234388
370
    25
100
AcDbVertex
100
AcDb2dVertex
 10
76.25496083235166
 20
-123.4932477469043
 30
0.0
  0
VERTEX
  5
D8
330
D6
100
AcDbEntity
  8
_U+30EC_U+30A4_U+30E4_U+30FC 1
 62
   179
420
  2234388
370
    25
100
AcDbVertex
100
AcDb2dVertex
 10
88.25526108175404
 20
-123.4932477469043
 30
0.0
  0
SEQEND
  5
D9
330
D6
100
AcDbEntity
  8
_U+30EC_U+30A4_U+30E4_U+30FC 1
 62
   179
420
  2234388
370
    25
  0
POLYLINE
  5
DA
330
1F
100
AcDbEntity
  8
_U+30EC_U+30A4_U+30E4_U+30FC 1
 62
   179
420
  2234388
370
    25
100
AcDb2dPolyline
 66
     1
 10
0.0
 20
0.0
 30
0.0
  0
VERTEX
  5
DB
330
DA
100
AcDbEntity
  8
_U+30EC_U+30A4_U+30E4_U+30FC 1
 62
   179
420
  2234388
370
    25
100
AcDbVertex
100
AcDb2dVertex
 10
88.25490830398526
 20
-123.4932477469043
 30
0.0
  0
VERTEX
  5
DC
330
DA
100
AcDbEntity
  8
_U+30EC_U+30A4_U+30E4_U+30FC 1
 62
   179
420
  2234388
370
    25
100
AcDbVertex
100
AcDb2dVertex
 10
108.2541975159831
 20
-123.4932477469043
 30
0.0
  0
SEQEND
  5
DD
330
DA
100
AcDbEntity
  8
_U+30EC_U+30A4_U+30E4_U+30FC 1
 62
   179
420
  2234388
370
    25
  0
POLYLINE
  5
DE
330
1F
100
AcDbEntity
  8
_U+30EC_U+30A4_U+30E4_U+30FC 1
 62
   179
420
  2234388
370
    25
100
AcDb2dPolyline
 66
     1
 10
0.0
 20
0.0
 30
0.0
  0
VERTEX
  5
DF
330
DE
100
AcDbEntity
  8
_U+30EC_U+30A4_U+30E4_U+30FC 1
 62
   179
420
  2234388
370
    25
100
AcDbVertex
100
AcDb2dVertex
 10
89.25468050070117
 20
-124.4930199688769
 30
0.0
  0
VERTEX
  5
E0
330
DE
100
AcDbEntity
  8
_U+30EC_U+30A4_U+30E4_U+30FC 1
 62
   179
420
  2234388
370
    25
100
AcDbVertex
100
AcDb2dVertex
 10
108.2541975159831
 20
-124.4930199688769
 30
0.0
  0
SEQEND
  5
E1
330
DE
100
AcDbEntity
  8
_U+30EC_U+30A4_U+30E4_U+30FC 1
 62
   179
420
  2234388
370
    25
  0
POLYLINE
  5
E2
330
1F
100
AcDbEntity
  8
_U+30EC_U+30A4_U+30E4_U+30FC 1
 62
   179
420
  2234388
370
    25
100
AcDb2dPolyline
 66
     1
 10
0.0
 20
0.0
 30
0.0
  0
VERTEX
  5
E3
330
E2
100
AcDbEntity
  8
_U+30EC_U+30A4_U+30E4_U+30FC 1
 62
   179
420
  2234388
370
    25
100
AcDbVertex
100
AcDb2dVertex
 10
76.25496083235166
 20
-125.4934624686268
 30
0.0
  0
VERTEX
  5
E4
330
E2
100
AcDbEntity
  8
_U+30EC_U+30A4_U+30E4_U+30FC 1
 62
   179
420
  2234388
370
    25
100
AcDbVertex
100
AcDb2dVertex
 10
88.25526108175404
 20
-125.4934624686268
 30
0.0
  0
SEQEND
  5
E5
330
E2
100
AcDbEntity
  8
_U+30EC_U+30A4_U+30E4_U+30FC 1
 62
   179
420
  2234388
370
    25
  0
POLYLINE
  5
E6
330
1F
100
AcDbEntity
  8
_U+30EC_U+30A4_U+30E4_U+30FC 1
 62
   179
420
  2234388
370
    25
100
AcDb2dPolyline
 66
     1
 10
0.0
 20
0.0
 30
0.0
  0
VERTEX
  5
E7
330
E6
100
AcDbEntity
  8
_U+30EC_U+30A4_U+30E4_U+30FC 1
 62
   179
420
  2234388
370
    25
100
AcDbVertex
100
AcDb2dVertex
 10
76.25496083235166
 20
-123.4932477469043
 30
0.0
  0
VERTEX
  5
E8
330
E6
100
AcDbEntity
  8
_U+30EC_U+30A4_U+30E4_U+30FC 1
 62
   179
420
  2234388
370
    25
100
AcDbVertex
100
AcDb2dVertex
 10
76.25496083235166
 20
-125.4934624686268
 30
0.0
  0
SEQEND
  5
E9
330
E6
100
AcDbEntity
  8
_U+30EC_U+30A4_U+30E4_U+30FC 1
 62
   179
420
  2234388
370
    25
  0
POLYLINE
  5
EA
330
1F
100
AcDbEntity
  8
_U+30EC_U+30A4_U+30E4_U+30FC 1
 62
   179
420
  2234388
370
    25
100
AcDb2dPolyline
 66
     1
 10
0.0
 20
0.0
 30
0.0
  0
VERTEX
  5
EB
330
EA
100
AcDbEntity
  8
_U+30EC_U+30A4_U+30E4_U+30FC 1
 62
   179
420
  2234388
370
    25
100
AcDbVertex
100
AcDb2dVertex
 10
108.2541975159831
 20
-123.4932477469043
 30
0.0
  0
VERTEX
  5
EC
330
EA
100
AcDbEntity
  8
_U+30EC_U+30A4_U+30E4_U+30FC 1
 62
   179
420
  2234388
370
    25
100
AcDbVertex
100
AcDb2dVertex
 10
108.2541975159831
 20
-124.4930199688769
 30
0.0
  0
SEQEND
  5
ED
330
EA
100
AcDbEntity
  8
_U+30EC_U+30A4_U+30E4_U+30FC 1
 62
   179
420
  2234388
370
    25
  0
POLYLINE
  5
EE
330
1F
100
AcDbEntity
  8
_U+30EC_U+30A4_U+30E4_U+30FC 1
 62
   179
420
  2234388
370
    25
100
AcDb2dPolyline
 66
     1
 10
0.0
 20
0.0
 30
0.0
  0
VERTEX
  5
EF
330
EE
100
AcDbEntity
  8
_U+30EC_U+30A4_U+30E4_U+30FC 1
 62
   179
420
  2234388
370
    25
100
AcDbVertex
100
AcDb2dVertex
 10
89.25468050070117
 20
-124.4930199688769
 30
0.0
  0
VERTEX
  5
F0
330
EE
100
AcDbEntity
  8
_U+30EC_U+30A4_U+30E4_U+30FC 1
 62
   179
420
  2234388
370
    25
100
AcDbVertex
100
AcDb2dVertex
 10
89.25468050070117
 20
-134.2929396886488
 30
0.0
  0
SEQEND
  5
F1
330
EE
100
AcDbEntity
  8
_U+30EC_U+30A4_U+30E4_U+30FC 1
 62
   179
420
  2234388
370
    25
  0
POLYLINE
  5
F2
330
1F
100
AcDbEntity
  8
_U+30EC_U+30A4_U+30E4_U+30FC 1
 62
   179
420
  2234388
370
    25
100
AcDb2dPolyline
 66
     1
 10
0.0
 20
0.0
 30
0.0
  0
VERTEX
  5
F3
330
F2
100
AcDbEntity
  8
_U+30EC_U+30A4_U+30E4_U+30FC 1
 62
   179
420
  2234388
370
    25
100
AcDbVertex
100
AcDb2dVertex
 10
88.25526108175404
 20
-123.550433024668
 30
0.0
  0
VERTEX
  5
F4
330
F2
100
AcDbEntity
  8
_U+30EC_U+30A4_U+30E4_U+30FC 1
 62
   179
420
  2234388
370
    25
100
AcDbVertex
100
AcDb2dVertex
 10
88.25526108175404
 20
-134.2929396886488
 30
0.0
  0
SEQEND
  5
F5
330
F2
100
AcDbEntity
  8
_U+30EC_U+30A4_U+30E4_U+30FC 1
 62
   179
420
  2234388
370
    25
  0
POLYLINE
  5
F6
330
1F
100
AcDbEntity
  8
_U+30EC_U+30A4_U+30E4_U+30FC 1
 62
   179
420
  2234388
370
    25
100
AcDb2dPolyline
 66
     1
 10
0.0
 20
0.0
 30
0.0
  0
VERTEX
  5
F7
330
F6
100
AcDbEntity
  8
_U+30EC_U+30A4_U+30E4_U+30FC 1
 62
   179
420
  2234388
370
    25
100
AcDbVertex
100
AcDb2dVertex
 10
88.25526108175404
 20
-134.2929396886488
 30
0.0
  0
VERTEX
  5
F8
330
F6
100
AcDbEntity
  8
_U+30EC_U+30A4_U+30E4_U+30FC 1
 62
   179
420
  2234388
370
    25
100
AcDbVertex
100
AcDb2dVertex
 10
88.76202634660316
 20
-134.77867941075
 30
0.0
  0
SEQEND
  5
F9
330
F6
100
AcDbEntity
  8
_U+30EC_U+30A4_U+30E4_U+30FC 1
 62
   179
420
  2234388
370
    25
  0
POLYLINE
  5
FA
330
1F
100
AcDbEntity
  8
_U+30EC_U+30A4_U+30E4_U+30FC 1
 62
   179
420
  2234388
370
    25
100
AcDb2dPolyline
 66
     1
 10
0.0
 20
0.0
 30
0.0
  0
VERTEX
  5
FB
330
FA
100
AcDbEntity
  8
_U+30EC_U+30A4_U+30E4_U+30FC 1
 62
   179
420
  2234388
370
    25
100
AcDbVertex
100
AcDb2dVertex
 10
89.25468050070117
 20
-134.2929396886488
 30
0.0
  0
VERTEX
  5
FC
330
FA
100
AcDbEntity
  8
_U+30EC_U+30A4_U+30E4_U+30FC 1
 62
   179
420
  2234388
370
    25
100
AcDbVertex
100
AcDb2dVertex
 10
88.76202634660316
 20
-134.77867941075
 30
0.0
  0
SEQEND
  5
FD
330
FA
100
AcDbEntity
  8
_U+30EC_U+30A4_U+30E4_U+30FC 1
 62
   179
420
  2234388
370
    25
  0
POLYLINE
  5
FE
330
1F
100
AcDbEntity
  8
_U+30EC_U+30A4_U+30E4_U+30FC 1
 62
   179
420
  2234388
370
    25
100
AcDb2dPolyline
 66
     1
 10
0.0
 20
0.0
 30
0.0
  0
VERTEX
  5
FF
330
FE
100
AcDbEntity
  8
_U+30EC_U+30A4_U+30E4_U+30FC 1
 62
   179
420
  2234388
370
    25
100
AcDbVertex
100
AcDb2dVertex
 10
89.25468050070117
 20
-134.2929396886488
 30
0.0
  0
VERTEX
  5
100
330
FE
100
AcDbEntity
  8
_U+30EC_U+30A4_U+30E4_U+30FC 1
 62
   179
420
  2234388
370
    25
100
AcDbVertex
100
AcDb2dVertex
 10
98.254464715542
 20
-134.2929396886488
 30
0.0
  0
SEQEND
  5
101
330
FE
100
AcDbEntity
  8
_U+30EC_U+30A4_U+30E4_U+30FC 1
 62
   179
420
  2234388
370
    25
  0
POLYLINE
  5
102
330
1F
100
AcDbEntity
  8
_U+30EC_U+30A4_U+30E4_U+30FC 1
 62
   179
420
  2234388
370
    25
100
AcDb2dPolyline
 66
     1
 10
0.0
 20
0.0
 30
0.0
  0
VERTEX
  5
103
330
102
100
AcDbEntity
  8
_U+30EC_U+30A4_U+30E4_U+30FC 1
 62
   179
420
  2234388
370
    25
100
AcDbVertex
100
AcDb2dVertex
 10
88.25455552621649
 20
-137.2929266323432
 30
0.0
  0
VERTEX
  5
104
330
102
100
AcDbEntity
  8
_U+30EC_U+30A4_U+30E4_U+30FC 1
 62
   179
420
  2234388
370
    25
100
AcDbVertex
100
AcDb2dVertex
 10
98.254464715542
 20
-137.2929266323432
 30
0.0
  0
SEQEND
  5
105
330
102
100
AcDbEntity
  8
_U+30EC_U+30A4_U+30E4_U+30FC 1
 62
   179
420
  2234388
370
    25
  0
POLYLINE
  5
106
330
1F
100
AcDbEntity
  8
_U+30EC_U+30A4_U+30E4_U+30FC 1
 62
   179
420
  2234388
370
    25
100
AcDb2dPolyline
 66
     1
 10
0.0
 20
0.0
 30
0.0
  0
VERTEX
  5
107
330
106
100
AcDbEntity
  8
_U+30EC_U+30A4_U+30E4_U+30FC 1
 62
   179
420
  2234388
370
    25
100
AcDbVertex
100
AcDb2dVertex
 10
88.25526108175404
 20
-134.2929396886488
 30
0.0
  0
VERTEX
  5
108
330
106
100
AcDbEntity
  8
_U+30EC_U+30A4_U+30E4_U+30FC 1
 62
   179
420
  2234388
370
    25
100
AcDbVertex
100
AcDb2dVertex
 10
88.25526108175404
 20
-137.2929266323432
 30
0.0
  0
SEQEND
  5
109
330
106
100
AcDbEntity
  8
_U+30EC_U+30A4_U+30E4_U+30FC 1
 62
   179
420
  2234388
370
    25
  0
POLYLINE
  5
10A
330
1F
100
AcDbEntity
  8
_U+30EC_U+30A4_U+30E4_U+30FC 1
 62
   179
420
  2234388
370
    25
100
AcDb2dPolyline
 66
     1
 10
0.0
 20
0.0
 30
0.0
  0
VERTEX
  5
10B
330
10A
100
AcDbEntity
  8
_U+30EC_U+30A4_U+30E4_U+30FC 1
 62
   179
420
  2234388
370
    25
100
AcDbVertex
100
AcDb2dVertex
 10
98.254464715542
 20
-134.2929396886488
 30
0.0
  0
VERTEX
  5
10C
330
10A
100
AcDbEntity
  8
_U+30EC_U+30A4_U+30E4_U+30FC 1
 62
   179
420
  2234388
370
    25
100
AcDbVertex
100
AcDb2dVertex
 10
98.254464715542
 20
-137.2929266323432
 30
0.0
  0
SEQEND
  5
10D
330
10A
100
AcDbEntity
  8
_U+30EC_U+30A4_U+30E4_U+30FC 1
 62
   179
420
  2234388
370
    25
  0
ENDSEC
  0
SECTION
  2
OBJECTS
  0
DICTIONARY
  5
C
330
0
100
AcDbDictionary
281
     1
  3
ACAD_GROUP
350
D
  3
ACAD_LAYOUT
350
1A
  3
ACAD_MATERIAL
350
3B
  3
ACAD_MLEADERSTYLE
350
10F
  3
ACAD_MLINESTYLE
350
17
  3
ACAD_PLOTSETTINGS
350
19
  3
ACAD_PLOTSTYLENAME
350
E
  3
ACAD_TABLESTYLE
350
10E
  3
ACAD_VISUALSTYLE
350
2A
  0
SUN
  5
3F
330
29
100
AcDbSun
 90
        1
290
     0
 63
     7
421
 16777215
 40
1.0
291
     1
 91
  2455826
 92
 54000000
292
     0
 70
     2
 71
   256
280
     1
  0
DICTIONARY
  5
D
102
{ACAD_REACTORS
330
C
102
}
330
C
100
AcDbDictionary
281
     1
  0
DICTIONARY
  5
1A
102
{ACAD_REACTORS
330
C
102
}
330
C
100
AcDbDictionary
281
     1
  3
Layout1
350
1E
  3
Layout2
350
26
  3
Model
350
22
  0
DICTIONARY
  5
3B
102
{ACAD_REACTORS
330
C
102
}
330
C
100
AcDbDictionary
281
     1
  3
ByBlock
350
3D
  3
ByLayer
350
3C
  3
Global
350
3E
  0
DICTIONARY
  5
10F
102
{ACAD_REACTORS
330
C
102
}
330
C
100
AcDbDictionary
281
     1
  0
DICTIONARY
  5
17
102
{ACAD_REACTORS
330
C
102
}
330
C
100
AcDbDictionary
281
     1
  3
Standard
350
18
  0
DICTIONARY
  5
19
102
{ACAD_REACTORS
330
C
102
}
330
C
100
AcDbDictionary
281
     1
  0
ACDBDICTIONARYWDFLT
  5
E
102
{ACAD_REACTORS
330
C
102
}
330
C
100
AcDbDictionary
281
     1
  3
Normal
350
F
100
AcDbDictionaryWithDefault
340
F
  0
DICTIONARY
  5
10E
102
{ACAD_REACTORS
330
C
102
}
330
C
100
AcDbDictionary
281
     1
  0
DICTIONARY
  5
2A
102
{ACAD_REACTORS
330
C
102
}
330
C
100
AcDbDictionary
281
     1
  3
2dWireframe
350
2F
  3
3D Hidden
350
31
  3
3dWireframe
350
30
  3
Basic
350
32
  3
Brighten
350
36
  3
ColorChange
350
3A
  3
Conceptual
350
34
  3
Dim
350
35
  3
Facepattern
350
39
  3
Flat
350
2B
  3
FlatWithEdges
350
2C
  3
Gouraud
350
2D
  3
GouraudWithEdges
350
2E
  3
Linepattern
350
38
  3
Realistic
350
33
  3
Thicken
350
37
  0
LAYOUT
  5
1E
102
{ACAD_REACTORS
330
1A
102
}
330
1A
100
AcDbPlotSettings
  1

  2
none_device
  4

  6

 40
0.0
 41
0.0
 42
0.0
 43
0.0
 44
0.0
 45
0.0
 46
0.0
 47
0.0
 48
0.0
 49
0.0
140
0.0
141
0.0
142
1.0
143
1.0
 70
   688
 72
     0
 73
     0
 74
     5
  7

 75
    16
 76
     0
 77
     2
 78
   300
147
1.0
148
0.0
149
0.0
100
AcDbLayout
  1
Layout1
 70
     1
 71
     1
 10
0.0
 20
0.0
 11
12.0
 21
9.0
 12
0.0
 22
0.0
 32
0.0
 14
1.000000000000000E+20
 24
1.000000000000000E+20
 34
1.000000000000000E+20
 15
-1.000000000000000E+20
 25
-1.000000000000000E+20
 35
-1.000000000000000E+20
146
0.0
 13
0.0
 23
0.0
 33
0.0
 16
1.0
 26
0.0
 36
0.0
 17
0.0
 27
1.0
 37
0.0
 76
     0
330
1B
  0
LAYOUT
  5
26
102
{ACAD_REACTORS
330
1A
102
}
330
1A
100
AcDbPlotSettings
  1

  2
none_device
  4

  6

 40
0.0
 41
0.0
 42
0.0
 43
0.0
 44
0.0
 45
0.0
 46
0.0
 47
0.0
 48
0.0
 49
0.0
140
0.0
141
0.0
142
1.0
143
1.0
 70
   688
 72
     0
 73
     0
 74
     5
  7

 75
    16
 76
     0
 77
     2
 78
   300
147
1.0
148
0.0
149
0.0
100
AcDbLayout
  1
Layout2
 70
     1
 71
     2
 10
0.0
 20
0.0
 11
0.0
 21
0.0
 12
0.0
 22
0.0
 32
0.0
 14
0.0
 24
0.0
 34
0.0
 15
0.0
 25
0.0
 35
0.0
146
0.0
 13
0.0
 23
0.0
 33
0.0
 16
1.0
 26
0.0
 36
0.0
 17
0.0
 27
1.0
 37
0.0
 76
     0
330
23
  0
LAYOUT
  5
22
102
{ACAD_REACTORS
330
1A
102
}
330
1A
100
AcDbPlotSettings
  1

  2
none_device
  4

  6

 40
0.0
 41
0.0
 42
0.0
 43
0.0
 44
0.0
 45
0.0
 46
0.0
 47
0.0
 48
0.0
 49
0.0
140
0.0
141
0.0
142
1.0
143
1.0
 70
  1712
 72
     0
 73
     0
 74
     0
  7

 75
     0
 76
     0
 77
     2
 78
   300
147
1.0
148
0.0
149
0.0
100
AcDbLayout
  1
Model
 70
     1
 71
     0
 10
0.0
 20
0.0
 11
12.0
 21
9.0
 12
0.0
 22
0.0
 32
0.0
 14
1.000000000000000E+20
 24
1.000000000000000E+20
 34
1.000000000000000E+20
 15
-1.000000000000000E+20
 25
-1.000000000000000E+20
 35
-1.000000000000000E+20
146
0.0
 13
0.0
 23
0.0
 33
0.0
 16
1.0
 26
0.0
 36
0.0
 17
0.0
 27
1.0
 37
0.0
 76
     0
330
1F
331
29
  0
MATERIAL
  5
3D
102
{ACAD_REACTORS
330
3B
102
}
330
3B
100
AcDbMaterial
  1
ByBlock
 72
     1
 94
      127
  0
MATERIAL
  5
3C
102
{ACAD_REACTORS
330
3B
102
}
330
3B
100
AcDbMaterial
  1
ByLayer
 72
     1
 94
      127
  0
MATERIAL
  5
3E
102
{ACAD_REACTORS
330
3B
102
}
330
3B
100
AcDbMaterial
  1
Global
 72
     1
 94
      127
  0
MLINESTYLE
  5
18
102
{ACAD_REACTORS
330
17
102
}
330
17
100
AcDbMlineStyle
  2
Standard
 70
     0
  3

 62
   256
 51
90.0
 52
90.0
 71
     2
 49
0.5
 62
   256
  6
BYLAYER
 49
-0.5
 62
   256
  6
BYLAYER
  0
ACDBPLACEHOLDER
  5
F
102
{ACAD_REACTORS
330
E
102
}
330
E
  0
VISUALSTYLE
  5
2F
102
{ACAD_REACTORS
330
2A
102
}
330
2A
100
AcDbVisualStyle
  2
2dWireframe
 70
     4
177
     2
291
     0
 71
     0
176
     1
 72
     2
176
     1
 73
     0
176
     1
 90
        0
176
     1
 40
-0.6
176
     1
 41
-30.0
176
     1
 62
     5
 63
     7
421
 16777215
176
     1
 74
     1
176
     1
 91
        4
176
     1
 64
     7
176
     1
 65
   257
176
     1
 75
     1
176
     1
175
     1
176
     1
 42
1.0
176
     1
 92
        0
176
     1
 66
   257
176
     1
 43
1.0
176
     1
 76
     1
176
     1
 77
     6
176
     1
 78
     2
176
     1
 67
     7
176
     1
 79
     5
176
     1
170
     0
176
     1
171
     0
176
     1
290
     0
176
     1
 93
        1
176
     1
 44
0.0
176
     1
173
     0
176
     1
  0
VISUALSTYLE
  5
31
102
{ACAD_REACTORS
330
2A
102
}
330
2A
100
AcDbVisualStyle
  2
3D Hidden
 70
     6
177
     2
291
     0
 71
     1
176
     1
 72
     2
176
     1
 73
     2
176
     1
 90
        0
176
     1
 40
-0.6
176
     1
 41
-30.0
176
     1
 62
     5
 63
     7
421
 16777215
176
     1
 74
     2
176
     1
 91
        2
176
     1
 64
     7
176
     1
 65
   257
176
     1
 75
     2
176
     1
175
     1
176
     1
 42
40.0
176
     1
 92
        0
176
     1
 66
   257
176
     1
 43
1.0
176
     1
 76
     1
176
     1
 77
     6
176
     1
 78
     2
176
     1
 67
     7
176
     1
 79
     3
176
     1
170
     0
176
     1
171
     0
176
     1
290
     0
176
     1
 93
        1
176
     1
 44
0.0
176
     1
173
     0
176
     1
  0
VISUALSTYLE
  5
30
102
{ACAD_REACTORS
330
2A
102
}
330
2A
100
AcDbVisualStyle
  2
3dWireframe
 70
     5
177
     2
291
     0
 71
     0
176
     1
 72
     2
176
     1
 73
     0
176
     1
 90
        0
176
     1
 40
-0.6
176
     1
 41
-30.0
176
     1
 62
     5
 63
     7
421
 16777215
176
     1
 74
     1
176
     1
 91
        4
176
     1
 64
     7
176
     1
 65
   257
176
     1
 75
     1
176
     1
175
     1
176
     1
 42
1.0
176
     1
 92
        0
176
     1
 66
   257
176
     1
 43
1.0
176
     1
 76
     1
176
     1
 77
     6
176
     1
 78
     2
176
     1
 67
     7
176
     1
 79
     5
176
     1
170
     0
176
     1
171
     0
176
     1
290
     0
176
     1
 93
        1
176
     1
 44
0.0
176
     1
173
     0
176
     1
  0
VISUALSTYLE
  5
32
102
{ACAD_REACTORS
330
2A
102
}
330
2A
100
AcDbVisualStyle
  2
Basic
 70
     7
177
     2
291
     1
 71
     1
176
     1
 72
     0
176
     1
 73
     1
176
     1
 90
        0
176
     1
 40
-0.6
176
     1
 41
-30.0
176
     1
 62
     5
 63
     7
421
 16777215
176
     1
 74
     0
176
     1
 91
        4
176
     1
 64
     7
176
     1
 65
   257
176
     1
 75
     1
176
     1
175
     1
176
     1
 42
1.0
176
     1
 92
        8
176
     1
 66
     7
176
     1
 43
1.0
176
     1
 76
     1
176
     1
 77
     6
176
     1
 78
     2
176
     1
 67
     7
176
     1
 79
     5
176
     1
170
     0
176
     1
171
     0
176
     1
290
     0
176
     1
 93
        1
176
     1
 44
0.0
176
     1
173
     0
176
     1
  0
VISUALSTYLE
  5
36
102
{ACAD_REACTORS
330
2A
102
}
330
2A
100
AcDbVisualStyle
  2
Brighten
 70
    12
177
     2
291
     1
 71
     2
176
     1
 72
     2
176
     1
 73
     0
176
     1
 90
        0
176
     1
 40
-0.6
176
     1
 41
-30.0
176
     1
 62
     5
 63
     7
421
 16777215
176
     1
 74
     1
176
     1
 91
        4
176
     1
 64
     7
176
     1
 65
   257
176
     1
 75
     1
176
     1
175
     1
176
     1
 42
1.0
176
     1
 92
        8
176
     1
 66
     7
176
     1
 43
1.0
176
     1
 76
     1
176
     1
 77
     6
176
     1
 78
     2
176
     1
 67
     7
176
     1
 79
     5
176
     1
170
     0
176
     1
171
     0
176
     1
290
     0
176
     1
 93
        1
176
     1
 44
50.0
176
     1
173
     0
176
     1
  0
VISUALSTYLE
  5
3A
102
{ACAD_REACTORS
330
2A
102
}
330
2A
100
AcDbVisualStyle
  2
ColorChange
 70
    16
177
     2
291
     1
 71
     2
176
     1
 72
     2
176
     1
 73
     3
176
     1
 90
        0
176
     1
 40
-0.6
176
     1
 41
-30.0
176
     1
 62
     5
 63
     8
421
  8421504
176
     1
 74
     1
176
     1
 91
        4
176
     1
 64
     7
176
     1
 65
   257
176
     1
 75
     1
176
     1
175
     1
176
     1
 42
1.0
176
     1
 92
        8
176
     1
 66
     8
424
  8421504
176
     1
 43
1.0
176
     1
 76
     1
176
     1
 77
     6
176
     1
 78
     2
176
     1
 67
     7
176
     1
 79
     5
176
     1
170
     0
176
     1
171
     0
176
     1
290
     0
176
     1
 93
        1
176
     1
 44
0.0
176
     1
173
     0
176
     1
  0
VISUALSTYLE
  5
34
102
{ACAD_REACTORS
330
2A
102
}
330
2A
100
AcDbVisualStyle
  2
Conceptual
 70
     9
177
     2
291
     0
 71
     3
176
     1
 72
     2
176
     1
 73
     0
176
     1
 90
        0
176
     1
 40
-0.6
176
     1
 41
-30.0
176
     1
 62
     5
 63
     7
421
 16777215
176
     1
 74
     2
176
     1
 91
        2
176
     1
 64
     7
176
     1
 65
   257
176
     1
 75
     1
176
     1
175
     1
176
     1
 42
40.0
176
     1
 92
        8
176
     1
 66
     7
176
     1
 43
1.0
176
     1
 76
     1
176
     1
 77
     6
176
     1
 78
     2
176
     1
 67
     7
176
     1
 79
     3
176
     1
170
     0
176
     1
171
     0
176
     1
290
     0
176
     1
 93
        1
176
     1
 44
0.0
176
     1
173
     0
176
     1
  0
VISUALSTYLE
  5
35
102
{ACAD_REACTORS
330
2A
102
}
330
2A
100
AcDbVisualStyle
  2
Dim
 70
    11
177
     2
291
     1
 71
     2
176
     1
 72
     2
176
     1
 73
     0
176
     1
 90
        0
176
     1
 40
-0.6
176
     1
 41
-30.0
176
     1
 62
     5
 63
     7
421
 16777215
176
     1
 74
     1
176
     1
 91
        4
176
     1
 64
     7
176
     1
 65
   257
176
     1
 75
     1
176
     1
175
     1
176
     1
 42
1.0
176
     1
 92
        8
176
     1
 66
     7
176
     1
 43
1.0
176
     1
 76
     1
176
     1
 77
     6
176
     1
 78
     2
176
     1
 67
     7
176
     1
 79
     5
176
     1
170
     0
176
     1
171
     0
176
     1
290
     0
176
     1
 93
        1
176
     1
 44
-50.0
176
     1
173
     0
176
     1
  0
VISUALSTYLE
  5
39
102
{ACAD_REACTORS
330
2A
102
}
330
2A
100
AcDbVisualStyle
  2
Facepattern
 70
    15
177
     2
291
     1
 71
     2
176
     1
 72
     2
176
     1
 73
     0
176
     1
 90
        0
176
     1
 40
-0.6
176
     1
 41
-30.0
176
     1
 62
     5
 63
     7
421
 16777215
176
     1
 74
     1
176
     1
 91
        4
176
     1
 64
     7
176
     1
 65
   257
176
     1
 75
     1
176
     1
175
     1
176
     1
 42
1.0
176
     1
 92
        8
176
     1
 66
     7
176
     1
 43
1.0
176
     1
 76
     1
176
     1
 77
     6
176
     1
 78
     2
176
     1
 67
     7
176
     1
 79
     5
176
     1
170
     0
176
     1
171
     0
176
     1
290
     0
176
     1
 93
        1
176
     1
 44
0.0
176
     1
173
     0
176
     1
  0
VISUALSTYLE
  5
2B
102
{ACAD_REACTORS
330
2A
102
}
330
2A
100
AcDbVisualStyle
  2
Flat
 70
     0
177
     2
291
     1
 71
     2
176
     1
 72
     1
176
     1
 73
     1
176
     1
 90
        2
176
     1
 40
-0.6
176
     1
 41
30.0
176
     1
 62
     5
 63
     7
421
 16777215
176
     1
 74
     0
176
     1
 91
        4
176
     1
 64
     7
176
     1
 65
   257
176
     1
 75
     1
176
     1
175
     1
176
     1
 42
1.0
176
     1
 92
        8
176
     1
 66
     7
176
     1
 43
1.0
176
     1
 76
     1
176
     1
 77
     6
176
     1
 78
     2
176
     1
 67
     7
176
     1
 79
     5
176
     1
170
     0
176
     1
171
     0
176
     1
290
     0
176
     1
 93
       13
176
     1
 44
0.0
176
     1
173
     0
176
     1
  0
VISUALSTYLE
  5
2C
102
{ACAD_REACTORS
330
2A
102
}
330
2A
100
AcDbVisualStyle
  2
FlatWithEdges
 70
     1
177
     2
291
     1
 71
     2
176
     1
 72
     1
176
     1
 73
     1
176
     1
 90
        2
176
     1
 40
-0.6
176
     1
 41
30.0
176
     1
 62
     5
 63
     7
421
 16777215
176
     1
 74
     1
176
     1
 91
        4
176
     1
 64
     7
176
     1
 65
   257
176
     1
 75
     1
176
     1
175
     1
176
     1
 42
1.0
176
     1
 92
        0
176
     1
 66
   257
176
     1
 43
1.0
176
     1
 76
     1
176
     1
 77
     6
176
     1
 78
     2
176
     1
 67
     7
176
     1
 79
     5
176
     1
170
     0
176
     1
171
     0
176
     1
290
     0
176
     1
 93
       13
176
     1
 44
0.0
176
     1
173
     0
176
     1
  0
VISUALSTYLE
  5
2D
102
{ACAD_REACTORS
330
2A
102
}
330
2A
100
AcDbVisualStyle
  2
Gouraud
 70
     2
177
     2
291
     1
 71
     2
176
     1
 72
     2
176
     1
 73
     1
176
     1
 90
        2
176
     1
 40
-0.6
176
     1
 41
30.0
176
     1
 62
     5
 63
     7
421
 16777215
176
     1
 74
     0
176
     1
 91
        4
176
     1
 64
     7
176
     1
 65
   257
176
     1
 75
     1
176
     1
175
     1
176
     1
 42
1.0
176
     1
 92
        0
176
     1
 66
     7
176
     1
 43
1.0
176
     1
 76
     1
176
     1
 77
     6
176
     1
 78
     2
176
     1
 67
     7
176
     1
 79
     5
176
     1
170
     0
176
     1
171
     0
176
     1
290
     0
176
     1
 93
       13
176
     1
 44
0.0
176
     1
173
     0
176
     1
  0
VISUALSTYLE
  5
2E
102
{ACAD_REACTORS
330
2A
102
}
330
2A
100
AcDbVisualStyle
  2
GouraudWithEdges
 70
     3
177
     2
291
     1
 71
     2
176
     1
 72
     2
176
     1
 73
     1
176
     1
 90
        2
176
     1
 40
-0.6
176
     1
 41
30.0
176
     1
 62
     5
 63
     7
421
 16777215
176
     1
 74
     1
176
     1
 91
        4
176
     1
 64
     7
176
     1
 65
   257
176
     1
 75
     1
176
     1
175
     1
176
     1
 42
1.0
176
     1
 92
        0
176
     1
 66
   257
176
     1
 43
1.0
176
     1
 76
     1
176
     1
 77
     6
176
     1
 78
     2
176
     1
 67
     7
176
     1
 79
     5
176
     1
170
     0
176
     1
171
     0
176
     1
290
     0
176
     1
 93
       13
176
     1
 44
0.0
176
     1
173
     0
176
     1
  0
VISUALSTYLE
  5
38
102
{ACAD_REACTORS
330
2A
102
}
330
2A
100
AcDbVisualStyle
  2
Linepattern
 70
    14
177
     2
291
     1
 71
     2
176
     1
 72
     2
176
     1
 73
     0
176
     1
 90
        0
176
     1
 40
-0.6
176
     1
 41
-30.0
176
     1
 62
     5
 63
     7
421
 16777215
176
     1
 74
     1
176
     1
 91
        4
176
     1
 64
     7
176
     1
 65
   257
176
     1
 75
     7
176
     1
175
     7
176
     1
 42
1.0
176
     1
 92
        8
176
     1
 66
     7
176
     1
 43
1.0
176
     1
 76
     1
176
     1
 77
     6
176
     1
 78
     2
176
     1
 67
     7
176
     1
 79
     5
176
     1
170
     0
176
     1
171
     0
176
     1
290
     0
176
     1
 93
        1
176
     1
 44
0.0
176
     1
173
     0
176
     1
  0
VISUALSTYLE
  5
33
102
{ACAD_REACTORS
330
2A
102
}
330
2A
100
AcDbVisualStyle
  2
Realistic
 70
     8
177
     2
291
     0
 71
     2
176
     1
 72
     2
176
     1
 73
     0
176
     1
 90
        0
176
     1
 40
-0.6
176
     1
 41
-30.0
176
     1
 62
     5
 63
     7
421
 16777215
176
     1
 74
     1
176
     1
 91
        0
176
     1
 64
     7
176
     1
 65
   257
176
     1
 75
     1
176
     1
175
     1
176
     1
 42
1.0
176
     1
 92
        8
176
     1
 66
     8
424
  7895160
176
     1
 43
1.0
176
     1
 76
     1
176
     1
 77
     6
176
     1
 78
     2
176
     1
 67
     7
176
     1
 79
     5
176
     1
170
     0
176
     1
171
     0
176
     1
290
     0
176
     1
 93
       13
176
     1
 44
0.0
176
     1
173
     0
176
     1
  0
VISUALSTYLE
  5
37
102
{ACAD_REACTORS
330
2A
102
}
330
2A
100
AcDbVisualStyle
  2
Thicken
 70
    13
177
     2
291
     1
 71
     2
176
     1
 72
     2
176
     1
 73
     0
176
     1
 90
        0
176
     1
 40
-0.6
176
     1
 41
-30.0
176
     1
 62
     5
 63
     7
421
 16777215
176
     1
 74
     1
176
     1
 91
        4
176
     1
 64
     7
176
     1
 65
   257
176
     1
 75
     1
176
     1
175
     1
176
     1
 42
1.0
176
     1
 92
       12
176
     1
 66
     7
176
     1
 43
1.0
176
     1
 76
     1
176
     1
 77
     6
176
     1
 78
     2
176
     1
 67
     7
176
     1
 79
     5
176
     1
170
     0
176
     1
171
     0
176
     1
290
     0
176
     1
 93
        1
176
     1
 44
0.0
176
     1
173
     0
176
     1
  0
ENDSEC
  0
EOF
