  0
SECTION
  2
HEADER
  9
$ACADVER
  1
AC1024
  9
$ACADMAINTVER
 70
   226
  9
$DWGCODEPAGE
  3
ANSI_932
  9
$INSBASE
 10
0.0
 20
0.0
 30
0.0
  9
$EXTMIN
 10
1.000000000000000E+20
 20
1.000000000000000E+20
 30
1.000000000000000E+20
  9
$EXTMAX
 10
-1.000000000000000E+20
 20
-1.000000000000000E+20
 30
-1.000000000000000E+20
  9
$LIMMIN
 10
0.0
 20
0.0
  9
$LIMMAX
 10
12.0
 20
9.0
  9
$ORTHOMODE
 70
     0
  9
$REGENMODE
 70
     1
  9
$FILLMODE
 70
     1
  9
$QTEXTMODE
 70
     0
  9
$MIRRTEXT
 70
     0
  9
$LTSCALE
 40
1.0
  9
$ATTMODE
 70
     1
  9
$TEXTSIZE
 40
0.2
  9
$TRACEWID
 40
0.05
  9
$TEXTSTYLE
  7
Standard
  9
$CLAYER
  8
0
  9
$CELTYPE
  6
ByLayer
  9
$CECOLOR
 62
   256
  9
$CELTSCALE
 40
1.0
  9
$DISPSILH
 70
     0
  9
$DIMSCALE
 40
1.0
  9
$DIMASZ
 40
0.18
  9
$DIMEXO
 40
0.0625
  9
$DIMDLI
 40
0.38
  9
$DIMRND
 40
0.0
  9
$DIMDLE
 40
0.0
  9
$DIMEXE
 40
0.18
  9
$DIMTP
 40
0.0
  9
$DIMTM
 40
0.0
  9
$DIMTXT
 40
0.18
  9
$DIMCEN
 40
0.09
  9
$DIMTSZ
 40
0.0
  9
$DIMTOL
 70
     0
  9
$DIMLIM
 70
     0
  9
$DIMTIH
 70
     1
  9
$DIMTOH
 70
     1
  9
$DIMSE1
 70
     0
  9
$DIMSE2
 70
     0
  9
$DIMTAD
 70
     0
  9
$DIMZIN
 70
     0
  9
$DIMBLK
  1

  9
$DIMASO
 70
     1
  9
$DIMSHO
 70
     1
  9
$DIMPOST
  1

  9
$DIMAPOST
  1

  9
$DIMALT
 70
     0
  9
$DIMALTD
 70
     2
  9
$DIMALTF
 40
25.4
  9
$DIMLFAC
 40
1.0
  9
$DIMTOFL
 70
     0
  9
$DIMTVP
 40
0.0
  9
$DIMTIX
 70
     0
  9
$DIMSOXD
 70
     0
  9
$DIMSAH
 70
     0
  9
$DIMBLK1
  1

  9
$DIMBLK2
  1

  9
$DIMSTYLE
  2
Standard
  9
$DIMCLRD
 70
     0
  9
$DIMCLRE
 70
     0
  9
$DIMCLRT
 70
     0
  9
$DIMTFAC
 40
1.0
  9
$DIMGAP
 40
0.09
  9
$DIMJUST
 70
     0
  9
$DIMSD1
 70
     0
  9
$DIMSD2
 70
     0
  9
$DIMTOLJ
 70
     1
  9
$DIMTZIN
 70
     0
  9
$DIMALTZ
 70
     0
  9
$DIMALTTZ
 70
     0
  9
$DIMUPT
 70
     0
  9
$DIMDEC
 70
     4
  9
$DIMTDEC
 70
     4
  9
$DIMALTU
 70
     2
  9
$DIMALTTD
 70
     2
  9
$DIMTXSTY
  7
Standard
  9
$DIMAUNIT
 70
     0
  9
$DIMADEC
 70
     0
  9
$DIMALTRND
 40
0.0
  9
$DIMAZIN
 70
     0
  9
$DIMDSEP
 70
    46
  9
$DIMATFIT
 70
     3
  9
$DIMFRAC
 70
     0
  9
$DIMLDRBLK
  1

  9
$DIMLUNIT
 70
     2
  9
$DIMLWD
 70
    -2
  9
$DIMLWE
 70
    -2
  9
$DIMTMOVE
 70
     0
  9
$DIMFXL
 40
1.0
  9
$DIMFXLON
 70
     0
  9
$DIMJOGANG
 40
0.7853981633974483
  9
$DIMTFILL
 70
     0
  9
$DIMTFILLCLR
 70
     0
  9
$DIMARCSYM
 70
     0
  9
$DIMLTYPE
  6

  9
$DIMLTEX1
  6

  9
$DIMLTEX2
  6

  9
$DIMTXTDIRECTION
 70
     0
  9
$LUNITS
 70
     2
  9
$LUPREC
 70
     4
  9
$SKETCHINC
 40
0.1
  9
$FILLETRAD
 40
0.0
  9
$AUNITS
 70
     0
  9
$AUPREC
 70
     0
  9
$MENU
  1
.
  9
$ELEVATION
 40
0.0
  9
$PELEVATION
 40
0.0
  9
$THICKNESS
 40
0.0
  9
$LIMCHECK
 70
     0
  9
$CHAMFERA
 40
0.0
  9
$CHAMFERB
 40
0.0
  9
$CHAMFERC
 40
0.0
  9
$CHAMFERD
 40
0.0
  9
$SKPOLY
 70
     0
  9
$TDCREATE
 40
2459569.488888889
  9
$TDUCREATE
 40
2459569.113888889
  9
$TDUPDATE
 40
2459569.488888889
  9
$TDUUPDATE
 40
2459569.113888889
  9
$TDINDWG
 40
0.0000000000
  9
$TDUSRTIMER
 40
0.0000000000
  9
$USRTIMER
 70
     1
  9
$ANGBASE
 50
0.0
  9
$ANGDIR
 70
     0
  9
$PDMODE
 70
     0
  9
$PDSIZE
 40
0.0
  9
$PLINEWID
 40
0.0
  9
$SPLFRAME
 70
     0
  9
$SPLINETYPE
 70
     6
  9
$SPLINESEGS
 70
     8
  9
$HANDSEED
  5
131
  9
$SURFTAB1
 70
     6
  9
$SURFTAB2
 70
     6
  9
$SURFTYPE
 70
     6
  9
$SURFU
 70
     6
  9
$SURFV
 70
     6
  9
$UCSBASE
  2

  9
$UCSNAME
  2

  9
$UCSORG
 10
0.0
 20
0.0
 30
0.0
  9
$UCSXDIR
 10
1.0
 20
0.0
 30
0.0
  9
$UCSYDIR
 10
0.0
 20
1.0
 30
0.0
  9
$UCSORTHOREF
  2

  9
$UCSORTHOVIEW
 70
     0
  9
$UCSORGTOP
 10
0.0
 20
0.0
 30
0.0
  9
$UCSORGBOTTOM
 10
0.0
 20
0.0
 30
0.0
  9
$UCSORGLEFT
 10
0.0
 20
0.0
 30
0.0
  9
$UCSORGRIGHT
 10
0.0
 20
0.0
 30
0.0
  9
$UCSORGFRONT
 10
0.0
 20
0.0
 30
0.0
  9
$UCSORGBACK
 10
0.0
 20
0.0
 30
0.0
  9
$PUCSBASE
  2

  9
$PUCSNAME
  2

  9
$PUCSORG
 10
0.0
 20
0.0
 30
0.0
  9
$PUCSXDIR
 10
1.0
 20
0.0
 30
0.0
  9
$PUCSYDIR
 10
0.0
 20
1.0
 30
0.0
  9
$PUCSORTHOREF
  2

  9
$PUCSORTHOVIEW
 70
     0
  9
$PUCSORGTOP
 10
0.0
 20
0.0
 30
0.0
  9
$PUCSORGBOTTOM
 10
0.0
 20
0.0
 30
0.0
  9
$PUCSORGLEFT
 10
0.0
 20
0.0
 30
0.0
  9
$PUCSORGRIGHT
 10
0.0
 20
0.0
 30
0.0
  9
$PUCSORGFRONT
 10
0.0
 20
0.0
 30
0.0
  9
$PUCSORGBACK
 10
0.0
 20
0.0
 30
0.0
  9
$USERI1
 70
     0
  9
$USERI2
 70
     0
  9
$USERI3
 70
     0
  9
$USERI4
 70
     0
  9
$USERI5
 70
     0
  9
$USERR1
 40
0.0
  9
$USERR2
 40
0.0
  9
$USERR3
 40
0.0
  9
$USERR4
 40
0.0
  9
$USERR5
 40
0.0
  9
$WORLDVIEW
 70
     1
  9
$SHADEDGE
 70
     3
  9
$SHADEDIF
 70
    70
  9
$TILEMODE
 70
     1
  9
$MAXACTVP
 70
    64
  9
$PINSBASE
 10
0.0
 20
0.0
 30
0.0
  9
$PLIMCHECK
 70
     0
  9
$PEXTMIN
 10
1.000000000000000E+20
 20
1.000000000000000E+20
 30
1.000000000000000E+20
  9
$PEXTMAX
 10
-1.000000000000000E+20
 20
-1.000000000000000E+20
 30
-1.000000000000000E+20
  9
$PLIMMIN
 10
0.0
 20
0.0
  9
$PLIMMAX
 10
12.0
 20
9.0
  9
$UNITMODE
 70
     0
  9
$VISRETAIN
 70
     1
  9
$PLINEGEN
 70
     0
  9
$PSLTSCALE
 70
     1
  9
$TREEDEPTH
 70
  3020
  9
$CMLSTYLE
  2
Standard
  9
$CMLJUST
 70
     0
  9
$CMLSCALE
 40
1.0
  9
$PROXYGRAPHICS
 70
     1
  9
$MEASUREMENT
 70
     0
  9
$CELWEIGHT
370
    -1
  9
$ENDCAPS
280
     0
  9
$JOINSTYLE
280
     0
  9
$LWDISPLAY
290
     1
  9
$INSUNITS
 70
     4
  9
$HYPERLINKBASE
  1

  9
$STYLESHEET
  1

  9
$XEDIT
290
     1
  9
$CEPSNTYPE
380
     0
  9
$PSTYLEMODE
290
     1
  9
$FINGERPRINTGUID
  2
{ED454D1D-DDCB-EE4C-A357-74625A0A5D17}
  9
$VERSIONGUID
  2
{2DC3114A-63C9-4844-BF54-5C785702B418}
  9
$EXTNAMES
290
     1
  9
$PSVPSCALE
 40
0.0
  9
$OLESTARTUP
290
     0
  9
$SORTENTS
280
   127
  9
$INDEXCTL
280
     0
  9
$HIDETEXT
280
     1
  9
$XCLIPFRAME
280
     2
  9
$HALOGAP
280
     0
  9
$OBSCOLOR
 70
   257
  9
$OBSLTYPE
280
     0
  9
$INTERSECTIONDISPLAY
280
     0
  9
$INTERSECTIONCOLOR
 70
   257
  9
$DIMASSOC
280
     2
  9
$PROJECTNAME
  1

  9
$CAMERADISPLAY
290
     0
  9
$LENSLENGTH
 40
50.0
  9
$CAMERAHEIGHT
 40
0.0
  9
$STEPSPERSEC
 40
2.0
  9
$STEPSIZE
 40
6.0
  9
$3DDWFPREC
 40
2.0
  9
$PSOLWIDTH
 40
0.25
  9
$PSOLHEIGHT
 40
4.0
  9
$LOFTANG1
 40
1.570796326794896
  9
$LOFTANG2
 40
1.570796326794896
  9
$LOFTMAG1
 40
0.0
  9
$LOFTMAG2
 40
0.0
  9
$LOFTPARAM
 70
     7
  9
$LOFTNORMALS
280
     1
  9
$LATITUDE
 40
37.795
  9
$LONGITUDE
 40
-122.394
  9
$NORTHDIRECTION
 40
0.0
  9
$TIMEZONE
 70
 -8000
  9
$LIGHTGLYPHDISPLAY
280
     1
  9
$TILEMODELIGHTSYNCH
280
     1
  9
$CMATERIAL
347
11
  9
$SOLIDHIST
280
     0
  9
$SHOWHIST
280
     1
  9
$DWFFRAME
280
     2
  9
$DGNFRAME
280
     0
  9
$REALWORLDSCALE
290
     1
  9
$INTERFERECOLOR
 62
     1
  9
$INTERFEREOBJVS
345
33
  9
$INTERFEREVPVS
346
30
  9
$CSHADOW
280
     0
  9
$SHADOWPLANELOCATION
 40
0.0
  0
ENDSEC
  0
SECTION
  2
CLASSES
  0
CLASS
  1
ACDBDICTIONARYWDFLT
  2
AcDbDictionaryWithDefault
  3
ObjectDBX Classes
 90
        0
 91
        1
280
     0
281
     0
  0
CLASS
  1
MATERIAL
  2
AcDbMaterial
  3
ObjectDBX Classes
 90
     1153
 91
        3
280
     0
281
     0
  0
CLASS
  1
VISUALSTYLE
  2
AcDbVisualStyle
  3
ObjectDBX Classes
 90
     4095
 91
       24
280
     0
281
     0
  0
CLASS
  1
SCALE
  2
AcDbScale
  3
ObjectDBX Classes
 90
     1153
 91
       17
280
     0
281
     0
  0
CLASS
  1
TABLESTYLE
  2
AcDbTableStyle
  3
ObjectDBX Classes
 90
     4095
 91
        1
280
     0
281
     0
  0
CLASS
  1
MLEADERSTYLE
  2
AcDbMLeaderStyle
  3
ACDB_MLEADERSTYLE_CLASS
 90
     4095
 91
        1
280
     0
281
     0
  0
CLASS
  1
ACDBSECTIONVIEWSTYLE
  2
AcDbSectionViewStyle
  3
ObjectDBX Classes
 90
     1025
 91
        1
280
     0
281
     0
  0
CLASS
  1
ACDBDETAILVIEWSTYLE
  2
AcDbDetailViewStyle
  3
ObjectDBX Classes
 90
     1025
 91
        1
280
     0
281
     0
  0
CLASS
  1
DICTIONARYVAR
  2
AcDbDictionaryVar
  3
ObjectDBX Classes
 90
        0
 91
        5
280
     0
281
     0
  0
CLASS
  1
CELLSTYLEMAP
  2
AcDbCellStyleMap
  3
ObjectDBX Classes
 90
     1152
 91
        1
280
     0
281
     0
  0
ENDSEC
  0
SECTION
  2
TABLES
  0
TABLE
  2
VPORT
  5
8
330
0
100
AcDbSymbolTable
 70
     1
  0
VPORT
  5
57
330
8
100
AcDbSymbolTableRecord
100
AcDbViewportTableRecord
  2
*Active
 70
     0
 10
0.0
 20
0.0
 11
1.0
 21
1.0
 12
0.0
 22
0.0
 13
0.0
 23
0.0
 14
1.0
 24
1.0
 15
0.0
 25
0.0
 16
0.0
 26
0.0
 36
1.0
 17
104.9999999737534
 27
-148.4999999628701
 37
0.0
 40
302.939999924255
 41
0.7070707070707534
 42
50.0
 43
0.0
 44
0.0
 50
0.0
 51
0.0
 71
     0
 72
   100
 73
     1
 74
     0
 75
     1
 76
     0
 77
     0
 78
     0
281
     0
 65
     1
110
0.0
120
0.0
130
0.0
111
1.0
121
0.0
131
0.0
112
0.0
122
1.0
132
0.0
 79
     0
146
0.0
 60
     3
 61
     5
292
     1
282
     1
141
0.0
142
0.0
 63
   250
421
  3355443
  0
ENDTAB
  0
TABLE
  2
LTYPE
  5
5
330
0
100
AcDbSymbolTable
 70
     2
  0
LTYPE
  5
5B
330
5
100
AcDbSymbolTableRecord
100
AcDbLinetypeTableRecord
  2
ByBlock
 70
     0
  3

 72
    65
 73
     0
 40
0.0
  0
LTYPE
  5
5C
330
5
100
AcDbSymbolTableRecord
100
AcDbLinetypeTableRecord
  2
ByLayer
 70
     0
  3

 72
    65
 73
     0
 40
0.0
  0
LTYPE
  5
5D
330
5
100
AcDbSymbolTableRecord
100
AcDbLinetypeTableRecord
  2
Continuous
 70
     0
  3
Solid line
 72
    65
 73
     0
 40
0.0
  0
LTYPE
  5
D5
330
5
100
AcDbSymbolTableRecord
100
AcDbLinetypeTableRecord
  2
AI-Linetype-0
 70
     0
  3
Adobe Illustrator Linetype No. 0
 72
    65
 73
     2
 40
1.411111110758333
 49
0.7055555553791667
 74
     0
 49
-0.7055555553791667
 74
     0
  0
ENDTAB
  0
TABLE
  2
LAYER
  5
2
330
0
100
AcDbSymbolTable
 70
     2
  0
LAYER
  5
54
330
2
100
AcDbSymbolTableRecord
100
AcDbLayerTableRecord
  2
0
 70
     0
 62
     7
  6
Continuous
370
    -3
390
F
347
21
  0
LAYER
  5
78
330
2
100
AcDbSymbolTableRecord
100
AcDbLayerTableRecord
  2
レイヤー 1
 70
     0
 62
     7
  6
Continuous
370
     0
390
F
347
21
  0
ENDTAB
  0
TABLE
  2
STYLE
  5
3
330
0
100
AcDbSymbolTable
 70
     2
  0
STYLE
  5
55
330
3
100
AcDbSymbolTableRecord
100
AcDbTextStyleTableRecord
  2
Standard
 70
     0
 40
0.0
 41
1.0
 50
0.0
 71
     0
 42
0.2
  3
txt
  4

  0
STYLE
  5
5A
330
3
100
AcDbSymbolTableRecord
100
AcDbTextStyleTableRecord
  2
Annotative
 70
     0
 40
0.0
 41
1.0
 50
0.0
 71
     0
 42
0.2
  3
txt
  4

1001
AcadAnnotative
1000
AnnotativeData
1002
{
1070
     1
1070
     1
1002
}
  0
ENDTAB
  0
TABLE
  2
VIEW
  5
6
330
0
100
AcDbSymbolTable
 70
     0
  0
ENDTAB
  0
TABLE
  2
UCS
  5
7
330
0
100
AcDbSymbolTable
 70
     0
  0
ENDTAB
  0
TABLE
  2
APPID
  5
9
330
0
100
AcDbSymbolTable
 70
     2
  0
APPID
  5
56
330
9
100
AcDbSymbolTableRecord
100
AcDbRegAppTableRecord
  2
ACAD
 70
     0
  0
APPID
  5
5E
330
9
100
AcDbSymbolTableRecord
100
AcDbRegAppTableRecord
  2
AcadAnnotative
 70
     0
  0
ENDTAB
  0
TABLE
  2
DIMSTYLE
  5
A
330
0
100
AcDbSymbolTable
 70
     2
100
AcDbDimStyleTable
 71
     0
  0
DIMSTYLE
105
58
330
A
100
AcDbSymbolTableRecord
100
AcDbDimStyleTableRecord
  2
Standard
 70
     0
340
55
  0
DIMSTYLE
105
59
330
A
100
AcDbSymbolTableRecord
100
AcDbDimStyleTableRecord
  2
Annotative
 70
     0
340
55
1001
AcadAnnotative
1000
AnnotativeData
1002
{
1070
     1
1070
     1
1002
}
  0
ENDTAB
  0
TABLE
  2
BLOCK_RECORD
  5
1
330
0
100
AcDbSymbolTable
 70
    14
  0
BLOCK_RECORD
  5
70
330
1
100
AcDbSymbolTableRecord
100
AcDbBlockTableRecord
  2
*Model_Space
340
73
 70
     0
280
     1
281
     0
  0
BLOCK_RECORD
  5
6C
330
1
100
AcDbSymbolTableRecord
100
AcDbBlockTableRecord
  2
*Paper_Space
340
6F
 70
     0
280
     1
281
     0
  0
BLOCK_RECORD
  5
74
330
1
100
AcDbSymbolTableRecord
100
AcDbBlockTableRecord
  2
*Paper_Space0
340
77
 70
     0
280
     1
281
     0
  0
BLOCK_RECORD
  5
81
330
1
100
AcDbSymbolTableRecord
100
AcDbBlockTableRecord
  2
Block_0
340
0
102
{BLKREFS
331
82
102
}
 70
     0
280
     1
281
     0
  0
BLOCK_RECORD
  5
85
330
1
100
AcDbSymbolTableRecord
100
AcDbBlockTableRecord
  2
Block_1
340
0
102
{BLKREFS
331
86
102
}
 70
     0
280
     1
281
     0
  0
BLOCK_RECORD
  5
8E
330
1
100
AcDbSymbolTableRecord
100
AcDbBlockTableRecord
  2
Block_2
340
0
102
{BLKREFS
331
8F
102
}
 70
     0
280
     1
281
     0
  0
BLOCK_RECORD
  5
95
330
1
100
AcDbSymbolTableRecord
100
AcDbBlockTableRecord
  2
Block_3
340
0
102
{BLKREFS
331
96
102
}
 70
     0
280
     1
281
     0
  0
BLOCK_RECORD
  5
99
330
1
100
AcDbSymbolTableRecord
100
AcDbBlockTableRecord
  2
Block_4
340
0
102
{BLKREFS
331
9A
102
}
 70
     0
280
     1
281
     0
  0
BLOCK_RECORD
  5
A5
330
1
100
AcDbSymbolTableRecord
100
AcDbBlockTableRecord
  2
Block_5
340
0
102
{BLKREFS
331
A6
102
}
 70
     0
280
     1
281
     0
  0
BLOCK_RECORD
  5
AB
330
1
100
AcDbSymbolTableRecord
100
AcDbBlockTableRecord
  2
Block_6
340
0
102
{BLKREFS
331
AC
102
}
 70
     0
280
     1
281
     0
  0
BLOCK_RECORD
  5
B3
330
1
100
AcDbSymbolTableRecord
100
AcDbBlockTableRecord
  2
Block_7
340
0
102
{BLKREFS
331
B4
102
}
 70
     0
280
     1
281
     0
  0
BLOCK_RECORD
  5
C4
330
1
100
AcDbSymbolTableRecord
100
AcDbBlockTableRecord
  2
Block_8
340
0
102
{BLKREFS
331
C5
102
}
 70
     0
280
     1
281
     0
  0
BLOCK_RECORD
  5
C8
330
1
100
AcDbSymbolTableRecord
100
AcDbBlockTableRecord
  2
Block_9
340
0
102
{BLKREFS
331
C9
102
}
 70
     0
280
     1
281
     0
  0
BLOCK_RECORD
  5
D0
330
1
100
AcDbSymbolTableRecord
100
AcDbBlockTableRecord
  2
Block_10
340
0
102
{BLKREFS
331
D1
102
}
 70
     0
280
     1
281
     0
  0
BLOCK_RECORD
  5
D8
330
1
100
AcDbSymbolTableRecord
100
AcDbBlockTableRecord
  2
Block_11
340
0
102
{BLKREFS
331
D9
102
}
 70
     0
280
     1
281
     0
  0
BLOCK_RECORD
  5
DC
330
1
100
AcDbSymbolTableRecord
100
AcDbBlockTableRecord
  2
Block_12
340
0
102
{BLKREFS
331
DD
102
}
 70
     0
280
     1
281
     0
  0
ENDTAB
  0
ENDSEC
  0
SECTION
  2
BLOCKS
  0
BLOCK
  5
71
330
70
100
AcDbEntity
  8
0
100
AcDbBlockBegin
  2
*Model_Space
 70
     0
 10
0.0
 20
0.0
 30
0.0
  3
*Model_Space
  1

  0
ENDBLK
  5
72
330
70
100
AcDbEntity
  8
0
100
AcDbBlockEnd
  0
BLOCK
  5
6D
330
6C
100
AcDbEntity
 67
     1
  8
0
100
AcDbBlockBegin
  2
*Paper_Space
 70
     0
 10
0.0
 20
0.0
 30
0.0
  3
*Paper_Space
  1

  0
ENDBLK
  5
6E
330
6C
100
AcDbEntity
 67
     1
  8
0
100
AcDbBlockEnd
  0
BLOCK
  5
75
330
74
100
AcDbEntity
 67
     1
  8
0
100
AcDbBlockBegin
  2
*Paper_Space0
 70
     0
 10
0.0
 20
0.0
 30
0.0
  3
*Paper_Space0
  1

  0
ENDBLK
  5
76
330
74
100
AcDbEntity
 67
     1
  8
0
100
AcDbBlockEnd
  0
BLOCK
  5
83
330
81
100
AcDbEntity
  8
0
100
AcDbBlockBegin
  2
Block_0
 70
     0
 10
0.0
 20
0.0
 30
0.0
  3
Block_0
  1

  0
INSERT
  5
86
330
81
100
AcDbEntity
  8
レイヤー 1
100
AcDbBlockReference
  2
Block_1
 10
0.0
 20
0.0
 30
0.0
  0
ENDBLK
  5
84
330
81
100
AcDbEntity
  8
0
100
AcDbBlockEnd
  0
BLOCK
  5
87
330
85
100
AcDbEntity
  8
0
100
AcDbBlockBegin
  2
Block_1
 70
     0
 10
0.0
 20
0.0
 30
0.0
  3
Block_1
  1

  0
SPLINE
  5
89
330
85
100
AcDbEntity
  8
レイヤー 1
100
AcDbSpline
210
0.0
220
0.0
230
1.0
 70
    11
 71
     3
 72
    26
 73
    22
 74
     0
 42
0.0000000001
 43
0.0000000001
 40
0.0
 40
0.0
 40
0.0
 40
0.0
 40
1.0
 40
1.0
 40
1.0
 40
2.0
 40
2.0
 40
2.0
 40
3.0
 40
3.0
 40
3.0
 40
4.0
 40
4.0
 40
4.0
 40
5.0
 40
5.0
 40
5.0
 40
6.0
 40
6.0
 40
6.0
 40
7.0
 40
7.0
 40
7.0
 40
7.0
 10
95.76383596781251
 20
-163.5062987872484
 30
0.0
 10
95.76383596781251
 20
-163.5062987872484
 30
0.0
 10
95.76383596781251
 20
-162.4021456842259
 30
0.0
 10
95.76383596781251
 20
-162.4021456842259
 30
0.0
 10
95.76383596781251
 20
-162.4021456842259
 30
0.0
 10
95.43379582032558
 20
-162.4021456842259
 30
0.0
 10
95.43379582032558
 20
-162.4021456842259
 30
0.0
 10
95.43379582032558
 20
-162.4021456842259
 30
0.0
 10
95.43379582032558
 20
-162.2540065783601
 30
0.0
 10
95.43379582032558
 20
-162.2540065783601
 30
0.0
 10
95.76590302510366
 20
-162.2391926677735
 30
0.0
 10
95.81241181415455
 20
-162.0762396513212
 30
0.0
 10
95.8420396353277
 20
-161.9618624812109
 30
0.0
 10
95.8420396353277
 20
-161.9618624812109
 30
0.0
 10
95.98811168390227
 20
-161.9618624812109
 30
0.0
 10
95.98811168390227
 20
-161.9618624812109
 30
0.0
 10
95.98811168390227
 20
-161.9618624812109
 30
0.0
 10
95.98811168390227
 20
-163.5062987872484
 30
0.0
 10
95.98811168390227
 20
-163.5062987872484
 30
0.0
 10
95.98811168390227
 20
-163.5062987872484
 30
0.0
 10
95.76383596781251
 20
-163.5062987872484
 30
0.0
 10
95.76383596781251
 20
-163.5062987872484
 30
0.0
  0
HATCH
  5
8A
330
85
100
AcDbEntity
  8
レイヤー 1
 62
   250
420
  2299925
440
 33554687
100
AcDbHatch
 10
0.0
 20
0.0
 30
0.0
210
0.0
220
0.0
230
1.0
  2
SOLID
 70
     1
 71
     1
 91
        1
 92
        1
 93
        1
 72
     4
 94
        3
 73
     0
 74
     0
 95
       26
 96
       22
 40
0.0
 40
0.0
 40
0.0
 40
0.0
 40
1.0
 40
1.0
 40
1.0
 40
2.0
 40
2.0
 40
2.0
 40
3.0
 40
3.0
 40
3.0
 40
4.0
 40
4.0
 40
4.0
 40
5.0
 40
5.0
 40
5.0
 40
6.0
 40
6.0
 40
6.0
 40
7.0
 40
7.0
 40
7.0
 40
7.0
 10
95.76383596781251
 20
-163.5062987872484
 10
95.76383596781251
 20
-163.5062987872484
 10
95.76383596781251
 20
-162.4021456842259
 10
95.76383596781251
 20
-162.4021456842259
 10
95.76383596781251
 20
-162.4021456842259
 10
95.43379582032558
 20
-162.4021456842259
 10
95.43379582032558
 20
-162.4021456842259
 10
95.43379582032558
 20
-162.4021456842259
 10
95.43379582032558
 20
-162.2540065783601
 10
95.43379582032558
 20
-162.2540065783601
 10
95.76590302510366
 20
-162.2391926677735
 10
95.81241181415455
 20
-162.0762396513212
 10
95.8420396353277
 20
-161.9618624812109
 10
95.8420396353277
 20
-161.9618624812109
 10
95.98811168390227
 20
-161.9618624812109
 10
95.98811168390227
 20
-161.9618624812109
 10
95.98811168390227
 20
-161.9618624812109
 10
95.98811168390227
 20
-163.5062987872484
 10
95.98811168390227
 20
-163.5062987872484
 10
95.98811168390227
 20
-163.5062987872484
 10
95.76383596781251
 20
-163.5062987872484
 10
95.76383596781251
 20
-163.5062987872484
 97
        0
 97
        1
330
89
 75
     2
 76
     1
 98
        1
 10
0.0
 20
0.0
450
        0
451
        0
460
0.0
461
0.0
452
        0
462
0.0
453
        0
470

  0
SPLINE
  5
8B
330
85
100
AcDbEntity
  8
レイヤー 1
100
AcDbSpline
210
0.0
220
0.0
230
1.0
 70
     9
 71
     3
 72
    17
 73
    13
 74
     0
 42
0.0000000001
 43
0.0000000001
 40
0.0
 40
0.0
 40
0.0
 40
0.0
 40
1.0
 40
1.0
 40
1.0
 40
2.0
 40
2.0
 40
2.0
 40
3.0
 40
3.0
 40
3.0
 40
4.0
 40
4.0
 40
4.0
 40
4.0
 10
96.98925643191589
 20
-162.1058674724944
 30
0.0
 10
96.73983151878381
 20
-162.1058674724944
 30
0.0
 10
96.69297822018441
 20
-162.3893988309304
 30
0.0
 10
96.69297822018441
 20
-162.7342528890039
 30
0.0
 10
96.69297822018441
 20
-163.0536132404866
 30
0.0
 10
96.72915172277953
 20
-163.362293795965
 30
0.0
 10
96.98925643191589
 20
-163.362293795965
 30
0.0
 10
97.23695879730534
 20
-163.362293795965
 30
0.0
 10
97.28553464364736
 20
-163.0811740043686
 30
0.0
 10
97.28553464364736
 20
-162.7342528890039
 30
0.0
 10
97.28553464364736
 20
-162.4145480279727
 30
0.0
 10
97.24729408376109
 20
-162.1058674724944
 30
0.0
 10
96.98925643191589
 20
-162.1058674724944
 30
0.0
  0
SPLINE
  5
8C
330
85
100
AcDbEntity
  8
レイヤー 1
100
AcDbSpline
210
0.0
220
0.0
230
1.0
 70
     9
 71
     3
 72
    29
 73
    25
 74
     0
 42
0.0000000001
 43
0.0000000001
 40
0.0
 40
0.0
 40
0.0
 40
0.0
 40
1.0
 40
1.0
 40
1.0
 40
2.0
 40
2.0
 40
2.0
 40
3.0
 40
3.0
 40
3.0
 40
4.0
 40
4.0
 40
4.0
 40
5.0
 40
5.0
 40
5.0
 40
6.0
 40
6.0
 40
6.0
 40
7.0
 40
7.0
 40
7.0
 40
8.0
 40
8.0
 40
8.0
 40
8.0
 10
97.38716496046224
 20
-163.3285318602095
 30
0.0
 10
97.27898896222541
 20
-163.5379936657127
 30
0.0
 10
97.10570065931733
 20
-163.5569416908816
 30
0.0
 10
96.98925643191589
 20
-163.5569416908816
 30
0.0
 10
96.82837047275471
 20
-163.5569416908816
 30
0.0
 10
96.68677704831095
 20
-163.5104329018307
 30
0.0
 10
96.59169241291806
 20
-163.3285318602095
 30
0.0
 10
96.48799503881203
 20
-163.1338839652929
 30
0.0
 10
96.46904701364316
 20
-162.8972059054563
 30
0.0
 10
96.46904701364316
 20
-162.7342528890039
 30
0.0
 10
96.46904701364316
 20
-162.5902478977205
 30
0.0
 10
96.48592798152089
 20
-162.3384114177487
 30
0.0
 10
96.59169241291806
 20
-162.1396294082498
 30
0.0
 10
96.69952390160638
 20
-161.9367132841686
 30
0.0
 10
96.86040986076754
 20
-161.9132866348689
 30
0.0
 10
96.98925643191589
 20
-161.9132866348689
 30
0.0
 10
97.14807533378589
 20
-161.9132866348689
 30
0.0
 10
97.29173581552082
 20
-161.9577283666286
 30
0.0
 10
97.38716496046224
 20
-162.1396294082498
 30
0.0
 10
97.48638371043744
 20
-162.3322102458753
 30
0.0
 10
97.50981035973714
 20
-162.5606200765473
 30
0.0
 10
97.50981035973714
 20
-162.7342528890039
 30
0.0
 10
97.50981035973714
 20
-162.9054741346209
 30
0.0
 10
97.48845076772859
 20
-163.135951022584
 30
0.0
 10
97.38716496046224
 20
-163.3285318602095
 30
0.0
  0
HATCH
  5
8D
330
85
100
AcDbEntity
  8
レイヤー 1
 62
   250
420
  2299925
440
 33554687
100
AcDbHatch
 10
0.0
 20
0.0
 30
0.0
210
0.0
220
0.0
230
1.0
  2
SOLID
 70
     1
 71
     1
 91
        2
 92
        1
 93
        1
 72
     4
 94
        3
 73
     0
 74
     0
 95
       17
 96
       13
 40
0.0
 40
0.0
 40
0.0
 40
0.0
 40
1.0
 40
1.0
 40
1.0
 40
2.0
 40
2.0
 40
2.0
 40
3.0
 40
3.0
 40
3.0
 40
4.0
 40
4.0
 40
4.0
 40
4.0
 10
96.98925643191589
 20
-162.1058674724944
 10
96.73983151878381
 20
-162.1058674724944
 10
96.69297822018441
 20
-162.3893988309304
 10
96.69297822018441
 20
-162.7342528890039
 10
96.69297822018441
 20
-163.0536132404866
 10
96.72915172277953
 20
-163.362293795965
 10
96.98925643191589
 20
-163.362293795965
 10
97.23695879730534
 20
-163.362293795965
 10
97.28553464364736
 20
-163.0811740043686
 10
97.28553464364736
 20
-162.7342528890039
 10
97.28553464364736
 20
-162.4145480279727
 10
97.24729408376109
 20
-162.1058674724944
 10
96.98925643191589
 20
-162.1058674724944
 97
        0
 97
        1
330
8B
 92
        1
 93
        1
 72
     4
 94
        3
 73
     0
 74
     0
 95
       29
 96
       25
 40
0.0
 40
0.0
 40
0.0
 40
0.0
 40
1.0
 40
1.0
 40
1.0
 40
2.0
 40
2.0
 40
2.0
 40
3.0
 40
3.0
 40
3.0
 40
4.0
 40
4.0
 40
4.0
 40
5.0
 40
5.0
 40
5.0
 40
6.0
 40
6.0
 40
6.0
 40
7.0
 40
7.0
 40
7.0
 40
8.0
 40
8.0
 40
8.0
 40
8.0
 10
97.38716496046224
 20
-163.3285318602095
 10
97.27898896222541
 20
-163.5379936657127
 10
97.10570065931733
 20
-163.5569416908816
 10
96.98925643191589
 20
-163.5569416908816
 10
96.82837047275471
 20
-163.5569416908816
 10
96.68677704831095
 20
-163.5104329018307
 10
96.59169241291806
 20
-163.3285318602095
 10
96.48799503881203
 20
-163.1338839652929
 10
96.46904701364316
 20
-162.8972059054563
 10
96.46904701364316
 20
-162.7342528890039
 10
96.46904701364316
 20
-162.5902478977205
 10
96.48592798152089
 20
-162.3384114177487
 10
96.59169241291806
 20
-162.1396294082498
 10
96.69952390160638
 20
-161.9367132841686
 10
96.86040986076754
 20
-161.9132866348689
 10
96.98925643191589
 20
-161.9132866348689
 10
97.14807533378589
 20
-161.9132866348689
 10
97.29173581552082
 20
-161.9577283666286
 10
97.38716496046224
 20
-162.1396294082498
 10
97.48638371043744
 20
-162.3322102458753
 10
97.50981035973714
 20
-162.5606200765473
 10
97.50981035973714
 20
-162.7342528890039
 10
97.50981035973714
 20
-162.9054741346209
 10
97.48845076772859
 20
-163.135951022584
 10
97.38716496046224
 20
-163.3285318602095
 97
        0
 97
        1
330
8C
 75
     2
 76
     1
 98
        1
 10
0.0
 20
0.0
450
        0
451
        0
460
0.0
461
0.0
452
        0
462
0.0
453
        0
470

  0
ENDBLK
  5
88
330
85
100
AcDbEntity
  8
0
100
AcDbBlockEnd
  0
BLOCK
  5
90
330
8E
100
AcDbEntity
  8
0
100
AcDbBlockBegin
  2
Block_2
 70
     0
 10
0.0
 20
0.0
 30
0.0
  3
Block_2
  1

  0
LINE
  5
92
330
8E
100
AcDbEntity
  8
レイヤー 1
 62
   250
420
  2299925
370
     9
100
AcDbLine
 10
118.6779565518079
 20
-157.1023617724625
 30
0.0
 11
102.5759444626044
 21
-157.1023617724625
 31
0.0
  0
LINE
  5
93
330
8E
100
AcDbEntity
  8
レイヤー 1
 62
   250
420
  2299925
370
     9
100
AcDbLine
 10
118.6779565518079
 20
-141.8021831593194
 30
0.0
 11
114.6117341555458
 21
-141.8021831593194
 31
0.0
  0
LINE
  5
94
330
8E
100
AcDbEntity
  8
レイヤー 1
 62
   250
420
  2299925
370
     9
100
AcDbLine
 10
118.6779565518079
 20
-140.8609720722206
 30
0.0
 11
114.6117341555458
 21
-140.8609720722206
 31
0.0
  0
ENDBLK
  5
91
330
8E
100
AcDbEntity
  8
0
100
AcDbBlockEnd
  0
BLOCK
  5
97
330
95
100
AcDbEntity
  8
0
100
AcDbBlockBegin
  2
Block_3
 70
     0
 10
0.0
 20
0.0
 30
0.0
  3
Block_3
  1

  0
INSERT
  5
9A
330
95
100
AcDbEntity
  8
レイヤー 1
100
AcDbBlockReference
  2
Block_4
 10
0.0
 20
0.0
 30
0.0
  0
ENDBLK
  5
98
330
95
100
AcDbEntity
  8
0
100
AcDbBlockEnd
  0
BLOCK
  5
9B
330
99
100
AcDbEntity
  8
0
100
AcDbBlockBegin
  2
Block_4
 70
     0
 10
0.0
 20
0.0
 30
0.0
  3
Block_4
  1

  0
SPLINE
  5
9D
330
99
100
AcDbEntity
  8
レイヤー 1
100
AcDbSpline
210
0.0
220
0.0
230
1.0
 70
    11
 71
     3
 72
    26
 73
    22
 74
     0
 42
0.0000000001
 43
0.0000000001
 40
0.0
 40
0.0
 40
0.0
 40
0.0
 40
1.0
 40
1.0
 40
1.0
 40
2.0
 40
2.0
 40
2.0
 40
3.0
 40
3.0
 40
3.0
 40
4.0
 40
4.0
 40
4.0
 40
5.0
 40
5.0
 40
5.0
 40
6.0
 40
6.0
 40
6.0
 40
7.0
 40
7.0
 40
7.0
 40
7.0
 10
116.9348089985441
 20
-151.0260958823824
 30
0.0
 10
116.9348089985441
 20
-151.0260958823824
 30
0.0
 10
115.8303113859729
 20
-151.0260958823824
 30
0.0
 10
115.8303113859729
 20
-151.0260958823824
 30
0.0
 10
115.8303113859729
 20
-151.0260958823824
 30
0.0
 10
115.8303113859729
 20
-151.3561360298693
 30
0.0
 10
115.8303113859729
 20
-151.3561360298693
 30
0.0
 10
115.8303113859729
 20
-151.3561360298693
 30
0.0
 10
115.6821722801072
 20
-151.3561360298693
 30
0.0
 10
115.6821722801072
 20
-151.3561360298693
 30
0.0
 10
115.6677028790692
 20
-151.0240288250912
 30
0.0
 10
115.5047498626168
 20
-150.9775200360403
 30
0.0
 10
115.3903726925066
 20
-150.9478922148672
 30
0.0
 10
115.3903726925066
 20
-150.9478922148672
 30
0.0
 10
115.3903726925066
 20
-150.8018201662926
 30
0.0
 10
115.3903726925066
 20
-150.8018201662926
 30
0.0
 10
115.3903726925066
 20
-150.8018201662926
 30
0.0
 10
116.9348089985441
 20
-150.8018201662926
 30
0.0
 10
116.9348089985441
 20
-150.8018201662926
 30
0.0
 10
116.9348089985441
 20
-150.8018201662926
 30
0.0
 10
116.9348089985441
 20
-151.0260958823824
 30
0.0
 10
116.9348089985441
 20
-151.0260958823824
 30
0.0
  0
HATCH
  5
9E
330
99
100
AcDbEntity
  8
レイヤー 1
 62
   250
420
  2299925
440
 33554687
100
AcDbHatch
 10
0.0
 20
0.0
 30
0.0
210
0.0
220
0.0
230
1.0
  2
SOLID
 70
     1
 71
     1
 91
        1
 92
        1
 93
        1
 72
     4
 94
        3
 73
     0
 74
     0
 95
       26
 96
       22
 40
0.0
 40
0.0
 40
0.0
 40
0.0
 40
1.0
 40
1.0
 40
1.0
 40
2.0
 40
2.0
 40
2.0
 40
3.0
 40
3.0
 40
3.0
 40
4.0
 40
4.0
 40
4.0
 40
5.0
 40
5.0
 40
5.0
 40
6.0
 40
6.0
 40
6.0
 40
7.0
 40
7.0
 40
7.0
 40
7.0
 10
116.9348089985441
 20
-151.0260958823824
 10
116.9348089985441
 20
-151.0260958823824
 10
115.8303113859729
 20
-151.0260958823824
 10
115.8303113859729
 20
-151.0260958823824
 10
115.8303113859729
 20
-151.0260958823824
 10
115.8303113859729
 20
-151.3561360298693
 10
115.8303113859729
 20
-151.3561360298693
 10
115.8303113859729
 20
-151.3561360298693
 10
115.6821722801072
 20
-151.3561360298693
 10
115.6821722801072
 20
-151.3561360298693
 10
115.6677028790692
 20
-151.0240288250912
 10
115.5047498626168
 20
-150.9775200360403
 10
115.3903726925066
 20
-150.9478922148672
 10
115.3903726925066
 20
-150.9478922148672
 10
115.3903726925066
 20
-150.8018201662926
 10
115.3903726925066
 20
-150.8018201662926
 10
115.3903726925066
 20
-150.8018201662926
 10
116.9348089985441
 20
-150.8018201662926
 10
116.9348089985441
 20
-150.8018201662926
 10
116.9348089985441
 20
-150.8018201662926
 10
116.9348089985441
 20
-151.0260958823824
 10
116.9348089985441
 20
-151.0260958823824
 97
        0
 97
        1
330
9D
 75
     2
 76
     1
 98
        1
 10
0.0
 20
0.0
450
        0
451
        0
460
0.0
461
0.0
452
        0
462
0.0
453
        0
470

  0
SPLINE
  5
9F
330
99
100
AcDbEntity
  8
レイヤー 1
100
AcDbSpline
210
0.0
220
0.0
230
1.0
 70
     9
 71
     3
 72
    53
 73
    49
 74
     0
 42
0.0000000001
 43
0.0000000001
 40
0.0
 40
0.0
 40
0.0
 40
0.0
 40
1.0
 40
1.0
 40
1.0
 40
2.0
 40
2.0
 40
2.0
 40
3.0
 40
3.0
 40
3.0
 40
4.0
 40
4.0
 40
4.0
 40
5.0
 40
5.0
 40
5.0
 40
6.0
 40
6.0
 40
6.0
 40
7.0
 40
7.0
 40
7.0
 40
8.0
 40
8.0
 40
8.0
 40
9.0
 40
9.0
 40
9.0
 40
10.0
 40
10.0
 40
10.0
 40
11.0
 40
11.0
 40
11.0
 40
12.0
 40
12.0
 40
12.0
 40
13.0
 40
13.0
 40
13.0
 40
14.0
 40
14.0
 40
14.0
 40
15.0
 40
15.0
 40
15.0
 40
16.0
 40
16.0
 40
16.0
 40
16.0
 10
116.9854519021772
 20
-149.8196234434479
 30
0.0
 10
116.9854519021772
 20
-149.8981716205115
 30
0.0
 10
116.9685709342995
 20
-149.9994574277779
 30
0.0
 10
116.9051811773709
 20
-150.1010877445928
 30
0.0
 10
116.7949381218429
 20
-150.2743760475008
 30
0.0
 10
116.6640244934034
 20
-150.2957356395094
 30
0.0
 10
116.5561930047151
 20
-150.3146836646783
 30
0.0
 10
116.5561930047151
 20
-150.3146836646783
 30
0.0
 10
116.5561930047151
 20
-150.0924750058796
 30
0.0
 10
116.5561930047151
 20
-150.0924750058796
 30
0.0
 10
116.754975014214
 20
-150.0373534781157
 30
0.0
 10
116.7846028353872
 20
-149.9105739642585
 30
0.0
 10
116.7846028353872
 20
-149.8175563861567
 30
0.0
 10
116.7846028353872
 20
-149.6780300190041
 30
0.0
 10
116.6850395758634
 20
-149.5254122890075
 30
0.0
 10
116.4524956306091
 20
-149.5254122890075
 30
0.0
 10
116.196525036055
 20
-149.5254122890075
 30
0.0
 10
116.1265895977044
 20
-149.7052462733376
 30
0.0
 10
116.1265895977044
 20
-149.8258246153213
 30
0.0
 10
116.1265895977044
 20
-149.8575194937856
 30
0.0
 10
116.1265895977044
 20
-149.9994574277779
 30
0.0
 10
116.2557806784013
 20
-150.0883408912974
 30
0.0
 10
116.2557806784013
 20
-150.0883408912974
 30
0.0
 10
116.2364881436839
 20
-150.2640407610451
 30
0.0
 10
116.2364881436839
 20
-150.2640407610451
 30
0.0
 10
116.2364881436839
 20
-150.2640407610451
 30
0.0
 10
115.3903726925066
 20
-150.1434624190613
 30
0.0
 10
115.3903726925066
 20
-150.1434624190613
 30
0.0
 10
115.3903726925066
 20
-150.1434624190613
 30
0.0
 10
115.3903726925066
 20
-149.3648708393949
 30
0.0
 10
115.3903726925066
 20
-149.3648708393949
 30
0.0
 10
115.3903726925066
 20
-149.3648708393949
 30
0.0
 10
115.5850205874232
 20
-149.3648708393949
 30
0.0
 10
115.5850205874232
 20
-149.3648708393949
 30
0.0
 10
115.5850205874232
 20
-149.3648708393949
 30
0.0
 10
115.5850205874232
 20
-149.980509402609
 30
0.0
 10
115.5850205874232
 20
-149.980509402609
 30
0.0
 10
115.5850205874232
 20
-149.980509402609
 30
0.0
 10
116.0080783130118
 20
-150.0459662168288
 30
0.0
 10
116.0080783130118
 20
-150.0459662168288
 30
0.0
 10
115.9743163772564
 20
-149.9846435171913
 30
0.0
 10
115.934008760079
 20
-149.9023057350939
 30
0.0
 10
115.934008760079
 20
-149.7837944504013
 30
0.0
 10
115.934008760079
 20
-149.5298909131383
 30
0.0
 10
116.120388425831
 20
-149.2928683437532
 30
0.0
 10
116.4332030958917
 20
-149.2928683437532
 30
0.0
 10
116.7508408996317
 20
-149.2928683437532
 30
0.0
 10
116.9854519021772
 20
-149.5171440598429
 30
0.0
 10
116.9854519021772
 20
-149.8196234434479
 30
0.0
  0
HATCH
  5
A0
330
99
100
AcDbEntity
  8
レイヤー 1
 62
   250
420
  2299925
440
 33554687
100
AcDbHatch
 10
0.0
 20
0.0
 30
0.0
210
0.0
220
0.0
230
1.0
  2
SOLID
 70
     1
 71
     1
 91
        1
 92
        1
 93
        1
 72
     4
 94
        3
 73
     0
 74
     0
 95
       53
 96
       49
 40
0.0
 40
0.0
 40
0.0
 40
0.0
 40
1.0
 40
1.0
 40
1.0
 40
2.0
 40
2.0
 40
2.0
 40
3.0
 40
3.0
 40
3.0
 40
4.0
 40
4.0
 40
4.0
 40
5.0
 40
5.0
 40
5.0
 40
6.0
 40
6.0
 40
6.0
 40
7.0
 40
7.0
 40
7.0
 40
8.0
 40
8.0
 40
8.0
 40
9.0
 40
9.0
 40
9.0
 40
10.0
 40
10.0
 40
10.0
 40
11.0
 40
11.0
 40
11.0
 40
12.0
 40
12.0
 40
12.0
 40
13.0
 40
13.0
 40
13.0
 40
14.0
 40
14.0
 40
14.0
 40
15.0
 40
15.0
 40
15.0
 40
16.0
 40
16.0
 40
16.0
 40
16.0
 10
116.9854519021772
 20
-149.8196234434479
 10
116.9854519021772
 20
-149.8981716205115
 10
116.9685709342995
 20
-149.9994574277779
 10
116.9051811773709
 20
-150.1010877445928
 10
116.7949381218429
 20
-150.2743760475008
 10
116.6640244934034
 20
-150.2957356395094
 10
116.5561930047151
 20
-150.3146836646783
 10
116.5561930047151
 20
-150.3146836646783
 10
116.5561930047151
 20
-150.0924750058796
 10
116.5561930047151
 20
-150.0924750058796
 10
116.754975014214
 20
-150.0373534781157
 10
116.7846028353872
 20
-149.9105739642585
 10
116.7846028353872
 20
-149.8175563861567
 10
116.7846028353872
 20
-149.6780300190041
 10
116.6850395758634
 20
-149.5254122890075
 10
116.4524956306091
 20
-149.5254122890075
 10
116.196525036055
 20
-149.5254122890075
 10
116.1265895977044
 20
-149.7052462733376
 10
116.1265895977044
 20
-149.8258246153213
 10
116.1265895977044
 20
-149.8575194937856
 10
116.1265895977044
 20
-149.9994574277779
 10
116.2557806784013
 20
-150.0883408912974
 10
116.2557806784013
 20
-150.0883408912974
 10
116.2364881436839
 20
-150.2640407610451
 10
116.2364881436839
 20
-150.2640407610451
 10
116.2364881436839
 20
-150.2640407610451
 10
115.3903726925066
 20
-150.1434624190613
 10
115.3903726925066
 20
-150.1434624190613
 10
115.3903726925066
 20
-150.1434624190613
 10
115.3903726925066
 20
-149.3648708393949
 10
115.3903726925066
 20
-149.3648708393949
 10
115.3903726925066
 20
-149.3648708393949
 10
115.5850205874232
 20
-149.3648708393949
 10
115.5850205874232
 20
-149.3648708393949
 10
115.5850205874232
 20
-149.3648708393949
 10
115.5850205874232
 20
-149.980509402609
 10
115.5850205874232
 20
-149.980509402609
 10
115.5850205874232
 20
-149.980509402609
 10
116.0080783130118
 20
-150.0459662168288
 10
116.0080783130118
 20
-150.0459662168288
 10
115.9743163772564
 20
-149.9846435171913
 10
115.934008760079
 20
-149.9023057350939
 10
115.934008760079
 20
-149.7837944504013
 10
115.934008760079
 20
-149.5298909131383
 10
116.120388425831
 20
-149.2928683437532
 10
116.4332030958917
 20
-149.2928683437532
 10
116.7508408996317
 20
-149.2928683437532
 10
116.9854519021772
 20
-149.5171440598429
 10
116.9854519021772
 20
-149.8196234434479
 97
        0
 97
        1
330
9F
 75
     2
 76
     1
 98
        1
 10
0.0
 20
0.0
450
        0
451
        0
460
0.0
461
0.0
452
        0
462
0.0
453
        0
470

  0
SPLINE
  5
A1
330
99
100
AcDbEntity
  8
レイヤー 1
100
AcDbSpline
210
0.0
220
0.0
230
1.0
 70
    11
 71
     3
 72
    17
 73
    13
 74
     0
 42
0.0000000001
 43
0.0000000001
 40
0.0
 40
0.0
 40
0.0
 40
0.0
 40
1.0
 40
1.0
 40
1.0
 40
2.0
 40
2.0
 40
2.0
 40
3.0
 40
3.0
 40
3.0
 40
4.0
 40
4.0
 40
4.0
 40
4.0
 10
116.9348089985441
 20
-149.0637694939841
 30
0.0
 10
116.9348089985441
 20
-149.0637694939841
 30
0.0
 10
116.6829725185723
 20
-149.0637694939841
 30
0.0
 10
116.6829725185723
 20
-149.0637694939841
 30
0.0
 10
116.6829725185723
 20
-149.0637694939841
 30
0.0
 10
116.6829725185723
 20
-148.8121052687865
 30
0.0
 10
116.6829725185723
 20
-148.8121052687865
 30
0.0
 10
116.6829725185723
 20
-148.8121052687865
 30
0.0
 10
116.9348089985441
 20
-148.8121052687865
 30
0.0
 10
116.9348089985441
 20
-148.8121052687865
 30
0.0
 10
116.9348089985441
 20
-148.8121052687865
 30
0.0
 10
116.9348089985441
 20
-149.0637694939841
 30
0.0
 10
116.9348089985441
 20
-149.0637694939841
 30
0.0
  0
HATCH
  5
A2
330
99
100
AcDbEntity
  8
レイヤー 1
 62
   250
420
  2299925
440
 33554687
100
AcDbHatch
 10
0.0
 20
0.0
 30
0.0
210
0.0
220
0.0
230
1.0
  2
SOLID
 70
     1
 71
     1
 91
        1
 92
        1
 93
        1
 72
     4
 94
        3
 73
     0
 74
     0
 95
       17
 96
       13
 40
0.0
 40
0.0
 40
0.0
 40
0.0
 40
1.0
 40
1.0
 40
1.0
 40
2.0
 40
2.0
 40
2.0
 40
3.0
 40
3.0
 40
3.0
 40
4.0
 40
4.0
 40
4.0
 40
4.0
 10
116.9348089985441
 20
-149.0637694939841
 10
116.9348089985441
 20
-149.0637694939841
 10
116.6829725185723
 20
-149.0637694939841
 10
116.6829725185723
 20
-149.0637694939841
 10
116.6829725185723
 20
-149.0637694939841
 10
116.6829725185723
 20
-148.8121052687865
 10
116.6829725185723
 20
-148.8121052687865
 10
116.6829725185723
 20
-148.8121052687865
 10
116.9348089985441
 20
-148.8121052687865
 10
116.9348089985441
 20
-148.8121052687865
 10
116.9348089985441
 20
-148.8121052687865
 10
116.9348089985441
 20
-149.0637694939841
 10
116.9348089985441
 20
-149.0637694939841
 97
        0
 97
        1
330
A1
 75
     2
 76
     1
 98
        1
 10
0.0
 20
0.0
450
        0
451
        0
460
0.0
461
0.0
452
        0
462
0.0
453
        0
470

  0
SPLINE
  5
A3
330
99
100
AcDbEntity
  8
レイヤー 1
100
AcDbSpline
210
0.0
220
0.0
230
1.0
 70
     9
 71
     3
 72
    62
 73
    58
 74
     0
 42
0.0000000001
 43
0.0000000001
 40
0.0
 40
0.0
 40
0.0
 40
0.0
 40
1.0
 40
1.0
 40
1.0
 40
2.0
 40
2.0
 40
2.0
 40
3.0
 40
3.0
 40
3.0
 40
4.0
 40
4.0
 40
4.0
 40
5.0
 40
5.0
 40
5.0
 40
6.0
 40
6.0
 40
6.0
 40
7.0
 40
7.0
 40
7.0
 40
8.0
 40
8.0
 40
8.0
 40
9.0
 40
9.0
 40
9.0
 40
10.0
 40
10.0
 40
10.0
 40
11.0
 40
11.0
 40
11.0
 40
12.0
 40
12.0
 40
12.0
 40
13.0
 40
13.0
 40
13.0
 40
14.0
 40
14.0
 40
14.0
 40
15.0
 40
15.0
 40
15.0
 40
16.0
 40
16.0
 40
16.0
 40
17.0
 40
17.0
 40
17.0
 40
18.0
 40
18.0
 40
18.0
 40
19.0
 40
19.0
 40
19.0
 40
19.0
 10
116.9854519021772
 20
-148.083984337979
 30
0.0
 10
116.9854519021772
 20
-148.1792412281461
 30
0.0
 10
116.9644368197172
 20
-148.3971435175882
 30
0.0
 10
116.7780571539652
 20
-148.5218559741543
 30
0.0
 10
116.6660915506946
 20
-148.5959255270871
 30
0.0
 10
116.5665282911708
 20
-148.6002318964437
 30
0.0
 10
116.4821234517822
 20
-148.604366011026
 30
0.0
 10
116.4821234517822
 20
-148.604366011026
 30
0.0
 10
116.4821234517822
 20
-148.3843966642928
 30
0.0
 10
116.4821234517822
 20
-148.3843966642928
 30
0.0
 10
116.5561930047151
 20
-148.3823296070016
 30
0.0
 10
116.7908040072606
 20
-148.3716498109973
 30
0.0
 10
116.7908040072606
 20
-148.0881184525613
 30
0.0
 10
116.7908040072606
 20
-147.9506591426998
 30
0.0
 10
116.7212130784586
 20
-147.7983859222518
 30
0.0
 10
116.492458738238
 20
-147.7983859222518
 30
0.0
 10
116.3763590203851
 20
-147.7983859222518
 30
0.0
 10
116.3274386644945
 20
-147.8364542273638
 30
0.0
 10
116.2957437860302
 20
-147.8681491058281
 30
0.0
 10
116.2216742330973
 20
-147.942218658761
 30
0.0
 10
116.2092718893504
 20
-148.0586628861624
 30
0.0
 10
116.2092718893504
 20
-148.1136121591521
 30
0.0
 10
116.2092718893504
 20
-148.132560184321
 30
0.0
 10
116.2113389466416
 20
-148.1685614321419
 30
0.0
 10
116.2154730612239
 20
-148.1961221960238
 30
0.0
 10
116.2154730612239
 20
-148.1961221960238
 30
0.0
 10
116.0208251663073
 20
-148.1961221960238
 30
0.0
 10
116.0208251663073
 20
-148.1961221960238
 30
0.0
 10
116.0270263381807
 20
-148.1580538909119
 30
0.0
 10
116.0294379050204
 20
-148.1156792164433
 30
0.0
 10
116.0294379050204
 20
-148.1093057897956
 30
0.0
 10
116.0294379050204
 20
-148.0438489755758
 30
0.0
 10
116.0080783130118
 20
-147.8448947113027
 30
0.0
 10
115.7710557436267
 20
-147.8448947113027
 30
0.0
 10
115.5936333261363
 20
-147.8448947113027
 30
0.0
 10
115.5385117983723
 20
-147.9761528492907
 30
0.0
 10
115.5385117983723
 20
-148.0860513952701
 30
0.0
 10
115.5385117983723
 20
-148.3504624737631
 30
0.0
 10
115.7710557436267
 20
-148.3589029577019
 30
0.0
 10
115.8430582392684
 20
-148.3632093270585
 30
0.0
 10
115.8430582392684
 20
-148.3632093270585
 30
0.0
 10
115.8430582392684
 20
-148.566297705914
 30
0.0
 10
115.8430582392684
 20
-148.566297705914
 30
0.0
 10
115.7183457827023
 20
-148.5578572219751
 30
0.0
 10
115.3417968461645
 20
-148.5302964580931
 30
0.0
 10
115.3417968461645
 20
-148.073476796749
 30
0.0
 10
115.3417968461645
 20
-147.8492010806592
 30
0.0
 10
115.4685763600217
 20
-147.6080443966917
 30
0.0
 10
115.7648545717532
 20
-147.6080443966917
 30
0.0
 10
115.9508897279567
 20
-147.6080443966917
 30
0.0
 10
116.0335720196027
 20
-147.7031290320846
 30
0.0
 10
116.0948947192401
 20
-147.8026922916083
 30
0.0
 10
116.1224554831221
 20
-147.7411973371966
 30
0.0
 10
116.2027262079285
 20
-147.5592962955754
 30
0.0
 10
116.4800563944911
 20
-147.5592962955754
 30
0.0
 10
116.8183647711426
 20
-147.5592962955754
 30
0.0
 10
116.9854519021772
 20
-147.8068264061906
 30
0.0
 10
116.9854519021772
 20
-148.083984337979
 30
0.0
  0
HATCH
  5
A4
330
99
100
AcDbEntity
  8
レイヤー 1
 62
   250
420
  2299925
440
 33554687
100
AcDbHatch
 10
0.0
 20
0.0
 30
0.0
210
0.0
220
0.0
230
1.0
  2
SOLID
 70
     1
 71
     1
 91
        1
 92
        1
 93
        1
 72
     4
 94
        3
 73
     0
 74
     0
 95
       62
 96
       58
 40
0.0
 40
0.0
 40
0.0
 40
0.0
 40
1.0
 40
1.0
 40
1.0
 40
2.0
 40
2.0
 40
2.0
 40
3.0
 40
3.0
 40
3.0
 40
4.0
 40
4.0
 40
4.0
 40
5.0
 40
5.0
 40
5.0
 40
6.0
 40
6.0
 40
6.0
 40
7.0
 40
7.0
 40
7.0
 40
8.0
 40
8.0
 40
8.0
 40
9.0
 40
9.0
 40
9.0
 40
10.0
 40
10.0
 40
10.0
 40
11.0
 40
11.0
 40
11.0
 40
12.0
 40
12.0
 40
12.0
 40
13.0
 40
13.0
 40
13.0
 40
14.0
 40
14.0
 40
14.0
 40
15.0
 40
15.0
 40
15.0
 40
16.0
 40
16.0
 40
16.0
 40
17.0
 40
17.0
 40
17.0
 40
18.0
 40
18.0
 40
18.0
 40
19.0
 40
19.0
 40
19.0
 40
19.0
 10
116.9854519021772
 20
-148.083984337979
 10
116.9854519021772
 20
-148.1792412281461
 10
116.9644368197172
 20
-148.3971435175882
 10
116.7780571539652
 20
-148.5218559741543
 10
116.6660915506946
 20
-148.5959255270871
 10
116.5665282911708
 20
-148.6002318964437
 10
116.4821234517822
 20
-148.604366011026
 10
116.4821234517822
 20
-148.604366011026
 10
116.4821234517822
 20
-148.3843966642928
 10
116.4821234517822
 20
-148.3843966642928
 10
116.5561930047151
 20
-148.3823296070016
 10
116.7908040072606
 20
-148.3716498109973
 10
116.7908040072606
 20
-148.0881184525613
 10
116.7908040072606
 20
-147.9506591426998
 10
116.7212130784586
 20
-147.7983859222518
 10
116.492458738238
 20
-147.7983859222518
 10
116.3763590203851
 20
-147.7983859222518
 10
116.3274386644945
 20
-147.8364542273638
 10
116.2957437860302
 20
-147.8681491058281
 10
116.2216742330973
 20
-147.942218658761
 10
116.2092718893504
 20
-148.0586628861624
 10
116.2092718893504
 20
-148.1136121591521
 10
116.2092718893504
 20
-148.132560184321
 10
116.2113389466416
 20
-148.1685614321419
 10
116.2154730612239
 20
-148.1961221960238
 10
116.2154730612239
 20
-148.1961221960238
 10
116.0208251663073
 20
-148.1961221960238
 10
116.0208251663073
 20
-148.1961221960238
 10
116.0270263381807
 20
-148.1580538909119
 10
116.0294379050204
 20
-148.1156792164433
 10
116.0294379050204
 20
-148.1093057897956
 10
116.0294379050204
 20
-148.0438489755758
 10
116.0080783130118
 20
-147.8448947113027
 10
115.7710557436267
 20
-147.8448947113027
 10
115.5936333261363
 20
-147.8448947113027
 10
115.5385117983723
 20
-147.9761528492907
 10
115.5385117983723
 20
-148.0860513952701
 10
115.5385117983723
 20
-148.3504624737631
 10
115.7710557436267
 20
-148.3589029577019
 10
115.8430582392684
 20
-148.3632093270585
 10
115.8430582392684
 20
-148.3632093270585
 10
115.8430582392684
 20
-148.566297705914
 10
115.8430582392684
 20
-148.566297705914
 10
115.7183457827023
 20
-148.5578572219751
 10
115.3417968461645
 20
-148.5302964580931
 10
115.3417968461645
 20
-148.073476796749
 10
115.3417968461645
 20
-147.8492010806592
 10
115.4685763600217
 20
-147.6080443966917
 10
115.7648545717532
 20
-147.6080443966917
 10
115.9508897279567
 20
-147.6080443966917
 10
116.0335720196027
 20
-147.7031290320846
 10
116.0948947192401
 20
-147.8026922916083
 10
116.1224554831221
 20
-147.7411973371966
 10
116.2027262079285
 20
-147.5592962955754
 10
116.4800563944911
 20
-147.5592962955754
 10
116.8183647711426
 20
-147.5592962955754
 10
116.9854519021772
 20
-147.8068264061906
 10
116.9854519021772
 20
-148.083984337979
 97
        0
 97
        1
330
A3
 75
     2
 76
     1
 98
        1
 10
0.0
 20
0.0
450
        0
451
        0
460
0.0
461
0.0
452
        0
462
0.0
453
        0
470

  0
ENDBLK
  5
9C
330
99
100
AcDbEntity
  8
0
100
AcDbBlockEnd
  0
BLOCK
  5
A7
330
A5
100
AcDbEntity
  8
0
100
AcDbBlockBegin
  2
Block_5
 70
     0
 10
0.0
 20
0.0
 30
0.0
  3
Block_5
  1

  0
SPLINE
  5
A9
330
A5
100
AcDbEntity
  8
レイヤー 1
100
AcDbSpline
210
0.0
220
0.0
230
1.0
 70
     9
 71
     3
 72
    62
 73
    58
 74
     0
 42
0.0000000001
 43
0.0000000001
 40
0.0
 40
0.0
 40
0.0
 40
0.0
 40
1.0
 40
1.0
 40
1.0
 40
2.0
 40
2.0
 40
2.0
 40
3.0
 40
3.0
 40
3.0
 40
4.0
 40
4.0
 40
4.0
 40
5.0
 40
5.0
 40
5.0
 40
6.0
 40
6.0
 40
6.0
 40
7.0
 40
7.0
 40
7.0
 40
8.0
 40
8.0
 40
8.0
 40
9.0
 40
9.0
 40
9.0
 40
10.0
 40
10.0
 40
10.0
 40
11.0
 40
11.0
 40
11.0
 40
12.0
 40
12.0
 40
12.0
 40
13.0
 40
13.0
 40
13.0
 40
14.0
 40
14.0
 40
14.0
 40
15.0
 40
15.0
 40
15.0
 40
16.0
 40
16.0
 40
16.0
 40
17.0
 40
17.0
 40
17.0
 40
18.0
 40
18.0
 40
18.0
 40
19.0
 40
19.0
 40
19.0
 40
19.0
 10
116.9854519021772
 20
-158.6087510454172
 30
0.0
 10
116.9854519021772
 20
-158.7038356808101
 30
0.0
 10
116.9644368197172
 20
-158.9219102250264
 30
0.0
 10
116.7780571539652
 20
-159.0466226815925
 30
0.0
 10
116.6660915506946
 20
-159.1206922345254
 30
0.0
 10
116.5665282911708
 20
-159.1248263491076
 30
0.0
 10
116.4821234517822
 20
-159.12896046369
 30
0.0
 10
116.4821234517822
 20
-159.12896046369
 30
0.0
 10
116.4821234517822
 20
-158.909163371731
 30
0.0
 10
116.4821234517822
 20
-158.909163371731
 30
0.0
 10
116.5561930047151
 20
-158.9070963144399
 30
0.0
 10
116.7908040072606
 20
-158.8964165184356
 30
0.0
 10
116.7908040072606
 20
-158.6128851599995
 30
0.0
 10
116.7908040072606
 20
-158.4754258501381
 30
0.0
 10
116.7212130784586
 20
-158.32315262969
 30
0.0
 10
116.492458738238
 20
-158.32315262969
 30
0.0
 10
116.3763590203851
 20
-158.32315262969
 30
0.0
 10
116.3274386644945
 20
-158.3613931895763
 30
0.0
 10
116.2957437860302
 20
-158.3930880680406
 30
0.0
 10
116.2216742330973
 20
-158.466813111425
 30
0.0
 10
116.2092718893504
 20
-158.5832573388264
 30
0.0
 10
116.2092718893504
 20
-158.6383788665904
 30
0.0
 10
116.2092718893504
 20
-158.6573268917593
 30
0.0
 10
116.2113389466416
 20
-158.6935003943544
 30
0.0
 10
116.2154730612239
 20
-158.7210611582364
 30
0.0
 10
116.2154730612239
 20
-158.7210611582364
 30
0.0
 10
116.0208251663073
 20
-158.7210611582364
 30
0.0
 10
116.0208251663073
 20
-158.7210611582364
 30
0.0
 10
116.0270263381807
 20
-158.6828205983501
 30
0.0
 10
116.0294379050204
 20
-158.6404459238815
 30
0.0
 10
116.0294379050204
 20
-158.6342447520081
 30
0.0
 10
116.0294379050204
 20
-158.5687879377883
 30
0.0
 10
116.0080783130118
 20
-158.3696614187409
 30
0.0
 10
115.7710557436267
 20
-158.3696614187409
 30
0.0
 10
115.5936333261363
 20
-158.3696614187409
 30
0.0
 10
115.5385117983723
 20
-158.5009195567289
 30
0.0
 10
115.5385117983723
 20
-158.6108181027084
 30
0.0
 10
115.5385117983723
 20
-158.8754014359756
 30
0.0
 10
115.7710557436267
 20
-158.8836696651402
 30
0.0
 10
115.8430582392684
 20
-158.8878037797225
 30
0.0
 10
115.8430582392684
 20
-158.8878037797225
 30
0.0
 10
115.8430582392684
 20
-159.0910644133522
 30
0.0
 10
115.8430582392684
 20
-159.0910644133522
 30
0.0
 10
115.7183457827023
 20
-159.0827961841876
 30
0.0
 10
115.3417968461645
 20
-159.0552354203056
 30
0.0
 10
115.3417968461645
 20
-158.5984157589615
 30
0.0
 10
115.3417968461645
 20
-158.3737955333232
 30
0.0
 10
115.4685763600217
 20
-158.1326388493557
 30
0.0
 10
115.7648545717532
 20
-158.1326388493557
 30
0.0
 10
115.9508897279567
 20
-158.1326388493557
 30
0.0
 10
116.0335720196027
 20
-158.2277234847486
 30
0.0
 10
116.0948947192401
 20
-158.3276312538209
 30
0.0
 10
116.1224554831221
 20
-158.2659640446349
 30
0.0
 10
116.2027262079285
 20
-158.0840630030137
 30
0.0
 10
116.4800563944911
 20
-158.0840630030137
 30
0.0
 10
116.8183647711426
 20
-158.0840630030137
 30
0.0
 10
116.9854519021772
 20
-158.3317653684032
 30
0.0
 10
116.9854519021772
 20
-158.6087510454172
 30
0.0
  0
HATCH
  5
AA
330
A5
100
AcDbEntity
  8
レイヤー 1
 62
   250
420
  2299925
440
 33554687
100
AcDbHatch
 10
0.0
 20
0.0
 30
0.0
210
0.0
220
0.0
230
1.0
  2
SOLID
 70
     1
 71
     1
 91
        1
 92
        1
 93
        1
 72
     4
 94
        3
 73
     0
 74
     0
 95
       62
 96
       58
 40
0.0
 40
0.0
 40
0.0
 40
0.0
 40
1.0
 40
1.0
 40
1.0
 40
2.0
 40
2.0
 40
2.0
 40
3.0
 40
3.0
 40
3.0
 40
4.0
 40
4.0
 40
4.0
 40
5.0
 40
5.0
 40
5.0
 40
6.0
 40
6.0
 40
6.0
 40
7.0
 40
7.0
 40
7.0
 40
8.0
 40
8.0
 40
8.0
 40
9.0
 40
9.0
 40
9.0
 40
10.0
 40
10.0
 40
10.0
 40
11.0
 40
11.0
 40
11.0
 40
12.0
 40
12.0
 40
12.0
 40
13.0
 40
13.0
 40
13.0
 40
14.0
 40
14.0
 40
14.0
 40
15.0
 40
15.0
 40
15.0
 40
16.0
 40
16.0
 40
16.0
 40
17.0
 40
17.0
 40
17.0
 40
18.0
 40
18.0
 40
18.0
 40
19.0
 40
19.0
 40
19.0
 40
19.0
 10
116.9854519021772
 20
-158.6087510454172
 10
116.9854519021772
 20
-158.7038356808101
 10
116.9644368197172
 20
-158.9219102250264
 10
116.7780571539652
 20
-159.0466226815925
 10
116.6660915506946
 20
-159.1206922345254
 10
116.5665282911708
 20
-159.1248263491076
 10
116.4821234517822
 20
-159.12896046369
 10
116.4821234517822
 20
-159.12896046369
 10
116.4821234517822
 20
-158.909163371731
 10
116.4821234517822
 20
-158.909163371731
 10
116.5561930047151
 20
-158.9070963144399
 10
116.7908040072606
 20
-158.8964165184356
 10
116.7908040072606
 20
-158.6128851599995
 10
116.7908040072606
 20
-158.4754258501381
 10
116.7212130784586
 20
-158.32315262969
 10
116.492458738238
 20
-158.32315262969
 10
116.3763590203851
 20
-158.32315262969
 10
116.3274386644945
 20
-158.3613931895763
 10
116.2957437860302
 20
-158.3930880680406
 10
116.2216742330973
 20
-158.466813111425
 10
116.2092718893504
 20
-158.5832573388264
 10
116.2092718893504
 20
-158.6383788665904
 10
116.2092718893504
 20
-158.6573268917593
 10
116.2113389466416
 20
-158.6935003943544
 10
116.2154730612239
 20
-158.7210611582364
 10
116.2154730612239
 20
-158.7210611582364
 10
116.0208251663073
 20
-158.7210611582364
 10
116.0208251663073
 20
-158.7210611582364
 10
116.0270263381807
 20
-158.6828205983501
 10
116.0294379050204
 20
-158.6404459238815
 10
116.0294379050204
 20
-158.6342447520081
 10
116.0294379050204
 20
-158.5687879377883
 10
116.0080783130118
 20
-158.3696614187409
 10
115.7710557436267
 20
-158.3696614187409
 10
115.5936333261363
 20
-158.3696614187409
 10
115.5385117983723
 20
-158.5009195567289
 10
115.5385117983723
 20
-158.6108181027084
 10
115.5385117983723
 20
-158.8754014359756
 10
115.7710557436267
 20
-158.8836696651402
 10
115.8430582392684
 20
-158.8878037797225
 10
115.8430582392684
 20
-158.8878037797225
 10
115.8430582392684
 20
-159.0910644133522
 10
115.8430582392684
 20
-159.0910644133522
 10
115.7183457827023
 20
-159.0827961841876
 10
115.3417968461645
 20
-159.0552354203056
 10
115.3417968461645
 20
-158.5984157589615
 10
115.3417968461645
 20
-158.3737955333232
 10
115.4685763600217
 20
-158.1326388493557
 10
115.7648545717532
 20
-158.1326388493557
 10
115.9508897279567
 20
-158.1326388493557
 10
116.0335720196027
 20
-158.2277234847486
 10
116.0948947192401
 20
-158.3276312538209
 10
116.1224554831221
 20
-158.2659640446349
 10
116.2027262079285
 20
-158.0840630030137
 10
116.4800563944911
 20
-158.0840630030137
 10
116.8183647711426
 20
-158.0840630030137
 10
116.9854519021772
 20
-158.3317653684032
 10
116.9854519021772
 20
-158.6087510454172
 97
        0
 97
        1
330
A9
 75
     2
 76
     1
 98
        1
 10
0.0
 20
0.0
450
        0
451
        0
460
0.0
461
0.0
452
        0
462
0.0
453
        0
470

  0
ENDBLK
  5
A8
330
A5
100
AcDbEntity
  8
0
100
AcDbBlockEnd
  0
BLOCK
  5
AD
330
AB
100
AcDbEntity
  8
0
100
AcDbBlockBegin
  2
Block_6
 70
     0
 10
0.0
 20
0.0
 30
0.0
  3
Block_6
  1

  0
SPLINE
  5
AF
330
AB
100
AcDbEntity
  8
レイヤー 1
100
AcDbSpline
210
0.0
220
0.0
230
1.0
 70
    11
 71
     3
 72
    26
 73
    22
 74
     0
 42
0.0000000001
 43
0.0000000001
 40
0.0
 40
0.0
 40
0.0
 40
0.0
 40
1.0
 40
1.0
 40
1.0
 40
2.0
 40
2.0
 40
2.0
 40
3.0
 40
3.0
 40
3.0
 40
4.0
 40
4.0
 40
4.0
 40
5.0
 40
5.0
 40
5.0
 40
6.0
 40
6.0
 40
6.0
 40
7.0
 40
7.0
 40
7.0
 40
7.0
 10
116.9348089985441
 20
-137.9858927063889
 30
0.0
 10
116.9348089985441
 20
-137.9858927063889
 30
0.0
 10
115.8303113859729
 20
-137.9858927063889
 30
0.0
 10
115.8303113859729
 20
-137.9858927063889
 30
0.0
 10
115.8303113859729
 20
-137.9858927063889
 30
0.0
 10
115.8303113859729
 20
-138.3159328538759
 30
0.0
 10
115.8303113859729
 20
-138.3159328538759
 30
0.0
 10
115.8303113859729
 20
-138.3159328538759
 30
0.0
 10
115.6821722801072
 20
-138.3159328538759
 30
0.0
 10
115.6821722801072
 20
-138.3159328538759
 30
0.0
 10
115.6677028790692
 20
-137.9838256490978
 30
0.0
 10
115.5047498626168
 20
-137.9373168600469
 30
0.0
 10
115.3903726925066
 20
-137.9076890388738
 30
0.0
 10
115.3903726925066
 20
-137.9076890388738
 30
0.0
 10
115.3903726925066
 20
-137.7616169902992
 30
0.0
 10
115.3903726925066
 20
-137.7616169902992
 30
0.0
 10
115.3903726925066
 20
-137.7616169902992
 30
0.0
 10
116.9348089985441
 20
-137.7616169902992
 30
0.0
 10
116.9348089985441
 20
-137.7616169902992
 30
0.0
 10
116.9348089985441
 20
-137.7616169902992
 30
0.0
 10
116.9348089985441
 20
-137.9858927063889
 30
0.0
 10
116.9348089985441
 20
-137.9858927063889
 30
0.0
  0
HATCH
  5
B0
330
AB
100
AcDbEntity
  8
レイヤー 1
 62
   250
420
  2299925
440
 33554687
100
AcDbHatch
 10
0.0
 20
0.0
 30
0.0
210
0.0
220
0.0
230
1.0
  2
SOLID
 70
     1
 71
     1
 91
        1
 92
        1
 93
        1
 72
     4
 94
        3
 73
     0
 74
     0
 95
       26
 96
       22
 40
0.0
 40
0.0
 40
0.0
 40
0.0
 40
1.0
 40
1.0
 40
1.0
 40
2.0
 40
2.0
 40
2.0
 40
3.0
 40
3.0
 40
3.0
 40
4.0
 40
4.0
 40
4.0
 40
5.0
 40
5.0
 40
5.0
 40
6.0
 40
6.0
 40
6.0
 40
7.0
 40
7.0
 40
7.0
 40
7.0
 10
116.9348089985441
 20
-137.9858927063889
 10
116.9348089985441
 20
-137.9858927063889
 10
115.8303113859729
 20
-137.9858927063889
 10
115.8303113859729
 20
-137.9858927063889
 10
115.8303113859729
 20
-137.9858927063889
 10
115.8303113859729
 20
-138.3159328538759
 10
115.8303113859729
 20
-138.3159328538759
 10
115.8303113859729
 20
-138.3159328538759
 10
115.6821722801072
 20
-138.3159328538759
 10
115.6821722801072
 20
-138.3159328538759
 10
115.6677028790692
 20
-137.9838256490978
 10
115.5047498626168
 20
-137.9373168600469
 10
115.3903726925066
 20
-137.9076890388738
 10
115.3903726925066
 20
-137.9076890388738
 10
115.3903726925066
 20
-137.7616169902992
 10
115.3903726925066
 20
-137.7616169902992
 10
115.3903726925066
 20
-137.7616169902992
 10
116.9348089985441
 20
-137.7616169902992
 10
116.9348089985441
 20
-137.7616169902992
 10
116.9348089985441
 20
-137.7616169902992
 10
116.9348089985441
 20
-137.9858927063889
 10
116.9348089985441
 20
-137.9858927063889
 97
        0
 97
        1
330
AF
 75
     2
 76
     1
 98
        1
 10
0.0
 20
0.0
450
        0
451
        0
460
0.0
461
0.0
452
        0
462
0.0
453
        0
470

  0
ENDBLK
  5
AE
330
AB
100
AcDbEntity
  8
0
100
AcDbBlockEnd
  0
BLOCK
  5
B5
330
B3
100
AcDbEntity
  8
0
100
AcDbBlockBegin
  2
Block_7
 70
     0
 10
0.0
 20
0.0
 30
0.0
  3
Block_7
  1

  0
LINE
  5
B7
330
B3
100
AcDbEntity
  8
レイヤー 1
 62
   250
420
  2299925
370
     9
100
AcDbLine
 10
117.6778668551001
 20
-160.0937457482183
 30
0.0
 11
117.6778668551001
 21
-137.0906596684092
 31
0.0
  0
LINE
  5
B8
330
B3
100
AcDbEntity
  8
レイヤー 1
 62
   250
420
  2299925
370
     9
100
AcDbLine
 10
118.6779565518079
 20
-160.1027063035453
 30
0.0
 11
102.5759444626044
 21
-160.1027063035453
 31
0.0
  0
ENDBLK
  5
B6
330
B3
100
AcDbEntity
  8
0
100
AcDbBlockEnd
  0
BLOCK
  5
C6
330
C4
100
AcDbEntity
  8
0
100
AcDbBlockBegin
  2
Block_8
 70
     0
 10
0.0
 20
0.0
 30
0.0
  3
Block_8
  1

  0
INSERT
  5
C9
330
C4
100
AcDbEntity
  8
レイヤー 1
100
AcDbBlockReference
  2
Block_9
 10
0.0
 20
0.0
 30
0.0
  0
ENDBLK
  5
C7
330
C4
100
AcDbEntity
  8
0
100
AcDbBlockEnd
  0
BLOCK
  5
CA
330
C8
100
AcDbEntity
  8
0
100
AcDbBlockBegin
  2
Block_9
 70
     0
 10
0.0
 20
0.0
 30
0.0
  3
Block_9
  1

  0
SPLINE
  5
CC
330
C8
100
AcDbEntity
  8
レイヤー 1
100
AcDbSpline
210
0.0
220
0.0
230
1.0
 70
     9
 71
     3
 72
    44
 73
    40
 74
     0
 42
0.0000000001
 43
0.0000000001
 40
0.0
 40
0.0
 40
0.0
 40
0.0
 40
1.0
 40
1.0
 40
1.0
 40
2.0
 40
2.0
 40
2.0
 40
3.0
 40
3.0
 40
3.0
 40
4.0
 40
4.0
 40
4.0
 40
5.0
 40
5.0
 40
5.0
 40
6.0
 40
6.0
 40
6.0
 40
7.0
 40
7.0
 40
7.0
 40
8.0
 40
8.0
 40
8.0
 40
9.0
 40
9.0
 40
9.0
 40
10.0
 40
10.0
 40
10.0
 40
11.0
 40
11.0
 40
11.0
 40
12.0
 40
12.0
 40
12.0
 40
13.0
 40
13.0
 40
13.0
 40
13.0
 10
102.4514553237795
 20
-136.6645263330213
 30
0.0
 10
102.2335530343374
 20
-136.8233452348914
 30
0.0
 10
102.1403632014614
 20
-136.8974147878242
 30
0.0
 10
102.0917873551194
 20
-137.0410752695591
 30
0.0
 10
102.0917873551194
 20
-137.0410752695591
 30
0.0
 10
102.8702066800116
 20
-137.0410752695591
 30
0.0
 10
102.8702066800116
 20
-137.0410752695591
 30
0.0
 10
102.8702066800116
 20
-137.0410752695591
 30
0.0
 10
102.8702066800116
 20
-137.2464029604801
 30
0.0
 10
102.8702066800116
 20
-137.2464029604801
 30
0.0
 10
102.8702066800116
 20
-137.2464029604801
 30
0.0
 10
101.842190187213
 20
-137.2464029604801
 30
0.0
 10
101.842190187213
 20
-137.2464029604801
 30
0.0
 10
101.8738850656774
 20
-136.8888020491111
 30
0.0
 10
101.9395141346713
 20
-136.810598381596
 30
0.0
 10
102.324503555148
 20
-136.5122531125733
 30
0.0
 10
102.5804741497021
 20
-136.3134711030744
 30
0.0
 10
102.6459309639218
 20
-136.245602722015
 30
0.0
 10
102.6459309639218
 20
-136.1081434121535
 30
0.0
 10
102.6459309639218
 20
-135.9896321274609
 30
0.0
 10
102.5741007230544
 20
-135.8587184990214
 30
0.0
 10
102.3773857708466
 20
-135.8587184990214
 30
0.0
 10
102.117108806936
 20
-135.8587184990214
 30
0.0
 10
102.1086683229971
 20
-136.0891953869846
 30
0.0
 10
102.1043619536406
 20
-136.2056396143861
 30
0.0
 10
102.1043619536406
 20
-136.2056396143861
 30
0.0
 10
101.8802584923251
 20
-136.2056396143861
 30
0.0
 10
101.8802584923251
 20
-136.2056396143861
 30
0.0
 10
101.8886989762639
 20
-136.0785155909804
 30
0.0
 10
101.8992065174939
 20
-135.9665499877097
 30
0.0
 10
101.9796494970745
 20
-135.8480387030171
 30
0.0
 10
102.089548043054
 20
-135.687152743856
 30
0.0
 10
102.2757554540317
 20
-135.6533908081005
 30
0.0
 10
102.3921996814332
 20
-135.6533908081005
 30
0.0
 10
102.6693576132215
 20
-135.6533908081005
 30
0.0
 10
102.8765801066593
 20
-135.8373589070129
 30
0.0
 10
102.8765801066593
 20
-136.1102104694446
 30
0.0
 10
102.8765801066593
 20
-136.3389648096652
 30
0.0
 10
102.7603081340321
 20
-136.4381835596404
 30
0.0
 10
102.4514553237795
 20
-136.6645263330213
 30
0.0
  0
HATCH
  5
CD
330
C8
100
AcDbEntity
  8
レイヤー 1
 62
   250
420
  2299925
440
 33554687
100
AcDbHatch
 10
0.0
 20
0.0
 30
0.0
210
0.0
220
0.0
230
1.0
  2
SOLID
 70
     1
 71
     1
 91
        1
 92
        1
 93
        1
 72
     4
 94
        3
 73
     0
 74
     0
 95
       44
 96
       40
 40
0.0
 40
0.0
 40
0.0
 40
0.0
 40
1.0
 40
1.0
 40
1.0
 40
2.0
 40
2.0
 40
2.0
 40
3.0
 40
3.0
 40
3.0
 40
4.0
 40
4.0
 40
4.0
 40
5.0
 40
5.0
 40
5.0
 40
6.0
 40
6.0
 40
6.0
 40
7.0
 40
7.0
 40
7.0
 40
8.0
 40
8.0
 40
8.0
 40
9.0
 40
9.0
 40
9.0
 40
10.0
 40
10.0
 40
10.0
 40
11.0
 40
11.0
 40
11.0
 40
12.0
 40
12.0
 40
12.0
 40
13.0
 40
13.0
 40
13.0
 40
13.0
 10
102.4514553237795
 20
-136.6645263330213
 10
102.2335530343374
 20
-136.8233452348914
 10
102.1403632014614
 20
-136.8974147878242
 10
102.0917873551194
 20
-137.0410752695591
 10
102.0917873551194
 20
-137.0410752695591
 10
102.8702066800116
 20
-137.0410752695591
 10
102.8702066800116
 20
-137.0410752695591
 10
102.8702066800116
 20
-137.0410752695591
 10
102.8702066800116
 20
-137.2464029604801
 10
102.8702066800116
 20
-137.2464029604801
 10
102.8702066800116
 20
-137.2464029604801
 10
101.842190187213
 20
-137.2464029604801
 10
101.842190187213
 20
-137.2464029604801
 10
101.8738850656774
 20
-136.8888020491111
 10
101.9395141346713
 20
-136.810598381596
 10
102.324503555148
 20
-136.5122531125733
 10
102.5804741497021
 20
-136.3134711030744
 10
102.6459309639218
 20
-136.245602722015
 10
102.6459309639218
 20
-136.1081434121535
 10
102.6459309639218
 20
-135.9896321274609
 10
102.5741007230544
 20
-135.8587184990214
 10
102.3773857708466
 20
-135.8587184990214
 10
102.117108806936
 20
-135.8587184990214
 10
102.1086683229971
 20
-136.0891953869846
 10
102.1043619536406
 20
-136.2056396143861
 10
102.1043619536406
 20
-136.2056396143861
 10
101.8802584923251
 20
-136.2056396143861
 10
101.8802584923251
 20
-136.2056396143861
 10
101.8886989762639
 20
-136.0785155909804
 10
101.8992065174939
 20
-135.9665499877097
 10
101.9796494970745
 20
-135.8480387030171
 10
102.089548043054
 20
-135.687152743856
 10
102.2757554540317
 20
-135.6533908081005
 10
102.3921996814332
 20
-135.6533908081005
 10
102.6693576132215
 20
-135.6533908081005
 10
102.8765801066593
 20
-135.8373589070129
 10
102.8765801066593
 20
-136.1102104694446
 10
102.8765801066593
 20
-136.3389648096652
 10
102.7603081340321
 20
-136.4381835596404
 10
102.4514553237795
 20
-136.6645263330213
 97
        0
 97
        1
330
CC
 75
     2
 76
     1
 98
        1
 10
0.0
 20
0.0
450
        0
451
        0
460
0.0
461
0.0
452
        0
462
0.0
453
        0
470

  0
SPLINE
  5
CE
330
C8
100
AcDbEntity
  8
レイヤー 1
100
AcDbSpline
210
0.0
220
0.0
230
1.0
 70
    11
 71
     3
 72
    26
 73
    22
 74
     0
 42
0.0000000001
 43
0.0000000001
 40
0.0
 40
0.0
 40
0.0
 40
0.0
 40
1.0
 40
1.0
 40
1.0
 40
2.0
 40
2.0
 40
2.0
 40
3.0
 40
3.0
 40
3.0
 40
4.0
 40
4.0
 40
4.0
 40
5.0
 40
5.0
 40
5.0
 40
6.0
 40
6.0
 40
6.0
 40
7.0
 40
7.0
 40
7.0
 40
7.0
 10
103.4865342623228
 20
-137.2464029604801
 30
0.0
 10
103.4865342623228
 20
-137.2464029604801
 30
0.0
 10
103.4865342623228
 20
-136.1422498574575
 30
0.0
 10
103.4865342623228
 20
-136.1422498574575
 30
0.0
 10
103.4865342623228
 20
-136.1422498574575
 30
0.0
 10
103.1564941148358
 20
-136.1422498574575
 30
0.0
 10
103.1564941148358
 20
-136.1422498574575
 30
0.0
 10
103.1564941148358
 20
-136.1422498574575
 30
0.0
 10
103.1564941148358
 20
-135.9941107515917
 30
0.0
 10
103.1564941148358
 20
-135.9941107515917
 30
0.0
 10
103.4886013196139
 20
-135.9792968410052
 30
0.0
 10
103.5351101086648
 20
-135.8163438245528
 30
0.0
 10
103.564737929838
 20
-135.7019666544426
 30
0.0
 10
103.564737929838
 20
-135.7019666544426
 30
0.0
 10
103.7108099784125
 20
-135.7019666544426
 30
0.0
 10
103.7108099784125
 20
-135.7019666544426
 30
0.0
 10
103.7108099784125
 20
-135.7019666544426
 30
0.0
 10
103.7108099784125
 20
-137.2464029604801
 30
0.0
 10
103.7108099784125
 20
-137.2464029604801
 30
0.0
 10
103.7108099784125
 20
-137.2464029604801
 30
0.0
 10
103.4865342623228
 20
-137.2464029604801
 30
0.0
 10
103.4865342623228
 20
-137.2464029604801
 30
0.0
  0
HATCH
  5
CF
330
C8
100
AcDbEntity
  8
レイヤー 1
 62
   250
420
  2299925
440
 33554687
100
AcDbHatch
 10
0.0
 20
0.0
 30
0.0
210
0.0
220
0.0
230
1.0
  2
SOLID
 70
     1
 71
     1
 91
        1
 92
        1
 93
        1
 72
     4
 94
        3
 73
     0
 74
     0
 95
       26
 96
       22
 40
0.0
 40
0.0
 40
0.0
 40
0.0
 40
1.0
 40
1.0
 40
1.0
 40
2.0
 40
2.0
 40
2.0
 40
3.0
 40
3.0
 40
3.0
 40
4.0
 40
4.0
 40
4.0
 40
5.0
 40
5.0
 40
5.0
 40
6.0
 40
6.0
 40
6.0
 40
7.0
 40
7.0
 40
7.0
 40
7.0
 10
103.4865342623228
 20
-137.2464029604801
 10
103.4865342623228
 20
-137.2464029604801
 10
103.4865342623228
 20
-136.1422498574575
 10
103.4865342623228
 20
-136.1422498574575
 10
103.4865342623228
 20
-136.1422498574575
 10
103.1564941148358
 20
-136.1422498574575
 10
103.1564941148358
 20
-136.1422498574575
 10
103.1564941148358
 20
-136.1422498574575
 10
103.1564941148358
 20
-135.9941107515917
 10
103.1564941148358
 20
-135.9941107515917
 10
103.4886013196139
 20
-135.9792968410052
 10
103.5351101086648
 20
-135.8163438245528
 10
103.564737929838
 20
-135.7019666544426
 10
103.564737929838
 20
-135.7019666544426
 10
103.7108099784125
 20
-135.7019666544426
 10
103.7108099784125
 20
-135.7019666544426
 10
103.7108099784125
 20
-135.7019666544426
 10
103.7108099784125
 20
-137.2464029604801
 10
103.7108099784125
 20
-137.2464029604801
 10
103.7108099784125
 20
-137.2464029604801
 10
103.4865342623228
 20
-137.2464029604801
 10
103.4865342623228
 20
-137.2464029604801
 97
        0
 97
        1
330
CE
 75
     2
 76
     1
 98
        1
 10
0.0
 20
0.0
450
        0
451
        0
460
0.0
461
0.0
452
        0
462
0.0
453
        0
470

  0
ENDBLK
  5
CB
330
C8
100
AcDbEntity
  8
0
100
AcDbBlockEnd
  0
BLOCK
  5
D2
330
D0
100
AcDbEntity
  8
0
100
AcDbBlockBegin
  2
Block_10
 70
     0
 10
0.0
 20
0.0
 30
0.0
  3
Block_10
  1

  0
LINE
  5
D4
330
D0
100
AcDbEntity
  8
レイヤー 1
  6
AI-Linetype-0
 62
   154
420
    23468
370
    25
100
AcDbLine
 10
112.3902279844621
 20
-140.1685228056326
 30
0.0
 11
93.39380910213446
 21
-140.1685228056326
 31
0.0
  0
LINE
  5
D6
330
D0
100
AcDbEntity
  8
レイヤー 1
 62
   250
420
  2299925
370
     9
100
AcDbLine
 10
104.3346931741431
 20
-139.5873872024387
 30
0.0
 11
108.6733437843722
 21
-135.2487647176796
 31
0.0
  0
LWPOLYLINE
  5
D7
330
D0
100
AcDbEntity
  8
レイヤー 1
 62
   250
420
  2299925
370
     9
100
AcDbPolyline
 90
        3
 70
     0
 43
0.0
 10
104.8349320503475
 20
-138.7212825023576
 10
104.3346931741431
 20
-139.5873872024387
 10
105.2007997374571
 20
-139.0871483263896
  0
INSERT
  5
D9
330
D0
100
AcDbEntity
  8
レイヤー 1
100
AcDbBlockReference
  2
Block_11
 10
0.0
 20
0.0
 30
0.0
  0
ENDBLK
  5
D3
330
D0
100
AcDbEntity
  8
0
100
AcDbBlockEnd
  0
BLOCK
  5
DA
330
D8
100
AcDbEntity
  8
0
100
AcDbBlockBegin
  2
Block_11
 70
     0
 10
0.0
 20
0.0
 30
0.0
  3
Block_11
  1

  0
INSERT
  5
DD
330
D8
100
AcDbEntity
  8
レイヤー 1
100
AcDbBlockReference
  2
Block_12
 10
0.0
 20
0.0
 30
0.0
  0
ENDBLK
  5
DB
330
D8
100
AcDbEntity
  8
0
100
AcDbBlockEnd
  0
BLOCK
  5
DE
330
DC
100
AcDbEntity
  8
0
100
AcDbBlockBegin
  2
Block_12
 70
     0
 10
0.0
 20
0.0
 30
0.0
  3
Block_12
  1

  0
SPLINE
  5
E0
330
DC
100
AcDbEntity
  8
レイヤー 1
100
AcDbSpline
210
0.0
220
0.0
230
1.0
 70
     9
 71
     3
 72
    17
 73
    13
 74
     0
 42
0.0000000001
 43
0.0000000001
 40
0.0
 40
0.0
 40
0.0
 40
0.0
 40
1.0
 40
1.0
 40
1.0
 40
2.0
 40
2.0
 40
2.0
 40
3.0
 40
3.0
 40
3.0
 40
4.0
 40
4.0
 40
4.0
 40
4.0
 10
107.2713161624183
 20
-133.8128485451058
 30
0.0
 10
107.2544351945405
 20
-133.8423041115047
 30
0.0
 10
107.2037922909074
 20
-133.9354939443807
 30
0.0
 10
107.1931124949031
 20
-133.9544419695495
 30
0.0
 10
107.3836262752374
 20
-134.0136976118958
 30
0.0
 10
107.4046413576974
 20
-134.0200710385436
 30
0.0
 10
107.4766438533392
 20
-134.0476318024256
 30
0.0
 10
107.5317653811032
 20
-133.9608153961973
 30
0.0
 10
107.5548475208543
 20
-133.8867458432644
 30
0.0
 10
107.5696614314409
 20
-133.8128485451058
 30
0.0
 10
107.5696614314409
 20
-133.8128485451058
 30
0.0
 10
107.2713161624183
 20
-133.8128485451058
 30
0.0
 10
107.2713161624183
 20
-133.8128485451058
 30
0.0
  0
SPLINE
  5
E1
330
DC
100
AcDbEntity
  8
レイヤー 1
100
AcDbSpline
210
0.0
220
0.0
230
1.0
 70
    11
 71
     3
 72
    20
 73
    16
 74
     0
 42
0.0000000001
 43
0.0000000001
 40
0.0
 40
0.0
 40
0.0
 40
0.0
 40
1.0
 40
1.0
 40
1.0
 40
2.0
 40
2.0
 40
2.0
 40
3.0
 40
3.0
 40
3.0
 40
4.0
 40
4.0
 40
4.0
 40
5.0
 40
5.0
 40
5.0
 40
5.0
 10
107.2079264054897
 20
-132.9624267245719
 30
0.0
 10
107.2079264054897
 20
-132.9624267245719
 30
0.0
 10
107.1762315270254
 20
-132.9624267245719
 30
0.0
 10
107.1762315270254
 20
-132.9624267245719
 30
0.0
 10
107.2227403160763
 20
-133.0618177293213
 30
0.0
 10
107.2544351945405
 20
-133.1420884541276
 30
0.0
 10
107.288197130296
 20
-133.2690402227591
 30
0.0
 10
107.288197130296
 20
-133.2690402227591
 30
0.0
 10
107.495591878508
 20
-133.2690402227591
 30
0.0
 10
107.495591878508
 20
-133.2690402227591
 30
0.0
 10
107.5272867569723
 20
-133.1760226446574
 30
0.0
 10
107.550713406272
 20
-133.0914455504945
 30
0.0
 10
107.5737955460232
 20
-132.9624267245719
 30
0.0
 10
107.5737955460232
 20
-132.9624267245719
 30
0.0
 10
107.2079264054897
 20
-132.9624267245719
 30
0.0
 10
107.2079264054897
 20
-132.9624267245719
 30
0.0
  0
SPLINE
  5
E2
330
DC
100
AcDbEntity
  8
レイヤー 1
100
AcDbSpline
210
0.0
220
0.0
230
1.0
 70
     9
 71
     3
 72
   242
 73
   238
 74
     0
 42
0.0000000001
 43
0.0000000001
 40
0.0
 40
0.0
 40
0.0
 40
0.0
 40
1.0
 40
1.0
 40
1.0
 40
2.0
 40
2.0
 40
2.0
 40
3.0
 40
3.0
 40
3.0
 40
4.0
 40
4.0
 40
4.0
 40
5.0
 40
5.0
 40
5.0
 40
6.0
 40
6.0
 40
6.0
 40
7.0
 40
7.0
 40
7.0
 40
8.0
 40
8.0
 40
8.0
 40
9.0
 40
9.0
 40
9.0
 40
10.0
 40
10.0
 40
10.0
 40
11.0
 40
11.0
 40
11.0
 40
12.0
 40
12.0
 40
12.0
 40
13.0
 40
13.0
 40
13.0
 40
14.0
 40
14.0
 40
14.0
 40
15.0
 40
15.0
 40
15.0
 40
16.0
 40
16.0
 40
16.0
 40
17.0
 40
17.0
 40
17.0
 40
18.0
 40
18.0
 40
18.0
 40
19.0
 40
19.0
 40
19.0
 40
20.0
 40
20.0
 40
20.0
 40
21.0
 40
21.0
 40
21.0
 40
22.0
 40
22.0
 40
22.0
 40
23.0
 40
23.0
 40
23.0
 40
24.0
 40
24.0
 40
24.0
 40
25.0
 40
25.0
 40
25.0
 40
26.0
 40
26.0
 40
26.0
 40
27.0
 40
27.0
 40
27.0
 40
28.0
 40
28.0
 40
28.0
 40
29.0
 40
29.0
 40
29.0
 40
30.0
 40
30.0
 40
30.0
 40
31.0
 40
31.0
 40
31.0
 40
32.0
 40
32.0
 40
32.0
 40
33.0
 40
33.0
 40
33.0
 40
34.0
 40
34.0
 40
34.0
 40
35.0
 40
35.0
 40
35.0
 40
36.0
 40
36.0
 40
36.0
 40
37.0
 40
37.0
 40
37.0
 40
38.0
 40
38.0
 40
38.0
 40
39.0
 40
39.0
 40
39.0
 40
40.0
 40
40.0
 40
40.0
 40
41.0
 40
41.0
 40
41.0
 40
42.0
 40
42.0
 40
42.0
 40
43.0
 40
43.0
 40
43.0
 40
44.0
 40
44.0
 40
44.0
 40
45.0
 40
45.0
 40
45.0
 40
46.0
 40
46.0
 40
46.0
 40
47.0
 40
47.0
 40
47.0
 40
48.0
 40
48.0
 40
48.0
 40
49.0
 40
49.0
 40
49.0
 40
50.0
 40
50.0
 40
50.0
 40
51.0
 40
51.0
 40
51.0
 40
52.0
 40
52.0
 40
52.0
 40
53.0
 40
53.0
 40
53.0
 40
54.0
 40
54.0
 40
54.0
 40
55.0
 40
55.0
 40
55.0
 40
56.0
 40
56.0
 40
56.0
 40
57.0
 40
57.0
 40
57.0
 40
58.0
 40
58.0
 40
58.0
 40
59.0
 40
59.0
 40
59.0
 40
60.0
 40
60.0
 40
60.0
 40
61.0
 40
61.0
 40
61.0
 40
62.0
 40
62.0
 40
62.0
 40
63.0
 40
63.0
 40
63.0
 40
64.0
 40
64.0
 40
64.0
 40
65.0
 40
65.0
 40
65.0
 40
66.0
 40
66.0
 40
66.0
 40
67.0
 40
67.0
 40
67.0
 40
68.0
 40
68.0
 40
68.0
 40
69.0
 40
69.0
 40
69.0
 40
70.0
 40
70.0
 40
70.0
 40
71.0
 40
71.0
 40
71.0
 40
72.0
 40
72.0
 40
72.0
 40
73.0
 40
73.0
 40
73.0
 40
74.0
 40
74.0
 40
74.0
 40
75.0
 40
75.0
 40
75.0
 40
76.0
 40
76.0
 40
76.0
 40
77.0
 40
77.0
 40
77.0
 40
78.0
 40
78.0
 40
78.0
 40
79.0
 40
79.0
 40
79.0
 40
79.0
 10
107.8363118219992
 20
-133.4276868698549
 30
0.0
 10
107.8363118219992
 20
-133.4276868698549
 30
0.0
 10
107.5824082847363
 20
-133.4276868698549
 30
0.0
 10
107.5824082847363
 20
-133.4276868698549
 30
0.0
 10
107.5824082847363
 20
-133.4276868698549
 30
0.0
 10
107.3054226077222
 20
-133.4276868698549
 30
0.0
 10
107.3054226077222
 20
-133.4276868698549
 30
0.0
 10
107.3054226077222
 20
-133.4276868698549
 30
0.0
 10
107.4322021215794
 20
-133.4700615443235
 30
0.0
 10
107.4322021215794
 20
-133.4700615443235
 30
0.0
 10
107.4428819175837
 20
-133.47436791368
 30
0.0
 10
107.4556287708791
 20
-133.4805690855535
 30
0.0
 10
107.4556287708791
 20
-133.4933159388489
 30
0.0
 10
107.4556287708791
 20
-133.5145032760832
 30
0.0
 10
107.4235893828663
 20
-133.5208767027309
 30
0.0
 10
107.4025743004063
 20
-133.5250108173132
 30
0.0
 10
107.391894504402
 20
-133.5482652118386
 30
0.0
 10
107.3622666832289
 20
-133.6138942808326
 30
0.0
 10
107.34331865806
 20
-133.6583360125924
 30
0.0
 10
107.34331865806
 20
-133.6583360125924
 30
0.0
 10
107.6141031632006
 20
-133.6583360125924
 30
0.0
 10
107.6141031632006
 20
-133.6583360125924
 30
0.0
 10
107.7050536840112
 20
-133.6583360125924
 30
0.0
 10
107.901768636219
 20
-133.6540296432358
 30
0.0
 10
108.0437065702113
 20
-133.6455891592969
 30
0.0
 10
108.0437065702113
 20
-133.6455891592969
 30
0.0
 10
108.0437065702113
 20
-133.8233560863358
 30
0.0
 10
108.0437065702113
 20
-133.8233560863358
 30
0.0
 10
107.9610242785653
 20
-133.8190497169792
 30
0.0
 10
107.9400091961053
 20
-133.8190497169792
 30
0.0
 10
107.7601752117752
 20
-133.8149156023969
 30
0.0
 10
107.7284803333109
 20
-133.9692558801361
 30
0.0
 10
107.6840386015512
 20
-134.0496988597167
 30
0.0
 10
107.6395968697915
 20
-134.119462043293
 30
0.0
 10
107.7601752117752
 20
-134.1787176856393
 30
0.0
 10
107.8659396431724
 20
-134.2464138119245
 30
0.0
 10
107.9696370172784
 20
-134.3289238487962
 30
0.0
 10
107.9696370172784
 20
-134.3289238487962
 30
0.0
 10
107.8511257325858
 20
-134.4960109798308
 30
0.0
 10
107.8511257325858
 20
-134.4960109798308
 30
0.0
 10
107.8276990832861
 20
-134.477062954662
 30
0.0
 10
107.8149522299907
 20
-134.4686224707231
 30
0.0
 10
107.7029866267201
 20
-134.383873121786
 30
0.0
 10
107.654410780378
 20
-134.3458048166739
 30
0.0
 10
107.5951551380317
 20
-134.3099758236274
 30
0.0
 10
107.5145399036769
 20
-134.2655340918676
 30
0.0
 10
107.3030110408826
 20
-134.4517415028454
 30
0.0
 10
107.0980278595102
 20
-134.4749958973708
 30
0.0
 10
106.8079508196521
 20
-134.504623718544
 30
0.0
 10
106.8079508196521
 20
-134.504623718544
 30
0.0
 10
106.7045979550947
 20
-134.3247897342139
 30
0.0
 10
106.7045979550947
 20
-134.3247897342139
 30
0.0
 10
107.0218912492862
 20
-134.3204833648574
 30
0.0
 10
107.1972466094854
 20
-134.2951619130408
 30
0.0
 10
107.3495198299334
 20
-134.185091112287
 30
0.0
 10
107.2313530547894
 20
-134.1342759538796
 30
0.0
 10
107.1424695912699
 20
-134.1068874447719
 30
0.0
 10
107.1062960886748
 20
-134.0941405914765
 30
0.0
 10
107.0873480635059
 20
-134.1217013553585
 30
0.0
 10
107.0725341529193
 20
-134.1406493805273
 30
0.0
 10
107.0449733890374
 20
-134.174583571057
 30
0.0
 10
107.0449733890374
 20
-134.174583571057
 30
0.0
 10
106.8482584368296
 20
-134.0920735341853
 30
0.0
 10
106.8482584368296
 20
-134.0920735341853
 30
0.0
 10
106.9309407284756
 20
-134.0116305546047
 30
0.0
 10
106.992263428113
 20
-133.9163736644376
 30
0.0
 10
107.0491075036196
 20
-133.8149156023969
 30
0.0
 10
106.8589382328338
 20
-133.8190497169792
 30
0.0
 10
106.8375786408253
 20
-133.8190497169792
 30
0.0
 10
106.7552408587278
 20
-133.8233560863358
 30
0.0
 10
106.7552408587278
 20
-133.8233560863358
 30
0.0
 10
106.7552408587278
 20
-133.6455891592969
 30
0.0
 10
106.7552408587278
 20
-133.6455891592969
 30
0.0
 10
106.8947672258805
 20
-133.6519625859446
 30
0.0
 10
107.1042290313837
 20
-133.6562689553012
 30
0.0
 10
107.1297227379745
 20
-133.6562689553012
 30
0.0
 10
107.1466037058522
 20
-133.6223347647715
 30
0.0
 10
107.2017252336162
 20
-133.5017564227877
 30
0.0
 10
107.2206732587851
 20
-133.4276868698549
 30
0.0
 10
107.2017252336162
 20
-133.4276868698549
 30
0.0
 10
107.0239583065773
 20
-133.4340602965026
 30
0.0
 10
106.8293104116607
 20
-133.446807149798
 30
0.0
 10
106.8293104116607
 20
-133.446807149798
 30
0.0
 10
106.8293104116607
 20
-133.5801323450772
 30
0.0
 10
106.8293104116607
 20
-133.5801323450772
 30
0.0
 10
106.7807345653187
 20
-133.6054537968938
 30
0.0
 10
106.7214789229724
 20
-133.637148675358
 30
0.0
 10
106.5881537276932
 20
-133.7027777443521
 30
0.0
 10
106.5881537276932
 20
-133.7027777443521
 30
0.0
 10
106.5881537276932
 20
-133.8486775381524
 30
0.0
 10
106.5881537276932
 20
-133.8486775381524
 30
0.0
 10
106.5881537276932
 20
-133.8486775381524
 30
0.0
 10
106.5881537276932
 20
-134.3163492502751
 30
0.0
 10
106.5881537276932
 20
-134.3163492502751
 30
0.0
 10
106.5881537276932
 20
-134.4431287641322
 30
0.0
 10
106.5519802250981
 20
-134.5023844064785
 30
0.0
 10
106.2687933762106
 20
-134.4939439225397
 30
0.0
 10
106.2687933762106
 20
-134.4939439225397
 30
0.0
 10
106.1650960021045
 20
-134.2867214291019
 30
0.0
 10
106.1650960021045
 20
-134.2867214291019
 30
0.0
 10
106.2284857590331
 20
-134.2992960276231
 30
0.0
 10
106.2770616053752
 20
-134.3036023969796
 30
0.0
 10
106.3173692225526
 20
-134.3036023969796
 30
0.0
 10
106.3935058327766
 20
-134.3036023969796
 30
0.0
 10
106.4041856287809
 20
-134.2803480024542
 30
0.0
 10
106.4041856287809
 20
-134.2147189334602
 30
0.0
 10
106.4041856287809
 20
-134.2147189334602
 30
0.0
 10
106.4041856287809
 20
-133.7852877812238
 30
0.0
 10
106.4041856287809
 20
-133.7852877812238
 30
0.0
 10
106.3066894265483
 20
-133.8254231436269
 30
0.0
 10
106.2898084586706
 20
-133.8317965702747
 30
0.0
 10
106.2432996696197
 20
-133.8509168502178
 30
0.0
 10
106.2391655550374
 20
-133.8719319326778
 30
0.0
 10
106.2346869309066
 20
-133.901559753851
 30
0.0
 10
106.2157389057377
 20
-133.901559753851
 30
0.0
 10
106.2074706765731
 20
-133.901559753851
 30
0.0
 10
106.1967908805689
 20
-133.8974256392687
 30
0.0
 10
106.1902451991469
 20
-133.8741712447433
 30
0.0
 10
106.1902451991469
 20
-133.8741712447433
 30
0.0
 10
106.1375352382226
 20
-133.6815904071178
 30
0.0
 10
106.1375352382226
 20
-133.6815904071178
 30
0.0
 10
106.2836072867971
 20
-133.6350816180669
 30
0.0
 10
106.3490641010169
 20
-133.6118272235415
 30
0.0
 10
106.4041856287809
 20
-133.5906398863072
 30
0.0
 10
106.4041856287809
 20
-133.5906398863072
 30
0.0
 10
106.4041856287809
 20
-133.1780897019485
 30
0.0
 10
106.4041856287809
 20
-133.1780897019485
 30
0.0
 10
106.4041856287809
 20
-133.1780897019485
 30
0.0
 10
106.351131158308
 20
-133.1780897019485
 30
0.0
 10
106.351131158308
 20
-133.1780897019485
 30
0.0
 10
106.351131158308
 20
-133.1780897019485
 30
0.0
 10
106.2729274907929
 20
-133.1780897019485
 30
0.0
 10
106.2729274907929
 20
-133.1780897019485
 30
0.0
 10
106.2050591097335
 20
-133.1780897019485
 30
0.0
 10
106.1967908805689
 20
-133.1780897019485
 30
0.0
 10
106.1606173779737
 20
-133.1844631285962
 30
0.0
 10
106.1606173779737
 20
-133.1844631285962
 30
0.0
 10
106.1606173779737
 20
-132.9898152336796
 30
0.0
 10
106.1606173779737
 20
-132.9898152336796
 30
0.0
 10
106.1881781418557
 20
-132.9961886603273
 30
0.0
 10
106.1967908805689
 20
-132.9961886603273
 30
0.0
 10
106.2663818093709
 20
-132.9961886603273
 30
0.0
 10
106.2663818093709
 20
-132.9961886603273
 30
0.0
 10
106.3997070046501
 20
-132.9961886603273
 30
0.0
 10
106.3997070046501
 20
-132.9961886603273
 30
0.0
 10
106.3997070046501
 20
-132.926425476751
 30
0.0
 10
106.3997070046501
 20
-132.8439154398793
 30
0.0
 10
106.3976399473589
 20
-132.8396090705227
 30
0.0
 10
106.3893717181943
 20
-132.6597750861927
 30
0.0
 10
106.3893717181943
 20
-132.6408270610238
 30
0.0
 10
106.3869601513546
 20
-132.5943182719729
 30
0.0
 10
106.3869601513546
 20
-132.5943182719729
 30
0.0
 10
106.6029676382798
 20
-132.6027587559118
 30
0.0
 10
106.6029676382798
 20
-132.6027587559118
 30
0.0
 10
106.6136474342841
 20
-132.6027587559118
 30
0.0
 10
106.6346625167441
 20
-132.604825813203
 30
0.0
 10
106.6346625167441
 20
-132.6217067810807
 30
0.0
 10
106.6346625167441
 20
-132.6408270610238
 30
0.0
 10
106.6198486061575
 20
-132.6513346022538
 30
0.0
 10
106.5943548995667
 20
-132.6704548821969
 30
0.0
 10
106.5943548995667
 20
-132.7210977858301
 30
0.0
 10
106.5881537276932
 20
-132.9496798712765
 30
0.0
 10
106.5902207849844
 20
-132.9961886603273
 30
0.0
 10
106.7194118656813
 20
-132.9961886603273
 30
0.0
 10
106.7318142094281
 20
-132.9961886603273
 30
0.0
 10
106.8293104116607
 20
-132.9877481763885
 30
0.0
 10
106.8293104116607
 20
-132.9877481763885
 30
0.0
 10
106.8293104116607
 20
-133.1823960713051
 30
0.0
 10
106.8293104116607
 20
-133.1823960713051
 30
0.0
 10
106.7910698517744
 20
-133.1801567592397
 30
0.0
 10
106.7235459802635
 20
-133.1760226446574
 30
0.0
 10
106.5881537276932
 20
-133.1780897019485
 30
0.0
 10
106.5881537276932
 20
-133.1780897019485
 30
0.0
 10
106.5881537276932
 20
-133.5165703333743
 30
0.0
 10
106.5881537276932
 20
-133.5165703333743
 30
0.0
 10
106.6432752554572
 20
-133.4933159388489
 30
0.0
 10
106.708732069677
 20
-133.4657551749669
 30
0.0
 10
106.757307916019
 20
-133.4425007804414
 30
0.0
 10
106.757307916019
 20
-133.4425007804414
 30
0.0
 10
106.757307916019
 20
-133.2649061081768
 30
0.0
 10
106.757307916019
 20
-133.2649061081768
 30
0.0
 10
106.8716850861293
 20
-133.277480706698
 30
0.0
 10
106.9901963708219
 20
-133.277480706698
 30
0.0
 10
107.1062960886748
 20
-133.277480706698
 30
0.0
 10
107.0832139489236
 20
-133.1823960713051
 30
0.0
 10
107.0556531850416
 20
-133.0998860344334
 30
0.0
 10
106.992263428113
 20
-132.9665608391542
 30
0.0
 10
106.9478216963533
 20
-132.9686278964453
 30
0.0
 10
106.8651394047073
 20
-132.9729342658019
 30
0.0
 10
106.8272433543696
 20
-132.9750013230931
 30
0.0
 10
106.8272433543696
 20
-132.9750013230931
 30
0.0
 10
106.8272433543696
 20
-132.795167338763
 30
0.0
 10
106.8272433543696
 20
-132.795167338763
 30
0.0
 10
106.9519558109356
 20
-132.8036078227019
 30
0.0
 10
107.1255886233922
 20
-132.8079141920584
 30
0.0
 10
107.2079264054897
 20
-132.8079141920584
 30
0.0
 10
107.2079264054897
 20
-132.8079141920584
 30
0.0
 10
107.2906086971357
 20
-132.8079141920584
 30
0.0
 10
107.2906086971357
 20
-132.8079141920584
 30
0.0
 10
107.2906086971357
 20
-132.6449611756061
 30
0.0
 10
107.2906086971357
 20
-132.6344536343761
 30
0.0
 10
107.288197130296
 20
-132.5795043613863
 30
0.0
 10
107.288197130296
 20
-132.5795043613863
 30
0.0
 10
107.5124728463858
 20
-132.604825813203
 30
0.0
 10
107.5124728463858
 20
-132.604825813203
 30
0.0
 10
107.5169514705166
 20
-132.604825813203
 30
0.0
 10
107.5379665529766
 20
-132.6068928704941
 30
0.0
 10
107.5379665529766
 20
-132.6237738383718
 30
0.0
 10
107.5379665529766
 20
-132.6385877489584
 30
0.0
 10
107.5272867569723
 20
-132.6472004876715
 30
0.0
 10
107.4997259930903
 20
-132.6620143982581
 30
0.0
 10
107.4935248212169
 20
-132.7274712124778
 30
0.0
 10
107.4914577639257
 20
-132.7486585497121
 30
0.0
 10
107.4914577639257
 20
-132.8079141920584
 30
0.0
 10
107.4914577639257
 20
-132.8079141920584
 30
0.0
 10
107.5865423993186
 20
-132.8079141920584
 30
0.0
 10
107.5865423993186
 20
-132.8079141920584
 30
0.0
 10
107.6692246909646
 20
-132.8079141920584
 30
0.0
 10
107.8425129938727
 20
-132.8036078227019
 30
0.0
 10
107.9675699599873
 20
-132.795167338763
 30
0.0
 10
107.9675699599873
 20
-132.795167338763
 30
0.0
 10
107.9675699599873
 20
-132.9750013230931
 30
0.0
 10
107.9675699599873
 20
-132.9750013230931
 30
0.0
 10
107.9379421388141
 20
-132.9729342658019
 30
0.0
 10
107.8194308541215
 20
-132.9686278964453
 30
0.0
 10
107.7791232369441
 20
-132.9665608391542
 30
0.0
 10
107.7643093263575
 20
-133.0173759975616
 30
0.0
 10
107.7305473906021
 20
-133.1295138556065
 30
0.0
 10
107.6647460668338
 20
-133.2690402227591
 30
0.0
 10
107.7071207413024
 20
-133.2690402227591
 30
0.0
 10
107.984450927865
 20
-133.2500921975902
 30
0.0
 10
108.0457736275024
 20
-133.2478528855248
 30
0.0
 10
108.0457736275024
 20
-133.2478528855248
 30
0.0
 10
108.0457736275024
 20
-133.4319932392114
 30
0.0
 10
108.0457736275024
 20
-133.4319932392114
 30
0.0
 10
108.0161458063293
 20
-133.4319932392114
 30
0.0
 10
107.9992648384516
 20
-133.4276868698549
 30
0.0
 10
107.8363118219992
 20
-133.4276868698549
 30
0.0
  0
HATCH
  5
E3
330
DC
100
AcDbEntity
  8
レイヤー 1
 62
   250
420
  2299925
440
 33554687
100
AcDbHatch
 10
0.0
 20
0.0
 30
0.0
210
0.0
220
0.0
230
1.0
  2
SOLID
 70
     1
 71
     1
 91
        3
 92
        1
 93
        1
 72
     4
 94
        3
 73
     0
 74
     0
 95
       17
 96
       13
 40
0.0
 40
0.0
 40
0.0
 40
0.0
 40
1.0
 40
1.0
 40
1.0
 40
2.0
 40
2.0
 40
2.0
 40
3.0
 40
3.0
 40
3.0
 40
4.0
 40
4.0
 40
4.0
 40
4.0
 10
107.2713161624183
 20
-133.8128485451058
 10
107.2544351945405
 20
-133.8423041115047
 10
107.2037922909074
 20
-133.9354939443807
 10
107.1931124949031
 20
-133.9544419695495
 10
107.3836262752374
 20
-134.0136976118958
 10
107.4046413576974
 20
-134.0200710385436
 10
107.4766438533392
 20
-134.0476318024256
 10
107.5317653811032
 20
-133.9608153961973
 10
107.5548475208543
 20
-133.8867458432644
 10
107.5696614314409
 20
-133.8128485451058
 10
107.5696614314409
 20
-133.8128485451058
 10
107.2713161624183
 20
-133.8128485451058
 10
107.2713161624183
 20
-133.8128485451058
 97
        0
 97
        1
330
E0
 92
        1
 93
        1
 72
     4
 94
        3
 73
     0
 74
     0
 95
       20
 96
       16
 40
0.0
 40
0.0
 40
0.0
 40
0.0
 40
1.0
 40
1.0
 40
1.0
 40
2.0
 40
2.0
 40
2.0
 40
3.0
 40
3.0
 40
3.0
 40
4.0
 40
4.0
 40
4.0
 40
5.0
 40
5.0
 40
5.0
 40
5.0
 10
107.2079264054897
 20
-132.9624267245719
 10
107.2079264054897
 20
-132.9624267245719
 10
107.1762315270254
 20
-132.9624267245719
 10
107.1762315270254
 20
-132.9624267245719
 10
107.2227403160763
 20
-133.0618177293213
 10
107.2544351945405
 20
-133.1420884541276
 10
107.288197130296
 20
-133.2690402227591
 10
107.288197130296
 20
-133.2690402227591
 10
107.495591878508
 20
-133.2690402227591
 10
107.495591878508
 20
-133.2690402227591
 10
107.5272867569723
 20
-133.1760226446574
 10
107.550713406272
 20
-133.0914455504945
 10
107.5737955460232
 20
-132.9624267245719
 10
107.5737955460232
 20
-132.9624267245719
 10
107.2079264054897
 20
-132.9624267245719
 10
107.2079264054897
 20
-132.9624267245719
 97
        0
 97
        1
330
E1
 92
        1
 93
        1
 72
     4
 94
        3
 73
     0
 74
     0
 95
      242
 96
      238
 40
0.0
 40
0.0
 40
0.0
 40
0.0
 40
1.0
 40
1.0
 40
1.0
 40
2.0
 40
2.0
 40
2.0
 40
3.0
 40
3.0
 40
3.0
 40
4.0
 40
4.0
 40
4.0
 40
5.0
 40
5.0
 40
5.0
 40
6.0
 40
6.0
 40
6.0
 40
7.0
 40
7.0
 40
7.0
 40
8.0
 40
8.0
 40
8.0
 40
9.0
 40
9.0
 40
9.0
 40
10.0
 40
10.0
 40
10.0
 40
11.0
 40
11.0
 40
11.0
 40
12.0
 40
12.0
 40
12.0
 40
13.0
 40
13.0
 40
13.0
 40
14.0
 40
14.0
 40
14.0
 40
15.0
 40
15.0
 40
15.0
 40
16.0
 40
16.0
 40
16.0
 40
17.0
 40
17.0
 40
17.0
 40
18.0
 40
18.0
 40
18.0
 40
19.0
 40
19.0
 40
19.0
 40
20.0
 40
20.0
 40
20.0
 40
21.0
 40
21.0
 40
21.0
 40
22.0
 40
22.0
 40
22.0
 40
23.0
 40
23.0
 40
23.0
 40
24.0
 40
24.0
 40
24.0
 40
25.0
 40
25.0
 40
25.0
 40
26.0
 40
26.0
 40
26.0
 40
27.0
 40
27.0
 40
27.0
 40
28.0
 40
28.0
 40
28.0
 40
29.0
 40
29.0
 40
29.0
 40
30.0
 40
30.0
 40
30.0
 40
31.0
 40
31.0
 40
31.0
 40
32.0
 40
32.0
 40
32.0
 40
33.0
 40
33.0
 40
33.0
 40
34.0
 40
34.0
 40
34.0
 40
35.0
 40
35.0
 40
35.0
 40
36.0
 40
36.0
 40
36.0
 40
37.0
 40
37.0
 40
37.0
 40
38.0
 40
38.0
 40
38.0
 40
39.0
 40
39.0
 40
39.0
 40
40.0
 40
40.0
 40
40.0
 40
41.0
 40
41.0
 40
41.0
 40
42.0
 40
42.0
 40
42.0
 40
43.0
 40
43.0
 40
43.0
 40
44.0
 40
44.0
 40
44.0
 40
45.0
 40
45.0
 40
45.0
 40
46.0
 40
46.0
 40
46.0
 40
47.0
 40
47.0
 40
47.0
 40
48.0
 40
48.0
 40
48.0
 40
49.0
 40
49.0
 40
49.0
 40
50.0
 40
50.0
 40
50.0
 40
51.0
 40
51.0
 40
51.0
 40
52.0
 40
52.0
 40
52.0
 40
53.0
 40
53.0
 40
53.0
 40
54.0
 40
54.0
 40
54.0
 40
55.0
 40
55.0
 40
55.0
 40
56.0
 40
56.0
 40
56.0
 40
57.0
 40
57.0
 40
57.0
 40
58.0
 40
58.0
 40
58.0
 40
59.0
 40
59.0
 40
59.0
 40
60.0
 40
60.0
 40
60.0
 40
61.0
 40
61.0
 40
61.0
 40
62.0
 40
62.0
 40
62.0
 40
63.0
 40
63.0
 40
63.0
 40
64.0
 40
64.0
 40
64.0
 40
65.0
 40
65.0
 40
65.0
 40
66.0
 40
66.0
 40
66.0
 40
67.0
 40
67.0
 40
67.0
 40
68.0
 40
68.0
 40
68.0
 40
69.0
 40
69.0
 40
69.0
 40
70.0
 40
70.0
 40
70.0
 40
71.0
 40
71.0
 40
71.0
 40
72.0
 40
72.0
 40
72.0
 40
73.0
 40
73.0
 40
73.0
 40
74.0
 40
74.0
 40
74.0
 40
75.0
 40
75.0
 40
75.0
 40
76.0
 40
76.0
 40
76.0
 40
77.0
 40
77.0
 40
77.0
 40
78.0
 40
78.0
 40
78.0
 40
79.0
 40
79.0
 40
79.0
 40
79.0
 10
107.8363118219992
 20
-133.4276868698549
 10
107.8363118219992
 20
-133.4276868698549
 10
107.5824082847363
 20
-133.4276868698549
 10
107.5824082847363
 20
-133.4276868698549
 10
107.5824082847363
 20
-133.4276868698549
 10
107.3054226077222
 20
-133.4276868698549
 10
107.3054226077222
 20
-133.4276868698549
 10
107.3054226077222
 20
-133.4276868698549
 10
107.4322021215794
 20
-133.4700615443235
 10
107.4322021215794
 20
-133.4700615443235
 10
107.4428819175837
 20
-133.47436791368
 10
107.4556287708791
 20
-133.4805690855535
 10
107.4556287708791
 20
-133.4933159388489
 10
107.4556287708791
 20
-133.5145032760832
 10
107.4235893828663
 20
-133.5208767027309
 10
107.4025743004063
 20
-133.5250108173132
 10
107.391894504402
 20
-133.5482652118386
 10
107.3622666832289
 20
-133.6138942808326
 10
107.34331865806
 20
-133.6583360125924
 10
107.34331865806
 20
-133.6583360125924
 10
107.6141031632006
 20
-133.6583360125924
 10
107.6141031632006
 20
-133.6583360125924
 10
107.7050536840112
 20
-133.6583360125924
 10
107.901768636219
 20
-133.6540296432358
 10
108.0437065702113
 20
-133.6455891592969
 10
108.0437065702113
 20
-133.6455891592969
 10
108.0437065702113
 20
-133.8233560863358
 10
108.0437065702113
 20
-133.8233560863358
 10
107.9610242785653
 20
-133.8190497169792
 10
107.9400091961053
 20
-133.8190497169792
 10
107.7601752117752
 20
-133.8149156023969
 10
107.7284803333109
 20
-133.9692558801361
 10
107.6840386015512
 20
-134.0496988597167
 10
107.6395968697915
 20
-134.119462043293
 10
107.7601752117752
 20
-134.1787176856393
 10
107.8659396431724
 20
-134.2464138119245
 10
107.9696370172784
 20
-134.3289238487962
 10
107.9696370172784
 20
-134.3289238487962
 10
107.8511257325858
 20
-134.4960109798308
 10
107.8511257325858
 20
-134.4960109798308
 10
107.8276990832861
 20
-134.477062954662
 10
107.8149522299907
 20
-134.4686224707231
 10
107.7029866267201
 20
-134.383873121786
 10
107.654410780378
 20
-134.3458048166739
 10
107.5951551380317
 20
-134.3099758236274
 10
107.5145399036769
 20
-134.2655340918676
 10
107.3030110408826
 20
-134.4517415028454
 10
107.0980278595102
 20
-134.4749958973708
 10
106.8079508196521
 20
-134.504623718544
 10
106.8079508196521
 20
-134.504623718544
 10
106.7045979550947
 20
-134.3247897342139
 10
106.7045979550947
 20
-134.3247897342139
 10
107.0218912492862
 20
-134.3204833648574
 10
107.1972466094854
 20
-134.2951619130408
 10
107.3495198299334
 20
-134.185091112287
 10
107.2313530547894
 20
-134.1342759538796
 10
107.1424695912699
 20
-134.1068874447719
 10
107.1062960886748
 20
-134.0941405914765
 10
107.0873480635059
 20
-134.1217013553585
 10
107.0725341529193
 20
-134.1406493805273
 10
107.0449733890374
 20
-134.174583571057
 10
107.0449733890374
 20
-134.174583571057
 10
106.8482584368296
 20
-134.0920735341853
 10
106.8482584368296
 20
-134.0920735341853
 10
106.9309407284756
 20
-134.0116305546047
 10
106.992263428113
 20
-133.9163736644376
 10
107.0491075036196
 20
-133.8149156023969
 10
106.8589382328338
 20
-133.8190497169792
 10
106.8375786408253
 20
-133.8190497169792
 10
106.7552408587278
 20
-133.8233560863358
 10
106.7552408587278
 20
-133.8233560863358
 10
106.7552408587278
 20
-133.6455891592969
 10
106.7552408587278
 20
-133.6455891592969
 10
106.8947672258805
 20
-133.6519625859446
 10
107.1042290313837
 20
-133.6562689553012
 10
107.1297227379745
 20
-133.6562689553012
 10
107.1466037058522
 20
-133.6223347647715
 10
107.2017252336162
 20
-133.5017564227877
 10
107.2206732587851
 20
-133.4276868698549
 10
107.2017252336162
 20
-133.4276868698549
 10
107.0239583065773
 20
-133.4340602965026
 10
106.8293104116607
 20
-133.446807149798
 10
106.8293104116607
 20
-133.446807149798
 10
106.8293104116607
 20
-133.5801323450772
 10
106.8293104116607
 20
-133.5801323450772
 10
106.7807345653187
 20
-133.6054537968938
 10
106.7214789229724
 20
-133.637148675358
 10
106.5881537276932
 20
-133.7027777443521
 10
106.5881537276932
 20
-133.7027777443521
 10
106.5881537276932
 20
-133.8486775381524
 10
106.5881537276932
 20
-133.8486775381524
 10
106.5881537276932
 20
-133.8486775381524
 10
106.5881537276932
 20
-134.3163492502751
 10
106.5881537276932
 20
-134.3163492502751
 10
106.5881537276932
 20
-134.4431287641322
 10
106.5519802250981
 20
-134.5023844064785
 10
106.2687933762106
 20
-134.4939439225397
 10
106.2687933762106
 20
-134.4939439225397
 10
106.1650960021045
 20
-134.2867214291019
 10
106.1650960021045
 20
-134.2867214291019
 10
106.2284857590331
 20
-134.2992960276231
 10
106.2770616053752
 20
-134.3036023969796
 10
106.3173692225526
 20
-134.3036023969796
 10
106.3935058327766
 20
-134.3036023969796
 10
106.4041856287809
 20
-134.2803480024542
 10
106.4041856287809
 20
-134.2147189334602
 10
106.4041856287809
 20
-134.2147189334602
 10
106.4041856287809
 20
-133.7852877812238
 10
106.4041856287809
 20
-133.7852877812238
 10
106.3066894265483
 20
-133.8254231436269
 10
106.2898084586706
 20
-133.8317965702747
 10
106.2432996696197
 20
-133.8509168502178
 10
106.2391655550374
 20
-133.8719319326778
 10
106.2346869309066
 20
-133.901559753851
 10
106.2157389057377
 20
-133.901559753851
 10
106.2074706765731
 20
-133.901559753851
 10
106.1967908805689
 20
-133.8974256392687
 10
106.1902451991469
 20
-133.8741712447433
 10
106.1902451991469
 20
-133.8741712447433
 10
106.1375352382226
 20
-133.6815904071178
 10
106.1375352382226
 20
-133.6815904071178
 10
106.2836072867971
 20
-133.6350816180669
 10
106.3490641010169
 20
-133.6118272235415
 10
106.4041856287809
 20
-133.5906398863072
 10
106.4041856287809
 20
-133.5906398863072
 10
106.4041856287809
 20
-133.1780897019485
 10
106.4041856287809
 20
-133.1780897019485
 10
106.4041856287809
 20
-133.1780897019485
 10
106.351131158308
 20
-133.1780897019485
 10
106.351131158308
 20
-133.1780897019485
 10
106.351131158308
 20
-133.1780897019485
 10
106.2729274907929
 20
-133.1780897019485
 10
106.2729274907929
 20
-133.1780897019485
 10
106.2050591097335
 20
-133.1780897019485
 10
106.1967908805689
 20
-133.1780897019485
 10
106.1606173779737
 20
-133.1844631285962
 10
106.1606173779737
 20
-133.1844631285962
 10
106.1606173779737
 20
-132.9898152336796
 10
106.1606173779737
 20
-132.9898152336796
 10
106.1881781418557
 20
-132.9961886603273
 10
106.1967908805689
 20
-132.9961886603273
 10
106.2663818093709
 20
-132.9961886603273
 10
106.2663818093709
 20
-132.9961886603273
 10
106.3997070046501
 20
-132.9961886603273
 10
106.3997070046501
 20
-132.9961886603273
 10
106.3997070046501
 20
-132.926425476751
 10
106.3997070046501
 20
-132.8439154398793
 10
106.3976399473589
 20
-132.8396090705227
 10
106.3893717181943
 20
-132.6597750861927
 10
106.3893717181943
 20
-132.6408270610238
 10
106.3869601513546
 20
-132.5943182719729
 10
106.3869601513546
 20
-132.5943182719729
 10
106.6029676382798
 20
-132.6027587559118
 10
106.6029676382798
 20
-132.6027587559118
 10
106.6136474342841
 20
-132.6027587559118
 10
106.6346625167441
 20
-132.604825813203
 10
106.6346625167441
 20
-132.6217067810807
 10
106.6346625167441
 20
-132.6408270610238
 10
106.6198486061575
 20
-132.6513346022538
 10
106.5943548995667
 20
-132.6704548821969
 10
106.5943548995667
 20
-132.7210977858301
 10
106.5881537276932
 20
-132.9496798712765
 10
106.5902207849844
 20
-132.9961886603273
 10
106.7194118656813
 20
-132.9961886603273
 10
106.7318142094281
 20
-132.9961886603273
 10
106.8293104116607
 20
-132.9877481763885
 10
106.8293104116607
 20
-132.9877481763885
 10
106.8293104116607
 20
-133.1823960713051
 10
106.8293104116607
 20
-133.1823960713051
 10
106.7910698517744
 20
-133.1801567592397
 10
106.7235459802635
 20
-133.1760226446574
 10
106.5881537276932
 20
-133.1780897019485
 10
106.5881537276932
 20
-133.1780897019485
 10
106.5881537276932
 20
-133.5165703333743
 10
106.5881537276932
 20
-133.5165703333743
 10
106.6432752554572
 20
-133.4933159388489
 10
106.708732069677
 20
-133.4657551749669
 10
106.757307916019
 20
-133.4425007804414
 10
106.757307916019
 20
-133.4425007804414
 10
106.757307916019
 20
-133.2649061081768
 10
106.757307916019
 20
-133.2649061081768
 10
106.8716850861293
 20
-133.277480706698
 10
106.9901963708219
 20
-133.277480706698
 10
107.1062960886748
 20
-133.277480706698
 10
107.0832139489236
 20
-133.1823960713051
 10
107.0556531850416
 20
-133.0998860344334
 10
106.992263428113
 20
-132.9665608391542
 10
106.9478216963533
 20
-132.9686278964453
 10
106.8651394047073
 20
-132.9729342658019
 10
106.8272433543696
 20
-132.9750013230931
 10
106.8272433543696
 20
-132.9750013230931
 10
106.8272433543696
 20
-132.795167338763
 10
106.8272433543696
 20
-132.795167338763
 10
106.9519558109356
 20
-132.8036078227019
 10
107.1255886233922
 20
-132.8079141920584
 10
107.2079264054897
 20
-132.8079141920584
 10
107.2079264054897
 20
-132.8079141920584
 10
107.2906086971357
 20
-132.8079141920584
 10
107.2906086971357
 20
-132.8079141920584
 10
107.2906086971357
 20
-132.6449611756061
 10
107.2906086971357
 20
-132.6344536343761
 10
107.288197130296
 20
-132.5795043613863
 10
107.288197130296
 20
-132.5795043613863
 10
107.5124728463858
 20
-132.604825813203
 10
107.5124728463858
 20
-132.604825813203
 10
107.5169514705166
 20
-132.604825813203
 10
107.5379665529766
 20
-132.6068928704941
 10
107.5379665529766
 20
-132.6237738383718
 10
107.5379665529766
 20
-132.6385877489584
 10
107.5272867569723
 20
-132.6472004876715
 10
107.4997259930903
 20
-132.6620143982581
 10
107.4935248212169
 20
-132.7274712124778
 10
107.4914577639257
 20
-132.7486585497121
 10
107.4914577639257
 20
-132.8079141920584
 10
107.4914577639257
 20
-132.8079141920584
 10
107.5865423993186
 20
-132.8079141920584
 10
107.5865423993186
 20
-132.8079141920584
 10
107.6692246909646
 20
-132.8079141920584
 10
107.8425129938727
 20
-132.8036078227019
 10
107.9675699599873
 20
-132.795167338763
 10
107.9675699599873
 20
-132.795167338763
 10
107.9675699599873
 20
-132.9750013230931
 10
107.9675699599873
 20
-132.9750013230931
 10
107.9379421388141
 20
-132.9729342658019
 10
107.8194308541215
 20
-132.9686278964453
 10
107.7791232369441
 20
-132.9665608391542
 10
107.7643093263575
 20
-133.0173759975616
 10
107.7305473906021
 20
-133.1295138556065
 10
107.6647460668338
 20
-133.2690402227591
 10
107.7071207413024
 20
-133.2690402227591
 10
107.984450927865
 20
-133.2500921975902
 10
108.0457736275024
 20
-133.2478528855248
 10
108.0457736275024
 20
-133.2478528855248
 10
108.0457736275024
 20
-133.4319932392114
 10
108.0457736275024
 20
-133.4319932392114
 10
108.0161458063293
 20
-133.4319932392114
 10
107.9992648384516
 20
-133.4276868698549
 10
107.8363118219992
 20
-133.4276868698549
 97
        0
 97
        1
330
E2
 75
     2
 76
     1
 98
        1
 10
0.0
 20
0.0
450
        0
451
        0
460
0.0
461
0.0
452
        0
462
0.0
453
        0
470

  0
SPLINE
  5
E4
330
DC
100
AcDbEntity
  8
レイヤー 1
100
AcDbSpline
210
0.0
220
0.0
230
1.0
 70
    11
 71
     3
 72
    17
 73
    13
 74
     0
 42
0.0000000001
 43
0.0000000001
 40
0.0
 40
0.0
 40
0.0
 40
0.0
 40
1.0
 40
1.0
 40
1.0
 40
2.0
 40
2.0
 40
2.0
 40
3.0
 40
3.0
 40
3.0
 40
4.0
 40
4.0
 40
4.0
 40
4.0
 10
109.6928737790004
 20
-134.2274657867556
 30
0.0
 10
109.6928737790004
 20
-134.2274657867556
 30
0.0
 10
108.9862846949756
 20
-134.2274657867556
 30
0.0
 10
108.9862846949756
 20
-134.2274657867556
 30
0.0
 10
108.9862846949756
 20
-134.2274657867556
 30
0.0
 10
108.9862846949756
 20
-134.3416707020917
 30
0.0
 10
108.9862846949756
 20
-134.3416707020917
 30
0.0
 10
108.9862846949756
 20
-134.3416707020917
 30
0.0
 10
109.6928737790004
 20
-134.3416707020917
 30
0.0
 10
109.6928737790004
 20
-134.3416707020917
 30
0.0
 10
109.6928737790004
 20
-134.3416707020917
 30
0.0
 10
109.6928737790004
 20
-134.2274657867556
 30
0.0
 10
109.6928737790004
 20
-134.2274657867556
 30
0.0
  0
SPLINE
  5
E5
330
DC
100
AcDbEntity
  8
レイヤー 1
100
AcDbSpline
210
0.0
220
0.0
230
1.0
 70
    11
 71
     3
 72
    17
 73
    13
 74
     0
 42
0.0000000001
 43
0.0000000001
 40
0.0
 40
0.0
 40
0.0
 40
0.0
 40
1.0
 40
1.0
 40
1.0
 40
2.0
 40
2.0
 40
2.0
 40
3.0
 40
3.0
 40
3.0
 40
4.0
 40
4.0
 40
4.0
 40
4.0
 10
109.6928737790004
 20
-133.9840697907227
 30
0.0
 10
109.6928737790004
 20
-133.9840697907227
 30
0.0
 10
108.9862846949756
 20
-133.9840697907227
 30
0.0
 10
108.9862846949756
 20
-133.9840697907227
 30
0.0
 10
108.9862846949756
 20
-133.9840697907227
 30
0.0
 10
108.9862846949756
 20
-134.098446960833
 30
0.0
 10
108.9862846949756
 20
-134.098446960833
 30
0.0
 10
108.9862846949756
 20
-134.098446960833
 30
0.0
 10
109.6928737790004
 20
-134.098446960833
 30
0.0
 10
109.6928737790004
 20
-134.098446960833
 30
0.0
 10
109.6928737790004
 20
-134.098446960833
 30
0.0
 10
109.6928737790004
 20
-133.9840697907227
 30
0.0
 10
109.6928737790004
 20
-133.9840697907227
 30
0.0
  0
SPLINE
  5
E6
330
DC
100
AcDbEntity
  8
レイヤー 1
100
AcDbSpline
210
0.0
220
0.0
230
1.0
 70
    11
 71
     3
 72
    17
 73
    13
 74
     0
 42
0.0000000001
 43
0.0000000001
 40
0.0
 40
0.0
 40
0.0
 40
0.0
 40
1.0
 40
1.0
 40
1.0
 40
2.0
 40
2.0
 40
2.0
 40
3.0
 40
3.0
 40
3.0
 40
4.0
 40
4.0
 40
4.0
 40
4.0
 10
109.6928737790004
 20
-133.7513535906941
 30
0.0
 10
109.6928737790004
 20
-133.7513535906941
 30
0.0
 10
108.9862846949756
 20
-133.7513535906941
 30
0.0
 10
108.9862846949756
 20
-133.7513535906941
 30
0.0
 10
108.9862846949756
 20
-133.7513535906941
 30
0.0
 10
108.9862846949756
 20
-133.8593573341567
 30
0.0
 10
108.9862846949756
 20
-133.8593573341567
 30
0.0
 10
108.9862846949756
 20
-133.8593573341567
 30
0.0
 10
109.6928737790004
 20
-133.8593573341567
 30
0.0
 10
109.6928737790004
 20
-133.8593573341567
 30
0.0
 10
109.6928737790004
 20
-133.8593573341567
 30
0.0
 10
109.6928737790004
 20
-133.7513535906941
 30
0.0
 10
109.6928737790004
 20
-133.7513535906941
 30
0.0
  0
SPLINE
  5
E7
330
DC
100
AcDbEntity
  8
レイヤー 1
100
AcDbSpline
210
0.0
220
0.0
230
1.0
 70
     9
 71
     3
 72
   203
 73
   199
 74
     0
 42
0.0000000001
 43
0.0000000001
 40
0.0
 40
0.0
 40
0.0
 40
0.0
 40
1.0
 40
1.0
 40
1.0
 40
2.0
 40
2.0
 40
2.0
 40
3.0
 40
3.0
 40
3.0
 40
4.0
 40
4.0
 40
4.0
 40
5.0
 40
5.0
 40
5.0
 40
6.0
 40
6.0
 40
6.0
 40
7.0
 40
7.0
 40
7.0
 40
8.0
 40
8.0
 40
8.0
 40
9.0
 40
9.0
 40
9.0
 40
10.0
 40
10.0
 40
10.0
 40
11.0
 40
11.0
 40
11.0
 40
12.0
 40
12.0
 40
12.0
 40
13.0
 40
13.0
 40
13.0
 40
14.0
 40
14.0
 40
14.0
 40
15.0
 40
15.0
 40
15.0
 40
16.0
 40
16.0
 40
16.0
 40
17.0
 40
17.0
 40
17.0
 40
18.0
 40
18.0
 40
18.0
 40
19.0
 40
19.0
 40
19.0
 40
20.0
 40
20.0
 40
20.0
 40
21.0
 40
21.0
 40
21.0
 40
22.0
 40
22.0
 40
22.0
 40
23.0
 40
23.0
 40
23.0
 40
24.0
 40
24.0
 40
24.0
 40
25.0
 40
25.0
 40
25.0
 40
26.0
 40
26.0
 40
26.0
 40
27.0
 40
27.0
 40
27.0
 40
28.0
 40
28.0
 40
28.0
 40
29.0
 40
29.0
 40
29.0
 40
30.0
 40
30.0
 40
30.0
 40
31.0
 40
31.0
 40
31.0
 40
32.0
 40
32.0
 40
32.0
 40
33.0
 40
33.0
 40
33.0
 40
34.0
 40
34.0
 40
34.0
 40
35.0
 40
35.0
 40
35.0
 40
36.0
 40
36.0
 40
36.0
 40
37.0
 40
37.0
 40
37.0
 40
38.0
 40
38.0
 40
38.0
 40
39.0
 40
39.0
 40
39.0
 40
40.0
 40
40.0
 40
40.0
 40
41.0
 40
41.0
 40
41.0
 40
42.0
 40
42.0
 40
42.0
 40
43.0
 40
43.0
 40
43.0
 40
44.0
 40
44.0
 40
44.0
 40
45.0
 40
45.0
 40
45.0
 40
46.0
 40
46.0
 40
46.0
 40
47.0
 40
47.0
 40
47.0
 40
48.0
 40
48.0
 40
48.0
 40
49.0
 40
49.0
 40
49.0
 40
50.0
 40
50.0
 40
50.0
 40
51.0
 40
51.0
 40
51.0
 40
52.0
 40
52.0
 40
52.0
 40
53.0
 40
53.0
 40
53.0
 40
54.0
 40
54.0
 40
54.0
 40
55.0
 40
55.0
 40
55.0
 40
56.0
 40
56.0
 40
56.0
 40
57.0
 40
57.0
 40
57.0
 40
58.0
 40
58.0
 40
58.0
 40
59.0
 40
59.0
 40
59.0
 40
60.0
 40
60.0
 40
60.0
 40
61.0
 40
61.0
 40
61.0
 40
62.0
 40
62.0
 40
62.0
 40
63.0
 40
63.0
 40
63.0
 40
64.0
 40
64.0
 40
64.0
 40
65.0
 40
65.0
 40
65.0
 40
66.0
 40
66.0
 40
66.0
 40
66.0
 10
109.5278537052569
 20
-133.49538299614
 30
0.0
 10
109.5278537052569
 20
-133.49538299614
 30
0.0
 10
108.9690592175494
 20
-133.49538299614
 30
0.0
 10
108.9690592175494
 20
-133.49538299614
 30
0.0
 10
108.9587239310936
 20
-133.5398247278998
 30
0.0
 10
108.9501111923805
 20
-133.571519606364
 30
0.0
 10
108.9373643390851
 20
-133.6097601662503
 30
0.0
 10
108.9628580456759
 20
-133.6097601662503
 30
0.0
 10
108.9776719562625
 20
-133.6118272235415
 30
0.0
 10
108.983873128136
 20
-133.6118272235415
 30
0.0
 10
108.983873128136
 20
-133.6118272235415
 30
0.0
 10
109.1723198511791
 20
-133.6118272235415
 30
0.0
 10
109.1723198511791
 20
-133.6118272235415
 30
0.0
 10
109.1723198511791
 20
-133.6118272235415
 30
0.0
 10
109.5468017304258
 20
-133.6118272235415
 30
0.0
 10
109.5468017304258
 20
-133.6118272235415
 30
0.0
 10
109.597444634059
 20
-133.6118272235415
 30
0.0
 10
109.880975992495
 20
-133.5990803702461
 30
0.0
 10
109.9126708709593
 20
-133.5990803702461
 30
0.0
 10
109.9106038136682
 20
-133.626641134128
 30
0.0
 10
109.908536756377
 20
-133.6455891592969
 30
0.0
 10
109.908536756377
 20
-133.6752169804701
 30
0.0
 10
109.9064696990859
 20
-133.7069118589343
 30
0.0
 10
109.9064696990859
 20
-133.8423041115047
 30
0.0
 10
109.9064696990859
 20
-133.8698648753867
 30
0.0
 10
109.9064696990859
 20
-133.8698648753867
 30
0.0
 10
109.9064696990859
 20
-134.1153279287107
 30
0.0
 10
109.9064696990859
 20
-134.1153279287107
 30
0.0
 10
109.9064696990859
 20
-134.1597696604705
 30
0.0
 10
109.9106038136682
 20
-134.3564846126782
 30
0.0
 10
109.9147379282505
 20
-134.5087578331263
 30
0.0
 10
109.9147379282505
 20
-134.5087578331263
 30
0.0
 10
109.6883951548695
 20
-134.5087578331263
 30
0.0
 10
109.6883951548695
 20
-134.5087578331263
 30
0.0
 10
109.6883951548695
 20
-134.5087578331263
 30
0.0
 10
109.6904622121607
 20
-134.4749958973708
 30
0.0
 10
109.6904622121607
 20
-134.4749958973708
 30
0.0
 10
109.6904622121607
 20
-134.4749958973708
 30
0.0
 10
108.9883517522668
 20
-134.4749958973708
 30
0.0
 10
108.9883517522668
 20
-134.4749958973708
 30
0.0
 10
108.9883517522668
 20
-134.4749958973708
 30
0.0
 10
108.9904188095579
 20
-134.5087578331263
 30
0.0
 10
108.9904188095579
 20
-134.5087578331263
 30
0.0
 10
108.9904188095579
 20
-134.5087578331263
 30
0.0
 10
108.7723442653416
 20
-134.5087578331263
 30
0.0
 10
108.7723442653416
 20
-134.5087578331263
 30
0.0
 10
108.7768228894725
 20
-134.4538085601366
 30
0.0
 10
108.7768228894725
 20
-134.4410617068411
 30
0.0
 10
108.7830240613459
 20
-134.3268567915051
 30
0.0
 10
108.7850911186371
 20
-134.2992960276231
 30
0.0
 10
108.7871581759282
 20
-134.1661430871182
 30
0.0
 10
108.7871581759282
 20
-134.147022807175
 30
0.0
 10
108.7871581759282
 20
-134.147022807175
 30
0.0
 10
108.7871581759282
 20
-133.9439344283195
 30
0.0
 10
108.7871581759282
 20
-133.9439344283195
 30
0.0
 10
108.6476318087756
 20
-134.1935315962259
 30
0.0
 10
108.4784776204498
 20
-134.3247897342139
 30
0.0
 10
108.3727131890526
 20
-134.3902465484337
 30
0.0
 10
108.3727131890526
 20
-134.3902465484337
 30
0.0
 10
108.199080376596
 20
-134.2507201812811
 30
0.0
 10
108.199080376596
 20
-134.2507201812811
 30
0.0
 10
108.2879638401155
 20
-134.1999050228736
 30
0.0
 10
108.4319688313989
 20
-134.1130886166453
 30
0.0
 10
108.5694281412604
 20
-133.918612976503
 30
0.0
 10
108.660378662071
 20
-133.7916612078715
 30
0.0
 10
108.7258354762908
 20
-133.6478284713623
 30
0.0
 10
108.7599419215947
 20
-133.49538299614
 30
0.0
 10
108.5311875813741
 20
-133.4976223082054
 30
0.0
 10
108.3513535970441
 20
-133.5039957348531
 30
0.0
 10
108.2562689616512
 20
-133.5060627921443
 30
0.0
 10
108.2562689616512
 20
-133.5060627921443
 30
0.0
 10
108.2562689616512
 20
-133.3282958651054
 30
0.0
 10
108.2562689616512
 20
-133.3282958651054
 30
0.0
 10
108.452983913859
 20
-133.3346692917531
 30
0.0
 10
108.736515272295
 20
-133.3389756611097
 30
0.0
 10
108.8867214354519
 20
-133.3389756611097
 30
0.0
 10
108.8867214354519
 20
-133.3389756611097
 30
0.0
 10
109.1003173555374
 20
-133.3389756611097
 30
0.0
 10
109.1003173555374
 20
-133.3389756611097
 30
0.0
 10
109.1003173555374
 20
-133.3389756611097
 30
0.0
 10
109.1003173555374
 20
-133.2309719176471
 30
0.0
 10
109.1003173555374
 20
-133.2309719176471
 30
0.0
 10
109.1003173555374
 20
-133.2309719176471
 30
0.0
 10
108.9542453069628
 20
-133.2309719176471
 30
0.0
 10
108.9542453069628
 20
-133.2309719176471
 30
0.0
 10
108.7850911186371
 20
-133.2309719176471
 30
0.0
 10
108.6159369303113
 20
-133.2352782870037
 30
0.0
 10
108.4488497992767
 20
-133.2416517136514
 30
0.0
 10
108.4488497992767
 20
-133.2416517136514
 30
0.0
 10
108.4488497992767
 20
-133.0702582132602
 30
0.0
 10
108.4488497992767
 20
-133.0702582132602
 30
0.0
 10
108.6031900770158
 20
-133.0807657544902
 30
0.0
 10
108.7892252332193
 20
-133.0807657544902
 30
0.0
 10
108.9542453069628
 20
-133.0807657544902
 30
0.0
 10
108.9542453069628
 20
-133.0807657544902
 30
0.0
 10
109.1003173555374
 20
-133.0807657544902
 30
0.0
 10
109.1003173555374
 20
-133.0807657544902
 30
0.0
 10
109.1003173555374
 20
-133.0807657544902
 30
0.0
 10
109.1003173555374
 20
-132.9624267245719
 30
0.0
 10
109.1003173555374
 20
-132.9624267245719
 30
0.0
 10
109.1003173555374
 20
-132.9624267245719
 30
0.0
 10
108.9690592175494
 20
-132.9624267245719
 30
0.0
 10
108.9690592175494
 20
-132.9624267245719
 30
0.0
 10
108.9225504284985
 20
-132.9624267245719
 30
0.0
 10
108.7196343044173
 20
-132.9708672085107
 30
0.0
 10
108.6772596299487
 20
-132.9708672085107
 30
0.0
 10
108.4743435058675
 20
-132.9750013230931
 30
0.0
 10
108.397862386095
 20
-132.9770683803842
 30
0.0
 10
108.3196587185798
 20
-132.9793076924496
 30
0.0
 10
108.3196587185798
 20
-132.9793076924496
 30
0.0
 10
108.3196587185798
 20
-132.795167338763
 30
0.0
 10
108.3196587185798
 20
-132.795167338763
 30
0.0
 10
108.4340358886901
 20
-132.8036078227019
 30
0.0
 10
108.4784776204498
 20
-132.8036078227019
 30
0.0
 10
108.8612277288611
 20
-132.812220561415
 30
0.0
 10
108.7978379719325
 20
-132.7169636712478
 30
0.0
 10
108.7702772080505
 20
-132.6894029073658
 30
0.0
 10
108.7344482150039
 20
-132.653401659545
 30
0.0
 10
108.7344482150039
 20
-132.653401659545
 30
0.0
 10
108.9098035752031
 20
-132.5708916226732
 30
0.0
 10
108.9098035752031
 20
-132.5708916226732
 30
0.0
 10
108.9501111923805
 20
-132.6068928704941
 30
0.0
 10
108.9945529241402
 20
-132.6492675449627
 30
0.0
 10
109.0686224770731
 20
-132.7591660909421
 30
0.0
 10
109.0686224770731
 20
-132.7591660909421
 30
0.0
 10
108.9542453069628
 20
-132.8142876187061
 30
0.0
 10
108.9542453069628
 20
-132.8142876187061
 30
0.0
 10
108.9542453069628
 20
-132.8142876187061
 30
0.0
 10
108.9649251029671
 20
-132.8142876187061
 30
0.0
 10
108.9649251029671
 20
-132.8142876187061
 30
0.0
 10
108.9649251029671
 20
-132.8142876187061
 30
0.0
 10
109.4875460880795
 20
-132.8142876187061
 30
0.0
 10
109.4875460880795
 20
-132.8142876187061
 30
0.0
 10
109.4875460880795
 20
-132.8142876187061
 30
0.0
 10
109.3924614526866
 20
-132.7698458869464
 30
0.0
 10
109.3924614526866
 20
-132.7698458869464
 30
0.0
 10
109.4196777070201
 20
-132.7317775818344
 30
0.0
 10
109.4768662920752
 20
-132.6513346022538
 30
0.0
 10
109.4916802026618
 20
-132.5772650493209
 30
0.0
 10
109.4916802026618
 20
-132.5772650493209
 30
0.0
 10
109.7052761227473
 20
-132.6408270610238
 30
0.0
 10
109.7052761227473
 20
-132.6408270610238
 30
0.0
 10
109.7138888614604
 20
-132.642894118315
 30
0.0
 10
109.7349039439204
 20
-132.653401659545
 30
0.0
 10
109.7349039439204
 20
-132.6745889967793
 30
0.0
 10
109.7349039439204
 20
-132.7126573018913
 30
0.0
 10
109.6694471297007
 20
-132.7126573018913
 30
0.0
 10
109.6504991045318
 20
-132.7126573018913
 30
0.0
 10
109.6398193085275
 20
-132.7317775818344
 30
0.0
 10
109.6163926592278
 20
-132.7719129442376
 30
0.0
 10
109.5867648380547
 20
-132.812220561415
 30
0.0
 10
109.9867404238922
 20
-132.8058471347673
 30
0.0
 10
110.0163682450653
 20
-132.8036078227019
 30
0.0
 10
110.0925048552894
 20
-132.7974066508284
 30
0.0
 10
110.0925048552894
 20
-132.7974066508284
 30
0.0
 10
110.0925048552894
 20
-132.9793076924496
 30
0.0
 10
110.0925048552894
 20
-132.9793076924496
 30
0.0
 10
110.0735568301205
 20
-132.9793076924496
 30
0.0
 10
110.0480631235296
 20
-132.9770683803842
 30
0.0
 10
109.8282660315707
 20
-132.9686278964453
 30
0.0
 10
109.777278618389
 20
-132.9665608391542
 30
0.0
 10
109.5574815264301
 20
-132.9624267245719
 30
0.0
 10
109.5130397946703
 20
-132.9624267245719
 30
0.0
 10
109.5130397946703
 20
-132.9624267245719
 30
0.0
 10
109.2970323077452
 20
-132.9624267245719
 30
0.0
 10
109.2970323077452
 20
-132.9624267245719
 30
0.0
 10
109.2970323077452
 20
-132.9624267245719
 30
0.0
 10
109.2970323077452
 20
-133.0807657544902
 30
0.0
 10
109.2970323077452
 20
-133.0807657544902
 30
0.0
 10
109.2970323077452
 20
-133.0807657544902
 30
0.0
 10
109.4706651202018
 20
-133.0807657544902
 30
0.0
 10
109.4706651202018
 20
-133.0807657544902
 30
0.0
 10
109.6336181366541
 20
-133.0807657544902
 30
0.0
 10
109.8237874074399
 20
-133.0807657544902
 30
0.0
 10
109.9805392520187
 20
-133.0702582132602
 30
0.0
 10
109.9805392520187
 20
-133.0702582132602
 30
0.0
 10
109.9805392520187
 20
-133.2416517136514
 30
0.0
 10
109.9805392520187
 20
-133.2416517136514
 30
0.0
 10
109.7710774465155
 20
-133.2332112297125
 30
0.0
 10
109.5743624943078
 20
-133.2309719176471
 30
0.0
 10
109.4706651202018
 20
-133.2309719176471
 30
0.0
 10
109.4706651202018
 20
-133.2309719176471
 30
0.0
 10
109.2970323077452
 20
-133.2309719176471
 30
0.0
 10
109.2970323077452
 20
-133.2309719176471
 30
0.0
 10
109.2970323077452
 20
-133.2309719176471
 30
0.0
 10
109.2970323077452
 20
-133.3389756611097
 30
0.0
 10
109.2970323077452
 20
-133.3389756611097
 30
0.0
 10
109.2970323077452
 20
-133.3389756611097
 30
0.0
 10
109.5278537052569
 20
-133.3389756611097
 30
0.0
 10
109.5278537052569
 20
-133.3389756611097
 30
0.0
 10
109.6608343909875
 20
-133.3389756611097
 30
0.0
 10
109.9488443735545
 20
-133.3346692917531
 30
0.0
 10
110.1579616695091
 20
-133.3282958651054
 30
0.0
 10
110.1579616695091
 20
-133.3282958651054
 30
0.0
 10
110.1579616695091
 20
-133.5060627921443
 30
0.0
 10
110.1579616695091
 20
-133.5060627921443
 30
0.0
 10
109.9657253414322
 20
-133.4996893654966
 30
0.0
 10
109.6525661618229
 20
-133.49538299614
 30
0.0
 10
109.5278537052569
 20
-133.49538299614
 30
0.0
  0
HATCH
  5
E8
330
DC
100
AcDbEntity
  8
レイヤー 1
 62
   250
420
  2299925
440
 33554687
100
AcDbHatch
 10
0.0
 20
0.0
 30
0.0
210
0.0
220
0.0
230
1.0
  2
SOLID
 70
     1
 71
     1
 91
        4
 92
        1
 93
        1
 72
     4
 94
        3
 73
     0
 74
     0
 95
       17
 96
       13
 40
0.0
 40
0.0
 40
0.0
 40
0.0
 40
1.0
 40
1.0
 40
1.0
 40
2.0
 40
2.0
 40
2.0
 40
3.0
 40
3.0
 40
3.0
 40
4.0
 40
4.0
 40
4.0
 40
4.0
 10
109.6928737790004
 20
-134.2274657867556
 10
109.6928737790004
 20
-134.2274657867556
 10
108.9862846949756
 20
-134.2274657867556
 10
108.9862846949756
 20
-134.2274657867556
 10
108.9862846949756
 20
-134.2274657867556
 10
108.9862846949756
 20
-134.3416707020917
 10
108.9862846949756
 20
-134.3416707020917
 10
108.9862846949756
 20
-134.3416707020917
 10
109.6928737790004
 20
-134.3416707020917
 10
109.6928737790004
 20
-134.3416707020917
 10
109.6928737790004
 20
-134.3416707020917
 10
109.6928737790004
 20
-134.2274657867556
 10
109.6928737790004
 20
-134.2274657867556
 97
        0
 97
        1
330
E4
 92
        1
 93
        1
 72
     4
 94
        3
 73
     0
 74
     0
 95
       17
 96
       13
 40
0.0
 40
0.0
 40
0.0
 40
0.0
 40
1.0
 40
1.0
 40
1.0
 40
2.0
 40
2.0
 40
2.0
 40
3.0
 40
3.0
 40
3.0
 40
4.0
 40
4.0
 40
4.0
 40
4.0
 10
109.6928737790004
 20
-133.9840697907227
 10
109.6928737790004
 20
-133.9840697907227
 10
108.9862846949756
 20
-133.9840697907227
 10
108.9862846949756
 20
-133.9840697907227
 10
108.9862846949756
 20
-133.9840697907227
 10
108.9862846949756
 20
-134.098446960833
 10
108.9862846949756
 20
-134.098446960833
 10
108.9862846949756
 20
-134.098446960833
 10
109.6928737790004
 20
-134.098446960833
 10
109.6928737790004
 20
-134.098446960833
 10
109.6928737790004
 20
-134.098446960833
 10
109.6928737790004
 20
-133.9840697907227
 10
109.6928737790004
 20
-133.9840697907227
 97
        0
 97
        1
330
E5
 92
        1
 93
        1
 72
     4
 94
        3
 73
     0
 74
     0
 95
       17
 96
       13
 40
0.0
 40
0.0
 40
0.0
 40
0.0
 40
1.0
 40
1.0
 40
1.0
 40
2.0
 40
2.0
 40
2.0
 40
3.0
 40
3.0
 40
3.0
 40
4.0
 40
4.0
 40
4.0
 40
4.0
 10
109.6928737790004
 20
-133.7513535906941
 10
109.6928737790004
 20
-133.7513535906941
 10
108.9862846949756
 20
-133.7513535906941
 10
108.9862846949756
 20
-133.7513535906941
 10
108.9862846949756
 20
-133.7513535906941
 10
108.9862846949756
 20
-133.8593573341567
 10
108.9862846949756
 20
-133.8593573341567
 10
108.9862846949756
 20
-133.8593573341567
 10
109.6928737790004
 20
-133.8593573341567
 10
109.6928737790004
 20
-133.8593573341567
 10
109.6928737790004
 20
-133.8593573341567
 10
109.6928737790004
 20
-133.7513535906941
 10
109.6928737790004
 20
-133.7513535906941
 97
        0
 97
        1
330
E6
 92
        1
 93
        1
 72
     4
 94
        3
 73
     0
 74
     0
 95
      203
 96
      199
 40
0.0
 40
0.0
 40
0.0
 40
0.0
 40
1.0
 40
1.0
 40
1.0
 40
2.0
 40
2.0
 40
2.0
 40
3.0
 40
3.0
 40
3.0
 40
4.0
 40
4.0
 40
4.0
 40
5.0
 40
5.0
 40
5.0
 40
6.0
 40
6.0
 40
6.0
 40
7.0
 40
7.0
 40
7.0
 40
8.0
 40
8.0
 40
8.0
 40
9.0
 40
9.0
 40
9.0
 40
10.0
 40
10.0
 40
10.0
 40
11.0
 40
11.0
 40
11.0
 40
12.0
 40
12.0
 40
12.0
 40
13.0
 40
13.0
 40
13.0
 40
14.0
 40
14.0
 40
14.0
 40
15.0
 40
15.0
 40
15.0
 40
16.0
 40
16.0
 40
16.0
 40
17.0
 40
17.0
 40
17.0
 40
18.0
 40
18.0
 40
18.0
 40
19.0
 40
19.0
 40
19.0
 40
20.0
 40
20.0
 40
20.0
 40
21.0
 40
21.0
 40
21.0
 40
22.0
 40
22.0
 40
22.0
 40
23.0
 40
23.0
 40
23.0
 40
24.0
 40
24.0
 40
24.0
 40
25.0
 40
25.0
 40
25.0
 40
26.0
 40
26.0
 40
26.0
 40
27.0
 40
27.0
 40
27.0
 40
28.0
 40
28.0
 40
28.0
 40
29.0
 40
29.0
 40
29.0
 40
30.0
 40
30.0
 40
30.0
 40
31.0
 40
31.0
 40
31.0
 40
32.0
 40
32.0
 40
32.0
 40
33.0
 40
33.0
 40
33.0
 40
34.0
 40
34.0
 40
34.0
 40
35.0
 40
35.0
 40
35.0
 40
36.0
 40
36.0
 40
36.0
 40
37.0
 40
37.0
 40
37.0
 40
38.0
 40
38.0
 40
38.0
 40
39.0
 40
39.0
 40
39.0
 40
40.0
 40
40.0
 40
40.0
 40
41.0
 40
41.0
 40
41.0
 40
42.0
 40
42.0
 40
42.0
 40
43.0
 40
43.0
 40
43.0
 40
44.0
 40
44.0
 40
44.0
 40
45.0
 40
45.0
 40
45.0
 40
46.0
 40
46.0
 40
46.0
 40
47.0
 40
47.0
 40
47.0
 40
48.0
 40
48.0
 40
48.0
 40
49.0
 40
49.0
 40
49.0
 40
50.0
 40
50.0
 40
50.0
 40
51.0
 40
51.0
 40
51.0
 40
52.0
 40
52.0
 40
52.0
 40
53.0
 40
53.0
 40
53.0
 40
54.0
 40
54.0
 40
54.0
 40
55.0
 40
55.0
 40
55.0
 40
56.0
 40
56.0
 40
56.0
 40
57.0
 40
57.0
 40
57.0
 40
58.0
 40
58.0
 40
58.0
 40
59.0
 40
59.0
 40
59.0
 40
60.0
 40
60.0
 40
60.0
 40
61.0
 40
61.0
 40
61.0
 40
62.0
 40
62.0
 40
62.0
 40
63.0
 40
63.0
 40
63.0
 40
64.0
 40
64.0
 40
64.0
 40
65.0
 40
65.0
 40
65.0
 40
66.0
 40
66.0
 40
66.0
 40
66.0
 10
109.5278537052569
 20
-133.49538299614
 10
109.5278537052569
 20
-133.49538299614
 10
108.9690592175494
 20
-133.49538299614
 10
108.9690592175494
 20
-133.49538299614
 10
108.9587239310936
 20
-133.5398247278998
 10
108.9501111923805
 20
-133.571519606364
 10
108.9373643390851
 20
-133.6097601662503
 10
108.9628580456759
 20
-133.6097601662503
 10
108.9776719562625
 20
-133.6118272235415
 10
108.983873128136
 20
-133.6118272235415
 10
108.983873128136
 20
-133.6118272235415
 10
109.1723198511791
 20
-133.6118272235415
 10
109.1723198511791
 20
-133.6118272235415
 10
109.1723198511791
 20
-133.6118272235415
 10
109.5468017304258
 20
-133.6118272235415
 10
109.5468017304258
 20
-133.6118272235415
 10
109.597444634059
 20
-133.6118272235415
 10
109.880975992495
 20
-133.5990803702461
 10
109.9126708709593
 20
-133.5990803702461
 10
109.9106038136682
 20
-133.626641134128
 10
109.908536756377
 20
-133.6455891592969
 10
109.908536756377
 20
-133.6752169804701
 10
109.9064696990859
 20
-133.7069118589343
 10
109.9064696990859
 20
-133.8423041115047
 10
109.9064696990859
 20
-133.8698648753867
 10
109.9064696990859
 20
-133.8698648753867
 10
109.9064696990859
 20
-134.1153279287107
 10
109.9064696990859
 20
-134.1153279287107
 10
109.9064696990859
 20
-134.1597696604705
 10
109.9106038136682
 20
-134.3564846126782
 10
109.9147379282505
 20
-134.5087578331263
 10
109.9147379282505
 20
-134.5087578331263
 10
109.6883951548695
 20
-134.5087578331263
 10
109.6883951548695
 20
-134.5087578331263
 10
109.6883951548695
 20
-134.5087578331263
 10
109.6904622121607
 20
-134.4749958973708
 10
109.6904622121607
 20
-134.4749958973708
 10
109.6904622121607
 20
-134.4749958973708
 10
108.9883517522668
 20
-134.4749958973708
 10
108.9883517522668
 20
-134.4749958973708
 10
108.9883517522668
 20
-134.4749958973708
 10
108.9904188095579
 20
-134.5087578331263
 10
108.9904188095579
 20
-134.5087578331263
 10
108.9904188095579
 20
-134.5087578331263
 10
108.7723442653416
 20
-134.5087578331263
 10
108.7723442653416
 20
-134.5087578331263
 10
108.7768228894725
 20
-134.4538085601366
 10
108.7768228894725
 20
-134.4410617068411
 10
108.7830240613459
 20
-134.3268567915051
 10
108.7850911186371
 20
-134.2992960276231
 10
108.7871581759282
 20
-134.1661430871182
 10
108.7871581759282
 20
-134.147022807175
 10
108.7871581759282
 20
-134.147022807175
 10
108.7871581759282
 20
-133.9439344283195
 10
108.7871581759282
 20
-133.9439344283195
 10
108.6476318087756
 20
-134.1935315962259
 10
108.4784776204498
 20
-134.3247897342139
 10
108.3727131890526
 20
-134.3902465484337
 10
108.3727131890526
 20
-134.3902465484337
 10
108.199080376596
 20
-134.2507201812811
 10
108.199080376596
 20
-134.2507201812811
 10
108.2879638401155
 20
-134.1999050228736
 10
108.4319688313989
 20
-134.1130886166453
 10
108.5694281412604
 20
-133.918612976503
 10
108.660378662071
 20
-133.7916612078715
 10
108.7258354762908
 20
-133.6478284713623
 10
108.7599419215947
 20
-133.49538299614
 10
108.5311875813741
 20
-133.4976223082054
 10
108.3513535970441
 20
-133.5039957348531
 10
108.2562689616512
 20
-133.5060627921443
 10
108.2562689616512
 20
-133.5060627921443
 10
108.2562689616512
 20
-133.3282958651054
 10
108.2562689616512
 20
-133.3282958651054
 10
108.452983913859
 20
-133.3346692917531
 10
108.736515272295
 20
-133.3389756611097
 10
108.8867214354519
 20
-133.3389756611097
 10
108.8867214354519
 20
-133.3389756611097
 10
109.1003173555374
 20
-133.3389756611097
 10
109.1003173555374
 20
-133.3389756611097
 10
109.1003173555374
 20
-133.3389756611097
 10
109.1003173555374
 20
-133.2309719176471
 10
109.1003173555374
 20
-133.2309719176471
 10
109.1003173555374
 20
-133.2309719176471
 10
108.9542453069628
 20
-133.2309719176471
 10
108.9542453069628
 20
-133.2309719176471
 10
108.7850911186371
 20
-133.2309719176471
 10
108.6159369303113
 20
-133.2352782870037
 10
108.4488497992767
 20
-133.2416517136514
 10
108.4488497992767
 20
-133.2416517136514
 10
108.4488497992767
 20
-133.0702582132602
 10
108.4488497992767
 20
-133.0702582132602
 10
108.6031900770158
 20
-133.0807657544902
 10
108.7892252332193
 20
-133.0807657544902
 10
108.9542453069628
 20
-133.0807657544902
 10
108.9542453069628
 20
-133.0807657544902
 10
109.1003173555374
 20
-133.0807657544902
 10
109.1003173555374
 20
-133.0807657544902
 10
109.1003173555374
 20
-133.0807657544902
 10
109.1003173555374
 20
-132.9624267245719
 10
109.1003173555374
 20
-132.9624267245719
 10
109.1003173555374
 20
-132.9624267245719
 10
108.9690592175494
 20
-132.9624267245719
 10
108.9690592175494
 20
-132.9624267245719
 10
108.9225504284985
 20
-132.9624267245719
 10
108.7196343044173
 20
-132.9708672085107
 10
108.6772596299487
 20
-132.9708672085107
 10
108.4743435058675
 20
-132.9750013230931
 10
108.397862386095
 20
-132.9770683803842
 10
108.3196587185798
 20
-132.9793076924496
 10
108.3196587185798
 20
-132.9793076924496
 10
108.3196587185798
 20
-132.795167338763
 10
108.3196587185798
 20
-132.795167338763
 10
108.4340358886901
 20
-132.8036078227019
 10
108.4784776204498
 20
-132.8036078227019
 10
108.8612277288611
 20
-132.812220561415
 10
108.7978379719325
 20
-132.7169636712478
 10
108.7702772080505
 20
-132.6894029073658
 10
108.7344482150039
 20
-132.653401659545
 10
108.7344482150039
 20
-132.653401659545
 10
108.9098035752031
 20
-132.5708916226732
 10
108.9098035752031
 20
-132.5708916226732
 10
108.9501111923805
 20
-132.6068928704941
 10
108.9945529241402
 20
-132.6492675449627
 10
109.0686224770731
 20
-132.7591660909421
 10
109.0686224770731
 20
-132.7591660909421
 10
108.9542453069628
 20
-132.8142876187061
 10
108.9542453069628
 20
-132.8142876187061
 10
108.9542453069628
 20
-132.8142876187061
 10
108.9649251029671
 20
-132.8142876187061
 10
108.9649251029671
 20
-132.8142876187061
 10
108.9649251029671
 20
-132.8142876187061
 10
109.4875460880795
 20
-132.8142876187061
 10
109.4875460880795
 20
-132.8142876187061
 10
109.4875460880795
 20
-132.8142876187061
 10
109.3924614526866
 20
-132.7698458869464
 10
109.3924614526866
 20
-132.7698458869464
 10
109.4196777070201
 20
-132.7317775818344
 10
109.4768662920752
 20
-132.6513346022538
 10
109.4916802026618
 20
-132.5772650493209
 10
109.4916802026618
 20
-132.5772650493209
 10
109.7052761227473
 20
-132.6408270610238
 10
109.7052761227473
 20
-132.6408270610238
 10
109.7138888614604
 20
-132.642894118315
 10
109.7349039439204
 20
-132.653401659545
 10
109.7349039439204
 20
-132.6745889967793
 10
109.7349039439204
 20
-132.7126573018913
 10
109.6694471297007
 20
-132.7126573018913
 10
109.6504991045318
 20
-132.7126573018913
 10
109.6398193085275
 20
-132.7317775818344
 10
109.6163926592278
 20
-132.7719129442376
 10
109.5867648380547
 20
-132.812220561415
 10
109.9867404238922
 20
-132.8058471347673
 10
110.0163682450653
 20
-132.8036078227019
 10
110.0925048552894
 20
-132.7974066508284
 10
110.0925048552894
 20
-132.7974066508284
 10
110.0925048552894
 20
-132.9793076924496
 10
110.0925048552894
 20
-132.9793076924496
 10
110.0735568301205
 20
-132.9793076924496
 10
110.0480631235296
 20
-132.9770683803842
 10
109.8282660315707
 20
-132.9686278964453
 10
109.777278618389
 20
-132.9665608391542
 10
109.5574815264301
 20
-132.9624267245719
 10
109.5130397946703
 20
-132.9624267245719
 10
109.5130397946703
 20
-132.9624267245719
 10
109.2970323077452
 20
-132.9624267245719
 10
109.2970323077452
 20
-132.9624267245719
 10
109.2970323077452
 20
-132.9624267245719
 10
109.2970323077452
 20
-133.0807657544902
 10
109.2970323077452
 20
-133.0807657544902
 10
109.2970323077452
 20
-133.0807657544902
 10
109.4706651202018
 20
-133.0807657544902
 10
109.4706651202018
 20
-133.0807657544902
 10
109.6336181366541
 20
-133.0807657544902
 10
109.8237874074399
 20
-133.0807657544902
 10
109.9805392520187
 20
-133.0702582132602
 10
109.9805392520187
 20
-133.0702582132602
 10
109.9805392520187
 20
-133.2416517136514
 10
109.9805392520187
 20
-133.2416517136514
 10
109.7710774465155
 20
-133.2332112297125
 10
109.5743624943078
 20
-133.2309719176471
 10
109.4706651202018
 20
-133.2309719176471
 10
109.4706651202018
 20
-133.2309719176471
 10
109.2970323077452
 20
-133.2309719176471
 10
109.2970323077452
 20
-133.2309719176471
 10
109.2970323077452
 20
-133.2309719176471
 10
109.2970323077452
 20
-133.3389756611097
 10
109.2970323077452
 20
-133.3389756611097
 10
109.2970323077452
 20
-133.3389756611097
 10
109.5278537052569
 20
-133.3389756611097
 10
109.5278537052569
 20
-133.3389756611097
 10
109.6608343909875
 20
-133.3389756611097
 10
109.9488443735545
 20
-133.3346692917531
 10
110.1579616695091
 20
-133.3282958651054
 10
110.1579616695091
 20
-133.3282958651054
 10
110.1579616695091
 20
-133.5060627921443
 10
110.1579616695091
 20
-133.5060627921443
 10
109.9657253414322
 20
-133.4996893654966
 10
109.6525661618229
 20
-133.49538299614
 10
109.5278537052569
 20
-133.49538299614
 97
        0
 97
        1
330
E7
 75
     2
 76
     1
 98
        1
 10
0.0
 20
0.0
450
        0
451
        0
460
0.0
461
0.0
452
        0
462
0.0
453
        0
470

  0
SPLINE
  5
E9
330
DC
100
AcDbEntity
  8
レイヤー 1
100
AcDbSpline
210
0.0
220
0.0
230
1.0
 70
     9
 71
     3
 72
    29
 73
    25
 74
     0
 42
0.0000000001
 43
0.0000000001
 40
0.0
 40
0.0
 40
0.0
 40
0.0
 40
1.0
 40
1.0
 40
1.0
 40
2.0
 40
2.0
 40
2.0
 40
3.0
 40
3.0
 40
3.0
 40
4.0
 40
4.0
 40
4.0
 40
5.0
 40
5.0
 40
5.0
 40
6.0
 40
6.0
 40
6.0
 40
7.0
 40
7.0
 40
7.0
 40
8.0
 40
8.0
 40
8.0
 40
8.0
 10
111.4030191778784
 20
-132.9433064446287
 30
0.0
 10
111.4030191778784
 20
-132.9433064446287
 30
0.0
 10
111.0495523810918
 20
-132.9433064446287
 30
0.0
 10
111.0495523810918
 20
-132.9433064446287
 30
0.0
 10
110.9375867778211
 20
-132.9433064446287
 30
0.0
 10
110.7980604106685
 20
-132.9496798712765
 30
0.0
 10
110.6902289219802
 20
-132.9624267245719
 30
0.0
 10
110.6902289219802
 20
-132.9624267245719
 30
0.0
 10
110.6902289219802
 20
-132.7274712124778
 30
0.0
 10
110.6902289219802
 20
-132.7274712124778
 30
0.0
 10
110.8083956971243
 20
-132.7422851230644
 30
0.0
 10
110.9927083055851
 20
-132.746591492421
 30
0.0
 10
111.0495523810918
 20
-132.746591492421
 30
0.0
 10
111.0495523810918
 20
-132.746591492421
 30
0.0
 10
111.4030191778784
 20
-132.746591492421
 30
0.0
 10
111.4030191778784
 20
-132.746591492421
 30
0.0
 10
111.4219672030473
 20
-132.746591492421
 30
0.0
 10
111.625227836677
 20
-132.746591492421
 30
0.0
 10
111.7668212611208
 20
-132.7274712124778
 30
0.0
 10
111.7668212611208
 20
-132.7274712124778
 30
0.0
 10
111.7668212611208
 20
-132.9624267245719
 30
0.0
 10
111.7668212611208
 20
-132.9624267245719
 30
0.0
 10
111.6104139260904
 20
-132.9433064446287
 30
0.0
 10
111.4199001457561
 20
-132.9433064446287
 30
0.0
 10
111.4030191778784
 20
-132.9433064446287
 30
0.0
  0
SPLINE
  5
EA
330
DC
100
AcDbEntity
  8
レイヤー 1
100
AcDbSpline
210
0.0
220
0.0
230
1.0
 70
     9
 71
     3
 72
    47
 73
    43
 74
     0
 42
0.0000000001
 43
0.0000000001
 40
0.0
 40
0.0
 40
0.0
 40
0.0
 40
1.0
 40
1.0
 40
1.0
 40
2.0
 40
2.0
 40
2.0
 40
3.0
 40
3.0
 40
3.0
 40
4.0
 40
4.0
 40
4.0
 40
5.0
 40
5.0
 40
5.0
 40
6.0
 40
6.0
 40
6.0
 40
7.0
 40
7.0
 40
7.0
 40
8.0
 40
8.0
 40
8.0
 40
9.0
 40
9.0
 40
9.0
 40
10.0
 40
10.0
 40
10.0
 40
11.0
 40
11.0
 40
11.0
 40
12.0
 40
12.0
 40
12.0
 40
13.0
 40
13.0
 40
13.0
 40
14.0
 40
14.0
 40
14.0
 40
14.0
 10
111.5046494946932
 20
-133.4721286016146
 30
0.0
 10
111.5046494946932
 20
-133.4721286016146
 30
0.0
 10
111.4030191778784
 20
-133.4721286016146
 30
0.0
 10
111.4030191778784
 20
-133.4721286016146
 30
0.0
 10
111.4030191778784
 20
-133.5589450078429
 30
0.0
 10
111.3820040954184
 20
-133.9482407976761
 30
0.0
 10
111.1852891432106
 20
-134.1682101444093
 30
0.0
 10
111.032671413214
 20
-134.3373643327351
 30
0.0
 10
110.8256211745505
 20
-134.4072997710857
 30
0.0
 10
110.7408718256134
 20
-134.4346882801934
 30
0.0
 10
110.7408718256134
 20
-134.4346882801934
 30
0.0
 10
110.5462239306968
 20
-134.2676011491588
 30
0.0
 10
110.5462239306968
 20
-134.2676011491588
 30
0.0
 10
110.6437201329293
 20
-134.2548542958633
 30
0.0
 10
110.8190754931285
 20
-134.2315999013379
 30
0.0
 10
111.0075222161717
 20
-134.043325433069
 30
0.0
 10
111.0815917691046
 20
-133.9714951922016
 30
0.0
 10
111.1852891432106
 20
-133.8317965702747
 30
0.0
 10
111.1852891432106
 20
-133.4721286016146
 30
0.0
 10
111.1852891432106
 20
-133.4721286016146
 30
0.0
 10
110.9544677456989
 20
-133.4721286016146
 30
0.0
 10
110.9544677456989
 20
-133.4721286016146
 30
0.0
 10
110.7684325894954
 20
-133.4721286016146
 30
0.0
 10
110.5820529237433
 20
-133.4764349709712
 30
0.0
 10
110.3960177675399
 20
-133.4912488815577
 30
0.0
 10
110.3960177675399
 20
-133.4912488815577
 30
0.0
 10
110.3960177675399
 20
-133.2712795348245
 30
0.0
 10
110.3960177675399
 20
-133.2712795348245
 30
0.0
 10
110.584464490583
 20
-133.2860934454111
 30
0.0
 10
110.8700629063102
 20
-133.2902275599934
 30
0.0
 10
110.9544677456989
 20
-133.2902275599934
 30
0.0
 10
110.9544677456989
 20
-133.2902275599934
 30
0.0
 10
111.5046494946932
 20
-133.2902275599934
 30
0.0
 10
111.5046494946932
 20
-133.2902275599934
 30
0.0
 10
111.5235975198621
 20
-133.2902275599934
 30
0.0
 10
111.8408908140536
 20
-133.2902275599934
 30
0.0
 10
112.0693006447257
 20
-133.2712795348245
 30
0.0
 10
112.0693006447257
 20
-133.2712795348245
 30
0.0
 10
112.0693006447257
 20
-133.4912488815577
 30
0.0
 10
112.0693006447257
 20
-133.4912488815577
 30
0.0
 10
111.8811984312311
 20
-133.4764349709712
 30
0.0
 10
111.6927517081879
 20
-133.4721286016146
 30
0.0
 10
111.5046494946932
 20
-133.4721286016146
 30
0.0
  0
HATCH
  5
EB
330
DC
100
AcDbEntity
  8
レイヤー 1
 62
   250
420
  2299925
440
 33554687
100
AcDbHatch
 10
0.0
 20
0.0
 30
0.0
210
0.0
220
0.0
230
1.0
  2
SOLID
 70
     1
 71
     1
 91
        2
 92
        1
 93
        1
 72
     4
 94
        3
 73
     0
 74
     0
 95
       29
 96
       25
 40
0.0
 40
0.0
 40
0.0
 40
0.0
 40
1.0
 40
1.0
 40
1.0
 40
2.0
 40
2.0
 40
2.0
 40
3.0
 40
3.0
 40
3.0
 40
4.0
 40
4.0
 40
4.0
 40
5.0
 40
5.0
 40
5.0
 40
6.0
 40
6.0
 40
6.0
 40
7.0
 40
7.0
 40
7.0
 40
8.0
 40
8.0
 40
8.0
 40
8.0
 10
111.4030191778784
 20
-132.9433064446287
 10
111.4030191778784
 20
-132.9433064446287
 10
111.0495523810918
 20
-132.9433064446287
 10
111.0495523810918
 20
-132.9433064446287
 10
110.9375867778211
 20
-132.9433064446287
 10
110.7980604106685
 20
-132.9496798712765
 10
110.6902289219802
 20
-132.9624267245719
 10
110.6902289219802
 20
-132.9624267245719
 10
110.6902289219802
 20
-132.7274712124778
 10
110.6902289219802
 20
-132.7274712124778
 10
110.8083956971243
 20
-132.7422851230644
 10
110.9927083055851
 20
-132.746591492421
 10
111.0495523810918
 20
-132.746591492421
 10
111.0495523810918
 20
-132.746591492421
 10
111.4030191778784
 20
-132.746591492421
 10
111.4030191778784
 20
-132.746591492421
 10
111.4219672030473
 20
-132.746591492421
 10
111.625227836677
 20
-132.746591492421
 10
111.7668212611208
 20
-132.7274712124778
 10
111.7668212611208
 20
-132.7274712124778
 10
111.7668212611208
 20
-132.9624267245719
 10
111.7668212611208
 20
-132.9624267245719
 10
111.6104139260904
 20
-132.9433064446287
 10
111.4199001457561
 20
-132.9433064446287
 10
111.4030191778784
 20
-132.9433064446287
 97
        0
 97
        1
330
E9
 92
        1
 93
        1
 72
     4
 94
        3
 73
     0
 74
     0
 95
       47
 96
       43
 40
0.0
 40
0.0
 40
0.0
 40
0.0
 40
1.0
 40
1.0
 40
1.0
 40
2.0
 40
2.0
 40
2.0
 40
3.0
 40
3.0
 40
3.0
 40
4.0
 40
4.0
 40
4.0
 40
5.0
 40
5.0
 40
5.0
 40
6.0
 40
6.0
 40
6.0
 40
7.0
 40
7.0
 40
7.0
 40
8.0
 40
8.0
 40
8.0
 40
9.0
 40
9.0
 40
9.0
 40
10.0
 40
10.0
 40
10.0
 40
11.0
 40
11.0
 40
11.0
 40
12.0
 40
12.0
 40
12.0
 40
13.0
 40
13.0
 40
13.0
 40
14.0
 40
14.0
 40
14.0
 40
14.0
 10
111.5046494946932
 20
-133.4721286016146
 10
111.5046494946932
 20
-133.4721286016146
 10
111.4030191778784
 20
-133.4721286016146
 10
111.4030191778784
 20
-133.4721286016146
 10
111.4030191778784
 20
-133.5589450078429
 10
111.3820040954184
 20
-133.9482407976761
 10
111.1852891432106
 20
-134.1682101444093
 10
111.032671413214
 20
-134.3373643327351
 10
110.8256211745505
 20
-134.4072997710857
 10
110.7408718256134
 20
-134.4346882801934
 10
110.7408718256134
 20
-134.4346882801934
 10
110.5462239306968
 20
-134.2676011491588
 10
110.5462239306968
 20
-134.2676011491588
 10
110.6437201329293
 20
-134.2548542958633
 10
110.8190754931285
 20
-134.2315999013379
 10
111.0075222161717
 20
-134.043325433069
 10
111.0815917691046
 20
-133.9714951922016
 10
111.1852891432106
 20
-133.8317965702747
 10
111.1852891432106
 20
-133.4721286016146
 10
111.1852891432106
 20
-133.4721286016146
 10
110.9544677456989
 20
-133.4721286016146
 10
110.9544677456989
 20
-133.4721286016146
 10
110.7684325894954
 20
-133.4721286016146
 10
110.5820529237433
 20
-133.4764349709712
 10
110.3960177675399
 20
-133.4912488815577
 10
110.3960177675399
 20
-133.4912488815577
 10
110.3960177675399
 20
-133.2712795348245
 10
110.3960177675399
 20
-133.2712795348245
 10
110.584464490583
 20
-133.2860934454111
 10
110.8700629063102
 20
-133.2902275599934
 10
110.9544677456989
 20
-133.2902275599934
 10
110.9544677456989
 20
-133.2902275599934
 10
111.5046494946932
 20
-133.2902275599934
 10
111.5046494946932
 20
-133.2902275599934
 10
111.5235975198621
 20
-133.2902275599934
 10
111.8408908140536
 20
-133.2902275599934
 10
112.0693006447257
 20
-133.2712795348245
 10
112.0693006447257
 20
-133.2712795348245
 10
112.0693006447257
 20
-133.4912488815577
 10
112.0693006447257
 20
-133.4912488815577
 10
111.8811984312311
 20
-133.4764349709712
 10
111.6927517081879
 20
-133.4721286016146
 10
111.5046494946932
 20
-133.4721286016146
 97
        0
 97
        1
330
EA
 75
     2
 76
     1
 98
        1
 10
0.0
 20
0.0
450
        0
451
        0
460
0.0
461
0.0
452
        0
462
0.0
453
        0
470

  0
SPLINE
  5
EC
330
DC
100
AcDbEntity
  8
レイヤー 1
100
AcDbSpline
210
0.0
220
0.0
230
1.0
 70
     9
 71
     3
 72
    29
 73
    25
 74
     0
 42
0.0000000001
 43
0.0000000001
 40
0.0
 40
0.0
 40
0.0
 40
0.0
 40
1.0
 40
1.0
 40
1.0
 40
2.0
 40
2.0
 40
2.0
 40
3.0
 40
3.0
 40
3.0
 40
4.0
 40
4.0
 40
4.0
 40
5.0
 40
5.0
 40
5.0
 40
6.0
 40
6.0
 40
6.0
 40
7.0
 40
7.0
 40
7.0
 40
8.0
 40
8.0
 40
8.0
 40
8.0
 10
113.3505316556901
 20
-133.6350816180669
 30
0.0
 10
113.3505316556901
 20
-133.6350816180669
 30
0.0
 10
112.866151230464
 20
-133.6350816180669
 30
0.0
 10
112.866151230464
 20
-133.6350816180669
 30
0.0
 10
112.838590466582
 20
-133.6350816180669
 30
0.0
 10
112.5212971723905
 20
-133.6350816180669
 30
0.0
 10
112.3097683095962
 20
-133.6604030698835
 30
0.0
 10
112.3097683095962
 20
-133.6604030698835
 30
0.0
 10
112.3097683095962
 20
-133.4299261819203
 30
0.0
 10
112.3097683095962
 20
-133.4299261819203
 30
0.0
 10
112.4682427019176
 20
-133.4531805764457
 30
0.0
 10
112.658756482252
 20
-133.4552476337369
 30
0.0
 10
112.866151230464
 20
-133.4552476337369
 30
0.0
 10
112.866151230464
 20
-133.4552476337369
 30
0.0
 10
113.3505316556901
 20
-133.4552476337369
 30
0.0
 10
113.3505316556901
 20
-133.4552476337369
 30
0.0
 10
113.5365668118936
 20
-133.4552476337369
 30
0.0
 10
113.7229464776456
 20
-133.4531805764457
 30
0.0
 10
113.906914576558
 20
-133.4299261819203
 30
0.0
 10
113.906914576558
 20
-133.4299261819203
 30
0.0
 10
113.906914576558
 20
-133.6604030698835
 30
0.0
 10
113.906914576558
 20
-133.6604030698835
 30
0.0
 10
113.7229464776456
 20
-133.637148675358
 30
0.0
 10
113.4752441122562
 20
-133.6350816180669
 30
0.0
 10
113.3505316556901
 20
-133.6350816180669
 30
0.0
  0
HATCH
  5
ED
330
DC
100
AcDbEntity
  8
レイヤー 1
 62
   250
420
  2299925
440
 33554687
100
AcDbHatch
 10
0.0
 20
0.0
 30
0.0
210
0.0
220
0.0
230
1.0
  2
SOLID
 70
     1
 71
     1
 91
        1
 92
        1
 93
        1
 72
     4
 94
        3
 73
     0
 74
     0
 95
       29
 96
       25
 40
0.0
 40
0.0
 40
0.0
 40
0.0
 40
1.0
 40
1.0
 40
1.0
 40
2.0
 40
2.0
 40
2.0
 40
3.0
 40
3.0
 40
3.0
 40
4.0
 40
4.0
 40
4.0
 40
5.0
 40
5.0
 40
5.0
 40
6.0
 40
6.0
 40
6.0
 40
7.0
 40
7.0
 40
7.0
 40
8.0
 40
8.0
 40
8.0
 40
8.0
 10
113.3505316556901
 20
-133.6350816180669
 10
113.3505316556901
 20
-133.6350816180669
 10
112.866151230464
 20
-133.6350816180669
 10
112.866151230464
 20
-133.6350816180669
 10
112.838590466582
 20
-133.6350816180669
 10
112.5212971723905
 20
-133.6350816180669
 10
112.3097683095962
 20
-133.6604030698835
 10
112.3097683095962
 20
-133.6604030698835
 10
112.3097683095962
 20
-133.4299261819203
 10
112.3097683095962
 20
-133.4299261819203
 10
112.4682427019176
 20
-133.4531805764457
 10
112.658756482252
 20
-133.4552476337369
 10
112.866151230464
 20
-133.4552476337369
 10
112.866151230464
 20
-133.4552476337369
 10
113.3505316556901
 20
-133.4552476337369
 10
113.3505316556901
 20
-133.4552476337369
 10
113.5365668118936
 20
-133.4552476337369
 10
113.7229464776456
 20
-133.4531805764457
 10
113.906914576558
 20
-133.4299261819203
 10
113.906914576558
 20
-133.4299261819203
 10
113.906914576558
 20
-133.6604030698835
 10
113.906914576558
 20
-133.6604030698835
 10
113.7229464776456
 20
-133.637148675358
 10
113.4752441122562
 20
-133.6350816180669
 10
113.3505316556901
 20
-133.6350816180669
 97
        0
 97
        1
330
EC
 75
     2
 76
     1
 98
        1
 10
0.0
 20
0.0
450
        0
451
        0
460
0.0
461
0.0
452
        0
462
0.0
453
        0
470

  0
SPLINE
  5
EE
330
DC
100
AcDbEntity
  8
レイヤー 1
100
AcDbSpline
210
0.0
220
0.0
230
1.0
 70
     9
 71
     3
 72
    17
 73
    13
 74
     0
 42
0.0000000001
 43
0.0000000001
 40
0.0
 40
0.0
 40
0.0
 40
0.0
 40
1.0
 40
1.0
 40
1.0
 40
2.0
 40
2.0
 40
2.0
 40
3.0
 40
3.0
 40
3.0
 40
4.0
 40
4.0
 40
4.0
 40
4.0
 10
115.769333195884
 20
-132.6682155701315
 30
0.0
 10
115.7145561776686
 20
-132.6682155701315
 30
0.0
 10
115.6701144459088
 20
-132.7126573018913
 30
0.0
 10
115.6701144459088
 20
-132.7677788296552
 30
0.0
 10
115.6701144459088
 20
-132.8247951599361
 30
0.0
 10
115.7145561776686
 20
-132.8735432610524
 30
0.0
 10
115.7734673104663
 20
-132.8735432610524
 30
0.0
 10
115.8327229528126
 20
-132.8735432610524
 30
0.0
 10
115.87303056999
 20
-132.822728102645
 30
0.0
 10
115.87303056999
 20
-132.7698458869464
 30
0.0
 10
115.87303056999
 20
-132.7126573018913
 30
0.0
 10
115.8265217809392
 20
-132.6682155701315
 30
0.0
 10
115.769333195884
 20
-132.6682155701315
 30
0.0
  0
SPLINE
  5
EF
330
DC
100
AcDbEntity
  8
レイヤー 1
100
AcDbSpline
210
0.0
220
0.0
230
1.0
 70
     9
 71
     3
 72
    17
 73
    13
 74
     0
 42
0.0000000001
 43
0.0000000001
 40
0.0
 40
0.0
 40
0.0
 40
0.0
 40
1.0
 40
1.0
 40
1.0
 40
2.0
 40
2.0
 40
2.0
 40
3.0
 40
3.0
 40
3.0
 40
4.0
 40
4.0
 40
4.0
 40
4.0
 10
115.7714002531752
 20
-132.9982557176185
 30
0.0
 10
115.644620739318
 20
-132.9982557176185
 30
0.0
 10
115.5429904225031
 20
-132.8967976555779
 30
0.0
 10
115.5429904225031
 20
-132.7698458869464
 30
0.0
 10
115.5429904225031
 20
-132.642894118315
 30
0.0
 10
115.644620739318
 20
-132.5391967442089
 30
0.0
 10
115.7714002531752
 20
-132.5391967442089
 30
0.0
 10
115.8985242765809
 20
-132.5391967442089
 30
0.0
 10
116.0022216506869
 20
-132.642894118315
 30
0.0
 10
116.0022216506869
 20
-132.7698458869464
 30
0.0
 10
116.0022216506869
 20
-132.8967976555779
 30
0.0
 10
115.8985242765809
 20
-132.9982557176185
 30
0.0
 10
115.7714002531752
 20
-132.9982557176185
 30
0.0
  0
SPLINE
  5
F0
330
DC
100
AcDbEntity
  8
レイヤー 1
100
AcDbSpline
210
0.0
220
0.0
230
1.0
 70
     9
 71
     3
 72
    44
 73
    40
 74
     0
 42
0.0000000001
 43
0.0000000001
 40
0.0
 40
0.0
 40
0.0
 40
0.0
 40
1.0
 40
1.0
 40
1.0
 40
2.0
 40
2.0
 40
2.0
 40
3.0
 40
3.0
 40
3.0
 40
4.0
 40
4.0
 40
4.0
 40
5.0
 40
5.0
 40
5.0
 40
6.0
 40
6.0
 40
6.0
 40
7.0
 40
7.0
 40
7.0
 40
8.0
 40
8.0
 40
8.0
 40
9.0
 40
9.0
 40
9.0
 40
10.0
 40
10.0
 40
10.0
 40
11.0
 40
11.0
 40
11.0
 40
12.0
 40
12.0
 40
12.0
 40
13.0
 40
13.0
 40
13.0
 40
13.0
 10
115.561938447672
 20
-133.1972099818917
 30
0.0
 10
115.4499728444014
 20
-133.5653184344906
 30
0.0
 10
115.3993299407682
 20
-133.7239650815864
 30
0.0
 10
115.2026149885605
 20
-133.9735622494927
 30
0.0
 10
115.0183023800996
 20
-134.2042113922302
 30
0.0
 10
114.7816243202629
 20
-134.3902465484337
 30
0.0
 10
114.5022270764092
 20
-134.4834363813097
 30
0.0
 10
114.5022270764092
 20
-134.4834363813097
 30
0.0
 10
114.3096462387837
 20
-134.3036023969796
 30
0.0
 10
114.3096462387837
 20
-134.3036023969796
 30
0.0
 10
114.9507785085887
 20
-134.1513291765316
 30
0.0
 10
115.2808186560756
 20
-133.5949462556637
 30
0.0
 10
115.3442084130042
 20
-133.1548353074231
 30
0.0
 10
115.3442084130042
 20
-133.1548353074231
 30
0.0
 10
114.5783636866332
 20
-133.1548353074231
 30
0.0
 10
114.5783636866332
 20
-133.1548353074231
 30
0.0
 10
114.4853461085314
 20
-133.1548353074231
 30
0.0
 10
114.3013780096191
 20
-133.1591416767796
 30
0.0
 10
114.1446261650402
 20
-133.1780897019485
 30
0.0
 10
114.1446261650402
 20
-133.1780897019485
 30
0.0
 10
114.1446261650402
 20
-132.9581203552153
 30
0.0
 10
114.1446261650402
 20
-132.9581203552153
 30
0.0
 10
114.2314425712685
 20
-132.9793076924496
 30
0.0
 10
114.4832790512403
 20
-132.9793076924496
 30
0.0
 10
114.5824978012155
 20
-132.9793076924496
 30
0.0
 10
114.5824978012155
 20
-132.9793076924496
 30
0.0
 10
115.0141682655173
 20
-132.9793076924496
 30
0.0
 10
115.0141682655173
 20
-132.9793076924496
 30
0.0
 10
115.0565429399859
 20
-132.9793076924496
 30
0.0
 10
115.2911539425313
 20
-132.9770683803842
 30
0.0
 10
115.3293945024176
 20
-132.9708672085107
 30
0.0
 10
115.3717691768862
 20
-132.964493781863
 30
0.0
 10
115.3738362341774
 20
-132.9624267245719
 30
0.0
 10
115.4351589338148
 20
-132.9221191073945
 30
0.0
 10
115.4351589338148
 20
-132.9221191073945
 30
0.0
 10
115.6232611473094
 20
-133.0766316399079
 30
0.0
 10
115.6232611473094
 20
-133.0766316399079
 30
0.0
 10
115.5939778356848
 20
-133.1062594610811
 30
0.0
 10
115.5791639250983
 20
-133.1379543395454
 30
0.0
 10
115.561938447672
 20
-133.1972099818917
 30
0.0
  0
HATCH
  5
F1
330
DC
100
AcDbEntity
  8
レイヤー 1
 62
   250
420
  2299925
440
 33554687
100
AcDbHatch
 10
0.0
 20
0.0
 30
0.0
210
0.0
220
0.0
230
1.0
  2
SOLID
 70
     1
 71
     1
 91
        3
 92
        1
 93
        1
 72
     4
 94
        3
 73
     0
 74
     0
 95
       17
 96
       13
 40
0.0
 40
0.0
 40
0.0
 40
0.0
 40
1.0
 40
1.0
 40
1.0
 40
2.0
 40
2.0
 40
2.0
 40
3.0
 40
3.0
 40
3.0
 40
4.0
 40
4.0
 40
4.0
 40
4.0
 10
115.769333195884
 20
-132.6682155701315
 10
115.7145561776686
 20
-132.6682155701315
 10
115.6701144459088
 20
-132.7126573018913
 10
115.6701144459088
 20
-132.7677788296552
 10
115.6701144459088
 20
-132.8247951599361
 10
115.7145561776686
 20
-132.8735432610524
 10
115.7734673104663
 20
-132.8735432610524
 10
115.8327229528126
 20
-132.8735432610524
 10
115.87303056999
 20
-132.822728102645
 10
115.87303056999
 20
-132.7698458869464
 10
115.87303056999
 20
-132.7126573018913
 10
115.8265217809392
 20
-132.6682155701315
 10
115.769333195884
 20
-132.6682155701315
 97
        0
 97
        1
330
EE
 92
        1
 93
        1
 72
     4
 94
        3
 73
     0
 74
     0
 95
       17
 96
       13
 40
0.0
 40
0.0
 40
0.0
 40
0.0
 40
1.0
 40
1.0
 40
1.0
 40
2.0
 40
2.0
 40
2.0
 40
3.0
 40
3.0
 40
3.0
 40
4.0
 40
4.0
 40
4.0
 40
4.0
 10
115.7714002531752
 20
-132.9982557176185
 10
115.644620739318
 20
-132.9982557176185
 10
115.5429904225031
 20
-132.8967976555779
 10
115.5429904225031
 20
-132.7698458869464
 10
115.5429904225031
 20
-132.642894118315
 10
115.644620739318
 20
-132.5391967442089
 10
115.7714002531752
 20
-132.5391967442089
 10
115.8985242765809
 20
-132.5391967442089
 10
116.0022216506869
 20
-132.642894118315
 10
116.0022216506869
 20
-132.7698458869464
 10
116.0022216506869
 20
-132.8967976555779
 10
115.8985242765809
 20
-132.9982557176185
 10
115.7714002531752
 20
-132.9982557176185
 97
        0
 97
        1
330
EF
 92
        1
 93
        1
 72
     4
 94
        3
 73
     0
 74
     0
 95
       44
 96
       40
 40
0.0
 40
0.0
 40
0.0
 40
0.0
 40
1.0
 40
1.0
 40
1.0
 40
2.0
 40
2.0
 40
2.0
 40
3.0
 40
3.0
 40
3.0
 40
4.0
 40
4.0
 40
4.0
 40
5.0
 40
5.0
 40
5.0
 40
6.0
 40
6.0
 40
6.0
 40
7.0
 40
7.0
 40
7.0
 40
8.0
 40
8.0
 40
8.0
 40
9.0
 40
9.0
 40
9.0
 40
10.0
 40
10.0
 40
10.0
 40
11.0
 40
11.0
 40
11.0
 40
12.0
 40
12.0
 40
12.0
 40
13.0
 40
13.0
 40
13.0
 40
13.0
 10
115.561938447672
 20
-133.1972099818917
 10
115.4499728444014
 20
-133.5653184344906
 10
115.3993299407682
 20
-133.7239650815864
 10
115.2026149885605
 20
-133.9735622494927
 10
115.0183023800996
 20
-134.2042113922302
 10
114.7816243202629
 20
-134.3902465484337
 10
114.5022270764092
 20
-134.4834363813097
 10
114.5022270764092
 20
-134.4834363813097
 10
114.3096462387837
 20
-134.3036023969796
 10
114.3096462387837
 20
-134.3036023969796
 10
114.9507785085887
 20
-134.1513291765316
 10
115.2808186560756
 20
-133.5949462556637
 10
115.3442084130042
 20
-133.1548353074231
 10
115.3442084130042
 20
-133.1548353074231
 10
114.5783636866332
 20
-133.1548353074231
 10
114.5783636866332
 20
-133.1548353074231
 10
114.4853461085314
 20
-133.1548353074231
 10
114.3013780096191
 20
-133.1591416767796
 10
114.1446261650402
 20
-133.1780897019485
 10
114.1446261650402
 20
-133.1780897019485
 10
114.1446261650402
 20
-132.9581203552153
 10
114.1446261650402
 20
-132.9581203552153
 10
114.2314425712685
 20
-132.9793076924496
 10
114.4832790512403
 20
-132.9793076924496
 10
114.5824978012155
 20
-132.9793076924496
 10
114.5824978012155
 20
-132.9793076924496
 10
115.0141682655173
 20
-132.9793076924496
 10
115.0141682655173
 20
-132.9793076924496
 10
115.0565429399859
 20
-132.9793076924496
 10
115.2911539425313
 20
-132.9770683803842
 10
115.3293945024176
 20
-132.9708672085107
 10
115.3717691768862
 20
-132.964493781863
 10
115.3738362341774
 20
-132.9624267245719
 10
115.4351589338148
 20
-132.9221191073945
 10
115.4351589338148
 20
-132.9221191073945
 10
115.6232611473094
 20
-133.0766316399079
 10
115.6232611473094
 20
-133.0766316399079
 10
115.5939778356848
 20
-133.1062594610811
 10
115.5791639250983
 20
-133.1379543395454
 10
115.561938447672
 20
-133.1972099818917
 97
        0
 97
        1
330
F0
 75
     2
 76
     1
 98
        1
 10
0.0
 20
0.0
450
        0
451
        0
460
0.0
461
0.0
452
        0
462
0.0
453
        0
470

  0
ENDBLK
  5
DF
330
DC
100
AcDbEntity
  8
0
100
AcDbBlockEnd
  0
ENDSEC
  0
SECTION
  2
ENTITIES
  0
LWPOLYLINE
  5
79
330
70
100
AcDbEntity
  8
レイヤー 1
 62
   250
420
  2299925
370
    25
100
AcDbPolyline
 90
        4
 70
     0
 43
0.0
 10
93.43127441812663
 20
-157.1033897133975
 10
101.425959491943
 20
-157.1040952689351
 10
101.425959491943
 20
-160.1033765813059
 10
91.42587391373343
 20
-160.1033765813059
  0
LWPOLYLINE
  5
7A
330
70
100
AcDbEntity
  8
レイヤー 1
 62
   250
420
  2299925
370
    25
100
AcDbPolyline
 90
        7
 70
     1
 43
0.0
 10
92.42910333258304
 20
-157.1023617724625
 10
92.92898943094099
 20
-158.1024867722128
 10
93.42922830706772
 20
-157.1023617724625
 10
93.42922830706772
 20
-141.8021831593194
 10
113.4293641857106
 20
-141.8021831593194
 10
113.4293641857106
 20
-140.8020581848347
 10
92.42910333258304
 20
-140.8020581848347
  0
LINE
  5
7B
330
70
100
AcDbEntity
  8
レイヤー 1
 62
   250
420
  2299925
370
    25
100
AcDbLine
 10
92.42910333258304
 20
-157.1023617724625
 30
0.0
 11
91.42587391373343
 21
-160.1033765813059
 31
0.0
  0
SPLINE
  5
7C
330
70
100
AcDbEntity
  8
レイヤー 1
 62
   250
420
  2299925
370
     9
100
AcDbSpline
210
0.0
220
0.0
230
1.0
 70
     9
 71
     3
 72
    17
 73
    13
 74
     0
 42
0.0000000001
 43
0.0000000001
 40
0.0
 40
0.0
 40
0.0
 40
0.0
 40
1.0
 40
1.0
 40
1.0
 40
2.0
 40
2.0
 40
2.0
 40
3.0
 40
3.0
 40
3.0
 40
4.0
 40
4.0
 40
4.0
 40
4.0
 10
101.5258698845748
 20
-164.1031356459303
 30
0.0
 10
101.5258698845748
 20
-164.0480317584472
 30
0.0
 10
101.4810986572029
 20
-164.0032289818124
 30
0.0
 10
101.425959491943
 20
-164.0032289818124
 30
0.0
 10
101.3715258822206
 20
-164.0032289818124
 30
0.0
 10
101.3260528278251
 20
-164.0480317584472
 30
0.0
 10
101.3260528278251
 20
-164.1031356459303
 30
0.0
 10
101.3260528278251
 20
-164.1582701040319
 30
0.0
 10
101.3715258822206
 20
-164.2030423100481
 30
0.0
 10
101.425959491943
 20
-164.2030423100481
 30
0.0
 10
101.4810986572029
 20
-164.2030423100481
 30
0.0
 10
101.5258698845748
 20
-164.1582701040319
 30
0.0
 10
101.5258698845748
 20
-164.1031356459303
 30
0.0
  0
SPLINE
  5
7D
330
70
100
AcDbEntity
  8
レイヤー 1
 62
   250
420
  2299925
370
     9
100
AcDbSpline
210
0.0
220
0.0
230
1.0
 70
     9
 71
     3
 72
    17
 73
    13
 74
     0
 42
0.0000000001
 43
0.0000000001
 40
0.0
 40
0.0
 40
0.0
 40
0.0
 40
1.0
 40
1.0
 40
1.0
 40
2.0
 40
2.0
 40
2.0
 40
3.0
 40
3.0
 40
3.0
 40
4.0
 40
4.0
 40
4.0
 40
4.0
 10
91.5264861333885
 20
-164.1031356459303
 30
0.0
 10
91.5264861333885
 20
-164.0480317584472
 30
0.0
 10
91.48168335675373
 20
-164.0032289818124
 30
0.0
 10
91.42587391373343
 20
-164.0032289818124
 30
0.0
 10
91.37077002625003
 20
-164.0032289818124
 30
0.0
 10
91.32596724961528
 20
-164.0480317584472
 30
0.0
 10
91.32596724961528
 20
-164.1031356459303
 30
0.0
 10
91.32596724961528
 20
-164.1582701040319
 30
0.0
 10
91.37077002625003
 20
-164.2030423100481
 30
0.0
 10
91.42587391373343
 20
-164.2030423100481
 30
0.0
 10
91.48168335675373
 20
-164.2030423100481
 30
0.0
 10
91.5264861333885
 20
-164.1582701040319
 30
0.0
 10
91.5264861333885
 20
-164.1031356459303
 30
0.0
  0
LINE
  5
7E
330
70
100
AcDbEntity
  8
レイヤー 1
 62
   250
420
  2299925
370
     9
100
AcDbLine
 10
91.42587391373343
 20
-164.1031356459303
 30
0.0
 11
101.425959491943
 21
-164.1031356459303
 31
0.0
  0
LINE
  5
7F
330
70
100
AcDbEntity
  8
レイヤー 1
 62
   250
420
  2299925
370
     9
100
AcDbLine
 10
91.42587391373343
 20
-161.6423343198216
 30
0.0
 11
91.42587391373343
 21
-165.1029078426462
 31
0.0
  0
LINE
  5
80
330
70
100
AcDbEntity
  8
レイヤー 1
 62
   250
420
  2299925
370
     9
100
AcDbLine
 10
101.425959491943
 20
-161.6423343198216
 30
0.0
 11
101.425959491943
 21
-165.1029078426462
 31
0.0
  0
INSERT
  5
82
330
70
100
AcDbEntity
  8
レイヤー 1
100
AcDbBlockReference
  2
Block_0
 10
0.0
 20
0.0
 30
0.0
  0
INSERT
  5
8F
330
70
100
AcDbEntity
  8
レイヤー 1
100
AcDbBlockReference
  2
Block_2
 10
0.0
 20
0.0
 30
0.0
  0
INSERT
  5
96
330
70
100
AcDbEntity
  8
レイヤー 1
100
AcDbBlockReference
  2
Block_3
 10
0.0
 20
0.0
 30
0.0
  0
INSERT
  5
A6
330
70
100
AcDbEntity
  8
レイヤー 1
100
AcDbBlockReference
  2
Block_5
 10
0.0
 20
0.0
 30
0.0
  0
INSERT
  5
AC
330
70
100
AcDbEntity
  8
レイヤー 1
100
AcDbBlockReference
  2
Block_6
 10
0.0
 20
0.0
 30
0.0
  0
SPLINE
  5
B1
330
70
100
AcDbEntity
  8
レイヤー 1
 62
   250
420
  2299925
370
     9
100
AcDbSpline
210
0.0
220
0.0
230
1.0
 70
     9
 71
     3
 72
    17
 73
    13
 74
     0
 42
0.0000000001
 43
0.0000000001
 40
0.0
 40
0.0
 40
0.0
 40
0.0
 40
1.0
 40
1.0
 40
1.0
 40
2.0
 40
2.0
 40
2.0
 40
3.0
 40
3.0
 40
3.0
 40
4.0
 40
4.0
 40
4.0
 40
4.0
 10
117.7777735192179
 20
-157.0934061025411
 30
0.0
 10
117.7777735192179
 20
-157.1485452678011
 30
0.0
 10
117.7329707425831
 20
-157.1933127666589
 30
0.0
 10
117.6778668551001
 20
-157.1933127666589
 30
0.0
 10
117.6227276898401
 20
-157.1933127666589
 30
0.0
 10
117.5779643250064
 20
-157.1485452678011
 30
0.0
 10
117.5779643250064
 20
-157.0934061025411
 30
0.0
 10
117.5779643250064
 20
-157.0383022150581
 30
0.0
 10
117.6227276898401
 20
-156.9934994384233
 30
0.0
 10
117.6778668551001
 20
-156.9934994384233
 30
0.0
 10
117.7329707425831
 20
-156.9934994384233
 30
0.0
 10
117.7777735192179
 20
-157.0383022150581
 30
0.0
 10
117.7777735192179
 20
-157.0934061025411
 30
0.0
  0
HATCH
  5
B2
330
70
100
AcDbEntity
  8
レイヤー 1
 62
   250
420
  2299925
440
 33554687
100
AcDbHatch
 10
0.0
 20
0.0
 30
0.0
210
0.0
220
0.0
230
1.0
  2
SOLID
 70
     1
 71
     1
 91
        1
 92
        1
 93
        1
 72
     4
 94
        3
 73
     0
 74
     0
 95
       17
 96
       13
 40
0.0
 40
0.0
 40
0.0
 40
0.0
 40
1.0
 40
1.0
 40
1.0
 40
2.0
 40
2.0
 40
2.0
 40
3.0
 40
3.0
 40
3.0
 40
4.0
 40
4.0
 40
4.0
 40
4.0
 10
117.7777735192179
 20
-157.0934061025411
 10
117.7777735192179
 20
-157.1485452678011
 10
117.7329707425831
 20
-157.1933127666589
 10
117.6778668551001
 20
-157.1933127666589
 10
117.6227276898401
 20
-157.1933127666589
 10
117.5779643250064
 20
-157.1485452678011
 10
117.5779643250064
 20
-157.0934061025411
 10
117.5779643250064
 20
-157.0383022150581
 10
117.6227276898401
 20
-156.9934994384233
 10
117.6778668551001
 20
-156.9934994384233
 10
117.7329707425831
 20
-156.9934994384233
 10
117.7777735192179
 20
-157.0383022150581
 10
117.7777735192179
 20
-157.0934061025411
 97
        0
 97
        1
330
B1
 75
     2
 76
     1
 98
        1
 10
0.0
 20
0.0
450
        0
451
        0
460
0.0
461
0.0
452
        0
462
0.0
453
        0
470

  0
INSERT
  5
B4
330
70
100
AcDbEntity
  8
レイヤー 1
100
AcDbBlockReference
  2
Block_7
 10
0.0
 20
0.0
 30
0.0
  0
SPLINE
  5
B9
330
70
100
AcDbEntity
  8
レイヤー 1
 62
   250
420
  2299925
370
     9
100
AcDbSpline
210
0.0
220
0.0
230
1.0
 70
     9
 71
     3
 72
    17
 73
    13
 74
     0
 42
0.0000000001
 43
0.0000000001
 40
0.0
 40
0.0
 40
0.0
 40
0.0
 40
1.0
 40
1.0
 40
1.0
 40
2.0
 40
2.0
 40
2.0
 40
3.0
 40
3.0
 40
3.0
 40
4.0
 40
4.0
 40
4.0
 40
4.0
 10
117.7777735192179
 20
-160.0937457482183
 30
0.0
 10
117.7777735192179
 20
-160.1488849134782
 30
0.0
 10
117.7329707425831
 20
-160.1936524123362
 30
0.0
 10
117.6778668551001
 20
-160.1936524123362
 30
0.0
 10
117.6227276898401
 20
-160.1936524123362
 30
0.0
 10
117.5779643250064
 20
-160.1488849134782
 30
0.0
 10
117.5779643250064
 20
-160.0937457482183
 30
0.0
 10
117.5779643250064
 20
-160.0386418607352
 30
0.0
 10
117.6227276898401
 20
-159.9938390841005
 30
0.0
 10
117.6778668551001
 20
-159.9938390841005
 30
0.0
 10
117.7329707425831
 20
-159.9938390841005
 30
0.0
 10
117.7777735192179
 20
-160.0386418607352
 30
0.0
 10
117.7777735192179
 20
-160.0937457482183
 30
0.0
  0
HATCH
  5
BA
330
70
100
AcDbEntity
  8
レイヤー 1
 62
   250
420
  2299925
440
 33554687
100
AcDbHatch
 10
0.0
 20
0.0
 30
0.0
210
0.0
220
0.0
230
1.0
  2
SOLID
 70
     1
 71
     1
 91
        1
 92
        1
 93
        1
 72
     4
 94
        3
 73
     0
 74
     0
 95
       17
 96
       13
 40
0.0
 40
0.0
 40
0.0
 40
0.0
 40
1.0
 40
1.0
 40
1.0
 40
2.0
 40
2.0
 40
2.0
 40
3.0
 40
3.0
 40
3.0
 40
4.0
 40
4.0
 40
4.0
 40
4.0
 10
117.7777735192179
 20
-160.0937457482183
 10
117.7777735192179
 20
-160.1488849134782
 10
117.7329707425831
 20
-160.1936524123362
 10
117.6778668551001
 20
-160.1936524123362
 10
117.6227276898401
 20
-160.1936524123362
 10
117.5779643250064
 20
-160.1488849134782
 10
117.5779643250064
 20
-160.0937457482183
 10
117.5779643250064
 20
-160.0386418607352
 10
117.6227276898401
 20
-159.9938390841005
 10
117.6778668551001
 20
-159.9938390841005
 10
117.7329707425831
 20
-159.9938390841005
 10
117.7777735192179
 20
-160.0386418607352
 10
117.7777735192179
 20
-160.0937457482183
 97
        0
 97
        1
330
B9
 75
     2
 76
     1
 98
        1
 10
0.0
 20
0.0
450
        0
451
        0
460
0.0
461
0.0
452
        0
462
0.0
453
        0
470

  0
SPLINE
  5
BB
330
70
100
AcDbEntity
  8
レイヤー 1
 62
   250
420
  2299925
370
     9
100
AcDbSpline
210
0.0
220
0.0
230
1.0
 70
     9
 71
     3
 72
    17
 73
    13
 74
     0
 42
0.0000000001
 43
0.0000000001
 40
0.0
 40
0.0
 40
0.0
 40
0.0
 40
1.0
 40
1.0
 40
1.0
 40
2.0
 40
2.0
 40
2.0
 40
3.0
 40
3.0
 40
3.0
 40
4.0
 40
4.0
 40
4.0
 40
4.0
 10
117.7777735192179
 20
-141.8021831593194
 30
0.0
 10
117.7777735192179
 20
-141.8573223245793
 30
0.0
 10
117.7329707425831
 20
-141.9020898234372
 30
0.0
 10
117.6778668551001
 20
-141.9020898234372
 30
0.0
 10
117.6227276898401
 20
-141.9020898234372
 30
0.0
 10
117.5779643250064
 20
-141.8573223245793
 30
0.0
 10
117.5779643250064
 20
-141.8021831593194
 30
0.0
 10
117.5779643250064
 20
-141.7470792718363
 30
0.0
 10
117.6227276898401
 20
-141.7022764952015
 30
0.0
 10
117.6778668551001
 20
-141.7022764952015
 30
0.0
 10
117.7329707425831
 20
-141.7022764952015
 30
0.0
 10
117.7777735192179
 20
-141.7470792718363
 30
0.0
 10
117.7777735192179
 20
-141.8021831593194
 30
0.0
  0
HATCH
  5
BC
330
70
100
AcDbEntity
  8
レイヤー 1
 62
   250
420
  2299925
440
 33554687
100
AcDbHatch
 10
0.0
 20
0.0
 30
0.0
210
0.0
220
0.0
230
1.0
  2
SOLID
 70
     1
 71
     1
 91
        1
 92
        1
 93
        1
 72
     4
 94
        3
 73
     0
 74
     0
 95
       17
 96
       13
 40
0.0
 40
0.0
 40
0.0
 40
0.0
 40
1.0
 40
1.0
 40
1.0
 40
2.0
 40
2.0
 40
2.0
 40
3.0
 40
3.0
 40
3.0
 40
4.0
 40
4.0
 40
4.0
 40
4.0
 10
117.7777735192179
 20
-141.8021831593194
 10
117.7777735192179
 20
-141.8573223245793
 10
117.7329707425831
 20
-141.9020898234372
 10
117.6778668551001
 20
-141.9020898234372
 10
117.6227276898401
 20
-141.9020898234372
 10
117.5779643250064
 20
-141.8573223245793
 10
117.5779643250064
 20
-141.8021831593194
 10
117.5779643250064
 20
-141.7470792718363
 10
117.6227276898401
 20
-141.7022764952015
 10
117.6778668551001
 20
-141.7022764952015
 10
117.7329707425831
 20
-141.7022764952015
 10
117.7777735192179
 20
-141.7470792718363
 10
117.7777735192179
 20
-141.8021831593194
 97
        0
 97
        1
330
BB
 75
     2
 76
     1
 98
        1
 10
0.0
 20
0.0
450
        0
451
        0
460
0.0
461
0.0
452
        0
462
0.0
453
        0
470

  0
SPLINE
  5
BD
330
70
100
AcDbEntity
  8
レイヤー 1
 62
   250
420
  2299925
370
     9
100
AcDbSpline
210
0.0
220
0.0
230
1.0
 70
     9
 71
     3
 72
    17
 73
    13
 74
     0
 42
0.0000000001
 43
0.0000000001
 40
0.0
 40
0.0
 40
0.0
 40
0.0
 40
1.0
 40
1.0
 40
1.0
 40
2.0
 40
2.0
 40
2.0
 40
3.0
 40
3.0
 40
3.0
 40
4.0
 40
4.0
 40
4.0
 40
4.0
 10
117.7777735192179
 20
-140.8609720722206
 30
0.0
 10
117.7777735192179
 20
-140.9161112374805
 30
0.0
 10
117.7329707425831
 20
-140.9608787363384
 30
0.0
 10
117.6778668551001
 20
-140.9608787363384
 30
0.0
 10
117.6227276898401
 20
-140.9608787363384
 30
0.0
 10
117.5779643250064
 20
-140.9161112374805
 30
0.0
 10
117.5779643250064
 20
-140.8609720722206
 30
0.0
 10
117.5779643250064
 20
-140.8058681847375
 30
0.0
 10
117.6227276898401
 20
-140.7610654081027
 30
0.0
 10
117.6778668551001
 20
-140.7610654081027
 30
0.0
 10
117.7329707425831
 20
-140.7610654081027
 30
0.0
 10
117.7777735192179
 20
-140.8058681847375
 30
0.0
 10
117.7777735192179
 20
-140.8609720722206
 30
0.0
  0
HATCH
  5
BE
330
70
100
AcDbEntity
  8
レイヤー 1
 62
   250
420
  2299925
440
 33554687
100
AcDbHatch
 10
0.0
 20
0.0
 30
0.0
210
0.0
220
0.0
230
1.0
  2
SOLID
 70
     1
 71
     1
 91
        1
 92
        1
 93
        1
 72
     4
 94
        3
 73
     0
 74
     0
 95
       17
 96
       13
 40
0.0
 40
0.0
 40
0.0
 40
0.0
 40
1.0
 40
1.0
 40
1.0
 40
2.0
 40
2.0
 40
2.0
 40
3.0
 40
3.0
 40
3.0
 40
4.0
 40
4.0
 40
4.0
 40
4.0
 10
117.7777735192179
 20
-140.8609720722206
 10
117.7777735192179
 20
-140.9161112374805
 10
117.7329707425831
 20
-140.9608787363384
 10
117.6778668551001
 20
-140.9608787363384
 10
117.6227276898401
 20
-140.9608787363384
 10
117.5779643250064
 20
-140.9161112374805
 10
117.5779643250064
 20
-140.8609720722206
 10
117.5779643250064
 20
-140.8058681847375
 10
117.6227276898401
 20
-140.7610654081027
 10
117.6778668551001
 20
-140.7610654081027
 10
117.7329707425831
 20
-140.7610654081027
 10
117.7777735192179
 20
-140.8058681847375
 10
117.7777735192179
 20
-140.8609720722206
 97
        0
 97
        1
330
BD
 75
     2
 76
     1
 98
        1
 10
0.0
 20
0.0
450
        0
451
        0
460
0.0
461
0.0
452
        0
462
0.0
453
        0
470

  0
SPLINE
  5
BF
330
70
100
AcDbEntity
  8
レイヤー 1
 62
   250
420
  2299925
370
     9
100
AcDbSpline
210
0.0
220
0.0
230
1.0
 70
     9
 71
     3
 72
    17
 73
    13
 74
     0
 42
0.0000000001
 43
0.0000000001
 40
0.0
 40
0.0
 40
0.0
 40
0.0
 40
1.0
 40
1.0
 40
1.0
 40
2.0
 40
2.0
 40
2.0
 40
3.0
 40
3.0
 40
3.0
 40
4.0
 40
4.0
 40
4.0
 40
4.0
 10
92.52900999670087
 20
-137.8420410381288
 30
0.0
 10
92.52900999670087
 20
-137.7869371506458
 30
0.0
 10
92.48420722006612
 20
-137.742134374011
 30
0.0
 10
92.42910333258304
 20
-137.742134374011
 30
0.0
 10
92.37431694509186
 20
-137.742134374011
 30
0.0
 10
92.32954944623399
 20
-137.7869371506458
 30
0.0
 10
92.32954944623399
 20
-137.8420410381288
 30
0.0
 10
92.32954944623399
 20
-137.8971802033888
 30
0.0
 10
92.37431694509186
 20
-137.9419423328081
 30
0.0
 10
92.42910333258304
 20
-137.9419423328081
 30
0.0
 10
92.48420722006612
 20
-137.9419423328081
 30
0.0
 10
92.52900999670087
 20
-137.8971802033888
 30
0.0
 10
92.52900999670087
 20
-137.8420410381288
 30
0.0
  0
LINE
  5
C0
330
70
100
AcDbEntity
  8
レイヤー 1
 62
   250
420
  2299925
370
     9
100
AcDbLine
 10
92.42910333258304
 20
-139.3020823897689
 30
0.0
 11
92.42910333258304
 21
-136.8422688414129
 31
0.0
  0
SPLINE
  5
C1
330
70
100
AcDbEntity
  8
レイヤー 1
 62
   250
420
  2299925
370
     9
100
AcDbSpline
210
0.0
220
0.0
230
1.0
 70
     9
 71
     3
 72
    17
 73
    13
 74
     0
 42
0.0000000001
 43
0.0000000001
 40
0.0
 40
0.0
 40
0.0
 40
0.0
 40
1.0
 40
1.0
 40
1.0
 40
2.0
 40
2.0
 40
2.0
 40
3.0
 40
3.0
 40
3.0
 40
4.0
 40
4.0
 40
4.0
 40
4.0
 10
113.5292708498285
 20
-137.8420410381288
 30
0.0
 10
113.5292708498285
 20
-137.7869371506458
 30
0.0
 10
113.4845033509706
 20
-137.742134374011
 30
0.0
 10
113.4293641857106
 20
-137.742134374011
 30
0.0
 10
113.3742643260569
 20
-137.742134374011
 30
0.0
 10
113.3294615482908
 20
-137.7869371506458
 30
0.0
 10
113.3294615482908
 20
-137.8420410381288
 30
0.0
 10
113.3294615482908
 20
-137.8971802033888
 30
0.0
 10
113.3742643260569
 20
-137.9419423328081
 30
0.0
 10
113.4293641857106
 20
-137.9419423328081
 30
0.0
 10
113.4845033509706
 20
-137.9419423328081
 30
0.0
 10
113.5292708498285
 20
-137.8971802033888
 30
0.0
 10
113.5292708498285
 20
-137.8420410381288
 30
0.0
  0
LINE
  5
C2
330
70
100
AcDbEntity
  8
レイヤー 1
 62
   250
420
  2299925
370
     9
100
AcDbLine
 10
113.4293641857106
 20
-139.3020823897689
 30
0.0
 11
113.4293641857106
 21
-136.8422688414129
 31
0.0
  0
LINE
  5
C3
330
70
100
AcDbEntity
  8
レイヤー 1
 62
   250
420
  2299925
370
     9
100
AcDbLine
 10
92.42977361034371
 20
-137.8420410381288
 30
0.0
 11
113.4293641857106
 21
-137.8420410381288
 31
0.0
  0
INSERT
  5
C5
330
70
100
AcDbEntity
  8
レイヤー 1
100
AcDbBlockReference
  2
Block_8
 10
0.0
 20
0.0
 30
0.0
  0
INSERT
  5
D1
330
70
100
AcDbEntity
  8
レイヤー 1
100
AcDbBlockReference
  2
Block_10
 10
0.0
 20
0.0
 30
0.0
  0
ENDSEC
  0
SECTION
  2
OBJECTS
  0
DICTIONARY
  5
C
330
0
100
AcDbDictionary
281
     1
  3
ACAD_COLOR
350
63
  3
ACAD_DETAILVIEWSTYLE
350
6A
  3
ACAD_GROUP
350
D
  3
ACAD_LAYOUT
350
62
  3
ACAD_MATERIAL
350
10
  3
ACAD_MLEADERSTYLE
350
66
  3
ACAD_MLINESTYLE
350
5F
  3
ACAD_PLOTSETTINGS
350
61
  3
ACAD_PLOTSTYLENAME
350
E
  3
ACAD_SCALELIST
350
42
  3
ACAD_SECTIONVIEWSTYLE
350
68
  3
ACAD_TABLESTYLE
350
64
  3
ACAD_VISUALSTYLE
350
29
  3
ACDB_RECOMPOSE_DATA
350
FA
  3
AcDbVariableDictionary
350
F2
  0
DICTIONARY
  5
63
102
{ACAD_REACTORS
330
C
102
}
330
C
100
AcDbDictionary
281
     1
  0
DICTIONARY
  5
6A
102
{ACAD_REACTORS
330
C
102
}
330
C
100
AcDbDictionary
281
     1
  3
Imperial24
350
6B
  0
DICTIONARY
  5
D
102
{ACAD_REACTORS
330
C
102
}
330
C
100
AcDbDictionary
281
     1
  0
DICTIONARY
  5
62
102
{ACAD_REACTORS
330
C
102
}
330
C
100
AcDbDictionary
281
     1
  3
Layout1
350
6F
  3
Layout2
350
77
  3
Model
350
73
  0
DICTIONARY
  5
10
102
{ACAD_REACTORS
330
C
102
}
330
C
100
AcDbDictionary
281
     1
  3
ByBlock
350
19
  3
ByLayer
350
11
  3
Global
350
21
  0
DICTIONARY
  5
66
102
{ACAD_REACTORS
330
C
102
}
330
C
100
AcDbDictionary
281
     1
  3
Standard
350
67
  0
DICTIONARY
  5
5F
102
{ACAD_REACTORS
330
C
102
}
330
C
100
AcDbDictionary
281
     1
  3
Standard
350
60
  0
DICTIONARY
  5
61
102
{ACAD_REACTORS
330
C
102
}
330
C
100
AcDbDictionary
281
     1
  0
ACDBDICTIONARYWDFLT
  5
E
102
{ACAD_REACTORS
330
C
102
}
330
C
100
AcDbDictionary
281
     1
  3
Normal
350
F
100
AcDbDictionaryWithDefault
340
F
  0
DICTIONARY
  5
42
102
{ACAD_REACTORS
330
C
102
}
330
C
100
AcDbDictionary
281
     1
  3
A0
350
43
  3
A1
350
44
  3
A2
350
45
  3
A3
350
46
  3
A4
350
47
  3
A5
350
48
  3
A6
350
49
  3
A7
350
4A
  3
A8
350
4B
  3
A9
350
4C
  3
B0
350
4D
  3
B1
350
4E
  3
B2
350
4F
  3
B3
350
50
  3
B4
350
51
  3
B5
350
52
  3
B6
350
53
  0
DICTIONARY
  5
68
102
{ACAD_REACTORS
330
C
102
}
330
C
100
AcDbDictionary
281
     1
  3
Imperial24
350
69
  0
DICTIONARY
  5
64
102
{ACAD_REACTORS
330
C
102
}
330
C
100
AcDbDictionary
281
     1
  3
Standard
350
65
  0
DICTIONARY
  5
29
102
{ACAD_REACTORS
330
C
102
}
330
C
100
AcDbDictionary
281
     1
  3
2dWireframe
350
2F
  3
Basic
350
2E
  3
Brighten
350
35
  3
ColorChange
350
39
  3
Conceptual
350
32
  3
Dim
350
34
  3
EdgeColorOff
350
41
  3
Facepattern
350
38
  3
Flat
350
2A
  3
FlatWithEdges
350
2B
  3
Gouraud
350
2C
  3
GouraudWithEdges
350
2D
  3
Hidden
350
31
  3
JitterOff
350
3F
  3
Linepattern
350
37
  3
OverhangOff
350
40
  3
Realistic
350
33
  3
Shaded
350
3E
  3
Shaded with edges
350
3D
  3
Shades of Gray
350
3A
  3
Sketchy
350
3B
  3
Thicken
350
36
  3
Wireframe
350
30
  3
X-Ray
350
3C
  0
XRECORD
  5
FA
102
{ACAD_REACTORS
330
C
102
}
330
C
100
AcDbXrecord
280
     1
 90
        1
330
65
  0
DICTIONARY
  5
F2
102
{ACAD_REACTORS
330
C
102
}
330
C
100
AcDbDictionary
281
     1
  3
CANNOSCALE
350
F7
  3
CMLEADERSTYLE
350
F4
  3
CTABLESTYLE
350
F3
  3
CVIEWDETAILSTYLE
350
F5
  3
CVIEWSECTIONSTYLE
350
F6
  0
ACDBDETAILVIEWSTYLE
  5
6B
102
{ACAD_XDICTIONARY
360
12F
102
}
102
{ACAD_REACTORS
330
6A
102
}
330
6A
100
AcDbModelDocViewStyle
 70
     0
  3
Imperial24
290
     0
100
AcDbDetailViewStyle
 70
     0
 71
     0
 90
        3
 71
     1
340
55
 62
   256
 40
0.24
340
0
 62
   256
 40
0.24
300

 40
0.36
280
     3
 71
     2
340
5D
 90
       25
 62
   256
 71
     3
340
55
 62
   256
 40
0.24
 90
        1
 40
0.75
 90
        1
300
%<\AcVar ViewType \f "%tc1">% %<\AcVar ViewDetailId>%\PSCALE %<\AcVar ViewScale \f "%sn">%
 71
     4
340
5D
 90
       25
 62
   256
340
5D
 90
       25
 62
   256
280
     0
  0
LAYOUT
  5
6F
102
{ACAD_REACTORS
330
62
102
}
330
62
100
AcDbPlotSettings
  1

  2

  4

  6

 40
0.0
 41
0.0
 42
0.0
 43
0.0
 44
0.0
 45
0.0
 46
0.0
 47
0.0
 48
0.0
 49
0.0
140
0.0
141
0.0
142
1.0
143
1.0
 70
   688
 72
     0
 73
     0
 74
     5
  7

 75
    16
147
1.0
 76
     0
 77
     2
 78
   300
148
0.0
149
0.0
100
AcDbLayout
  1
Layout1
 70
     1
 71
     1
 10
0.0
 20
0.0
 11
12.0
 21
9.0
 12
0.0
 22
0.0
 32
0.0
 14
0.0
 24
0.0
 34
0.0
 15
0.0
 25
0.0
 35
0.0
146
0.0
 13
0.0
 23
0.0
 33
0.0
 16
1.0
 26
0.0
 36
0.0
 17
0.0
 27
1.0
 37
0.0
 76
     0
330
6C
  0
LAYOUT
  5
77
102
{ACAD_REACTORS
330
62
102
}
330
62
100
AcDbPlotSettings
  1

  2

  4

  6

 40
0.0
 41
0.0
 42
0.0
 43
0.0
 44
0.0
 45
0.0
 46
0.0
 47
0.0
 48
0.0
 49
0.0
140
0.0
141
0.0
142
1.0
143
1.0
 70
   688
 72
     0
 73
     0
 74
     5
  7

 75
    16
147
1.0
 76
     0
 77
     2
 78
   300
148
0.0
149
0.0
100
AcDbLayout
  1
Layout2
 70
     1
 71
     2
 10
0.0
 20
0.0
 11
12.0
 21
9.0
 12
0.0
 22
0.0
 32
0.0
 14
0.0
 24
0.0
 34
0.0
 15
0.0
 25
0.0
 35
0.0
146
0.0
 13
0.0
 23
0.0
 33
0.0
 16
1.0
 26
0.0
 36
0.0
 17
0.0
 27
1.0
 37
0.0
 76
     0
330
74
  0
LAYOUT
  5
73
102
{ACAD_REACTORS
330
62
102
}
330
62
100
AcDbPlotSettings
  1

  2

  4

  6

 40
0.0
 41
0.0
 42
0.0
 43
0.0
 44
0.0
 45
0.0
 46
0.0
 47
0.0
 48
0.0
 49
0.0
140
0.0
141
0.0
142
1.0
143
1.0
 70
  1712
 72
     0
 73
     0
 74
     0
  7

 75
     0
147
1.0
 76
     0
 77
     2
 78
   300
148
0.0
149
0.0
100
AcDbLayout
  1
Model
 70
     1
 71
     0
 10
0.0
 20
0.0
 11
12.0
 21
9.0
 12
0.0
 22
0.0
 32
0.0
 14
0.0
 24
0.0
 34
0.0
 15
0.0
 25
0.0
 35
0.0
146
0.0
 13
0.0
 23
0.0
 33
0.0
 16
1.0
 26
0.0
 36
0.0
 17
0.0
 27
1.0
 37
0.0
 76
     0
330
70
  0
MATERIAL
  5
19
102
{ACAD_XDICTIONARY
360
1A
102
}
102
{ACAD_REACTORS
330
10
102
}
330
10
100
AcDbMaterial
  1
ByBlock
 72
     0
 43
0.0208333333333333
 43
0.0
 43
0.0
 43
0.0
 43
0.0
 43
0.0208333333333333
 43
0.0
 43
0.0
 43
0.0
 43
0.0
 43
1.0
 43
0.0
 43
0.0
 43
0.0
 43
0.0
 43
1.0
 77
     0
 47
0.0208333333333333
 47
0.0
 47
0.0
 47
0.0
 47
0.0
 47
0.0208333333333333
 47
0.0
 47
0.0
 47
0.0
 47
0.0
 47
1.0
 47
0.0
 47
0.0
 47
0.0
 47
0.0
 47
1.0
171
     0
 49
0.0208333333333333
 49
0.0
 49
0.0
 49
0.0
 49
0.0
 49
0.0208333333333333
 49
0.0
 49
0.0
 49
0.0
 49
0.0
 49
1.0
 49
0.0
 49
0.0
 49
0.0
 49
0.0
 49
1.0
175
     0
142
0.0208333333333333
142
0.0
142
0.0
142
0.0
142
0.0
142
0.0208333333333333
142
0.0
142
0.0
142
0.0
142
0.0
142
1.0
142
0.0
142
0.0
142
0.0
142
0.0
142
1.0
179
     0
144
0.0208333333333333
144
0.0
144
0.0
144
0.0
144
0.0
144
0.0208333333333333
144
0.0
144
0.0
144
0.0
144
0.0
144
1.0
144
0.0
144
0.0
144
0.0
144
0.0
144
1.0
147
0.0208333333333333
147
0.0
147
0.0
147
0.0
147
0.0
147
0.0208333333333333
147
0.0
147
0.0
147
0.0
147
0.0
147
1.0
147
0.0
147
0.0
147
0.0
147
0.0
147
1.0
  0
MATERIAL
  5
11
102
{ACAD_XDICTIONARY
360
12
102
}
102
{ACAD_REACTORS
330
10
102
}
330
10
100
AcDbMaterial
  1
ByLayer
 72
     0
 43
0.0208333333333333
 43
0.0
 43
0.0
 43
0.0
 43
0.0
 43
0.0208333333333333
 43
0.0
 43
0.0
 43
0.0
 43
0.0
 43
1.0
 43
0.0
 43
0.0
 43
0.0
 43
0.0
 43
1.0
 77
     0
 47
0.0208333333333333
 47
0.0
 47
0.0
 47
0.0
 47
0.0
 47
0.0208333333333333
 47
0.0
 47
0.0
 47
0.0
 47
0.0
 47
1.0
 47
0.0
 47
0.0
 47
0.0
 47
0.0
 47
1.0
171
     0
 49
0.0208333333333333
 49
0.0
 49
0.0
 49
0.0
 49
0.0
 49
0.0208333333333333
 49
0.0
 49
0.0
 49
0.0
 49
0.0
 49
1.0
 49
0.0
 49
0.0
 49
0.0
 49
0.0
 49
1.0
175
     0
142
0.0208333333333333
142
0.0
142
0.0
142
0.0
142
0.0
142
0.0208333333333333
142
0.0
142
0.0
142
0.0
142
0.0
142
1.0
142
0.0
142
0.0
142
0.0
142
0.0
142
1.0
179
     0
144
0.0208333333333333
144
0.0
144
0.0
144
0.0
144
0.0
144
0.0208333333333333
144
0.0
144
0.0
144
0.0
144
0.0
144
1.0
144
0.0
144
0.0
144
0.0
144
0.0
144
1.0
147
0.0208333333333333
147
0.0
147
0.0
147
0.0
147
0.0
147
0.0208333333333333
147
0.0
147
0.0
147
0.0
147
0.0
147
1.0
147
0.0
147
0.0
147
0.0
147
0.0
147
1.0
  0
MATERIAL
  5
21
102
{ACAD_XDICTIONARY
360
22
102
}
102
{ACAD_REACTORS
330
10
102
}
330
10
100
AcDbMaterial
  1
Global
 72
     0
 43
0.0208333333333333
 43
0.0
 43
0.0
 43
0.0
 43
0.0
 43
0.0208333333333333
 43
0.0
 43
0.0
 43
0.0
 43
0.0
 43
1.0
 43
0.0
 43
0.0
 43
0.0
 43
0.0
 43
1.0
 77
     0
 47
0.0208333333333333
 47
0.0
 47
0.0
 47
0.0
 47
0.0
 47
0.0208333333333333
 47
0.0
 47
0.0
 47
0.0
 47
0.0
 47
1.0
 47
0.0
 47
0.0
 47
0.0
 47
0.0
 47
1.0
171
     0
 49
0.0208333333333333
 49
0.0
 49
0.0
 49
0.0
 49
0.0
 49
0.0208333333333333
 49
0.0
 49
0.0
 49
0.0
 49
0.0
 49
1.0
 49
0.0
 49
0.0
 49
0.0
 49
0.0
 49
1.0
175
     0
142
0.0208333333333333
142
0.0
142
0.0
142
0.0
142
0.0
142
0.0208333333333333
142
0.0
142
0.0
142
0.0
142
0.0
142
1.0
142
0.0
142
0.0
142
0.0
142
0.0
142
1.0
179
     0
144
0.0208333333333333
144
0.0
144
0.0
144
0.0
144
0.0
144
0.0208333333333333
144
0.0
144
0.0
144
0.0
144
0.0
144
1.0
144
0.0
144
0.0
144
0.0
144
0.0
144
1.0
147
0.0208333333333333
147
0.0
147
0.0
147
0.0
147
0.0
147
0.0208333333333333
147
0.0
147
0.0
147
0.0
147
0.0
147
1.0
147
0.0
147
0.0
147
0.0
147
0.0
147
1.0
  0
MLEADERSTYLE
  5
67
102
{ACAD_XDICTIONARY
360
12B
102
}
102
{ACAD_REACTORS
330
66
102
}
330
66
100
AcDbMLeaderStyle
179
     2
170
     2
171
     1
172
     0
 90
        2
 40
0.0
 41
0.0
173
     1
 91
-1056964608
340
5B
 92
       -2
290
     1
 42
0.09
291
     1
 43
0.36
  3
Standard
 44
0.18
300

342
55
174
     1
178
     6
175
     1
176
     0
 93
-1056964608
 45
0.18
292
     0
297
     0
 46
0.18
 94
-1056964608
 47
1.0
 49
1.0
140
1.0
293
     1
141
0.0
294
     1
177
     0
142
1.0
295
     0
296
     0
143
0.125
271
     0
272
     9
273
     9
  0
MLINESTYLE
  5
60
102
{ACAD_REACTORS
330
5F
102
}
330
5F
100
AcDbMlineStyle
  2
STANDARD
 70
     0
  3

 62
   256
 51
90.0
 52
90.0
 71
     2
 49
0.5
 62
   256
  6
BYLAYER
 49
-0.5
 62
   256
  6
BYLAYER
  0
ACDBPLACEHOLDER
  5
F
102
{ACAD_REACTORS
330
E
102
}
330
E
  0
SCALE
  5
43
102
{ACAD_REACTORS
330
42
102
}
330
42
100
AcDbScale
 70
     0
300
1:1
140
1.0
141
1.0
290
     1
  0
SCALE
  5
44
102
{ACAD_REACTORS
330
42
102
}
330
42
100
AcDbScale
 70
     0
300
1/128" = 1'-0"
140
0.0078125
141
12.0
290
     0
  0
SCALE
  5
45
102
{ACAD_REACTORS
330
42
102
}
330
42
100
AcDbScale
 70
     0
300
1/64" = 1'-0"
140
0.015625
141
12.0
290
     0
  0
SCALE
  5
46
102
{ACAD_REACTORS
330
42
102
}
330
42
100
AcDbScale
 70
     0
300
1/32" = 1'-0"
140
0.03125
141
12.0
290
     0
  0
SCALE
  5
47
102
{ACAD_REACTORS
330
42
102
}
330
42
100
AcDbScale
 70
     0
300
1/16" = 1'-0"
140
0.0625
141
12.0
290
     0
  0
SCALE
  5
48
102
{ACAD_REACTORS
330
42
102
}
330
42
100
AcDbScale
 70
     0
300
3/32" = 1'-0"
140
0.09375
141
12.0
290
     0
  0
SCALE
  5
49
102
{ACAD_REACTORS
330
42
102
}
330
42
100
AcDbScale
 70
     0
300
1/8" = 1'-0"
140
0.125
141
12.0
290
     0
  0
SCALE
  5
4A
102
{ACAD_REACTORS
330
42
102
}
330
42
100
AcDbScale
 70
     0
300
3/16" = 1'-0"
140
0.1875
141
12.0
290
     0
  0
SCALE
  5
4B
102
{ACAD_REACTORS
330
42
102
}
330
42
100
AcDbScale
 70
     0
300
1/4" = 1'-0"
140
0.25
141
12.0
290
     0
  0
SCALE
  5
4C
102
{ACAD_REACTORS
330
42
102
}
330
42
100
AcDbScale
 70
     0
300
3/8" = 1'-0"
140
0.375
141
12.0
290
     0
  0
SCALE
  5
4D
102
{ACAD_REACTORS
330
42
102
}
330
42
100
AcDbScale
 70
     0
300
1/2" = 1'-0"
140
0.5
141
12.0
290
     0
  0
SCALE
  5
4E
102
{ACAD_REACTORS
330
42
102
}
330
42
100
AcDbScale
 70
     0
300
3/4" = 1'-0"
140
0.75
141
12.0
290
     0
  0
SCALE
  5
4F
102
{ACAD_REACTORS
330
42
102
}
330
42
100
AcDbScale
 70
     0
300
1" = 1'-0"
140
1.0
141
12.0
290
     0
  0
SCALE
  5
50
102
{ACAD_REACTORS
330
42
102
}
330
42
100
AcDbScale
 70
     0
300
1-1/2" = 1'-0"
140
1.5
141
12.0
290
     0
  0
SCALE
  5
51
102
{ACAD_REACTORS
330
42
102
}
330
42
100
AcDbScale
 70
     0
300
3" = 1'-0"
140
3.0
141
12.0
290
     0
  0
SCALE
  5
52
102
{ACAD_REACTORS
330
42
102
}
330
42
100
AcDbScale
 70
     0
300
6" = 1'-0"
140
6.0
141
12.0
290
     0
  0
SCALE
  5
53
102
{ACAD_REACTORS
330
42
102
}
330
42
100
AcDbScale
 70
     0
300
1'-0" = 1'-0"
140
12.0
141
12.0
290
     0
  0
ACDBSECTIONVIEWSTYLE
  5
69
102
{ACAD_XDICTIONARY
360
12D
102
}
102
{ACAD_REACTORS
330
68
102
}
330
68
100
AcDbModelDocViewStyle
 70
     0
  3
Imperial24
290
     0
100
AcDbSectionViewStyle
 70
     0
 71
     0
 90
       78
 71
     1
340
55
 62
   256
 40
0.24
340
0
340
0
 62
   256
 40
0.24
300
I, O, Q, S, X, Z
 40
0.48
 90
        3
 40
0.18
 90
        1
 71
     2
340
5D
 90
       25
 62
   256
340
5D
 90
       50
 62
   256
 40
0.24
 40
0.0
 40
0.24
 71
     3
340
55
 62
   256
 40
0.24
 90
        1
 40
0.75
 90
        1
300
%<\AcVar ViewType \f "%tc1">% %<\AcVar ViewSectionStartId>%-%<\AcVar ViewSectionEndId>%\PSCALE %<\AcVar ViewScale \f "%sn">%
 71
     4
 62
   256
 62
   257
300
ANSI31
 40
1.0
 90
        0
290
     0
290
     0
 90
        6
 40
0.0
 40
1.570796326794896
 40
0.2617993877991494
 40
1.308996938995747
 40
-0.2617993877991494
 40
1.832595714594046
  0
TABLESTYLE
  5
65
102
{ACAD_XDICTIONARY
360
F8
102
}
102
{ACAD_REACTORS
330
64
102
}
330
64
100
AcDbTableStyle
280
     0
  3
Standard
 70
     0
 71
     0
 40
0.06
 41
0.06
280
     0
281
     0
  7
Standard
140
0.18
170
     2
 62
     0
 63
     7
283
     0
 90
      512
 91
        0
  1

274
    -2
284
     1
 64
     0
275
    -2
285
     1
 65
     0
276
    -2
286
     1
 66
     0
277
    -2
287
     1
 67
     0
278
    -2
288
     1
 68
     0
279
    -2
289
     1
 69
     0
  7
Standard
140
0.25
170
     5
 62
     0
 63
     7
283
     0
 90
      512
 91
        0
  1

274
    -2
284
     1
 64
     0
275
    -2
285
     1
 65
     0
276
    -2
286
     1
 66
     0
277
    -2
287
     1
 67
     0
278
    -2
288
     1
 68
     0
279
    -2
289
     1
 69
     0
  7
Standard
140
0.18
170
     5
 62
     0
 63
     7
283
     0
 90
      512
 91
        0
  1

274
    -2
284
     1
 64
     0
275
    -2
285
     1
 65
     0
276
    -2
286
     1
 66
     0
277
    -2
287
     1
 67
     0
278
    -2
288
     1
 68
     0
279
    -2
289
     1
 69
     0
  0
VISUALSTYLE
  5
2F
102
{ACAD_XDICTIONARY
360
105
102
}
102
{ACAD_REACTORS
330
29
102
}
330
29
100
AcDbVisualStyle
  2
2dWireframe
 70
     4
177
     2
291
     0
 71
     0
176
     1
 72
     2
176
     1
 73
     0
176
     1
 90
        0
176
     1
 40
0.6
176
     1
 41
30.0
176
     1
 63
     7
421
 16777215
176
     1
 74
     1
176
     1
 91
        4
176
     1
 64
     7
176
     1
 65
   257
176
     1
 75
     1
176
     1
175
     1
176
     1
 42
1.0
176
     1
 92
        0
176
     1
 66
   257
176
     1
 43
1.0
176
     1
 76
     1
176
     1
 77
     6
176
     1
 78
     2
176
     1
 67
     7
176
     1
 79
     5
176
     1
170
     0
176
     1
171
     0
176
     1
290
     0
176
     1
 93
        1
176
     1
 44
0.0
176
     1
173
     0
176
     1
1001
ACAD
1000
AcDbSavedByObjectVersion
1070
     0
  0
VISUALSTYLE
  5
2E
102
{ACAD_XDICTIONARY
360
103
102
}
102
{ACAD_REACTORS
330
29
102
}
330
29
100
AcDbVisualStyle
  2
Basic
 70
     7
177
     2
291
     1
 71
     1
176
     1
 72
     0
176
     1
 73
     1
176
     1
 90
        0
176
     1
 40
0.6
176
     1
 41
30.0
176
     1
 63
     7
421
 16777215
176
     1
 74
     0
176
     1
 91
        4
176
     1
 64
     7
176
     1
 65
   257
176
     1
 75
     1
176
     1
175
     1
176
     1
 42
1.0
176
     1
 92
        8
176
     1
 66
     7
176
     1
 43
1.0
176
     1
 76
     1
176
     1
 77
     6
176
     1
 78
     2
176
     1
 67
     7
176
     1
 79
     5
176
     1
170
     0
176
     1
171
     0
176
     1
290
     0
176
     1
 93
        1
176
     1
 44
0.0
176
     1
173
     0
176
     1
1001
ACAD
1000
AcDbSavedByObjectVersion
1070
     0
  0
VISUALSTYLE
  5
35
102
{ACAD_XDICTIONARY
360
111
102
}
102
{ACAD_REACTORS
330
29
102
}
330
29
100
AcDbVisualStyle
  2
Brighten
 70
    12
177
     2
291
     1
 71
     2
176
     1
 72
     2
176
     1
 73
     0
176
     1
 90
        0
176
     1
 40
0.6
176
     1
 41
30.0
176
     1
 63
     7
421
 16777215
176
     1
 74
     1
176
     1
 91
        4
176
     1
 64
     7
176
     1
 65
   257
176
     1
 75
     1
176
     1
175
     1
176
     1
 42
1.0
176
     1
 92
        8
176
     1
 66
     7
176
     1
 43
1.0
176
     1
 76
     1
176
     1
 77
     6
176
     1
 78
     2
176
     1
 67
     7
176
     1
 79
     5
176
     1
170
     0
176
     1
171
     0
176
     1
290
     0
176
     1
 93
        1
176
     1
 44
50.0
176
     1
173
     0
176
     1
1001
ACAD
1000
AcDbSavedByObjectVersion
1070
     0
  0
VISUALSTYLE
  5
39
102
{ACAD_XDICTIONARY
360
119
102
}
102
{ACAD_REACTORS
330
29
102
}
330
29
100
AcDbVisualStyle
  2
ColorChange
 70
    16
177
     2
291
     1
 71
     2
176
     1
 72
     2
176
     1
 73
     3
176
     1
 90
        0
176
     1
 40
0.6
176
     1
 41
30.0
176
     1
 63
     8
421
  8421504
176
     1
 74
     1
176
     1
 91
        4
176
     1
 64
     7
176
     1
 65
   257
176
     1
 75
     1
176
     1
175
     1
176
     1
 42
1.0
176
     1
 92
        8
176
     1
 66
     8
424
  8421504
176
     1
 43
1.0
176
     1
 76
     1
176
     1
 77
     6
176
     1
 78
     2
176
     1
 67
     7
176
     1
 79
     5
176
     1
170
     0
176
     1
171
     0
176
     1
290
     0
176
     1
 93
        1
176
     1
 44
0.0
176
     1
173
     0
176
     1
1001
ACAD
1000
AcDbSavedByObjectVersion
1070
     0
  0
VISUALSTYLE
  5
32
102
{ACAD_XDICTIONARY
360
10B
102
}
102
{ACAD_REACTORS
330
29
102
}
330
29
100
AcDbVisualStyle
  2
Conceptual
 70
     9
177
     2
291
     0
 71
     3
176
     1
 72
     2
176
     1
 73
     0
176
     1
 90
        0
176
     1
 40
0.6
176
     1
 41
30.0
176
     1
 63
     7
421
 16777215
176
     1
 74
     2
176
     1
 91
        2
176
     1
 64
     7
176
     1
 65
   257
176
     1
 75
     1
176
     1
175
     1
176
     1
 42
179.0
176
     1
 92
        8
176
     1
 66
     7
176
     1
 43
1.0
176
     1
 76
     1
176
     1
 77
     6
176
     1
 78
     2
176
     1
 67
     7
176
     1
 79
     3
176
     1
170
     0
176
     1
171
     0
176
     1
290
     0
176
     1
 93
        1
176
     1
 44
0.0
176
     1
173
     0
176
     1
1001
ACAD
1000
AcDbSavedByObjectVersion
1070
     0
  0
VISUALSTYLE
  5
34
102
{ACAD_XDICTIONARY
360
10F
102
}
102
{ACAD_REACTORS
330
29
102
}
330
29
100
AcDbVisualStyle
  2
Dim
 70
    11
177
     2
291
     1
 71
     2
176
     1
 72
     2
176
     1
 73
     0
176
     1
 90
        0
176
     1
 40
0.6
176
     1
 41
30.0
176
     1
 63
     7
421
 16777215
176
     1
 74
     1
176
     1
 91
        4
176
     1
 64
     7
176
     1
 65
   257
176
     1
 75
     1
176
     1
175
     1
176
     1
 42
1.0
176
     1
 92
        8
176
     1
 66
     7
176
     1
 43
1.0
176
     1
 76
     1
176
     1
 77
     6
176
     1
 78
     2
176
     1
 67
     7
176
     1
 79
     5
176
     1
170
     0
176
     1
171
     0
176
     1
290
     0
176
     1
 93
        1
176
     1
 44
-50.0
176
     1
173
     0
176
     1
1001
ACAD
1000
AcDbSavedByObjectVersion
1070
     0
  0
VISUALSTYLE
  5
41
102
{ACAD_XDICTIONARY
360
129
102
}
102
{ACAD_REACTORS
330
29
102
}
330
29
100
AcDbVisualStyle
  2
EdgeColorOff
 70
    22
177
     2
291
     1
 71
     2
176
     0
 72
     2
176
     0
 73
     0
176
     0
 90
        0
176
     0
 40
0.6
176
     0
 41
30.0
176
     0
 63
     7
421
 16777215
176
     0
 74
     1
176
     0
 91
        4
176
     0
 64
     7
176
     0
 65
   257
176
     0
 75
     1
176
     0
175
     1
176
     0
 42
1.0
176
     0
 92
        8
176
     2
 66
     7
176
     0
 43
1.0
176
     0
 76
     1
176
     0
 77
     6
176
     0
 78
     2
176
     0
 67
     7
176
     0
 79
     5
176
     0
170
     0
176
     0
171
     0
176
     0
290
     0
176
     0
 93
        1
176
     0
 44
0.0
176
     0
173
     0
176
     0
1001
ACAD
1000
AcDbSavedByObjectVersion
1070
     0
  0
VISUALSTYLE
  5
38
102
{ACAD_XDICTIONARY
360
117
102
}
102
{ACAD_REACTORS
330
29
102
}
330
29
100
AcDbVisualStyle
  2
Facepattern
 70
    15
177
     2
291
     1
 71
     2
176
     1
 72
     2
176
     1
 73
     0
176
     1
 90
        0
176
     1
 40
0.6
176
     1
 41
30.0
176
     1
 63
     7
421
 16777215
176
     1
 74
     1
176
     1
 91
        4
176
     1
 64
     7
176
     1
 65
   257
176
     1
 75
     1
176
     1
175
     1
176
     1
 42
1.0
176
     1
 92
        8
176
     1
 66
     7
176
     1
 43
1.0
176
     1
 76
     1
176
     1
 77
     6
176
     1
 78
     2
176
     1
 67
     7
176
     1
 79
     5
176
     1
170
     0
176
     1
171
     0
176
     1
290
     0
176
     1
 93
        1
176
     1
 44
0.0
176
     1
173
     0
176
     1
1001
ACAD
1000
AcDbSavedByObjectVersion
1070
     0
  0
VISUALSTYLE
  5
2A
102
{ACAD_XDICTIONARY
360
FB
102
}
102
{ACAD_REACTORS
330
29
102
}
330
29
100
AcDbVisualStyle
  2
Flat
 70
     0
177
     2
291
     1
 71
     2
176
     1
 72
     1
176
     1
 73
     1
176
     1
 90
        2
176
     1
 40
0.6
176
     1
 41
30.0
176
     1
 63
     7
421
 16777215
176
     1
 74
     0
176
     1
 91
        0
176
     1
 64
     7
176
     1
 65
   257
176
     1
 75
     1
176
     1
175
     1
176
     1
 42
1.0
176
     1
 92
        8
176
     1
 66
     7
176
     1
 43
1.0
176
     1
 76
     1
176
     1
 77
     6
176
     1
 78
     2
176
     1
 67
     7
176
     1
 79
     5
176
     1
170
     0
176
     1
171
     0
176
     1
290
     0
176
     1
 93
       13
176
     1
 44
0.0
176
     1
173
     0
176
     1
1001
ACAD
1000
AcDbSavedByObjectVersion
1070
     0
  0
VISUALSTYLE
  5
2B
102
{ACAD_XDICTIONARY
360
FD
102
}
102
{ACAD_REACTORS
330
29
102
}
330
29
100
AcDbVisualStyle
  2
FlatWithEdges
 70
     1
177
     2
291
     1
 71
     2
176
     1
 72
     1
176
     1
 73
     1
176
     1
 90
        2
176
     1
 40
0.6
176
     1
 41
30.0
176
     1
 63
     7
421
 16777215
176
     1
 74
     1
176
     1
 91
        0
176
     1
 64
     7
176
     1
 65
   257
176
     1
 75
     1
176
     1
175
     1
176
     1
 42
1.0
176
     1
 92
        0
176
     1
 66
   257
176
     1
 43
1.0
176
     1
 76
     1
176
     1
 77
     6
176
     1
 78
     2
176
     1
 67
     7
176
     1
 79
     5
176
     1
170
     0
176
     1
171
     0
176
     1
290
     0
176
     1
 93
       13
176
     1
 44
0.0
176
     1
173
     0
176
     1
1001
ACAD
1000
AcDbSavedByObjectVersion
1070
     0
  0
VISUALSTYLE
  5
2C
102
{ACAD_XDICTIONARY
360
FF
102
}
102
{ACAD_REACTORS
330
29
102
}
330
29
100
AcDbVisualStyle
  2
Gouraud
 70
     2
177
     2
291
     1
 71
     2
176
     1
 72
     2
176
     1
 73
     1
176
     1
 90
        2
176
     1
 40
0.6
176
     1
 41
30.0
176
     1
 63
     7
421
 16777215
176
     1
 74
     0
176
     1
 91
        0
176
     1
 64
     7
176
     1
 65
   257
176
     1
 75
     1
176
     1
175
     1
176
     1
 42
1.0
176
     1
 92
        0
176
     1
 66
     7
176
     1
 43
1.0
176
     1
 76
     1
176
     1
 77
     6
176
     1
 78
     2
176
     1
 67
     7
176
     1
 79
     5
176
     1
170
     0
176
     1
171
     0
176
     1
290
     0
176
     1
 93
       13
176
     1
 44
0.0
176
     1
173
     0
176
     1
1001
ACAD
1000
AcDbSavedByObjectVersion
1070
     0
  0
VISUALSTYLE
  5
2D
102
{ACAD_XDICTIONARY
360
101
102
}
102
{ACAD_REACTORS
330
29
102
}
330
29
100
AcDbVisualStyle
  2
GouraudWithEdges
 70
     3
177
     2
291
     1
 71
     2
176
     1
 72
     2
176
     1
 73
     1
176
     1
 90
        2
176
     1
 40
0.6
176
     1
 41
30.0
176
     1
 63
     7
421
 16777215
176
     1
 74
     1
176
     1
 91
        0
176
     1
 64
     7
176
     1
 65
   257
176
     1
 75
     1
176
     1
175
     1
176
     1
 42
1.0
176
     1
 92
        0
176
     1
 66
   257
176
     1
 43
1.0
176
     1
 76
     1
176
     1
 77
     6
176
     1
 78
     2
176
     1
 67
     7
176
     1
 79
     5
176
     1
170
     0
176
     1
171
     0
176
     1
290
     0
176
     1
 93
       13
176
     1
 44
0.0
176
     1
173
     0
176
     1
1001
ACAD
1000
AcDbSavedByObjectVersion
1070
     0
  0
VISUALSTYLE
  5
31
102
{ACAD_XDICTIONARY
360
109
102
}
102
{ACAD_REACTORS
330
29
102
}
330
29
100
AcDbVisualStyle
  2
Hidden
 70
     6
177
     2
291
     0
 71
     1
176
     1
 72
     2
176
     1
 73
     2
176
     1
 90
        0
176
     1
 40
0.6
176
     1
 41
30.0
176
     1
 63
     7
421
 16777215
176
     1
 74
     2
176
     1
 91
        2
176
     1
 64
     7
176
     1
 65
   257
176
     1
 75
     2
176
     1
175
     1
176
     1
 42
40.0
176
     1
 92
        0
176
     1
 66
   257
176
     1
 43
1.0
176
     1
 76
     1
176
     1
 77
     6
176
     1
 78
     2
176
     1
 67
     7
176
     1
 79
     3
176
     1
170
     0
176
     1
171
     0
176
     1
290
     0
176
     1
 93
        1
176
     1
 44
0.0
176
     1
173
     0
176
     1
1001
ACAD
1000
AcDbSavedByObjectVersion
1070
     0
  0
VISUALSTYLE
  5
3F
102
{ACAD_XDICTIONARY
360
125
102
}
102
{ACAD_REACTORS
330
29
102
}
330
29
100
AcDbVisualStyle
  2
JitterOff
 70
    20
177
     2
291
     1
 71
     2
176
     0
 72
     2
176
     0
 73
     0
176
     0
 90
        0
176
     0
 40
0.6
176
     0
 41
30.0
176
     0
 63
     7
421
 16777215
176
     0
 74
     1
176
     0
 91
        4
176
     0
 64
     7
176
     0
 65
   257
176
     0
 75
     1
176
     0
175
     1
176
     0
 42
1.0
176
     0
 92
       10
176
     2
 66
     7
176
     0
 43
1.0
176
     0
 76
     1
176
     0
 77
     6
176
     0
 78
     2
176
     0
 67
     7
176
     0
 79
     5
176
     0
170
     0
176
     0
171
     0
176
     0
290
     0
176
     0
 93
        1
176
     0
 44
0.0
176
     0
173
     0
176
     0
1001
ACAD
1000
AcDbSavedByObjectVersion
1070
     0
  0
VISUALSTYLE
  5
37
102
{ACAD_XDICTIONARY
360
115
102
}
102
{ACAD_REACTORS
330
29
102
}
330
29
100
AcDbVisualStyle
  2
Linepattern
 70
    14
177
     2
291
     1
 71
     2
176
     1
 72
     2
176
     1
 73
     0
176
     1
 90
        0
176
     1
 40
0.6
176
     1
 41
30.0
176
     1
 63
     7
421
 16777215
176
     1
 74
     1
176
     1
 91
        4
176
     1
 64
     7
176
     1
 65
   257
176
     1
 75
     7
176
     1
175
     7
176
     1
 42
1.0
176
     1
 92
        8
176
     1
 66
     7
176
     1
 43
1.0
176
     1
 76
     1
176
     1
 77
     6
176
     1
 78
     2
176
     1
 67
     7
176
     1
 79
     5
176
     1
170
     0
176
     1
171
     0
176
     1
290
     0
176
     1
 93
        1
176
     1
 44
0.0
176
     1
173
     0
176
     1
1001
ACAD
1000
AcDbSavedByObjectVersion
1070
     0
  0
VISUALSTYLE
  5
40
102
{ACAD_XDICTIONARY
360
127
102
}
102
{ACAD_REACTORS
330
29
102
}
330
29
100
AcDbVisualStyle
  2
OverhangOff
 70
    21
177
     2
291
     1
 71
     2
176
     0
 72
     2
176
     0
 73
     0
176
     0
 90
        0
176
     0
 40
0.6
176
     0
 41
30.0
176
     0
 63
     7
421
 16777215
176
     0
 74
     1
176
     0
 91
        4
176
     0
 64
     7
176
     0
 65
   257
176
     0
 75
     1
176
     0
175
     1
176
     0
 42
1.0
176
     0
 92
        9
176
     2
 66
     7
176
     0
 43
1.0
176
     0
 76
     1
176
     0
 77
     6
176
     0
 78
     2
176
     0
 67
     7
176
     0
 79
     5
176
     0
170
     0
176
     0
171
     0
176
     0
290
     0
176
     0
 93
        1
176
     0
 44
0.0
176
     0
173
     0
176
     0
1001
ACAD
1000
AcDbSavedByObjectVersion
1070
     0
  0
VISUALSTYLE
  5
33
102
{ACAD_XDICTIONARY
360
10D
102
}
102
{ACAD_REACTORS
330
29
102
}
330
29
100
AcDbVisualStyle
  2
Realistic
 70
     8
177
     2
291
     0
 71
     2
176
     1
 72
     3
176
     1
 73
     0
176
     1
 90
        2
176
     1
 40
0.6
176
     1
 41
30.0
176
     1
 63
     7
421
 16777215
176
     1
 74
     0
176
     1
 91
        0
176
     1
 64
     7
176
     1
 65
   257
176
     1
 75
     1
176
     1
175
     1
176
     1
 42
1.0
176
     1
 92
        8
176
     1
 66
   257
176
     1
 43
1.0
176
     1
 76
     1
176
     1
 77
     6
176
     1
 78
     2
176
     1
 67
     7
176
     1
 79
     3
176
     1
170
     0
176
     1
171
     0
176
     1
290
     0
176
     1
 93
       13
176
     1
 44
0.0
176
     1
173
     0
176
     1
1001
ACAD
1000
AcDbSavedByObjectVersion
1070
     0
  0
VISUALSTYLE
  5
3E
102
{ACAD_XDICTIONARY
360
123
102
}
102
{ACAD_REACTORS
330
29
102
}
330
29
100
AcDbVisualStyle
  2
Shaded
 70
    27
177
     2
291
     0
 71
     2
176
     1
 72
     2
176
     1
 73
     1
176
     1
 90
        2
176
     1
 40
0.6
176
     1
 41
30.0
176
     1
 63
     7
421
 16777215
176
     1
 74
     0
176
     1
 91
        4
176
     1
 64
     7
176
     1
 65
   257
176
     1
 75
     1
176
     1
175
     1
176
     1
 42
1.0
176
     1
 92
        8
176
     1
 66
   257
176
     1
 43
1.0
176
     1
 76
     1
176
     1
 77
     6
176
     1
 78
     2
176
     1
 67
     8
425
  7895160
176
     1
 79
     3
176
     1
170
     0
176
     1
171
     0
176
     1
290
     0
176
     1
 93
        5
176
     1
 44
0.0
176
     1
173
     0
176
     1
1001
ACAD
1000
AcDbSavedByObjectVersion
1070
     0
  0
VISUALSTYLE
  5
3D
102
{ACAD_XDICTIONARY
360
121
102
}
102
{ACAD_REACTORS
330
29
102
}
330
29
100
AcDbVisualStyle
  2
Shaded with edges
 70
    26
177
     2
291
     0
 71
     2
176
     1
 72
     2
176
     1
 73
     1
176
     1
 90
        2
176
     1
 40
0.6
176
     1
 41
30.0
176
     1
 63
     7
421
 16777215
176
     1
 74
     1
176
     1
 91
        2
176
     1
 64
     7
176
     1
 65
   257
176
     1
 75
     2
176
     1
175
     1
176
     1
 42
1.0
176
     1
 92
        8
176
     1
 66
   257
176
     1
 43
1.0
176
     1
 76
     1
176
     1
 77
     6
176
     1
 78
     2
176
     1
 67
     7
176
     1
 79
     3
176
     1
170
     0
176
     1
171
     0
176
     1
290
     0
176
     1
 93
        5
176
     1
 44
0.0
176
     1
173
     0
176
     1
1001
ACAD
1000
AcDbSavedByObjectVersion
1070
     0
  0
VISUALSTYLE
  5
3A
102
{ACAD_XDICTIONARY
360
11B
102
}
102
{ACAD_REACTORS
330
29
102
}
330
29
100
AcDbVisualStyle
  2
Shades of Gray
 70
    23
177
     2
291
     0
 71
     2
176
     1
 72
     2
176
     1
 73
     3
176
     1
 90
        0
176
     1
 40
0.6
176
     1
 41
30.0
176
     1
 63
     7
421
 16777215
176
     1
 74
     2
176
     1
 91
        2
176
     1
 64
     7
176
     1
 65
     7
176
     1
 75
     1
176
     1
175
     1
176
     1
 42
40.0
176
     1
 92
        8
176
     1
 66
     7
176
     1
 43
1.0
176
     1
 76
     1
176
     1
 77
     6
176
     1
 78
     2
176
     1
 67
     7
176
     1
 79
     3
176
     1
170
     0
176
     1
171
     0
176
     1
290
     0
176
     1
 93
        1
176
     1
 44
0.0
176
     1
173
     0
176
     1
1001
ACAD
1000
AcDbSavedByObjectVersion
1070
     0
  0
VISUALSTYLE
  5
3B
102
{ACAD_XDICTIONARY
360
11D
102
}
102
{ACAD_REACTORS
330
29
102
}
330
29
100
AcDbVisualStyle
  2
Sketchy
 70
    24
177
     2
291
     0
 71
     1
176
     1
 72
     2
176
     1
 73
     2
176
     1
 90
        0
176
     1
 40
0.6
176
     1
 41
30.0
176
     1
 63
     7
421
 16777215
176
     1
 74
     2
176
     1
 91
        2
176
     1
 64
     7
176
     1
 65
     7
176
     1
 75
     1
176
     1
175
     1
176
     1
 42
40.0
176
     1
 92
       11
176
     1
 66
     7
176
     1
 43
1.0
176
     1
 76
     1
176
     1
 77
     6
176
     1
 78
     2
176
     1
 67
     7
176
     1
 79
     6
176
     1
170
     0
176
     1
171
     0
176
     1
290
     0
176
     1
 93
        1
176
     1
 44
0.0
176
     1
173
     0
176
     1
1001
ACAD
1000
AcDbSavedByObjectVersion
1070
     0
  0
VISUALSTYLE
  5
36
102
{ACAD_XDICTIONARY
360
113
102
}
102
{ACAD_REACTORS
330
29
102
}
330
29
100
AcDbVisualStyle
  2
Thicken
 70
    13
177
     2
291
     1
 71
     2
176
     1
 72
     2
176
     1
 73
     0
176
     1
 90
        0
176
     1
 40
0.6
176
     1
 41
30.0
176
     1
 63
     7
421
 16777215
176
     1
 74
     1
176
     1
 91
        4
176
     1
 64
     7
176
     1
 65
   257
176
     1
 75
     1
176
     1
175
     1
176
     1
 42
1.0
176
     1
 92
       12
176
     1
 66
     7
176
     1
 43
1.0
176
     1
 76
     1
176
     1
 77
     6
176
     1
 78
     2
176
     1
 67
     7
176
     1
 79
     5
176
     1
170
     0
176
     1
171
     0
176
     1
290
     0
176
     1
 93
        1
176
     1
 44
0.0
176
     1
173
     0
176
     1
1001
ACAD
1000
AcDbSavedByObjectVersion
1070
     0
  0
VISUALSTYLE
  5
30
102
{ACAD_XDICTIONARY
360
107
102
}
102
{ACAD_REACTORS
330
29
102
}
330
29
100
AcDbVisualStyle
  2
Wireframe
 70
     5
177
     2
291
     0
 71
     0
176
     1
 72
     2
176
     1
 73
     0
176
     1
 90
        0
176
     1
 40
0.6
176
     1
 41
30.0
176
     1
 63
     7
421
 16777215
176
     1
 74
     1
176
     1
 91
        4
176
     1
 64
     7
176
     1
 65
   257
176
     1
 75
     1
176
     1
175
     1
176
     1
 42
1.0
176
     1
 92
        0
176
     1
 66
   257
176
     1
 43
1.0
176
     1
 76
     1
176
     1
 77
     6
176
     1
 78
     2
176
     1
 67
     7
176
     1
 79
     3
176
     1
170
     0
176
     1
171
     0
176
     1
290
     0
176
     1
 93
        1
176
     1
 44
0.0
176
     1
173
     0
176
     1
1001
ACAD
1000
AcDbSavedByObjectVersion
1070
     0
  0
VISUALSTYLE
  5
3C
102
{ACAD_XDICTIONARY
360
11F
102
}
102
{ACAD_REACTORS
330
29
102
}
330
29
100
AcDbVisualStyle
  2
X-Ray
 70
    25
177
     2
291
     0
 71
     2
176
     1
 72
     2
176
     1
 73
     1
176
     1
 90
        1
176
     1
 40
0.5
176
     1
 41
30.0
176
     1
 63
     7
421
 16777215
176
     1
 74
     1
176
     1
 91
        0
176
     1
 64
     7
176
     1
 65
   257
176
     1
 75
     1
176
     1
175
     1
176
     1
 42
1.0
176
     1
 92
        8
176
     1
 66
     7
176
     1
 43
1.0
176
     1
 76
     1
176
     1
 77
     6
176
     1
 78
     2
176
     1
 67
     7
176
     1
 79
     3
176
     1
170
     0
176
     1
171
     0
176
     1
290
     0
176
     1
 93
       13
176
     1
 44
0.0
176
     1
173
     0
176
     1
1001
ACAD
1000
AcDbSavedByObjectVersion
1070
     0
  0
DICTIONARYVAR
  5
F7
102
{ACAD_REACTORS
330
F2
102
}
330
F2
100
DictionaryVariables
280
     0
  1
1:1
  0
DICTIONARYVAR
  5
F4
102
{ACAD_REACTORS
330
F2
102
}
330
F2
100
DictionaryVariables
280
     0
  1
STANDARD
  0
DICTIONARYVAR
  5
F3
102
{ACAD_REACTORS
330
F2
102
}
330
F2
100
DictionaryVariables
280
     0
  1
STANDARD
  0
DICTIONARYVAR
  5
F5
102
{ACAD_REACTORS
330
F2
102
}
330
F2
100
DictionaryVariables
280
     0
  1
Imperial24
  0
DICTIONARYVAR
  5
F6
102
{ACAD_REACTORS
330
F2
102
}
330
F2
100
DictionaryVariables
280
     0
  1
Imperial24
  0
DICTIONARY
  5
12F
330
6B
100
AcDbDictionary
280
     1
281
     1
  3
ACAD_XREC_ROUNDTRIP
360
130
  0
DICTIONARY
  5
1A
330
19
100
AcDbDictionary
280
     1
281
     1
  3
BUMPTILE
360
1C
  3
DIFFUSETILE
360
1B
  3
OPACITYTILE
360
1F
  3
REFLECTIONTILE
360
1E
  3
REFRACTIONTILE
360
20
  3
SPECULARTILE
360
1D
  0
DICTIONARY
  5
12
330
11
100
AcDbDictionary
280
     1
281
     1
  3
BUMPTILE
360
14
  3
DIFFUSETILE
360
13
  3
OPACITYTILE
360
17
  3
REFLECTIONTILE
360
16
  3
REFRACTIONTILE
360
18
  3
SPECULARTILE
360
15
  0
DICTIONARY
  5
22
330
21
100
AcDbDictionary
280
     1
281
     1
  3
BUMPTILE
360
24
  3
DIFFUSETILE
360
23
  3
OPACITYTILE
360
27
  3
REFLECTIONTILE
360
26
  3
REFRACTIONTILE
360
28
  3
SPECULARTILE
360
25
  0
DICTIONARY
  5
12B
330
67
100
AcDbDictionary
280
     1
281
     1
  3
ACAD_XREC_ROUNDTRIP
360
12C
  0
DICTIONARY
  5
12D
330
69
100
AcDbDictionary
280
     1
281
     1
  3
ACAD_XREC_ROUNDTRIP
360
12E
  0
DICTIONARY
  5
F8
330
65
100
AcDbDictionary
280
     1
281
     1
  3
ACAD_ROUNDTRIP_2008_TABLESTYLE_CELLSTYLEMAP
360
F9
  0
DICTIONARY
  5
105
330
2F
100
AcDbDictionary
280
     1
281
     1
  3
ACAD_XREC_ROUNDTRIP
360
106
  0
DICTIONARY
  5
103
330
2E
100
AcDbDictionary
280
     1
281
     1
  3
ACAD_XREC_ROUNDTRIP
360
104
  0
DICTIONARY
  5
111
330
35
100
AcDbDictionary
280
     1
281
     1
  3
ACAD_XREC_ROUNDTRIP
360
112
  0
DICTIONARY
  5
119
330
39
100
AcDbDictionary
280
     1
281
     1
  3
ACAD_XREC_ROUNDTRIP
360
11A
  0
DICTIONARY
  5
10B
330
32
100
AcDbDictionary
280
     1
281
     1
  3
ACAD_XREC_ROUNDTRIP
360
10C
  0
DICTIONARY
  5
10F
330
34
100
AcDbDictionary
280
     1
281
     1
  3
ACAD_XREC_ROUNDTRIP
360
110
  0
DICTIONARY
  5
129
330
41
100
AcDbDictionary
280
     1
281
     1
  3
ACAD_XREC_ROUNDTRIP
360
12A
  0
DICTIONARY
  5
117
330
38
100
AcDbDictionary
280
     1
281
     1
  3
ACAD_XREC_ROUNDTRIP
360
118
  0
DICTIONARY
  5
FB
330
2A
100
AcDbDictionary
280
     1
281
     1
  3
ACAD_XREC_ROUNDTRIP
360
FC
  0
DICTIONARY
  5
FD
330
2B
100
AcDbDictionary
280
     1
281
     1
  3
ACAD_XREC_ROUNDTRIP
360
FE
  0
DICTIONARY
  5
FF
330
2C
100
AcDbDictionary
280
     1
281
     1
  3
ACAD_XREC_ROUNDTRIP
360
100
  0
DICTIONARY
  5
101
330
2D
100
AcDbDictionary
280
     1
281
     1
  3
ACAD_XREC_ROUNDTRIP
360
102
  0
DICTIONARY
  5
109
330
31
100
AcDbDictionary
280
     1
281
     1
  3
ACAD_XREC_ROUNDTRIP
360
10A
  0
DICTIONARY
  5
125
330
3F
100
AcDbDictionary
280
     1
281
     1
  3
ACAD_XREC_ROUNDTRIP
360
126
  0
DICTIONARY
  5
115
330
37
100
AcDbDictionary
280
     1
281
     1
  3
ACAD_XREC_ROUNDTRIP
360
116
  0
DICTIONARY
  5
127
330
40
100
AcDbDictionary
280
     1
281
     1
  3
ACAD_XREC_ROUNDTRIP
360
128
  0
DICTIONARY
  5
10D
330
33
100
AcDbDictionary
280
     1
281
     1
  3
ACAD_XREC_ROUNDTRIP
360
10E
  0
DICTIONARY
  5
123
330
3E
100
AcDbDictionary
280
     1
281
     1
  3
ACAD_XREC_ROUNDTRIP
360
124
  0
DICTIONARY
  5
121
330
3D
100
AcDbDictionary
280
     1
281
     1
  3
ACAD_XREC_ROUNDTRIP
360
122
  0
DICTIONARY
  5
11B
330
3A
100
AcDbDictionary
280
     1
281
     1
  3
ACAD_XREC_ROUNDTRIP
360
11C
  0
DICTIONARY
  5
11D
330
3B
100
AcDbDictionary
280
     1
281
     1
  3
ACAD_XREC_ROUNDTRIP
360
11E
  0
DICTIONARY
  5
113
330
36
100
AcDbDictionary
280
     1
281
     1
  3
ACAD_XREC_ROUNDTRIP
360
114
  0
DICTIONARY
  5
107
330
30
100
AcDbDictionary
280
     1
281
     1
  3
ACAD_XREC_ROUNDTRIP
360
108
  0
DICTIONARY
  5
11F
330
3C
100
AcDbDictionary
280
     1
281
     1
  3
ACAD_XREC_ROUNDTRIP
360
120
  0
XRECORD
  5
130
102
{ACAD_REACTORS
330
12F
102
}
330
12F
100
AcDbXrecord
280
     1
102
DISPLAYNAME
  1
Imperial24
102
FLAGS
 90
        0
  0
XRECORD
  5
1C
102
{ACAD_REACTORS
330
1A
102
}
330
1A
100
AcDbXrecord
280
     1
270
     1
271
     1
  0
XRECORD
  5
1B
102
{ACAD_REACTORS
330
1A
102
}
330
1A
100
AcDbXrecord
280
     1
270
     1
271
     1
  0
XRECORD
  5
1F
102
{ACAD_REACTORS
330
1A
102
}
330
1A
100
AcDbXrecord
280
     1
270
     1
271
     1
  0
XRECORD
  5
1E
102
{ACAD_REACTORS
330
1A
102
}
330
1A
100
AcDbXrecord
280
     1
270
     1
271
     1
  0
XRECORD
  5
20
102
{ACAD_REACTORS
330
1A
102
}
330
1A
100
AcDbXrecord
280
     1
270
     1
271
     1
  0
XRECORD
  5
1D
102
{ACAD_REACTORS
330
1A
102
}
330
1A
100
AcDbXrecord
280
     1
270
     1
271
     1
  0
XRECORD
  5
14
102
{ACAD_REACTORS
330
12
102
}
330
12
100
AcDbXrecord
280
     1
270
     1
271
     1
  0
XRECORD
  5
13
102
{ACAD_REACTORS
330
12
102
}
330
12
100
AcDbXrecord
280
     1
270
     1
271
     1
  0
XRECORD
  5
17
102
{ACAD_REACTORS
330
12
102
}
330
12
100
AcDbXrecord
280
     1
270
     1
271
     1
  0
XRECORD
  5
16
102
{ACAD_REACTORS
330
12
102
}
330
12
100
AcDbXrecord
280
     1
270
     1
271
     1
  0
XRECORD
  5
18
102
{ACAD_REACTORS
330
12
102
}
330
12
100
AcDbXrecord
280
     1
270
     1
271
     1
  0
XRECORD
  5
15
102
{ACAD_REACTORS
330
12
102
}
330
12
100
AcDbXrecord
280
     1
270
     1
271
     1
  0
XRECORD
  5
24
102
{ACAD_REACTORS
330
22
102
}
330
22
100
AcDbXrecord
280
     1
270
     1
271
     1
  0
XRECORD
  5
23
102
{ACAD_REACTORS
330
22
102
}
330
22
100
AcDbXrecord
280
     1
270
     1
271
     1
  0
XRECORD
  5
27
102
{ACAD_REACTORS
330
22
102
}
330
22
100
AcDbXrecord
280
     1
270
     1
271
     1
  0
XRECORD
  5
26
102
{ACAD_REACTORS
330
22
102
}
330
22
100
AcDbXrecord
280
     1
270
     1
271
     1
  0
XRECORD
  5
28
102
{ACAD_REACTORS
330
22
102
}
330
22
100
AcDbXrecord
280
     1
270
     1
271
     1
  0
XRECORD
  5
25
102
{ACAD_REACTORS
330
22
102
}
330
22
100
AcDbXrecord
280
     1
270
     1
271
     1
  0
XRECORD
  5
12C
102
{ACAD_REACTORS
330
12B
102
}
330
12B
100
AcDbXrecord
280
     1
102
ACAD_ROUNDTRIP_2012_MLEADER_STYLE
298
     1
  0
XRECORD
  5
12E
102
{ACAD_REACTORS
330
12D
102
}
330
12D
100
AcDbXrecord
280
     1
102
DISPLAYNAME
  1
Imperial24
102
FLAGS
 90
        0
  0
CELLSTYLEMAP
  5
F9
102
{ACAD_REACTORS
330
F8
102
}
330
F8
100
AcDbCellStyleMap
 90
        3
300
CELLSTYLE
  1
TABLEFORMAT_BEGIN
 90
        5
170
     1
 91
        0
 92
    32768
 62
   257
 93
        1
300
CONTENTFORMAT
  1
CONTENTFORMAT_BEGIN
 90
        0
 91
        0
 92
      512
 93
        0
300

 40
0.0
140
1.0
 94
        5
 62
     0
340
55
144
0.25
309
CONTENTFORMAT_END
171
     0
 94
        0
309
TABLEFORMAT_END
  1
CELLSTYLE_BEGIN
 90
        1
 91
        1
300
_TITLE
309
CELLSTYLE_END
300
CELLSTYLE
  1
TABLEFORMAT_BEGIN
 90
        5
170
     1
 91
        0
 92
        0
 62
   257
 93
        1
300
CONTENTFORMAT
  1
CONTENTFORMAT_BEGIN
 90
        0
 91
        0
 92
      512
 93
        0
300

 40
0.0
140
1.0
 94
        5
 62
     0
340
55
144
0.18
309
CONTENTFORMAT_END
171
     0
 94
        0
309
TABLEFORMAT_END
  1
CELLSTYLE_BEGIN
 90
        2
 91
        1
300
_HEADER
309
CELLSTYLE_END
300
CELLSTYLE
  1
TABLEFORMAT_BEGIN
 90
        5
170
     1
 91
        0
 92
        0
 62
   257
 93
        1
300
CONTENTFORMAT
  1
CONTENTFORMAT_BEGIN
 90
        0
 91
        0
 92
      512
 93
        0
300

 40
0.0
140
1.0
 94
        2
 62
     0
340
55
144
0.18
309
CONTENTFORMAT_END
171
     0
 94
        0
309
TABLEFORMAT_END
  1
CELLSTYLE_BEGIN
 90
        3
 91
        2
300
_DATA
309
CELLSTYLE_END
  0
XRECORD
  5
106
102
{ACAD_REACTORS
330
105
102
}
330
105
100
AcDbXrecord
280
     1
102
RTVSPost2010Prop28
280
     1
102
RTVSPost2010PropOp28
 70
     1
102
RTVSPost2010Prop29
280
     1
102
RTVSPost2010PropOp29
 70
     1
102
RTVSPost2010Prop30
280
     0
102
RTVSPost2010PropOp30
 70
     1
102
RTVSPost2010Prop31
280
     0
102
RTVSPost2010PropOp31
 70
     1
102
RTVSPost2010Prop32
280
     0
102
RTVSPost2010PropOp32
 70
     1
102
RTVSPost2010Prop33
280
     0
102
RTVSPost2010PropOp33
 70
     1
102
RTVSPost2010Prop34
280
     0
102
RTVSPost2010PropOp34
 70
     1
102
RTVSPost2010Prop35
280
     0
102
RTVSPost2010PropOp35
 70
     1
102
RTVSPost2010Prop36
280
     0
102
RTVSPost2010PropOp36
 70
     1
102
RTVSPost2010Prop37
 90
       50
102
RTVSPost2010PropOp37
 70
     1
102
RTVSPost2010Prop38
140
0.0
102
RTVSPost2010PropOp38
 70
     1
102
RTVSPost2010Prop39
140
1.0
102
RTVSPost2010PropOp39
 70
     1
102
RTVSPost2010Prop40
 90
        0
102
RTVSPost2010PropOp40
 70
     1
102
RTVSPost2010Prop41ColorIndex
 90
       18
102
RTVSPost2010Prop41ColorRGB
 90
        0
102
RTVSPost2010PropOp41
 70
     1
102
RTVSPost2010Prop42
 90
       50
102
RTVSPost2010PropOp42
 70
     1
102
RTVSPost2010Prop43
 90
        3
102
RTVSPost2010PropOp43
 70
     1
102
RTVSPost2010Prop44ColorIndex
 90
        5
102
RTVSPost2010Prop44ColorRGB
 90
      255
102
RTVSPost2010PropOp44
 70
     1
102
RTVSPost2010Prop45
280
     0
102
RTVSPost2010PropOp45
 70
     1
102
RTVSPost2010Prop46
 90
       50
102
RTVSPost2010PropOp46
 70
     1
102
RTVSPost2010Prop47
 90
       50
102
RTVSPost2010PropOp47
 70
     1
102
RTVSPost2010Prop48
 90
       50
102
RTVSPost2010PropOp48
 70
     1
102
RTVSPost2010Prop49
280
     0
102
RTVSPost2010PropOp49
 70
     1
102
RTVSPost2010Prop50
 90
       50
102
RTVSPost2010PropOp50
 70
     1
102
RTVSPost2010Prop51ColorIndex
 90
      256
102
RTVSPost2010Prop51ColorRGB
 90
-16777216
102
RTVSPost2010PropOp51
 70
     0
102
RTVSPost2010Prop52
140
1.0
102
RTVSPost2010PropOp52
 70
     0
102
RTVSPost2010Prop53
 90
        2
102
RTVSPost2010PropOp53
 70
     1
102
RTVSPost2010Prop54
  1
strokes_ogs.tif
102
RTVSPost2010PropOp54
 70
     1
102
RTVSPost2010Prop55
280
     0
102
RTVSPost2010PropOp55
 70
     1
102
RTVSPost2010Prop56
140
1.0
102
RTVSPost2010PropOp56
 70
     1
102
RTVSPost2010Prop57
140
1.0
102
RTVSPost2010PropOp57
 70
     1
  0
XRECORD
  5
104
102
{ACAD_REACTORS
330
103
102
}
330
103
100
AcDbXrecord
280
     1
102
RTVSPost2010Prop28
280
     0
102
RTVSPost2010PropOp28
 70
     1
102
RTVSPost2010Prop29
280
     1
102
RTVSPost2010PropOp29
 70
     1
102
RTVSPost2010Prop30
280
     1
102
RTVSPost2010PropOp30
 70
     1
102
RTVSPost2010Prop31
280
     0
102
RTVSPost2010PropOp31
 70
     1
102
RTVSPost2010Prop32
280
     0
102
RTVSPost2010PropOp32
 70
     1
102
RTVSPost2010Prop33
280
     0
102
RTVSPost2010PropOp33
 70
     1
102
RTVSPost2010Prop34
280
     0
102
RTVSPost2010PropOp34
 70
     1
102
RTVSPost2010Prop35
280
     0
102
RTVSPost2010PropOp35
 70
     1
102
RTVSPost2010Prop36
280
     0
102
RTVSPost2010PropOp36
 70
     1
102
RTVSPost2010Prop37
 90
       50
102
RTVSPost2010PropOp37
 70
     1
102
RTVSPost2010Prop38
140
0.0
102
RTVSPost2010PropOp38
 70
     1
102
RTVSPost2010Prop39
140
1.0
102
RTVSPost2010PropOp39
 70
     1
102
RTVSPost2010Prop40
 90
        0
102
RTVSPost2010PropOp40
 70
     1
102
RTVSPost2010Prop41ColorIndex
 90
       18
102
RTVSPost2010Prop41ColorRGB
 90
        0
102
RTVSPost2010PropOp41
 70
     1
102
RTVSPost2010Prop42
 90
       50
102
RTVSPost2010PropOp42
 70
     1
102
RTVSPost2010Prop43
 90
        3
102
RTVSPost2010PropOp43
 70
     1
102
RTVSPost2010Prop44ColorIndex
 90
        5
102
RTVSPost2010Prop44ColorRGB
 90
      255
102
RTVSPost2010PropOp44
 70
     1
102
RTVSPost2010Prop45
280
     0
102
RTVSPost2010PropOp45
 70
     1
102
RTVSPost2010Prop46
 90
       50
102
RTVSPost2010PropOp46
 70
     1
102
RTVSPost2010Prop47
 90
       50
102
RTVSPost2010PropOp47
 70
     1
102
RTVSPost2010Prop48
 90
       50
102
RTVSPost2010PropOp48
 70
     1
102
RTVSPost2010Prop49
280
     0
102
RTVSPost2010PropOp49
 70
     1
102
RTVSPost2010Prop50
 90
       50
102
RTVSPost2010PropOp50
 70
     1
102
RTVSPost2010Prop51ColorIndex
 90
      256
102
RTVSPost2010Prop51ColorRGB
 90
-16777216
102
RTVSPost2010PropOp51
 70
     0
102
RTVSPost2010Prop52
140
1.0
102
RTVSPost2010PropOp52
 70
     0
102
RTVSPost2010Prop53
 90
        2
102
RTVSPost2010PropOp53
 70
     1
102
RTVSPost2010Prop54
  1
strokes_ogs.tif
102
RTVSPost2010PropOp54
 70
     1
102
RTVSPost2010Prop55
280
     0
102
RTVSPost2010PropOp55
 70
     1
102
RTVSPost2010Prop56
140
1.0
102
RTVSPost2010PropOp56
 70
     1
102
RTVSPost2010Prop57
140
1.0
102
RTVSPost2010PropOp57
 70
     1
  0
XRECORD
  5
112
102
{ACAD_REACTORS
330
111
102
}
330
111
100
AcDbXrecord
280
     1
102
RTVSPost2010Prop28
280
     0
102
RTVSPost2010PropOp28
 70
     1
102
RTVSPost2010Prop29
280
     1
102
RTVSPost2010PropOp29
 70
     1
102
RTVSPost2010Prop30
280
     1
102
RTVSPost2010PropOp30
 70
     1
102
RTVSPost2010Prop31
280
     0
102
RTVSPost2010PropOp31
 70
     1
102
RTVSPost2010Prop32
280
     0
102
RTVSPost2010PropOp32
 70
     1
102
RTVSPost2010Prop33
280
     0
102
RTVSPost2010PropOp33
 70
     1
102
RTVSPost2010Prop34
280
     0
102
RTVSPost2010PropOp34
 70
     1
102
RTVSPost2010Prop35
280
     0
102
RTVSPost2010PropOp35
 70
     1
102
RTVSPost2010Prop36
280
     0
102
RTVSPost2010PropOp36
 70
     1
102
RTVSPost2010Prop37
 90
       50
102
RTVSPost2010PropOp37
 70
     1
102
RTVSPost2010Prop38
140
0.0
102
RTVSPost2010PropOp38
 70
     1
102
RTVSPost2010Prop39
140
1.0
102
RTVSPost2010PropOp39
 70
     1
102
RTVSPost2010Prop40
 90
        0
102
RTVSPost2010PropOp40
 70
     1
102
RTVSPost2010Prop41ColorIndex
 90
       18
102
RTVSPost2010Prop41ColorRGB
 90
        0
102
RTVSPost2010PropOp41
 70
     1
102
RTVSPost2010Prop42
 90
       50
102
RTVSPost2010PropOp42
 70
     1
102
RTVSPost2010Prop43
 90
        3
102
RTVSPost2010PropOp43
 70
     1
102
RTVSPost2010Prop44ColorIndex
 90
        5
102
RTVSPost2010Prop44ColorRGB
 90
      255
102
RTVSPost2010PropOp44
 70
     1
102
RTVSPost2010Prop45
280
     0
102
RTVSPost2010PropOp45
 70
     1
102
RTVSPost2010Prop46
 90
       50
102
RTVSPost2010PropOp46
 70
     1
102
RTVSPost2010Prop47
 90
       50
102
RTVSPost2010PropOp47
 70
     1
102
RTVSPost2010Prop48
 90
       50
102
RTVSPost2010PropOp48
 70
     1
102
RTVSPost2010Prop49
280
     0
102
RTVSPost2010PropOp49
 70
     1
102
RTVSPost2010Prop50
 90
       50
102
RTVSPost2010PropOp50
 70
     1
102
RTVSPost2010Prop51ColorIndex
 90
      256
102
RTVSPost2010Prop51ColorRGB
 90
-16777216
102
RTVSPost2010PropOp51
 70
     0
102
RTVSPost2010Prop52
140
1.0
102
RTVSPost2010PropOp52
 70
     0
102
RTVSPost2010Prop53
 90
        2
102
RTVSPost2010PropOp53
 70
     1
102
RTVSPost2010Prop54
  1
strokes_ogs.tif
102
RTVSPost2010PropOp54
 70
     1
102
RTVSPost2010Prop55
280
     0
102
RTVSPost2010PropOp55
 70
     1
102
RTVSPost2010Prop56
140
1.0
102
RTVSPost2010PropOp56
 70
     1
102
RTVSPost2010Prop57
140
1.0
102
RTVSPost2010PropOp57
 70
     1
  0
XRECORD
  5
11A
102
{ACAD_REACTORS
330
119
102
}
330
119
100
AcDbXrecord
280
     1
102
RTVSPost2010Prop28
280
     0
102
RTVSPost2010PropOp28
 70
     1
102
RTVSPost2010Prop29
280
     1
102
RTVSPost2010PropOp29
 70
     1
102
RTVSPost2010Prop30
280
     1
102
RTVSPost2010PropOp30
 70
     1
102
RTVSPost2010Prop31
280
     0
102
RTVSPost2010PropOp31
 70
     1
102
RTVSPost2010Prop32
280
     0
102
RTVSPost2010PropOp32
 70
     1
102
RTVSPost2010Prop33
280
     0
102
RTVSPost2010PropOp33
 70
     1
102
RTVSPost2010Prop34
280
     0
102
RTVSPost2010PropOp34
 70
     1
102
RTVSPost2010Prop35
280
     0
102
RTVSPost2010PropOp35
 70
     1
102
RTVSPost2010Prop36
280
     0
102
RTVSPost2010PropOp36
 70
     1
102
RTVSPost2010Prop37
 90
       50
102
RTVSPost2010PropOp37
 70
     1
102
RTVSPost2010Prop38
140
0.0
102
RTVSPost2010PropOp38
 70
     1
102
RTVSPost2010Prop39
140
1.0
102
RTVSPost2010PropOp39
 70
     1
102
RTVSPost2010Prop40
 90
        0
102
RTVSPost2010PropOp40
 70
     1
102
RTVSPost2010Prop41ColorIndex
 90
       18
102
RTVSPost2010Prop41ColorRGB
 90
        0
102
RTVSPost2010PropOp41
 70
     1
102
RTVSPost2010Prop42
 90
       50
102
RTVSPost2010PropOp42
 70
     1
102
RTVSPost2010Prop43
 90
        3
102
RTVSPost2010PropOp43
 70
     1
102
RTVSPost2010Prop44ColorIndex
 90
        5
102
RTVSPost2010Prop44ColorRGB
 90
      255
102
RTVSPost2010PropOp44
 70
     1
102
RTVSPost2010Prop45
280
     0
102
RTVSPost2010PropOp45
 70
     1
102
RTVSPost2010Prop46
 90
       50
102
RTVSPost2010PropOp46
 70
     1
102
RTVSPost2010Prop47
 90
       50
102
RTVSPost2010PropOp47
 70
     1
102
RTVSPost2010Prop48
 90
       50
102
RTVSPost2010PropOp48
 70
     1
102
RTVSPost2010Prop49
280
     0
102
RTVSPost2010PropOp49
 70
     1
102
RTVSPost2010Prop50
 90
       50
102
RTVSPost2010PropOp50
 70
     1
102
RTVSPost2010Prop51ColorIndex
 90
      256
102
RTVSPost2010Prop51ColorRGB
 90
-16777216
102
RTVSPost2010PropOp51
 70
     0
102
RTVSPost2010Prop52
140
1.0
102
RTVSPost2010PropOp52
 70
     0
102
RTVSPost2010Prop53
 90
        2
102
RTVSPost2010PropOp53
 70
     1
102
RTVSPost2010Prop54
  1
strokes_ogs.tif
102
RTVSPost2010PropOp54
 70
     1
102
RTVSPost2010Prop55
280
     0
102
RTVSPost2010PropOp55
 70
     1
102
RTVSPost2010Prop56
140
1.0
102
RTVSPost2010PropOp56
 70
     1
102
RTVSPost2010Prop57
140
1.0
102
RTVSPost2010PropOp57
 70
     1
  0
XRECORD
  5
10C
102
{ACAD_REACTORS
330
10B
102
}
330
10B
100
AcDbXrecord
280
     1
102
RTVSPost2010Prop28
280
     0
102
RTVSPost2010PropOp28
 70
     1
102
RTVSPost2010Prop29
280
     1
102
RTVSPost2010PropOp29
 70
     1
102
RTVSPost2010Prop30
280
     1
102
RTVSPost2010PropOp30
 70
     1
102
RTVSPost2010Prop31
280
     0
102
RTVSPost2010PropOp31
 70
     1
102
RTVSPost2010Prop32
280
     0
102
RTVSPost2010PropOp32
 70
     1
102
RTVSPost2010Prop33
280
     0
102
RTVSPost2010PropOp33
 70
     1
102
RTVSPost2010Prop34
280
     0
102
RTVSPost2010PropOp34
 70
     1
102
RTVSPost2010Prop35
280
     0
102
RTVSPost2010PropOp35
 70
     1
102
RTVSPost2010Prop36
280
     0
102
RTVSPost2010PropOp36
 70
     1
102
RTVSPost2010Prop37
 90
       50
102
RTVSPost2010PropOp37
 70
     1
102
RTVSPost2010Prop38
140
0.0
102
RTVSPost2010PropOp38
 70
     1
102
RTVSPost2010Prop39
140
1.0
102
RTVSPost2010PropOp39
 70
     1
102
RTVSPost2010Prop40
 90
        0
102
RTVSPost2010PropOp40
 70
     1
102
RTVSPost2010Prop41ColorIndex
 90
       18
102
RTVSPost2010Prop41ColorRGB
 90
        0
102
RTVSPost2010PropOp41
 70
     1
102
RTVSPost2010Prop42
 90
       50
102
RTVSPost2010PropOp42
 70
     1
102
RTVSPost2010Prop43
 90
        3
102
RTVSPost2010PropOp43
 70
     1
102
RTVSPost2010Prop44ColorIndex
 90
        5
102
RTVSPost2010Prop44ColorRGB
 90
      255
102
RTVSPost2010PropOp44
 70
     1
102
RTVSPost2010Prop45
280
     0
102
RTVSPost2010PropOp45
 70
     1
102
RTVSPost2010Prop46
 90
       50
102
RTVSPost2010PropOp46
 70
     1
102
RTVSPost2010Prop47
 90
       50
102
RTVSPost2010PropOp47
 70
     1
102
RTVSPost2010Prop48
 90
       50
102
RTVSPost2010PropOp48
 70
     1
102
RTVSPost2010Prop49
280
     0
102
RTVSPost2010PropOp49
 70
     1
102
RTVSPost2010Prop50
 90
       50
102
RTVSPost2010PropOp50
 70
     1
102
RTVSPost2010Prop51ColorIndex
 90
      256
102
RTVSPost2010Prop51ColorRGB
 90
-16777216
102
RTVSPost2010PropOp51
 70
     0
102
RTVSPost2010Prop52
140
1.0
102
RTVSPost2010PropOp52
 70
     0
102
RTVSPost2010Prop53
 90
        2
102
RTVSPost2010PropOp53
 70
     1
102
RTVSPost2010Prop54
  1
strokes_ogs.tif
102
RTVSPost2010PropOp54
 70
     1
102
RTVSPost2010Prop55
280
     0
102
RTVSPost2010PropOp55
 70
     1
102
RTVSPost2010Prop56
140
1.0
102
RTVSPost2010PropOp56
 70
     1
102
RTVSPost2010Prop57
140
1.0
102
RTVSPost2010PropOp57
 70
     1
  0
XRECORD
  5
110
102
{ACAD_REACTORS
330
10F
102
}
330
10F
100
AcDbXrecord
280
     1
102
RTVSPost2010Prop28
280
     0
102
RTVSPost2010PropOp28
 70
     1
102
RTVSPost2010Prop29
280
     1
102
RTVSPost2010PropOp29
 70
     1
102
RTVSPost2010Prop30
280
     1
102
RTVSPost2010PropOp30
 70
     1
102
RTVSPost2010Prop31
280
     0
102
RTVSPost2010PropOp31
 70
     1
102
RTVSPost2010Prop32
280
     0
102
RTVSPost2010PropOp32
 70
     1
102
RTVSPost2010Prop33
280
     0
102
RTVSPost2010PropOp33
 70
     1
102
RTVSPost2010Prop34
280
     0
102
RTVSPost2010PropOp34
 70
     1
102
RTVSPost2010Prop35
280
     0
102
RTVSPost2010PropOp35
 70
     1
102
RTVSPost2010Prop36
280
     0
102
RTVSPost2010PropOp36
 70
     1
102
RTVSPost2010Prop37
 90
       50
102
RTVSPost2010PropOp37
 70
     1
102
RTVSPost2010Prop38
140
0.0
102
RTVSPost2010PropOp38
 70
     1
102
RTVSPost2010Prop39
140
1.0
102
RTVSPost2010PropOp39
 70
     1
102
RTVSPost2010Prop40
 90
        0
102
RTVSPost2010PropOp40
 70
     1
102
RTVSPost2010Prop41ColorIndex
 90
       18
102
RTVSPost2010Prop41ColorRGB
 90
        0
102
RTVSPost2010PropOp41
 70
     1
102
RTVSPost2010Prop42
 90
       50
102
RTVSPost2010PropOp42
 70
     1
102
RTVSPost2010Prop43
 90
        3
102
RTVSPost2010PropOp43
 70
     1
102
RTVSPost2010Prop44ColorIndex
 90
        5
102
RTVSPost2010Prop44ColorRGB
 90
      255
102
RTVSPost2010PropOp44
 70
     1
102
RTVSPost2010Prop45
280
     0
102
RTVSPost2010PropOp45
 70
     1
102
RTVSPost2010Prop46
 90
       50
102
RTVSPost2010PropOp46
 70
     1
102
RTVSPost2010Prop47
 90
       50
102
RTVSPost2010PropOp47
 70
     1
102
RTVSPost2010Prop48
 90
       50
102
RTVSPost2010PropOp48
 70
     1
102
RTVSPost2010Prop49
280
     0
102
RTVSPost2010PropOp49
 70
     1
102
RTVSPost2010Prop50
 90
       50
102
RTVSPost2010PropOp50
 70
     1
102
RTVSPost2010Prop51ColorIndex
 90
      256
102
RTVSPost2010Prop51ColorRGB
 90
-16777216
102
RTVSPost2010PropOp51
 70
     0
102
RTVSPost2010Prop52
140
1.0
102
RTVSPost2010PropOp52
 70
     0
102
RTVSPost2010Prop53
 90
        2
102
RTVSPost2010PropOp53
 70
     1
102
RTVSPost2010Prop54
  1
strokes_ogs.tif
102
RTVSPost2010PropOp54
 70
     1
102
RTVSPost2010Prop55
280
     0
102
RTVSPost2010PropOp55
 70
     1
102
RTVSPost2010Prop56
140
1.0
102
RTVSPost2010PropOp56
 70
     1
102
RTVSPost2010Prop57
140
1.0
102
RTVSPost2010PropOp57
 70
     1
  0
XRECORD
  5
12A
102
{ACAD_REACTORS
330
129
102
}
330
129
100
AcDbXrecord
280
     1
102
RTVSPost2010Prop28
280
     0
102
RTVSPost2010PropOp28
 70
     0
102
RTVSPost2010Prop29
280
     1
102
RTVSPost2010PropOp29
 70
     0
102
RTVSPost2010Prop30
280
     1
102
RTVSPost2010PropOp30
 70
     0
102
RTVSPost2010Prop31
280
     0
102
RTVSPost2010PropOp31
 70
     0
102
RTVSPost2010Prop32
280
     0
102
RTVSPost2010PropOp32
 70
     0
102
RTVSPost2010Prop33
280
     0
102
RTVSPost2010PropOp33
 70
     0
102
RTVSPost2010Prop34
280
     0
102
RTVSPost2010PropOp34
 70
     0
102
RTVSPost2010Prop35
280
     0
102
RTVSPost2010PropOp35
 70
     0
102
RTVSPost2010Prop36
280
     0
102
RTVSPost2010PropOp36
 70
     0
102
RTVSPost2010Prop37
 90
       50
102
RTVSPost2010PropOp37
 70
     0
102
RTVSPost2010Prop38
140
0.0
102
RTVSPost2010PropOp38
 70
     0
102
RTVSPost2010Prop39
140
1.0
102
RTVSPost2010PropOp39
 70
     0
102
RTVSPost2010Prop40
 90
        0
102
RTVSPost2010PropOp40
 70
     0
102
RTVSPost2010Prop41ColorIndex
 90
       18
102
RTVSPost2010Prop41ColorRGB
 90
        0
102
RTVSPost2010PropOp41
 70
     0
102
RTVSPost2010Prop42
 90
       50
102
RTVSPost2010PropOp42
 70
     0
102
RTVSPost2010Prop43
 90
        3
102
RTVSPost2010PropOp43
 70
     0
102
RTVSPost2010Prop44ColorIndex
 90
        5
102
RTVSPost2010Prop44ColorRGB
 90
      255
102
RTVSPost2010PropOp44
 70
     0
102
RTVSPost2010Prop45
280
     0
102
RTVSPost2010PropOp45
 70
     0
102
RTVSPost2010Prop46
 90
       50
102
RTVSPost2010PropOp46
 70
     0
102
RTVSPost2010Prop47
 90
       50
102
RTVSPost2010PropOp47
 70
     0
102
RTVSPost2010Prop48
 90
       50
102
RTVSPost2010PropOp48
 70
     0
102
RTVSPost2010Prop49
280
     0
102
RTVSPost2010PropOp49
 70
     0
102
RTVSPost2010Prop50
 90
       50
102
RTVSPost2010PropOp50
 70
     0
102
RTVSPost2010Prop51ColorIndex
 90
      256
102
RTVSPost2010Prop51ColorRGB
 90
-16777216
102
RTVSPost2010PropOp51
 70
     0
102
RTVSPost2010Prop52
140
1.0
102
RTVSPost2010PropOp52
 70
     0
102
RTVSPost2010Prop53
 90
        2
102
RTVSPost2010PropOp53
 70
     0
102
RTVSPost2010Prop54
  1
strokes_ogs.tif
102
RTVSPost2010PropOp54
 70
     0
102
RTVSPost2010Prop55
280
     0
102
RTVSPost2010PropOp55
 70
     0
102
RTVSPost2010Prop56
140
1.0
102
RTVSPost2010PropOp56
 70
     0
102
RTVSPost2010Prop57
140
1.0
102
RTVSPost2010PropOp57
 70
     0
  0
XRECORD
  5
118
102
{ACAD_REACTORS
330
117
102
}
330
117
100
AcDbXrecord
280
     1
102
RTVSPost2010Prop28
280
     0
102
RTVSPost2010PropOp28
 70
     1
102
RTVSPost2010Prop29
280
     1
102
RTVSPost2010PropOp29
 70
     1
102
RTVSPost2010Prop30
280
     1
102
RTVSPost2010PropOp30
 70
     1
102
RTVSPost2010Prop31
280
     0
102
RTVSPost2010PropOp31
 70
     1
102
RTVSPost2010Prop32
280
     0
102
RTVSPost2010PropOp32
 70
     1
102
RTVSPost2010Prop33
280
     0
102
RTVSPost2010PropOp33
 70
     1
102
RTVSPost2010Prop34
280
     0
102
RTVSPost2010PropOp34
 70
     1
102
RTVSPost2010Prop35
280
     0
102
RTVSPost2010PropOp35
 70
     1
102
RTVSPost2010Prop36
280
     0
102
RTVSPost2010PropOp36
 70
     1
102
RTVSPost2010Prop37
 90
       50
102
RTVSPost2010PropOp37
 70
     1
102
RTVSPost2010Prop38
140
0.0
102
RTVSPost2010PropOp38
 70
     1
102
RTVSPost2010Prop39
140
1.0
102
RTVSPost2010PropOp39
 70
     1
102
RTVSPost2010Prop40
 90
        0
102
RTVSPost2010PropOp40
 70
     1
102
RTVSPost2010Prop41ColorIndex
 90
       18
102
RTVSPost2010Prop41ColorRGB
 90
        0
102
RTVSPost2010PropOp41
 70
     1
102
RTVSPost2010Prop42
 90
       50
102
RTVSPost2010PropOp42
 70
     1
102
RTVSPost2010Prop43
 90
        3
102
RTVSPost2010PropOp43
 70
     1
102
RTVSPost2010Prop44ColorIndex
 90
        5
102
RTVSPost2010Prop44ColorRGB
 90
      255
102
RTVSPost2010PropOp44
 70
     1
102
RTVSPost2010Prop45
280
     0
102
RTVSPost2010PropOp45
 70
     1
102
RTVSPost2010Prop46
 90
       50
102
RTVSPost2010PropOp46
 70
     1
102
RTVSPost2010Prop47
 90
       50
102
RTVSPost2010PropOp47
 70
     1
102
RTVSPost2010Prop48
 90
       50
102
RTVSPost2010PropOp48
 70
     1
102
RTVSPost2010Prop49
280
     0
102
RTVSPost2010PropOp49
 70
     1
102
RTVSPost2010Prop50
 90
       50
102
RTVSPost2010PropOp50
 70
     1
102
RTVSPost2010Prop51ColorIndex
 90
      256
102
RTVSPost2010Prop51ColorRGB
 90
-16777216
102
RTVSPost2010PropOp51
 70
     0
102
RTVSPost2010Prop52
140
1.0
102
RTVSPost2010PropOp52
 70
     0
102
RTVSPost2010Prop53
 90
        2
102
RTVSPost2010PropOp53
 70
     1
102
RTVSPost2010Prop54
  1
strokes_ogs.tif
102
RTVSPost2010PropOp54
 70
     1
102
RTVSPost2010Prop55
280
     0
102
RTVSPost2010PropOp55
 70
     1
102
RTVSPost2010Prop56
140
1.0
102
RTVSPost2010PropOp56
 70
     1
102
RTVSPost2010Prop57
140
1.0
102
RTVSPost2010PropOp57
 70
     1
  0
XRECORD
  5
FC
102
{ACAD_REACTORS
330
FB
102
}
330
FB
100
AcDbXrecord
280
     1
102
RTVSPost2010Prop28
280
     0
102
RTVSPost2010PropOp28
 70
     1
102
RTVSPost2010Prop29
280
     1
102
RTVSPost2010PropOp29
 70
     1
102
RTVSPost2010Prop30
280
     1
102
RTVSPost2010PropOp30
 70
     1
102
RTVSPost2010Prop31
280
     0
102
RTVSPost2010PropOp31
 70
     1
102
RTVSPost2010Prop32
280
     0
102
RTVSPost2010PropOp32
 70
     1
102
RTVSPost2010Prop33
280
     0
102
RTVSPost2010PropOp33
 70
     1
102
RTVSPost2010Prop34
280
     0
102
RTVSPost2010PropOp34
 70
     1
102
RTVSPost2010Prop35
280
     0
102
RTVSPost2010PropOp35
 70
     1
102
RTVSPost2010Prop36
280
     0
102
RTVSPost2010PropOp36
 70
     1
102
RTVSPost2010Prop37
 90
       50
102
RTVSPost2010PropOp37
 70
     1
102
RTVSPost2010Prop38
140
0.0
102
RTVSPost2010PropOp38
 70
     1
102
RTVSPost2010Prop39
140
1.0
102
RTVSPost2010PropOp39
 70
     1
102
RTVSPost2010Prop40
 90
        0
102
RTVSPost2010PropOp40
 70
     1
102
RTVSPost2010Prop41ColorIndex
 90
       18
102
RTVSPost2010Prop41ColorRGB
 90
        0
102
RTVSPost2010PropOp41
 70
     1
102
RTVSPost2010Prop42
 90
       50
102
RTVSPost2010PropOp42
 70
     1
102
RTVSPost2010Prop43
 90
        3
102
RTVSPost2010PropOp43
 70
     1
102
RTVSPost2010Prop44ColorIndex
 90
        5
102
RTVSPost2010Prop44ColorRGB
 90
      255
102
RTVSPost2010PropOp44
 70
     1
102
RTVSPost2010Prop45
280
     0
102
RTVSPost2010PropOp45
 70
     1
102
RTVSPost2010Prop46
 90
       50
102
RTVSPost2010PropOp46
 70
     1
102
RTVSPost2010Prop47
 90
       50
102
RTVSPost2010PropOp47
 70
     1
102
RTVSPost2010Prop48
 90
       50
102
RTVSPost2010PropOp48
 70
     1
102
RTVSPost2010Prop49
280
     0
102
RTVSPost2010PropOp49
 70
     1
102
RTVSPost2010Prop50
 90
       50
102
RTVSPost2010PropOp50
 70
     1
102
RTVSPost2010Prop51ColorIndex
 90
      256
102
RTVSPost2010Prop51ColorRGB
 90
-16777216
102
RTVSPost2010PropOp51
 70
     0
102
RTVSPost2010Prop52
140
1.0
102
RTVSPost2010PropOp52
 70
     0
102
RTVSPost2010Prop53
 90
        2
102
RTVSPost2010PropOp53
 70
     1
102
RTVSPost2010Prop54
  1
strokes_ogs.tif
102
RTVSPost2010PropOp54
 70
     1
102
RTVSPost2010Prop55
280
     0
102
RTVSPost2010PropOp55
 70
     1
102
RTVSPost2010Prop56
140
1.0
102
RTVSPost2010PropOp56
 70
     1
102
RTVSPost2010Prop57
140
1.0
102
RTVSPost2010PropOp57
 70
     1
  0
XRECORD
  5
FE
102
{ACAD_REACTORS
330
FD
102
}
330
FD
100
AcDbXrecord
280
     1
102
RTVSPost2010Prop28
280
     0
102
RTVSPost2010PropOp28
 70
     1
102
RTVSPost2010Prop29
280
     1
102
RTVSPost2010PropOp29
 70
     1
102
RTVSPost2010Prop30
280
     1
102
RTVSPost2010PropOp30
 70
     1
102
RTVSPost2010Prop31
280
     0
102
RTVSPost2010PropOp31
 70
     1
102
RTVSPost2010Prop32
280
     0
102
RTVSPost2010PropOp32
 70
     1
102
RTVSPost2010Prop33
280
     0
102
RTVSPost2010PropOp33
 70
     1
102
RTVSPost2010Prop34
280
     0
102
RTVSPost2010PropOp34
 70
     1
102
RTVSPost2010Prop35
280
     0
102
RTVSPost2010PropOp35
 70
     1
102
RTVSPost2010Prop36
280
     0
102
RTVSPost2010PropOp36
 70
     1
102
RTVSPost2010Prop37
 90
       50
102
RTVSPost2010PropOp37
 70
     1
102
RTVSPost2010Prop38
140
0.0
102
RTVSPost2010PropOp38
 70
     1
102
RTVSPost2010Prop39
140
1.0
102
RTVSPost2010PropOp39
 70
     1
102
RTVSPost2010Prop40
 90
        0
102
RTVSPost2010PropOp40
 70
     1
102
RTVSPost2010Prop41ColorIndex
 90
       18
102
RTVSPost2010Prop41ColorRGB
 90
        0
102
RTVSPost2010PropOp41
 70
     1
102
RTVSPost2010Prop42
 90
       50
102
RTVSPost2010PropOp42
 70
     1
102
RTVSPost2010Prop43
 90
        3
102
RTVSPost2010PropOp43
 70
     1
102
RTVSPost2010Prop44ColorIndex
 90
        5
102
RTVSPost2010Prop44ColorRGB
 90
      255
102
RTVSPost2010PropOp44
 70
     1
102
RTVSPost2010Prop45
280
     0
102
RTVSPost2010PropOp45
 70
     1
102
RTVSPost2010Prop46
 90
       50
102
RTVSPost2010PropOp46
 70
     1
102
RTVSPost2010Prop47
 90
       50
102
RTVSPost2010PropOp47
 70
     1
102
RTVSPost2010Prop48
 90
       50
102
RTVSPost2010PropOp48
 70
     1
102
RTVSPost2010Prop49
280
     0
102
RTVSPost2010PropOp49
 70
     1
102
RTVSPost2010Prop50
 90
       50
102
RTVSPost2010PropOp50
 70
     1
102
RTVSPost2010Prop51ColorIndex
 90
      256
102
RTVSPost2010Prop51ColorRGB
 90
-16777216
102
RTVSPost2010PropOp51
 70
     0
102
RTVSPost2010Prop52
140
1.0
102
RTVSPost2010PropOp52
 70
     0
102
RTVSPost2010Prop53
 90
        2
102
RTVSPost2010PropOp53
 70
     1
102
RTVSPost2010Prop54
  1
strokes_ogs.tif
102
RTVSPost2010PropOp54
 70
     1
102
RTVSPost2010Prop55
280
     0
102
RTVSPost2010PropOp55
 70
     1
102
RTVSPost2010Prop56
140
1.0
102
RTVSPost2010PropOp56
 70
     1
102
RTVSPost2010Prop57
140
1.0
102
RTVSPost2010PropOp57
 70
     1
  0
XRECORD
  5
100
102
{ACAD_REACTORS
330
FF
102
}
330
FF
100
AcDbXrecord
280
     1
102
RTVSPost2010Prop28
280
     0
102
RTVSPost2010PropOp28
 70
     1
102
RTVSPost2010Prop29
280
     1
102
RTVSPost2010PropOp29
 70
     1
102
RTVSPost2010Prop30
280
     1
102
RTVSPost2010PropOp30
 70
     1
102
RTVSPost2010Prop31
280
     0
102
RTVSPost2010PropOp31
 70
     1
102
RTVSPost2010Prop32
280
     0
102
RTVSPost2010PropOp32
 70
     1
102
RTVSPost2010Prop33
280
     0
102
RTVSPost2010PropOp33
 70
     1
102
RTVSPost2010Prop34
280
     0
102
RTVSPost2010PropOp34
 70
     1
102
RTVSPost2010Prop35
280
     0
102
RTVSPost2010PropOp35
 70
     1
102
RTVSPost2010Prop36
280
     0
102
RTVSPost2010PropOp36
 70
     1
102
RTVSPost2010Prop37
 90
       50
102
RTVSPost2010PropOp37
 70
     1
102
RTVSPost2010Prop38
140
0.0
102
RTVSPost2010PropOp38
 70
     1
102
RTVSPost2010Prop39
140
1.0
102
RTVSPost2010PropOp39
 70
     1
102
RTVSPost2010Prop40
 90
        0
102
RTVSPost2010PropOp40
 70
     1
102
RTVSPost2010Prop41ColorIndex
 90
       18
102
RTVSPost2010Prop41ColorRGB
 90
        0
102
RTVSPost2010PropOp41
 70
     1
102
RTVSPost2010Prop42
 90
       50
102
RTVSPost2010PropOp42
 70
     1
102
RTVSPost2010Prop43
 90
        3
102
RTVSPost2010PropOp43
 70
     1
102
RTVSPost2010Prop44ColorIndex
 90
        5
102
RTVSPost2010Prop44ColorRGB
 90
      255
102
RTVSPost2010PropOp44
 70
     1
102
RTVSPost2010Prop45
280
     0
102
RTVSPost2010PropOp45
 70
     1
102
RTVSPost2010Prop46
 90
       50
102
RTVSPost2010PropOp46
 70
     1
102
RTVSPost2010Prop47
 90
       50
102
RTVSPost2010PropOp47
 70
     1
102
RTVSPost2010Prop48
 90
       50
102
RTVSPost2010PropOp48
 70
     1
102
RTVSPost2010Prop49
280
     0
102
RTVSPost2010PropOp49
 70
     1
102
RTVSPost2010Prop50
 90
       50
102
RTVSPost2010PropOp50
 70
     1
102
RTVSPost2010Prop51ColorIndex
 90
      256
102
RTVSPost2010Prop51ColorRGB
 90
-16777216
102
RTVSPost2010PropOp51
 70
     0
102
RTVSPost2010Prop52
140
1.0
102
RTVSPost2010PropOp52
 70
     0
102
RTVSPost2010Prop53
 90
        2
102
RTVSPost2010PropOp53
 70
     1
102
RTVSPost2010Prop54
  1
strokes_ogs.tif
102
RTVSPost2010PropOp54
 70
     1
102
RTVSPost2010Prop55
280
     0
102
RTVSPost2010PropOp55
 70
     1
102
RTVSPost2010Prop56
140
1.0
102
RTVSPost2010PropOp56
 70
     1
102
RTVSPost2010Prop57
140
1.0
102
RTVSPost2010PropOp57
 70
     1
  0
XRECORD
  5
102
102
{ACAD_REACTORS
330
101
102
}
330
101
100
AcDbXrecord
280
     1
102
RTVSPost2010Prop28
280
     0
102
RTVSPost2010PropOp28
 70
     1
102
RTVSPost2010Prop29
280
     1
102
RTVSPost2010PropOp29
 70
     1
102
RTVSPost2010Prop30
280
     1
102
RTVSPost2010PropOp30
 70
     1
102
RTVSPost2010Prop31
280
     0
102
RTVSPost2010PropOp31
 70
     1
102
RTVSPost2010Prop32
280
     0
102
RTVSPost2010PropOp32
 70
     1
102
RTVSPost2010Prop33
280
     0
102
RTVSPost2010PropOp33
 70
     1
102
RTVSPost2010Prop34
280
     0
102
RTVSPost2010PropOp34
 70
     1
102
RTVSPost2010Prop35
280
     0
102
RTVSPost2010PropOp35
 70
     1
102
RTVSPost2010Prop36
280
     0
102
RTVSPost2010PropOp36
 70
     1
102
RTVSPost2010Prop37
 90
       50
102
RTVSPost2010PropOp37
 70
     1
102
RTVSPost2010Prop38
140
0.0
102
RTVSPost2010PropOp38
 70
     1
102
RTVSPost2010Prop39
140
1.0
102
RTVSPost2010PropOp39
 70
     1
102
RTVSPost2010Prop40
 90
        0
102
RTVSPost2010PropOp40
 70
     1
102
RTVSPost2010Prop41ColorIndex
 90
       18
102
RTVSPost2010Prop41ColorRGB
 90
        0
102
RTVSPost2010PropOp41
 70
     1
102
RTVSPost2010Prop42
 90
       50
102
RTVSPost2010PropOp42
 70
     1
102
RTVSPost2010Prop43
 90
        3
102
RTVSPost2010PropOp43
 70
     1
102
RTVSPost2010Prop44ColorIndex
 90
        5
102
RTVSPost2010Prop44ColorRGB
 90
      255
102
RTVSPost2010PropOp44
 70
     1
102
RTVSPost2010Prop45
280
     0
102
RTVSPost2010PropOp45
 70
     1
102
RTVSPost2010Prop46
 90
       50
102
RTVSPost2010PropOp46
 70
     1
102
RTVSPost2010Prop47
 90
       50
102
RTVSPost2010PropOp47
 70
     1
102
RTVSPost2010Prop48
 90
       50
102
RTVSPost2010PropOp48
 70
     1
102
RTVSPost2010Prop49
280
     0
102
RTVSPost2010PropOp49
 70
     1
102
RTVSPost2010Prop50
 90
       50
102
RTVSPost2010PropOp50
 70
     1
102
RTVSPost2010Prop51ColorIndex
 90
      256
102
RTVSPost2010Prop51ColorRGB
 90
-16777216
102
RTVSPost2010PropOp51
 70
     0
102
RTVSPost2010Prop52
140
1.0
102
RTVSPost2010PropOp52
 70
     0
102
RTVSPost2010Prop53
 90
        2
102
RTVSPost2010PropOp53
 70
     1
102
RTVSPost2010Prop54
  1
strokes_ogs.tif
102
RTVSPost2010PropOp54
 70
     1
102
RTVSPost2010Prop55
280
     0
102
RTVSPost2010PropOp55
 70
     1
102
RTVSPost2010Prop56
140
1.0
102
RTVSPost2010PropOp56
 70
     1
102
RTVSPost2010Prop57
140
1.0
102
RTVSPost2010PropOp57
 70
     1
  0
XRECORD
  5
10A
102
{ACAD_REACTORS
330
109
102
}
330
109
100
AcDbXrecord
280
     1
102
RTVSPost2010Prop28
280
     0
102
RTVSPost2010PropOp28
 70
     1
102
RTVSPost2010Prop29
280
     1
102
RTVSPost2010PropOp29
 70
     1
102
RTVSPost2010Prop30
280
     1
102
RTVSPost2010PropOp30
 70
     1
102
RTVSPost2010Prop31
280
     0
102
RTVSPost2010PropOp31
 70
     1
102
RTVSPost2010Prop32
280
     0
102
RTVSPost2010PropOp32
 70
     1
102
RTVSPost2010Prop33
280
     0
102
RTVSPost2010PropOp33
 70
     1
102
RTVSPost2010Prop34
280
     0
102
RTVSPost2010PropOp34
 70
     1
102
RTVSPost2010Prop35
280
     0
102
RTVSPost2010PropOp35
 70
     1
102
RTVSPost2010Prop36
280
     0
102
RTVSPost2010PropOp36
 70
     1
102
RTVSPost2010Prop37
 90
       50
102
RTVSPost2010PropOp37
 70
     1
102
RTVSPost2010Prop38
140
0.0
102
RTVSPost2010PropOp38
 70
     1
102
RTVSPost2010Prop39
140
1.0
102
RTVSPost2010PropOp39
 70
     1
102
RTVSPost2010Prop40
 90
        0
102
RTVSPost2010PropOp40
 70
     1
102
RTVSPost2010Prop41ColorIndex
 90
       18
102
RTVSPost2010Prop41ColorRGB
 90
        0
102
RTVSPost2010PropOp41
 70
     1
102
RTVSPost2010Prop42
 90
       50
102
RTVSPost2010PropOp42
 70
     1
102
RTVSPost2010Prop43
 90
        3
102
RTVSPost2010PropOp43
 70
     1
102
RTVSPost2010Prop44ColorIndex
 90
        5
102
RTVSPost2010Prop44ColorRGB
 90
      255
102
RTVSPost2010PropOp44
 70
     1
102
RTVSPost2010Prop45
280
     0
102
RTVSPost2010PropOp45
 70
     1
102
RTVSPost2010Prop46
 90
       50
102
RTVSPost2010PropOp46
 70
     1
102
RTVSPost2010Prop47
 90
       50
102
RTVSPost2010PropOp47
 70
     1
102
RTVSPost2010Prop48
 90
       50
102
RTVSPost2010PropOp48
 70
     1
102
RTVSPost2010Prop49
280
     0
102
RTVSPost2010PropOp49
 70
     1
102
RTVSPost2010Prop50
 90
       50
102
RTVSPost2010PropOp50
 70
     1
102
RTVSPost2010Prop51ColorIndex
 90
      256
102
RTVSPost2010Prop51ColorRGB
 90
-16777216
102
RTVSPost2010PropOp51
 70
     0
102
RTVSPost2010Prop52
140
1.0
102
RTVSPost2010PropOp52
 70
     0
102
RTVSPost2010Prop53
 90
        2
102
RTVSPost2010PropOp53
 70
     1
102
RTVSPost2010Prop54
  1
strokes_ogs.tif
102
RTVSPost2010PropOp54
 70
     1
102
RTVSPost2010Prop55
280
     0
102
RTVSPost2010PropOp55
 70
     1
102
RTVSPost2010Prop56
140
1.0
102
RTVSPost2010PropOp56
 70
     1
102
RTVSPost2010Prop57
140
1.0
102
RTVSPost2010PropOp57
 70
     1
  0
XRECORD
  5
126
102
{ACAD_REACTORS
330
125
102
}
330
125
100
AcDbXrecord
280
     1
102
RTVSPost2010Prop28
280
     0
102
RTVSPost2010PropOp28
 70
     0
102
RTVSPost2010Prop29
280
     1
102
RTVSPost2010PropOp29
 70
     0
102
RTVSPost2010Prop30
280
     1
102
RTVSPost2010PropOp30
 70
     0
102
RTVSPost2010Prop31
280
     0
102
RTVSPost2010PropOp31
 70
     0
102
RTVSPost2010Prop32
280
     0
102
RTVSPost2010PropOp32
 70
     0
102
RTVSPost2010Prop33
280
     0
102
RTVSPost2010PropOp33
 70
     0
102
RTVSPost2010Prop34
280
     0
102
RTVSPost2010PropOp34
 70
     0
102
RTVSPost2010Prop35
280
     0
102
RTVSPost2010PropOp35
 70
     0
102
RTVSPost2010Prop36
280
     0
102
RTVSPost2010PropOp36
 70
     0
102
RTVSPost2010Prop37
 90
       50
102
RTVSPost2010PropOp37
 70
     0
102
RTVSPost2010Prop38
140
0.0
102
RTVSPost2010PropOp38
 70
     0
102
RTVSPost2010Prop39
140
1.0
102
RTVSPost2010PropOp39
 70
     0
102
RTVSPost2010Prop40
 90
        0
102
RTVSPost2010PropOp40
 70
     0
102
RTVSPost2010Prop41ColorIndex
 90
       18
102
RTVSPost2010Prop41ColorRGB
 90
        0
102
RTVSPost2010PropOp41
 70
     0
102
RTVSPost2010Prop42
 90
       50
102
RTVSPost2010PropOp42
 70
     0
102
RTVSPost2010Prop43
 90
        3
102
RTVSPost2010PropOp43
 70
     0
102
RTVSPost2010Prop44ColorIndex
 90
        5
102
RTVSPost2010Prop44ColorRGB
 90
      255
102
RTVSPost2010PropOp44
 70
     0
102
RTVSPost2010Prop45
280
     0
102
RTVSPost2010PropOp45
 70
     0
102
RTVSPost2010Prop46
 90
       50
102
RTVSPost2010PropOp46
 70
     0
102
RTVSPost2010Prop47
 90
       50
102
RTVSPost2010PropOp47
 70
     0
102
RTVSPost2010Prop48
 90
       50
102
RTVSPost2010PropOp48
 70
     0
102
RTVSPost2010Prop49
280
     0
102
RTVSPost2010PropOp49
 70
     0
102
RTVSPost2010Prop50
 90
       50
102
RTVSPost2010PropOp50
 70
     0
102
RTVSPost2010Prop51ColorIndex
 90
      256
102
RTVSPost2010Prop51ColorRGB
 90
-16777216
102
RTVSPost2010PropOp51
 70
     0
102
RTVSPost2010Prop52
140
1.0
102
RTVSPost2010PropOp52
 70
     0
102
RTVSPost2010Prop53
 90
        2
102
RTVSPost2010PropOp53
 70
     0
102
RTVSPost2010Prop54
  1
strokes_ogs.tif
102
RTVSPost2010PropOp54
 70
     0
102
RTVSPost2010Prop55
280
     0
102
RTVSPost2010PropOp55
 70
     0
102
RTVSPost2010Prop56
140
1.0
102
RTVSPost2010PropOp56
 70
     0
102
RTVSPost2010Prop57
140
1.0
102
RTVSPost2010PropOp57
 70
     0
  0
XRECORD
  5
116
102
{ACAD_REACTORS
330
115
102
}
330
115
100
AcDbXrecord
280
     1
102
RTVSPost2010Prop28
280
     0
102
RTVSPost2010PropOp28
 70
     1
102
RTVSPost2010Prop29
280
     1
102
RTVSPost2010PropOp29
 70
     1
102
RTVSPost2010Prop30
280
     1
102
RTVSPost2010PropOp30
 70
     1
102
RTVSPost2010Prop31
280
     0
102
RTVSPost2010PropOp31
 70
     1
102
RTVSPost2010Prop32
280
     0
102
RTVSPost2010PropOp32
 70
     1
102
RTVSPost2010Prop33
280
     0
102
RTVSPost2010PropOp33
 70
     1
102
RTVSPost2010Prop34
280
     0
102
RTVSPost2010PropOp34
 70
     1
102
RTVSPost2010Prop35
280
     0
102
RTVSPost2010PropOp35
 70
     1
102
RTVSPost2010Prop36
280
     0
102
RTVSPost2010PropOp36
 70
     1
102
RTVSPost2010Prop37
 90
       50
102
RTVSPost2010PropOp37
 70
     1
102
RTVSPost2010Prop38
140
0.0
102
RTVSPost2010PropOp38
 70
     1
102
RTVSPost2010Prop39
140
1.0
102
RTVSPost2010PropOp39
 70
     1
102
RTVSPost2010Prop40
 90
        0
102
RTVSPost2010PropOp40
 70
     1
102
RTVSPost2010Prop41ColorIndex
 90
       18
102
RTVSPost2010Prop41ColorRGB
 90
        0
102
RTVSPost2010PropOp41
 70
     1
102
RTVSPost2010Prop42
 90
       50
102
RTVSPost2010PropOp42
 70
     1
102
RTVSPost2010Prop43
 90
        3
102
RTVSPost2010PropOp43
 70
     1
102
RTVSPost2010Prop44ColorIndex
 90
        5
102
RTVSPost2010Prop44ColorRGB
 90
      255
102
RTVSPost2010PropOp44
 70
     1
102
RTVSPost2010Prop45
280
     0
102
RTVSPost2010PropOp45
 70
     1
102
RTVSPost2010Prop46
 90
       50
102
RTVSPost2010PropOp46
 70
     1
102
RTVSPost2010Prop47
 90
       50
102
RTVSPost2010PropOp47
 70
     1
102
RTVSPost2010Prop48
 90
       50
102
RTVSPost2010PropOp48
 70
     1
102
RTVSPost2010Prop49
280
     0
102
RTVSPost2010PropOp49
 70
     1
102
RTVSPost2010Prop50
 90
       50
102
RTVSPost2010PropOp50
 70
     1
102
RTVSPost2010Prop51ColorIndex
 90
      256
102
RTVSPost2010Prop51ColorRGB
 90
-16777216
102
RTVSPost2010PropOp51
 70
     0
102
RTVSPost2010Prop52
140
1.0
102
RTVSPost2010PropOp52
 70
     0
102
RTVSPost2010Prop53
 90
        2
102
RTVSPost2010PropOp53
 70
     1
102
RTVSPost2010Prop54
  1
strokes_ogs.tif
102
RTVSPost2010PropOp54
 70
     1
102
RTVSPost2010Prop55
280
     0
102
RTVSPost2010PropOp55
 70
     1
102
RTVSPost2010Prop56
140
1.0
102
RTVSPost2010PropOp56
 70
     1
102
RTVSPost2010Prop57
140
1.0
102
RTVSPost2010PropOp57
 70
     1
  0
XRECORD
  5
128
102
{ACAD_REACTORS
330
127
102
}
330
127
100
AcDbXrecord
280
     1
102
RTVSPost2010Prop28
280
     0
102
RTVSPost2010PropOp28
 70
     0
102
RTVSPost2010Prop29
280
     1
102
RTVSPost2010PropOp29
 70
     0
102
RTVSPost2010Prop30
280
     1
102
RTVSPost2010PropOp30
 70
     0
102
RTVSPost2010Prop31
280
     0
102
RTVSPost2010PropOp31
 70
     0
102
RTVSPost2010Prop32
280
     0
102
RTVSPost2010PropOp32
 70
     0
102
RTVSPost2010Prop33
280
     0
102
RTVSPost2010PropOp33
 70
     0
102
RTVSPost2010Prop34
280
     0
102
RTVSPost2010PropOp34
 70
     0
102
RTVSPost2010Prop35
280
     0
102
RTVSPost2010PropOp35
 70
     0
102
RTVSPost2010Prop36
280
     0
102
RTVSPost2010PropOp36
 70
     0
102
RTVSPost2010Prop37
 90
       50
102
RTVSPost2010PropOp37
 70
     0
102
RTVSPost2010Prop38
140
0.0
102
RTVSPost2010PropOp38
 70
     0
102
RTVSPost2010Prop39
140
1.0
102
RTVSPost2010PropOp39
 70
     0
102
RTVSPost2010Prop40
 90
        0
102
RTVSPost2010PropOp40
 70
     0
102
RTVSPost2010Prop41ColorIndex
 90
       18
102
RTVSPost2010Prop41ColorRGB
 90
        0
102
RTVSPost2010PropOp41
 70
     0
102
RTVSPost2010Prop42
 90
       50
102
RTVSPost2010PropOp42
 70
     0
102
RTVSPost2010Prop43
 90
        3
102
RTVSPost2010PropOp43
 70
     0
102
RTVSPost2010Prop44ColorIndex
 90
        5
102
RTVSPost2010Prop44ColorRGB
 90
      255
102
RTVSPost2010PropOp44
 70
     0
102
RTVSPost2010Prop45
280
     0
102
RTVSPost2010PropOp45
 70
     0
102
RTVSPost2010Prop46
 90
       50
102
RTVSPost2010PropOp46
 70
     0
102
RTVSPost2010Prop47
 90
       50
102
RTVSPost2010PropOp47
 70
     0
102
RTVSPost2010Prop48
 90
       50
102
RTVSPost2010PropOp48
 70
     0
102
RTVSPost2010Prop49
280
     0
102
RTVSPost2010PropOp49
 70
     0
102
RTVSPost2010Prop50
 90
       50
102
RTVSPost2010PropOp50
 70
     0
102
RTVSPost2010Prop51ColorIndex
 90
      256
102
RTVSPost2010Prop51ColorRGB
 90
-16777216
102
RTVSPost2010PropOp51
 70
     0
102
RTVSPost2010Prop52
140
1.0
102
RTVSPost2010PropOp52
 70
     0
102
RTVSPost2010Prop53
 90
        2
102
RTVSPost2010PropOp53
 70
     0
102
RTVSPost2010Prop54
  1
strokes_ogs.tif
102
RTVSPost2010PropOp54
 70
     0
102
RTVSPost2010Prop55
280
     0
102
RTVSPost2010PropOp55
 70
     0
102
RTVSPost2010Prop56
140
1.0
102
RTVSPost2010PropOp56
 70
     0
102
RTVSPost2010Prop57
140
1.0
102
RTVSPost2010PropOp57
 70
     0
  0
XRECORD
  5
10E
102
{ACAD_REACTORS
330
10D
102
}
330
10D
100
AcDbXrecord
280
     1
102
RTVSPost2010Prop28
280
     0
102
RTVSPost2010PropOp28
 70
     1
102
RTVSPost2010Prop29
280
     1
102
RTVSPost2010PropOp29
 70
     1
102
RTVSPost2010Prop30
280
     1
102
RTVSPost2010PropOp30
 70
     1
102
RTVSPost2010Prop31
280
     0
102
RTVSPost2010PropOp31
 70
     1
102
RTVSPost2010Prop32
280
     0
102
RTVSPost2010PropOp32
 70
     1
102
RTVSPost2010Prop33
280
     0
102
RTVSPost2010PropOp33
 70
     1
102
RTVSPost2010Prop34
280
     0
102
RTVSPost2010PropOp34
 70
     1
102
RTVSPost2010Prop35
280
     0
102
RTVSPost2010PropOp35
 70
     1
102
RTVSPost2010Prop36
280
     0
102
RTVSPost2010PropOp36
 70
     1
102
RTVSPost2010Prop37
 90
       50
102
RTVSPost2010PropOp37
 70
     1
102
RTVSPost2010Prop38
140
0.0
102
RTVSPost2010PropOp38
 70
     1
102
RTVSPost2010Prop39
140
1.0
102
RTVSPost2010PropOp39
 70
     1
102
RTVSPost2010Prop40
 90
        0
102
RTVSPost2010PropOp40
 70
     1
102
RTVSPost2010Prop41ColorIndex
 90
       18
102
RTVSPost2010Prop41ColorRGB
 90
        0
102
RTVSPost2010PropOp41
 70
     1
102
RTVSPost2010Prop42
 90
       50
102
RTVSPost2010PropOp42
 70
     1
102
RTVSPost2010Prop43
 90
        3
102
RTVSPost2010PropOp43
 70
     1
102
RTVSPost2010Prop44ColorIndex
 90
        5
102
RTVSPost2010Prop44ColorRGB
 90
      255
102
RTVSPost2010PropOp44
 70
     1
102
RTVSPost2010Prop45
280
     0
102
RTVSPost2010PropOp45
 70
     1
102
RTVSPost2010Prop46
 90
       50
102
RTVSPost2010PropOp46
 70
     1
102
RTVSPost2010Prop47
 90
       50
102
RTVSPost2010PropOp47
 70
     1
102
RTVSPost2010Prop48
 90
       50
102
RTVSPost2010PropOp48
 70
     1
102
RTVSPost2010Prop49
280
     0
102
RTVSPost2010PropOp49
 70
     1
102
RTVSPost2010Prop50
 90
       50
102
RTVSPost2010PropOp50
 70
     1
102
RTVSPost2010Prop51ColorIndex
 90
      256
102
RTVSPost2010Prop51ColorRGB
 90
-16777216
102
RTVSPost2010PropOp51
 70
     0
102
RTVSPost2010Prop52
140
1.0
102
RTVSPost2010PropOp52
 70
     0
102
RTVSPost2010Prop53
 90
        2
102
RTVSPost2010PropOp53
 70
     1
102
RTVSPost2010Prop54
  1
strokes_ogs.tif
102
RTVSPost2010PropOp54
 70
     1
102
RTVSPost2010Prop55
280
     0
102
RTVSPost2010PropOp55
 70
     1
102
RTVSPost2010Prop56
140
1.0
102
RTVSPost2010PropOp56
 70
     1
102
RTVSPost2010Prop57
140
1.0
102
RTVSPost2010PropOp57
 70
     1
  0
XRECORD
  5
124
102
{ACAD_REACTORS
330
123
102
}
330
123
100
AcDbXrecord
280
     1
102
RTVSPost2010Prop28
280
     0
102
RTVSPost2010PropOp28
 70
     1
102
RTVSPost2010Prop29
280
     1
102
RTVSPost2010PropOp29
 70
     1
102
RTVSPost2010Prop30
280
     1
102
RTVSPost2010PropOp30
 70
     1
102
RTVSPost2010Prop31
280
     0
102
RTVSPost2010PropOp31
 70
     1
102
RTVSPost2010Prop32
280
     0
102
RTVSPost2010PropOp32
 70
     1
102
RTVSPost2010Prop33
280
     0
102
RTVSPost2010PropOp33
 70
     1
102
RTVSPost2010Prop34
280
     0
102
RTVSPost2010PropOp34
 70
     1
102
RTVSPost2010Prop35
280
     0
102
RTVSPost2010PropOp35
 70
     1
102
RTVSPost2010Prop36
280
     0
102
RTVSPost2010PropOp36
 70
     1
102
RTVSPost2010Prop37
 90
       50
102
RTVSPost2010PropOp37
 70
     1
102
RTVSPost2010Prop38
140
0.0
102
RTVSPost2010PropOp38
 70
     1
102
RTVSPost2010Prop39
140
1.0
102
RTVSPost2010PropOp39
 70
     1
102
RTVSPost2010Prop40
 90
        0
102
RTVSPost2010PropOp40
 70
     1
102
RTVSPost2010Prop41ColorIndex
 90
       18
102
RTVSPost2010Prop41ColorRGB
 90
        0
102
RTVSPost2010PropOp41
 70
     1
102
RTVSPost2010Prop42
 90
       50
102
RTVSPost2010PropOp42
 70
     1
102
RTVSPost2010Prop43
 90
        3
102
RTVSPost2010PropOp43
 70
     1
102
RTVSPost2010Prop44ColorIndex
 90
        5
102
RTVSPost2010Prop44ColorRGB
 90
      255
102
RTVSPost2010PropOp44
 70
     1
102
RTVSPost2010Prop45
280
     0
102
RTVSPost2010PropOp45
 70
     1
102
RTVSPost2010Prop46
 90
       50
102
RTVSPost2010PropOp46
 70
     1
102
RTVSPost2010Prop47
 90
       50
102
RTVSPost2010PropOp47
 70
     1
102
RTVSPost2010Prop48
 90
       50
102
RTVSPost2010PropOp48
 70
     1
102
RTVSPost2010Prop49
280
     0
102
RTVSPost2010PropOp49
 70
     1
102
RTVSPost2010Prop50
 90
       50
102
RTVSPost2010PropOp50
 70
     1
102
RTVSPost2010Prop51ColorIndex
 90
      256
102
RTVSPost2010Prop51ColorRGB
 90
-16777216
102
RTVSPost2010PropOp51
 70
     0
102
RTVSPost2010Prop52
140
1.0
102
RTVSPost2010PropOp52
 70
     0
102
RTVSPost2010Prop53
 90
        2
102
RTVSPost2010PropOp53
 70
     1
102
RTVSPost2010Prop54
  1
strokes_ogs.tif
102
RTVSPost2010PropOp54
 70
     1
102
RTVSPost2010Prop55
280
     0
102
RTVSPost2010PropOp55
 70
     1
102
RTVSPost2010Prop56
140
1.0
102
RTVSPost2010PropOp56
 70
     1
102
RTVSPost2010Prop57
140
1.0
102
RTVSPost2010PropOp57
 70
     1
  0
XRECORD
  5
122
102
{ACAD_REACTORS
330
121
102
}
330
121
100
AcDbXrecord
280
     1
102
RTVSPost2010Prop28
280
     0
102
RTVSPost2010PropOp28
 70
     1
102
RTVSPost2010Prop29
280
     1
102
RTVSPost2010PropOp29
 70
     1
102
RTVSPost2010Prop30
280
     1
102
RTVSPost2010PropOp30
 70
     1
102
RTVSPost2010Prop31
280
     0
102
RTVSPost2010PropOp31
 70
     1
102
RTVSPost2010Prop32
280
     0
102
RTVSPost2010PropOp32
 70
     1
102
RTVSPost2010Prop33
280
     0
102
RTVSPost2010PropOp33
 70
     1
102
RTVSPost2010Prop34
280
     0
102
RTVSPost2010PropOp34
 70
     1
102
RTVSPost2010Prop35
280
     0
102
RTVSPost2010PropOp35
 70
     1
102
RTVSPost2010Prop36
280
     0
102
RTVSPost2010PropOp36
 70
     1
102
RTVSPost2010Prop37
 90
       50
102
RTVSPost2010PropOp37
 70
     1
102
RTVSPost2010Prop38
140
0.0
102
RTVSPost2010PropOp38
 70
     1
102
RTVSPost2010Prop39
140
1.0
102
RTVSPost2010PropOp39
 70
     1
102
RTVSPost2010Prop40
 90
        0
102
RTVSPost2010PropOp40
 70
     1
102
RTVSPost2010Prop41ColorIndex
 90
       18
102
RTVSPost2010Prop41ColorRGB
 90
        0
102
RTVSPost2010PropOp41
 70
     1
102
RTVSPost2010Prop42
 90
       50
102
RTVSPost2010PropOp42
 70
     1
102
RTVSPost2010Prop43
 90
        3
102
RTVSPost2010PropOp43
 70
     1
102
RTVSPost2010Prop44ColorIndex
 90
        5
102
RTVSPost2010Prop44ColorRGB
 90
      255
102
RTVSPost2010PropOp44
 70
     1
102
RTVSPost2010Prop45
280
     0
102
RTVSPost2010PropOp45
 70
     1
102
RTVSPost2010Prop46
 90
       50
102
RTVSPost2010PropOp46
 70
     1
102
RTVSPost2010Prop47
 90
       50
102
RTVSPost2010PropOp47
 70
     1
102
RTVSPost2010Prop48
 90
       50
102
RTVSPost2010PropOp48
 70
     1
102
RTVSPost2010Prop49
280
     0
102
RTVSPost2010PropOp49
 70
     1
102
RTVSPost2010Prop50
 90
       50
102
RTVSPost2010PropOp50
 70
     1
102
RTVSPost2010Prop51ColorIndex
 90
      256
102
RTVSPost2010Prop51ColorRGB
 90
-16777216
102
RTVSPost2010PropOp51
 70
     0
102
RTVSPost2010Prop52
140
1.0
102
RTVSPost2010PropOp52
 70
     0
102
RTVSPost2010Prop53
 90
        2
102
RTVSPost2010PropOp53
 70
     1
102
RTVSPost2010Prop54
  1
strokes_ogs.tif
102
RTVSPost2010PropOp54
 70
     1
102
RTVSPost2010Prop55
280
     0
102
RTVSPost2010PropOp55
 70
     1
102
RTVSPost2010Prop56
140
1.0
102
RTVSPost2010PropOp56
 70
     1
102
RTVSPost2010Prop57
140
1.0
102
RTVSPost2010PropOp57
 70
     1
  0
XRECORD
  5
11C
102
{ACAD_REACTORS
330
11B
102
}
330
11B
100
AcDbXrecord
280
     1
102
RTVSPost2010Prop28
280
     0
102
RTVSPost2010PropOp28
 70
     1
102
RTVSPost2010Prop29
280
     1
102
RTVSPost2010PropOp29
 70
     1
102
RTVSPost2010Prop30
280
     1
102
RTVSPost2010PropOp30
 70
     1
102
RTVSPost2010Prop31
280
     0
102
RTVSPost2010PropOp31
 70
     1
102
RTVSPost2010Prop32
280
     0
102
RTVSPost2010PropOp32
 70
     1
102
RTVSPost2010Prop33
280
     0
102
RTVSPost2010PropOp33
 70
     1
102
RTVSPost2010Prop34
280
     0
102
RTVSPost2010PropOp34
 70
     1
102
RTVSPost2010Prop35
280
     0
102
RTVSPost2010PropOp35
 70
     1
102
RTVSPost2010Prop36
280
     0
102
RTVSPost2010PropOp36
 70
     1
102
RTVSPost2010Prop37
 90
       50
102
RTVSPost2010PropOp37
 70
     1
102
RTVSPost2010Prop38
140
0.0
102
RTVSPost2010PropOp38
 70
     1
102
RTVSPost2010Prop39
140
1.0
102
RTVSPost2010PropOp39
 70
     1
102
RTVSPost2010Prop40
 90
        0
102
RTVSPost2010PropOp40
 70
     1
102
RTVSPost2010Prop41ColorIndex
 90
       18
102
RTVSPost2010Prop41ColorRGB
 90
        0
102
RTVSPost2010PropOp41
 70
     1
102
RTVSPost2010Prop42
 90
       50
102
RTVSPost2010PropOp42
 70
     1
102
RTVSPost2010Prop43
 90
        3
102
RTVSPost2010PropOp43
 70
     1
102
RTVSPost2010Prop44ColorIndex
 90
        5
102
RTVSPost2010Prop44ColorRGB
 90
      255
102
RTVSPost2010PropOp44
 70
     1
102
RTVSPost2010Prop45
280
     0
102
RTVSPost2010PropOp45
 70
     1
102
RTVSPost2010Prop46
 90
       50
102
RTVSPost2010PropOp46
 70
     1
102
RTVSPost2010Prop47
 90
       50
102
RTVSPost2010PropOp47
 70
     1
102
RTVSPost2010Prop48
 90
       50
102
RTVSPost2010PropOp48
 70
     1
102
RTVSPost2010Prop49
280
     0
102
RTVSPost2010PropOp49
 70
     1
102
RTVSPost2010Prop50
 90
       50
102
RTVSPost2010PropOp50
 70
     1
102
RTVSPost2010Prop51ColorIndex
 90
      256
102
RTVSPost2010Prop51ColorRGB
 90
-16777216
102
RTVSPost2010PropOp51
 70
     0
102
RTVSPost2010Prop52
140
1.0
102
RTVSPost2010PropOp52
 70
     0
102
RTVSPost2010Prop53
 90
        2
102
RTVSPost2010PropOp53
 70
     1
102
RTVSPost2010Prop54
  1
strokes_ogs.tif
102
RTVSPost2010PropOp54
 70
     1
102
RTVSPost2010Prop55
280
     0
102
RTVSPost2010PropOp55
 70
     1
102
RTVSPost2010Prop56
140
1.0
102
RTVSPost2010PropOp56
 70
     1
102
RTVSPost2010Prop57
140
1.0
102
RTVSPost2010PropOp57
 70
     1
  0
XRECORD
  5
11E
102
{ACAD_REACTORS
330
11D
102
}
330
11D
100
AcDbXrecord
280
     1
102
RTVSPost2010Prop28
280
     0
102
RTVSPost2010PropOp28
 70
     1
102
RTVSPost2010Prop29
280
     1
102
RTVSPost2010PropOp29
 70
     1
102
RTVSPost2010Prop30
280
     1
102
RTVSPost2010PropOp30
 70
     1
102
RTVSPost2010Prop31
280
     0
102
RTVSPost2010PropOp31
 70
     1
102
RTVSPost2010Prop32
280
     0
102
RTVSPost2010PropOp32
 70
     1
102
RTVSPost2010Prop33
280
     0
102
RTVSPost2010PropOp33
 70
     1
102
RTVSPost2010Prop34
280
     0
102
RTVSPost2010PropOp34
 70
     1
102
RTVSPost2010Prop35
280
     0
102
RTVSPost2010PropOp35
 70
     1
102
RTVSPost2010Prop36
280
     0
102
RTVSPost2010PropOp36
 70
     1
102
RTVSPost2010Prop37
 90
       50
102
RTVSPost2010PropOp37
 70
     1
102
RTVSPost2010Prop38
140
0.0
102
RTVSPost2010PropOp38
 70
     1
102
RTVSPost2010Prop39
140
1.0
102
RTVSPost2010PropOp39
 70
     1
102
RTVSPost2010Prop40
 90
        0
102
RTVSPost2010PropOp40
 70
     1
102
RTVSPost2010Prop41ColorIndex
 90
       18
102
RTVSPost2010Prop41ColorRGB
 90
        0
102
RTVSPost2010PropOp41
 70
     1
102
RTVSPost2010Prop42
 90
       50
102
RTVSPost2010PropOp42
 70
     1
102
RTVSPost2010Prop43
 90
        3
102
RTVSPost2010PropOp43
 70
     1
102
RTVSPost2010Prop44ColorIndex
 90
        5
102
RTVSPost2010Prop44ColorRGB
 90
      255
102
RTVSPost2010PropOp44
 70
     1
102
RTVSPost2010Prop45
280
     0
102
RTVSPost2010PropOp45
 70
     1
102
RTVSPost2010Prop46
 90
       50
102
RTVSPost2010PropOp46
 70
     1
102
RTVSPost2010Prop47
 90
       50
102
RTVSPost2010PropOp47
 70
     1
102
RTVSPost2010Prop48
 90
       50
102
RTVSPost2010PropOp48
 70
     1
102
RTVSPost2010Prop49
280
     0
102
RTVSPost2010PropOp49
 70
     1
102
RTVSPost2010Prop50
 90
       50
102
RTVSPost2010PropOp50
 70
     1
102
RTVSPost2010Prop51ColorIndex
 90
      256
102
RTVSPost2010Prop51ColorRGB
 90
-16777216
102
RTVSPost2010PropOp51
 70
     0
102
RTVSPost2010Prop52
140
1.0
102
RTVSPost2010PropOp52
 70
     0
102
RTVSPost2010Prop53
 90
        2
102
RTVSPost2010PropOp53
 70
     1
102
RTVSPost2010Prop54
  1
strokes_ogs.tif
102
RTVSPost2010PropOp54
 70
     1
102
RTVSPost2010Prop55
280
     0
102
RTVSPost2010PropOp55
 70
     1
102
RTVSPost2010Prop56
140
1.0
102
RTVSPost2010PropOp56
 70
     1
102
RTVSPost2010Prop57
140
1.0
102
RTVSPost2010PropOp57
 70
     1
  0
XRECORD
  5
114
102
{ACAD_REACTORS
330
113
102
}
330
113
100
AcDbXrecord
280
     1
102
RTVSPost2010Prop28
280
     0
102
RTVSPost2010PropOp28
 70
     1
102
RTVSPost2010Prop29
280
     1
102
RTVSPost2010PropOp29
 70
     1
102
RTVSPost2010Prop30
280
     1
102
RTVSPost2010PropOp30
 70
     1
102
RTVSPost2010Prop31
280
     0
102
RTVSPost2010PropOp31
 70
     1
102
RTVSPost2010Prop32
280
     0
102
RTVSPost2010PropOp32
 70
     1
102
RTVSPost2010Prop33
280
     0
102
RTVSPost2010PropOp33
 70
     1
102
RTVSPost2010Prop34
280
     0
102
RTVSPost2010PropOp34
 70
     1
102
RTVSPost2010Prop35
280
     0
102
RTVSPost2010PropOp35
 70
     1
102
RTVSPost2010Prop36
280
     0
102
RTVSPost2010PropOp36
 70
     1
102
RTVSPost2010Prop37
 90
       50
102
RTVSPost2010PropOp37
 70
     1
102
RTVSPost2010Prop38
140
0.0
102
RTVSPost2010PropOp38
 70
     1
102
RTVSPost2010Prop39
140
1.0
102
RTVSPost2010PropOp39
 70
     1
102
RTVSPost2010Prop40
 90
        0
102
RTVSPost2010PropOp40
 70
     1
102
RTVSPost2010Prop41ColorIndex
 90
       18
102
RTVSPost2010Prop41ColorRGB
 90
        0
102
RTVSPost2010PropOp41
 70
     1
102
RTVSPost2010Prop42
 90
       50
102
RTVSPost2010PropOp42
 70
     1
102
RTVSPost2010Prop43
 90
        3
102
RTVSPost2010PropOp43
 70
     1
102
RTVSPost2010Prop44ColorIndex
 90
        5
102
RTVSPost2010Prop44ColorRGB
 90
      255
102
RTVSPost2010PropOp44
 70
     1
102
RTVSPost2010Prop45
280
     0
102
RTVSPost2010PropOp45
 70
     1
102
RTVSPost2010Prop46
 90
       50
102
RTVSPost2010PropOp46
 70
     1
102
RTVSPost2010Prop47
 90
       50
102
RTVSPost2010PropOp47
 70
     1
102
RTVSPost2010Prop48
 90
       50
102
RTVSPost2010PropOp48
 70
     1
102
RTVSPost2010Prop49
280
     0
102
RTVSPost2010PropOp49
 70
     1
102
RTVSPost2010Prop50
 90
       50
102
RTVSPost2010PropOp50
 70
     1
102
RTVSPost2010Prop51ColorIndex
 90
      256
102
RTVSPost2010Prop51ColorRGB
 90
-16777216
102
RTVSPost2010PropOp51
 70
     0
102
RTVSPost2010Prop52
140
1.0
102
RTVSPost2010PropOp52
 70
     0
102
RTVSPost2010Prop53
 90
        2
102
RTVSPost2010PropOp53
 70
     1
102
RTVSPost2010Prop54
  1
strokes_ogs.tif
102
RTVSPost2010PropOp54
 70
     1
102
RTVSPost2010Prop55
280
     0
102
RTVSPost2010PropOp55
 70
     1
102
RTVSPost2010Prop56
140
1.0
102
RTVSPost2010PropOp56
 70
     1
102
RTVSPost2010Prop57
140
1.0
102
RTVSPost2010PropOp57
 70
     1
  0
XRECORD
  5
108
102
{ACAD_REACTORS
330
107
102
}
330
107
100
AcDbXrecord
280
     1
102
RTVSPost2010Prop28
280
     0
102
RTVSPost2010PropOp28
 70
     1
102
RTVSPost2010Prop29
280
     1
102
RTVSPost2010PropOp29
 70
     1
102
RTVSPost2010Prop30
280
     1
102
RTVSPost2010PropOp30
 70
     1
102
RTVSPost2010Prop31
280
     0
102
RTVSPost2010PropOp31
 70
     1
102
RTVSPost2010Prop32
280
     0
102
RTVSPost2010PropOp32
 70
     1
102
RTVSPost2010Prop33
280
     0
102
RTVSPost2010PropOp33
 70
     1
102
RTVSPost2010Prop34
280
     0
102
RTVSPost2010PropOp34
 70
     1
102
RTVSPost2010Prop35
280
     0
102
RTVSPost2010PropOp35
 70
     1
102
RTVSPost2010Prop36
280
     0
102
RTVSPost2010PropOp36
 70
     1
102
RTVSPost2010Prop37
 90
       50
102
RTVSPost2010PropOp37
 70
     1
102
RTVSPost2010Prop38
140
0.0
102
RTVSPost2010PropOp38
 70
     1
102
RTVSPost2010Prop39
140
1.0
102
RTVSPost2010PropOp39
 70
     1
102
RTVSPost2010Prop40
 90
        0
102
RTVSPost2010PropOp40
 70
     1
102
RTVSPost2010Prop41ColorIndex
 90
       18
102
RTVSPost2010Prop41ColorRGB
 90
        0
102
RTVSPost2010PropOp41
 70
     1
102
RTVSPost2010Prop42
 90
       50
102
RTVSPost2010PropOp42
 70
     1
102
RTVSPost2010Prop43
 90
        3
102
RTVSPost2010PropOp43
 70
     1
102
RTVSPost2010Prop44ColorIndex
 90
        5
102
RTVSPost2010Prop44ColorRGB
 90
      255
102
RTVSPost2010PropOp44
 70
     1
102
RTVSPost2010Prop45
280
     0
102
RTVSPost2010PropOp45
 70
     1
102
RTVSPost2010Prop46
 90
       50
102
RTVSPost2010PropOp46
 70
     1
102
RTVSPost2010Prop47
 90
       50
102
RTVSPost2010PropOp47
 70
     1
102
RTVSPost2010Prop48
 90
       50
102
RTVSPost2010PropOp48
 70
     1
102
RTVSPost2010Prop49
280
     0
102
RTVSPost2010PropOp49
 70
     1
102
RTVSPost2010Prop50
 90
       50
102
RTVSPost2010PropOp50
 70
     1
102
RTVSPost2010Prop51ColorIndex
 90
      256
102
RTVSPost2010Prop51ColorRGB
 90
-16777216
102
RTVSPost2010PropOp51
 70
     0
102
RTVSPost2010Prop52
140
1.0
102
RTVSPost2010PropOp52
 70
     0
102
RTVSPost2010Prop53
 90
        2
102
RTVSPost2010PropOp53
 70
     1
102
RTVSPost2010Prop54
  1
strokes_ogs.tif
102
RTVSPost2010PropOp54
 70
     1
102
RTVSPost2010Prop55
280
     0
102
RTVSPost2010PropOp55
 70
     1
102
RTVSPost2010Prop56
140
1.0
102
RTVSPost2010PropOp56
 70
     1
102
RTVSPost2010Prop57
140
1.0
102
RTVSPost2010PropOp57
 70
     1
  0
XRECORD
  5
120
102
{ACAD_REACTORS
330
11F
102
}
330
11F
100
AcDbXrecord
280
     1
102
RTVSPost2010Prop28
280
     0
102
RTVSPost2010PropOp28
 70
     1
102
RTVSPost2010Prop29
280
     1
102
RTVSPost2010PropOp29
 70
     1
102
RTVSPost2010Prop30
280
     1
102
RTVSPost2010PropOp30
 70
     1
102
RTVSPost2010Prop31
280
     0
102
RTVSPost2010PropOp31
 70
     1
102
RTVSPost2010Prop32
280
     0
102
RTVSPost2010PropOp32
 70
     1
102
RTVSPost2010Prop33
280
     0
102
RTVSPost2010PropOp33
 70
     1
102
RTVSPost2010Prop34
280
     0
102
RTVSPost2010PropOp34
 70
     1
102
RTVSPost2010Prop35
280
     0
102
RTVSPost2010PropOp35
 70
     1
102
RTVSPost2010Prop36
280
     0
102
RTVSPost2010PropOp36
 70
     1
102
RTVSPost2010Prop37
 90
       50
102
RTVSPost2010PropOp37
 70
     1
102
RTVSPost2010Prop38
140
0.0
102
RTVSPost2010PropOp38
 70
     1
102
RTVSPost2010Prop39
140
1.0
102
RTVSPost2010PropOp39
 70
     1
102
RTVSPost2010Prop40
 90
        0
102
RTVSPost2010PropOp40
 70
     1
102
RTVSPost2010Prop41ColorIndex
 90
       18
102
RTVSPost2010Prop41ColorRGB
 90
        0
102
RTVSPost2010PropOp41
 70
     1
102
RTVSPost2010Prop42
 90
       50
102
RTVSPost2010PropOp42
 70
     1
102
RTVSPost2010Prop43
 90
        3
102
RTVSPost2010PropOp43
 70
     1
102
RTVSPost2010Prop44ColorIndex
 90
        5
102
RTVSPost2010Prop44ColorRGB
 90
      255
102
RTVSPost2010PropOp44
 70
     1
102
RTVSPost2010Prop45
280
     0
102
RTVSPost2010PropOp45
 70
     1
102
RTVSPost2010Prop46
 90
       50
102
RTVSPost2010PropOp46
 70
     1
102
RTVSPost2010Prop47
 90
       50
102
RTVSPost2010PropOp47
 70
     1
102
RTVSPost2010Prop48
 90
       50
102
RTVSPost2010PropOp48
 70
     1
102
RTVSPost2010Prop49
280
     0
102
RTVSPost2010PropOp49
 70
     1
102
RTVSPost2010Prop50
 90
       50
102
RTVSPost2010PropOp50
 70
     1
102
RTVSPost2010Prop51ColorIndex
 90
      256
102
RTVSPost2010Prop51ColorRGB
 90
-16777216
102
RTVSPost2010PropOp51
 70
     0
102
RTVSPost2010Prop52
140
1.0
102
RTVSPost2010PropOp52
 70
     0
102
RTVSPost2010Prop53
 90
        2
102
RTVSPost2010PropOp53
 70
     1
102
RTVSPost2010Prop54
  1
strokes_ogs.tif
102
RTVSPost2010PropOp54
 70
     1
102
RTVSPost2010Prop55
280
     0
102
RTVSPost2010PropOp55
 70
     1
102
RTVSPost2010Prop56
140
1.0
102
RTVSPost2010PropOp56
 70
     1
102
RTVSPost2010Prop57
140
1.0
102
RTVSPost2010PropOp57
 70
     1
  0
ENDSEC
  0
EOF
