  0
SECTION
  2
HEADER
  9
$ACADVER
  1
AC1024
  9
$ACADMAINTVER
 70
     6
  9
$DWGCODEPAGE
  3
UNDEFINED
  9
$INSBASE
 10
0.0
 20
0.0
 30
0.0
  9
$EXTMIN
 10
1.000000000000000E+20
 20
1.000000000000000E+20
 30
1.000000000000000E+20
  9
$EXTMAX
 10
-1.000000000000000E+20
 20
-1.000000000000000E+20
 30
-1.000000000000000E+20
  9
$LIMMIN
 10
0.0
 20
0.0
  9
$LIMMAX
 10
12.0
 20
9.0
  9
$ORTHOMODE
 70
     0
  9
$REGENMODE
 70
     1
  9
$FILLMODE
 70
     1
  9
$QTEXTMODE
 70
     0
  9
$MIRRTEXT
 70
     1
  9
$LTSCALE
 40
1.0
  9
$ATTMODE
 70
     1
  9
$TEXTSIZE
 40
0.2
  9
$TRACEWID
 40
0.05
  9
$TEXTSTYLE
  7
Standard
  9
$CLAYER
  8
0
  9
$CELTYPE
  6
ByLayer
  9
$CECOLOR
 62
   256
  9
$CELTSCALE
 40
1.0
  9
$DISPSILH
 70
     0
  9
$DIMSCALE
 40
1.0
  9
$DIMASZ
 40
0.18
  9
$DIMEXO
 40
0.0625
  9
$DIMDLI
 40
0.38
  9
$DIMRND
 40
0.0
  9
$DIMDLE
 40
0.0
  9
$DIMEXE
 40
0.18
  9
$DIMTP
 40
0.0
  9
$DIMTM
 40
0.0
  9
$DIMTXT
 40
0.18
  9
$DIMCEN
 40
0.09
  9
$DIMTSZ
 40
0.0
  9
$DIMTOL
 70
     0
  9
$DIMLIM
 70
     0
  9
$DIMTIH
 70
     1
  9
$DIMTOH
 70
     1
  9
$DIMSE1
 70
     0
  9
$DIMSE2
 70
     0
  9
$DIMTAD
 70
     0
  9
$DIMZIN
 70
     0
  9
$DIMBLK
  1

  9
$DIMASO
 70
     1
  9
$DIMSHO
 70
     1
  9
$DIMPOST
  1

  9
$DIMAPOST
  1

  9
$DIMALT
 70
     0
  9
$DIMALTD
 70
     2
  9
$DIMALTF
 40
25.4
  9
$DIMLFAC
 40
1.0
  9
$DIMTOFL
 70
     0
  9
$DIMTVP
 40
0.0
  9
$DIMTIX
 70
     0
  9
$DIMSOXD
 70
     0
  9
$DIMSAH
 70
     0
  9
$DIMBLK1
  1

  9
$DIMBLK2
  1

  9
$DIMSTYLE
  2
Standard
  9
$DIMCLRD
 70
     0
  9
$DIMCLRE
 70
     0
  9
$DIMCLRT
 70
     0
  9
$DIMTFAC
 40
1.0
  9
$DIMGAP
 40
0.09
  9
$DIMJUST
 70
     0
  9
$DIMSD1
 70
     0
  9
$DIMSD2
 70
     0
  9
$DIMTOLJ
 70
     1
  9
$DIMTZIN
 70
     0
  9
$DIMALTZ
 70
     0
  9
$DIMALTTZ
 70
     0
  9
$DIMUPT
 70
     0
  9
$DIMDEC
 70
     4
  9
$DIMTDEC
 70
     4
  9
$DIMALTU
 70
     2
  9
$DIMALTTD
 70
     2
  9
$DIMTXSTY
  7
Standard
  9
$DIMAUNIT
 70
     0
  9
$DIMADEC
 70
     0
  9
$DIMALTRND
 40
0.0
  9
$DIMAZIN
 70
     0
  9
$DIMDSEP
 70
    46
  9
$DIMATFIT
 70
     3
  9
$DIMFRAC
 70
     0
  9
$DIMLDRBLK
  1

  9
$DIMLUNIT
 70
     2
  9
$DIMLWD
 70
    -2
  9
$DIMLWE
 70
    -2
  9
$DIMTMOVE
 70
     0
  9
$DIMFXL
 40
1.0
  9
$DIMFXLON
 70
     0
  9
$DIMJOGANG
 40
0.7853981633974483
  9
$DIMTFILL
 70
     0
  9
$DIMTFILLCLR
 70
     0
  9
$DIMARCSYM
 70
     0
  9
$DIMLTYPE
  6

  9
$DIMLTEX1
  6

  9
$DIMLTEX2
  6

  9
$DIMTXTDIRECTION
 70
     0
  9
$LUNITS
 70
     2
  9
$LUPREC
 70
     4
  9
$SKETCHINC
 40
0.1
  9
$FILLETRAD
 40
0.5
  9
$AUNITS
 70
     0
  9
$AUPREC
 70
     0
  9
$MENU
  1
.
  9
$ELEVATION
 40
0.0
  9
$PELEVATION
 40
0.0
  9
$THICKNESS
 40
0.0
  9
$LIMCHECK
 70
     0
  9
$CHAMFERA
 40
0.5
  9
$CHAMFERB
 40
0.5
  9
$CHAMFERC
 40
1.0
  9
$CHAMFERD
 40
0.0
  9
$SKPOLY
 70
     0
  9
$TDCREATE
 40
2457917.592060173
  9
$TDUCREATE
 40
2457917.217060185
  9
$TDUPDATE
 40
2457917.592060173
  9
$TDUUPDATE
 40
2457917.217060185
  9
$TDINDWG
 40
0.0000000116
  9
$TDUSRTIMER
 40
0.0000000116
  9
$USRTIMER
 70
     1
  9
$ANGBASE
 50
0.0
  9
$ANGDIR
 70
     0
  9
$PDMODE
 70
     0
  9
$PDSIZE
 40
0.0
  9
$PLINEWID
 40
0.0
  9
$SPLFRAME
 70
     0
  9
$SPLINETYPE
 70
     6
  9
$SPLINESEGS
 70
     8
  9
$HANDSEED
  5
BC
  9
$SURFTAB1
 70
     6
  9
$SURFTAB2
 70
     6
  9
$SURFTYPE
 70
     6
  9
$SURFU
 70
     6
  9
$SURFV
 70
     6
  9
$UCSBASE
  2

  9
$UCSNAME
  2

  9
$UCSORG
 10
0.0
 20
0.0
 30
0.0
  9
$UCSXDIR
 10
1.0
 20
0.0
 30
0.0
  9
$UCSYDIR
 10
0.0
 20
1.0
 30
0.0
  9
$UCSORTHOREF
  2

  9
$UCSORTHOVIEW
 70
     0
  9
$UCSORGTOP
 10
0.0
 20
0.0
 30
0.0
  9
$UCSORGBOTTOM
 10
0.0
 20
0.0
 30
0.0
  9
$UCSORGLEFT
 10
0.0
 20
0.0
 30
0.0
  9
$UCSORGRIGHT
 10
0.0
 20
0.0
 30
0.0
  9
$UCSORGFRONT
 10
0.0
 20
0.0
 30
0.0
  9
$UCSORGBACK
 10
0.0
 20
0.0
 30
0.0
  9
$PUCSBASE
  2

  9
$PUCSNAME
  2

  9
$PUCSORG
 10
0.0
 20
0.0
 30
0.0
  9
$PUCSXDIR
 10
1.0
 20
0.0
 30
0.0
  9
$PUCSYDIR
 10
0.0
 20
1.0
 30
0.0
  9
$PUCSORTHOREF
  2

  9
$PUCSORTHOVIEW
 70
     0
  9
$PUCSORGTOP
 10
0.0
 20
0.0
 30
0.0
  9
$PUCSORGBOTTOM
 10
0.0
 20
0.0
 30
0.0
  9
$PUCSORGLEFT
 10
0.0
 20
0.0
 30
0.0
  9
$PUCSORGRIGHT
 10
0.0
 20
0.0
 30
0.0
  9
$PUCSORGFRONT
 10
0.0
 20
0.0
 30
0.0
  9
$PUCSORGBACK
 10
0.0
 20
0.0
 30
0.0
  9
$USERI1
 70
     0
  9
$USERI2
 70
     0
  9
$USERI3
 70
     0
  9
$USERI4
 70
     0
  9
$USERI5
 70
     0
  9
$USERR1
 40
0.0
  9
$USERR2
 40
0.0
  9
$USERR3
 40
0.0
  9
$USERR4
 40
0.0
  9
$USERR5
 40
0.0
  9
$WORLDVIEW
 70
     1
  9
$SHADEDGE
 70
     3
  9
$SHADEDIF
 70
    70
  9
$TILEMODE
 70
     1
  9
$MAXACTVP
 70
    64
  9
$PINSBASE
 10
0.0
 20
0.0
 30
0.0
  9
$PLIMCHECK
 70
     0
  9
$PEXTMIN
 10
1.000000000000000E+20
 20
1.000000000000000E+20
 30
1.000000000000000E+20
  9
$PEXTMAX
 10
-1.000000000000000E+20
 20
-1.000000000000000E+20
 30
-1.000000000000000E+20
  9
$PLIMMIN
 10
0.0
 20
0.0
  9
$PLIMMAX
 10
12.0
 20
9.0
  9
$UNITMODE
 70
     0
  9
$VISRETAIN
 70
     1
  9
$PLINEGEN
 70
     0
  9
$PSLTSCALE
 70
     1
  9
$TREEDEPTH
 70
  3020
  9
$CMLSTYLE
  2
Standard
  9
$CMLJUST
 70
     0
  9
$CMLSCALE
 40
1.0
  9
$PROXYGRAPHICS
 70
     1
  9
$MEASUREMENT
 70
     0
  9
$CELWEIGHT
370
    -1
  9
$ENDCAPS
280
     0
  9
$JOINSTYLE
280
     0
  9
$LWDISPLAY
290
     1
  9
$INSUNITS
 70
     1
  9
$HYPERLINKBASE
  1

  9
$STYLESHEET
  1

  9
$XEDIT
290
     1
  9
$CEPSNTYPE
380
     0
  9
$PSTYLEMODE
290
     1
  9
$FINGERPRINTGUID
  2
{9B74391C-6B10-FEEF-35CC-68D73A1192A7}
  9
$VERSIONGUID
  2
{FAEB1C32-E019-11D5-929B-00C0DF256EC4}
  9
$EXTNAMES
290
     1
  9
$PSVPSCALE
 40
0.0
  9
$OLESTARTUP
290
     0
  9
$SORTENTS
280
   127
  9
$INDEXCTL
280
     0
  9
$HIDETEXT
280
     1
  9
$XCLIPFRAME
280
     2
  9
$HALOGAP
280
     0
  9
$OBSCOLOR
 70
   257
  9
$OBSLTYPE
280
     0
  9
$INTERSECTIONDISPLAY
280
     0
  9
$INTERSECTIONCOLOR
 70
   257
  9
$DIMASSOC
280
     2
  9
$PROJECTNAME
  1

  9
$CAMERADISPLAY
290
     0
  9
$LENSLENGTH
 40
50.0
  9
$CAMERAHEIGHT
 40
0.0
  9
$STEPSPERSEC
 40
2.0
  9
$STEPSIZE
 40
6.0
  9
$3DDWFPREC
 40
2.0
  9
$PSOLWIDTH
 40
0.25
  9
$PSOLHEIGHT
 40
4.0
  9
$LOFTANG1
 40
1.570796326794897
  9
$LOFTANG2
 40
1.570796326794897
  9
$LOFTMAG1
 40
0.0
  9
$LOFTMAG2
 40
0.0
  9
$LOFTPARAM
 70
     7
  9
$LOFTNORMALS
280
     1
  9
$LATITUDE
 40
37.795
  9
$LONGITUDE
 40
-122.394
  9
$NORTHDIRECTION
 40
0.0
  9
$TIMEZONE
 70
 -8000
  9
$LIGHTGLYPHDISPLAY
280
     1
  9
$TILEMODELIGHTSYNCH
280
     1
  9
$CMATERIAL
347
3C
  9
$SOLIDHIST
280
     1
  9
$SHOWHIST
280
     1
  9
$DWFFRAME
280
     2
  9
$DGNFRAME
280
     2
  9
$REALWORLDSCALE
290
     1
  9
$INTERFERECOLOR
 62
   256
  9
$CSHADOW
280
     0
  9
$SHADOWPLANELOCATION
 40
0.0
  0
ENDSEC
  0
SECTION
  2
CLASSES
  0
CLASS
  1
ACDBDICTIONARYWDFLT
  2
AcDbDictionaryWithDefault
  3
ObjectDBX Classes
 90
        0
 91
        4
280
     0
281
     0
  0
CLASS
  1
VISUALSTYLE
  2
AcDbVisualStyle
  3
ObjectDBX Classes
 90
     4095
 91
        4
280
     0
281
     0
  0
CLASS
  1
MATERIAL
  2
AcDbMaterial
  3
ObjectDBX Classes
 90
     1153
 91
        4
280
     0
281
     0
  0
CLASS
  1
SUN
  2
AcDbSun
  3
SCENEOE
 90
     1024
 91
        4
280
     0
281
     0
  0
ENDSEC
  0
SECTION
  2
TABLES
  0
TABLE
  2
VPORT
  5
8
330
0
100
AcDbSymbolTable
 70
     1
  0
VPORT
  5
29
330
8
100
AcDbSymbolTableRecord
100
AcDbViewportTableRecord
  2
*Active
 70
     0
 10
0.0
 20
0.0
 11
1.0
 21
1.0
 12
0.0
 22
0.0
 13
0.0
 23
0.0
 14
0.5
 24
0.5
 15
0.5
 25
0.5
 16
0.0
 26
0.0
 36
1.0
 17
91.00082462281999
 27
-128.4993055234307
 37
0.0
 40
256.9986110468615
 41
0.7081814508812795
 42
50.0
 43
0.0
 44
0.0
 50
0.0
 51
0.0
 71
     0
 72
   100
 73
     1
 74
     3
 75
     0
 76
     0
 77
     0
 78
     0
281
     0
 65
     1
110
0.0
120
0.0
130
0.0
111
1.0
121
0.0
131
0.0
112
0.0
122
1.0
132
0.0
 79
     0
146
0.0
 60
     3
 61
     5
292
     1
282
     1
141
0.0
142
0.0
 63
   250
361
3F
  0
ENDTAB
  0
TABLE
  2
LTYPE
  5
5
330
0
100
AcDbSymbolTable
 70
     1
  0
LTYPE
  5
14
330
5
100
AcDbSymbolTableRecord
100
AcDbLinetypeTableRecord
  2
ByBlock
 70
     0
  3

 72
    65
 73
     0
 40
0.0
  0
LTYPE
  5
15
330
5
100
AcDbSymbolTableRecord
100
AcDbLinetypeTableRecord
  2
ByLayer
 70
     0
  3

 72
    65
 73
     0
 40
0.0
  0
LTYPE
  5
16
330
5
100
AcDbSymbolTableRecord
100
AcDbLinetypeTableRecord
  2
Continuous
 70
     0
  3
Solid line
 72
    65
 73
     0
 40
0.0
  0
ENDTAB
  0
TABLE
  2
LAYER
  5
2
330
0
100
AcDbSymbolTable
 70
     2
  0
LAYER
  5
10
330
2
100
AcDbSymbolTableRecord
100
AcDbLayerTableRecord
  2
0
 70
     0
 62
     7
  6
Continuous
370
    -3
390
F
347
3E
  0
LAYER
  5
40
330
2
100
AcDbSymbolTableRecord
100
AcDbLayerTableRecord
  2
_U+30EC_U+30A4_U+30E4_U+30FC 1
 70
     0
 62
     7
  6
Continuous
370
    -3
390
F
347
3E
  0
ENDTAB
  0
TABLE
  2
STYLE
  5
3
330
0
100
AcDbSymbolTable
 70
     1
  0
STYLE
  5
11
330
3
100
AcDbSymbolTableRecord
100
AcDbTextStyleTableRecord
  2
Standard
 70
     0
 40
0.0
 41
1.0
 50
0.0
 71
     0
 42
0.2
  3
txt
  4

  0
ENDTAB
  0
TABLE
  2
VIEW
  5
6
330
0
100
AcDbSymbolTable
 70
     0
  0
ENDTAB
  0
TABLE
  2
UCS
  5
7
330
0
100
AcDbSymbolTable
 70
     0
  0
ENDTAB
  0
TABLE
  2
APPID
  5
9
330
0
100
AcDbSymbolTable
 70
     1
  0
APPID
  5
12
330
9
100
AcDbSymbolTableRecord
100
AcDbRegAppTableRecord
  2
ACAD
 70
     0
  0
ENDTAB
  0
TABLE
  2
DIMSTYLE
  5
A
330
0
100
AcDbSymbolTable
 70
     1
100
AcDbDimStyleTable
  0
DIMSTYLE
105
27
330
A
100
AcDbSymbolTableRecord
100
AcDbDimStyleTableRecord
  2
Standard
 70
     0
178
     0
340
11
  0
ENDTAB
  0
TABLE
  2
BLOCK_RECORD
  5
1
330
0
100
AcDbSymbolTable
 70
     6
  0
BLOCK_RECORD
  5
1F
330
1
100
AcDbSymbolTableRecord
100
AcDbBlockTableRecord
  2
*Model_Space
340
22
 70
     0
280
     1
281
     0
  0
BLOCK_RECORD
  5
1B
330
1
100
AcDbSymbolTableRecord
100
AcDbBlockTableRecord
  2
*Paper_Space
340
1E
 70
     0
280
     1
281
     0
  0
BLOCK_RECORD
  5
23
330
1
100
AcDbSymbolTableRecord
100
AcDbBlockTableRecord
  2
*Paper_Space0
340
26
 70
     0
280
     1
281
     0
  0
BLOCK_RECORD
  5
63
330
1
100
AcDbSymbolTableRecord
100
AcDbBlockTableRecord
  2
block 2
340
0
102
{BLKREFS
331
64
102
}
 70
     0
280
     1
281
     0
  0
BLOCK_RECORD
  5
78
330
1
100
AcDbSymbolTableRecord
100
AcDbBlockTableRecord
  2
block 3
340
0
102
{BLKREFS
331
79
102
}
 70
     0
280
     1
281
     0
  0
BLOCK_RECORD
  5
88
330
1
100
AcDbSymbolTableRecord
100
AcDbBlockTableRecord
  2
block 4
340
0
102
{BLKREFS
331
89
102
}
 70
     0
280
     1
281
     0
  0
BLOCK_RECORD
  5
8E
330
1
100
AcDbSymbolTableRecord
100
AcDbBlockTableRecord
  2
block 5
340
0
102
{BLKREFS
331
8F
102
}
 70
     0
280
     1
281
     0
  0
BLOCK_RECORD
  5
B2
330
1
100
AcDbSymbolTableRecord
100
AcDbBlockTableRecord
  2
block 6
340
0
102
{BLKREFS
331
B3
102
}
 70
     0
280
     1
281
     0
  0
ENDTAB
  0
ENDSEC
  0
SECTION
  2
BLOCKS
  0
BLOCK
  5
20
330
1F
100
AcDbEntity
  8
0
100
AcDbBlockBegin
  2
*Model_Space
 70
     0
 10
0.0
 20
0.0
 30
0.0
  3
*Model_Space
  1

  0
ENDBLK
  5
21
330
1F
100
AcDbEntity
  8
0
100
AcDbBlockEnd
  0
BLOCK
  5
1C
330
1B
100
AcDbEntity
 67
     1
  8
0
100
AcDbBlockBegin
  2
*Paper_Space
 70
     0
 10
0.0
 20
0.0
 30
0.0
  3
*Paper_Space
  1

  0
ENDBLK
  5
1D
330
1B
100
AcDbEntity
 67
     1
  8
0
100
AcDbBlockEnd
  0
BLOCK
  5
24
330
23
100
AcDbEntity
  8
0
100
AcDbBlockBegin
  2
*Paper_Space0
 70
     0
 10
0.0
 20
0.0
 30
0.0
  3
*Paper_Space0
  1

  0
ENDBLK
  5
25
330
23
100
AcDbEntity
  8
0
100
AcDbBlockEnd
  0
BLOCK
  5
65
330
63
100
AcDbEntity
  8
0
100
AcDbBlockBegin
  2
block 2
 70
     0
 10
0.0
 20
0.0
 30
0.0
  3
block 2
  1

  0
SPLINE
  5
67
330
63
100
AcDbEntity
  8
_U+30EC_U+30A4_U+30E4_U+30FC 1
370
     0
100
AcDbSpline
210
0.0
220
0.0
230
1.0
 70
    11
 71
     3
 72
    26
 73
    22
 74
     0
 42
0.0000000001
 43
0.0000000001
 12
1.0
 22
0.0
 32
0.0
 13
1.0
 23
0.0
 33
0.0
 40
0.0
 40
0.0
 40
0.0
 40
0.0
 40
1.0
 40
1.0
 40
1.0
 40
2.0
 40
2.0
 40
2.0
 40
3.0
 40
3.0
 40
3.0
 40
4.0
 40
4.0
 40
4.0
 40
5.0
 40
5.0
 40
5.0
 40
6.0
 40
6.0
 40
6.0
 40
7.0
 40
7.0
 40
7.0
 40
7.0
 10
81.9488308171864
 20
-137.0000786332847
 30
0.0
 10
81.9488308171864
 20
-137.0000786332847
 30
0.0
 10
81.9488308171864
 20
-135.8959255302621
 30
0.0
 10
81.9488308171864
 20
-135.8959255302621
 30
0.0
 10
81.9488308171864
 20
-135.8959255302621
 30
0.0
 10
81.61879066969948
 20
-135.8959255302621
 30
0.0
 10
81.61879066969948
 20
-135.8959255302621
 30
0.0
 10
81.61879066969948
 20
-135.8959255302621
 30
0.0
 10
81.61879066969948
 20
-135.7477864243964
 30
0.0
 10
81.61879066969948
 20
-135.7477864243964
 30
0.0
 10
81.95089787447756
 20
-135.7329725138098
 30
0.0
 10
81.99740666352842
 20
-135.5700194973575
 30
0.0
 10
82.02703448470157
 20
-135.4556423272472
 30
0.0
 10
82.02703448470157
 20
-135.4556423272472
 30
0.0
 10
82.17310653327617
 20
-135.4556423272472
 30
0.0
 10
82.17310653327617
 20
-135.4556423272472
 30
0.0
 10
82.17310653327617
 20
-135.4556423272472
 30
0.0
 10
82.17310653327617
 20
-137.0000786332847
 30
0.0
 10
82.17310653327617
 20
-137.0000786332847
 30
0.0
 10
82.17310653327617
 20
-137.0000786332847
 30
0.0
 10
81.9488308171864
 20
-137.0000786332847
 30
0.0
 10
81.9488308171864
 20
-137.0000786332847
 30
0.0
  0
HATCH
  5
68
330
63
100
AcDbEntity
  8
_U+30EC_U+30A4_U+30E4_U+30FC 1
 62
   179
420
  2234388
100
AcDbHatch
 10
0.0
 20
0.0
 30
0.0
210
0.0
220
0.0
230
1.0
  2
SOLID
 70
     1
 71
     0
 91
        1
 92
        1
 93
        1
 72
     4
 94
        3
 73
     0
 74
     1
 95
       26
 96
       22
 40
0.0
 40
0.0
 40
0.0
 40
0.0
 40
1.0
 40
1.0
 40
1.0
 40
2.0
 40
2.0
 40
2.0
 40
3.0
 40
3.0
 40
3.0
 40
4.0
 40
4.0
 40
4.0
 40
5.0
 40
5.0
 40
5.0
 40
6.0
 40
6.0
 40
6.0
 40
7.0
 40
7.0
 40
7.0
 40
7.0
 10
81.9488308171864
 20
-137.0000786332847
 10
81.9488308171864
 20
-137.0000786332847
 10
81.9488308171864
 20
-135.8959255302621
 10
81.9488308171864
 20
-135.8959255302621
 10
81.9488308171864
 20
-135.8959255302621
 10
81.61879066969948
 20
-135.8959255302621
 10
81.61879066969948
 20
-135.8959255302621
 10
81.61879066969948
 20
-135.8959255302621
 10
81.61879066969948
 20
-135.7477864243964
 10
81.61879066969948
 20
-135.7477864243964
 10
81.95089787447756
 20
-135.7329725138098
 10
81.99740666352842
 20
-135.5700194973575
 10
82.02703448470157
 20
-135.4556423272472
 10
82.02703448470157
 20
-135.4556423272472
 10
82.17310653327617
 20
-135.4556423272472
 10
82.17310653327617
 20
-135.4556423272472
 10
82.17310653327617
 20
-135.4556423272472
 10
82.17310653327617
 20
-137.0000786332847
 10
82.17310653327617
 20
-137.0000786332847
 10
82.17310653327617
 20
-137.0000786332847
 10
81.9488308171864
 20
-137.0000786332847
 10
81.9488308171864
 20
-137.0000786332847
 97
        0
 97
        0
 75
     2
 76
     1
 98
        0
  0
SPLINE
  5
69
330
63
100
AcDbEntity
  8
_U+30EC_U+30A4_U+30E4_U+30FC 1
370
     0
100
AcDbSpline
210
0.0
220
0.0
230
1.0
 70
    11
 71
     3
 72
    29
 73
    25
 74
     0
 42
0.0000000001
 43
0.0000000001
 12
1.0
 22
0.0
 32
0.0
 13
1.0
 23
0.0
 33
0.0
 40
0.0
 40
0.0
 40
0.0
 40
0.0
 40
1.0
 40
1.0
 40
1.0
 40
2.0
 40
2.0
 40
2.0
 40
3.0
 40
3.0
 40
3.0
 40
4.0
 40
4.0
 40
4.0
 40
5.0
 40
5.0
 40
5.0
 40
6.0
 40
6.0
 40
6.0
 40
7.0
 40
7.0
 40
7.0
 40
8.0
 40
8.0
 40
8.0
 40
8.0
 10
83.57215980983614
 20
-136.8223117062458
 30
0.0
 10
83.46398381159929
 20
-137.031773511749
 30
0.0
 10
83.29069550869121
 20
-137.0507215369179
 30
0.0
 10
83.17425128128977
 20
-137.0507215369179
 30
0.0
 10
83.0133653221286
 20
-137.0507215369179
 30
0.0
 10
82.87177189768484
 20
-137.004212747867
 30
0.0
 10
82.77668726229194
 20
-136.8223117062458
 30
0.0
 10
82.67298988818592
 20
-136.6276638113292
 30
0.0
 10
82.65404186301704
 20
-136.3909857514925
 30
0.0
 10
82.65404186301704
 20
-136.2280327350402
 30
0.0
 10
82.65404186301704
 20
-136.0840277437568
 30
0.0
 10
82.67092283089477
 20
-135.832191263785
 30
0.0
 10
82.77668726229194
 20
-135.6334092542861
 30
0.0
 10
82.88451875098026
 20
-135.4304931302049
 30
0.0
 10
83.04540471014143
 20
-135.4070664809052
 30
0.0
 10
83.17425128128977
 20
-135.4070664809052
 30
0.0
 10
83.33307018315979
 20
-135.4070664809052
 30
0.0
 10
83.47673066489472
 20
-135.4515082126649
 30
0.0
 10
83.57215980983614
 20
-135.6334092542861
 30
0.0
 10
83.67137855981133
 20
-135.8259900919116
 30
0.0
 10
83.69480520911102
 20
-136.0543999225836
 30
0.0
 10
83.69480520911102
 20
-136.2280327350402
 30
0.0
 10
83.69480520911102
 20
-136.3992539806571
 30
0.0
 10
83.67344561710247
 20
-136.6297308686204
 30
0.0
 10
83.57215980983614
 20
-136.8223117062458
 30
0.0
  0
SPLINE
  5
6A
330
63
100
AcDbEntity
  8
_U+30EC_U+30A4_U+30E4_U+30FC 1
370
     0
100
AcDbSpline
210
0.0
220
0.0
230
1.0
 70
    11
 71
     3
 72
    17
 73
    13
 74
     0
 42
0.0000000001
 43
0.0000000001
 12
1.0
 22
0.0
 32
0.0
 13
1.0
 23
0.0
 33
0.0
 40
0.0
 40
0.0
 40
0.0
 40
0.0
 40
1.0
 40
1.0
 40
1.0
 40
2.0
 40
2.0
 40
2.0
 40
3.0
 40
3.0
 40
3.0
 40
4.0
 40
4.0
 40
4.0
 40
4.0
 10
83.17425128128977
 20
-135.5996473185307
 30
0.0
 10
82.92482636815768
 20
-135.5996473185307
 30
0.0
 10
82.8779730695583
 20
-135.8831786769667
 30
0.0
 10
82.8779730695583
 20
-136.2280327350402
 30
0.0
 10
82.8779730695583
 20
-136.5473930865229
 30
0.0
 10
82.91414657215341
 20
-136.8560736420013
 30
0.0
 10
83.17425128128977
 20
-136.8560736420013
 30
0.0
 10
83.42195364667924
 20
-136.8560736420013
 30
0.0
 10
83.47052949302126
 20
-136.5749538504049
 30
0.0
 10
83.47052949302126
 20
-136.2280327350402
 30
0.0
 10
83.47052949302126
 20
-135.908327874009
 30
0.0
 10
83.43228893313498
 20
-135.5996473185307
 30
0.0
 10
83.17425128128977
 20
-135.5996473185307
 30
0.0
  0
HATCH
  5
6B
330
63
100
AcDbEntity
  8
_U+30EC_U+30A4_U+30E4_U+30FC 1
 62
   179
420
  2234388
100
AcDbHatch
 10
0.0
 20
0.0
 30
0.0
210
0.0
220
0.0
230
1.0
  2
SOLID
 70
     1
 71
     0
 91
        2
 92
        1
 93
        1
 72
     4
 94
        3
 73
     0
 74
     1
 95
       29
 96
       25
 40
0.0
 40
0.0
 40
0.0
 40
0.0
 40
1.0
 40
1.0
 40
1.0
 40
2.0
 40
2.0
 40
2.0
 40
3.0
 40
3.0
 40
3.0
 40
4.0
 40
4.0
 40
4.0
 40
5.0
 40
5.0
 40
5.0
 40
6.0
 40
6.0
 40
6.0
 40
7.0
 40
7.0
 40
7.0
 40
8.0
 40
8.0
 40
8.0
 40
8.0
 10
83.57215980983614
 20
-136.8223117062458
 10
83.46398381159929
 20
-137.031773511749
 10
83.29069550869121
 20
-137.0507215369179
 10
83.17425128128977
 20
-137.0507215369179
 10
83.0133653221286
 20
-137.0507215369179
 10
82.87177189768484
 20
-137.004212747867
 10
82.77668726229194
 20
-136.8223117062458
 10
82.67298988818592
 20
-136.6276638113292
 10
82.65404186301704
 20
-136.3909857514925
 10
82.65404186301704
 20
-136.2280327350402
 10
82.65404186301704
 20
-136.0840277437568
 10
82.67092283089477
 20
-135.832191263785
 10
82.77668726229194
 20
-135.6334092542861
 10
82.88451875098026
 20
-135.4304931302049
 10
83.04540471014143
 20
-135.4070664809052
 10
83.17425128128977
 20
-135.4070664809052
 10
83.33307018315979
 20
-135.4070664809052
 10
83.47673066489472
 20
-135.4515082126649
 10
83.57215980983614
 20
-135.6334092542861
 10
83.67137855981133
 20
-135.8259900919116
 10
83.69480520911102
 20
-136.0543999225836
 10
83.69480520911102
 20
-136.2280327350402
 10
83.69480520911102
 20
-136.3992539806571
 10
83.67344561710247
 20
-136.6297308686204
 10
83.57215980983614
 20
-136.8223117062458
 97
        0
 97
        0
 92
        1
 93
        1
 72
     4
 94
        3
 73
     0
 74
     1
 95
       17
 96
       13
 40
0.0
 40
0.0
 40
0.0
 40
0.0
 40
1.0
 40
1.0
 40
1.0
 40
2.0
 40
2.0
 40
2.0
 40
3.0
 40
3.0
 40
3.0
 40
4.0
 40
4.0
 40
4.0
 40
4.0
 10
83.17425128128977
 20
-135.5996473185307
 10
82.92482636815768
 20
-135.5996473185307
 10
82.8779730695583
 20
-135.8831786769667
 10
82.8779730695583
 20
-136.2280327350402
 10
82.8779730695583
 20
-136.5473930865229
 10
82.91414657215341
 20
-136.8560736420013
 10
83.17425128128977
 20
-136.8560736420013
 10
83.42195364667924
 20
-136.8560736420013
 10
83.47052949302126
 20
-136.5749538504049
 10
83.47052949302126
 20
-136.2280327350402
 10
83.47052949302126
 20
-135.908327874009
 10
83.43228893313498
 20
-135.5996473185307
 10
83.17425128128977
 20
-135.5996473185307
 97
        0
 97
        0
 75
     2
 76
     1
 98
        0
  0
ENDBLK
  5
66
330
63
100
AcDbEntity
  8
0
100
AcDbBlockEnd
  0
BLOCK
  5
7A
330
78
100
AcDbEntity
  8
0
100
AcDbBlockBegin
  2
block 3
 70
     0
 10
0.0
 20
0.0
 30
0.0
  3
block 3
  1

  0
SPLINE
  5
7C
330
78
100
AcDbEntity
  8
_U+30EC_U+30A4_U+30E4_U+30FC 1
370
     0
100
AcDbSpline
210
0.0
220
0.0
230
1.0
 70
    11
 71
     3
 72
    53
 73
    49
 74
     0
 42
0.0000000001
 43
0.0000000001
 12
1.0
 22
0.0
 32
0.0
 13
1.0
 23
0.0
 33
0.0
 40
0.0
 40
0.0
 40
0.0
 40
0.0
 40
1.0
 40
1.0
 40
1.0
 40
2.0
 40
2.0
 40
2.0
 40
3.0
 40
3.0
 40
3.0
 40
4.0
 40
4.0
 40
4.0
 40
5.0
 40
5.0
 40
5.0
 40
6.0
 40
6.0
 40
6.0
 40
7.0
 40
7.0
 40
7.0
 40
8.0
 40
8.0
 40
8.0
 40
9.0
 40
9.0
 40
9.0
 40
10.0
 40
10.0
 40
10.0
 40
11.0
 40
11.0
 40
11.0
 40
12.0
 40
12.0
 40
12.0
 40
13.0
 40
13.0
 40
13.0
 40
14.0
 40
14.0
 40
14.0
 40
15.0
 40
15.0
 40
15.0
 40
16.0
 40
16.0
 40
16.0
 40
16.0
 10
103.1709635158739
 20
-128.8334797855
 30
0.0
 10
103.1709635158739
 20
-128.9120279625637
 30
0.0
 10
103.1537380384477
 20
-129.01331376983
 30
0.0
 10
103.0903482815191
 20
-129.1149440866449
 30
0.0
 10
102.9801052259911
 20
-129.2882323895529
 30
0.0
 10
102.8491915975516
 20
-129.3095919815615
 30
0.0
 10
102.7413601088633
 20
-129.3285400067304
 30
0.0
 10
102.7413601088633
 20
-129.3285400067304
 30
0.0
 10
102.7413601088633
 20
-129.1063313479318
 30
0.0
 10
102.7413601088633
 20
-129.1063313479318
 30
0.0
 10
102.9401421183622
 20
-129.0512098201678
 30
0.0
 10
102.9697699395353
 20
-128.9244303063106
 30
0.0
 10
102.9697699395353
 20
-128.8314127282088
 30
0.0
 10
102.9697699395353
 20
-128.6918863610562
 30
0.0
 10
102.8705511895601
 20
-128.5394408858339
 30
0.0
 10
102.6376627347573
 20
-128.5394408858339
 30
0.0
 10
102.3816921402032
 20
-128.5394408858339
 30
0.0
 10
102.3117567018526
 20
-128.7192748701639
 30
0.0
 10
102.3117567018526
 20
-128.8396809573734
 30
0.0
 10
102.3117567018526
 20
-128.8713758358377
 30
0.0
 10
102.3117567018526
 20
-129.01331376983
 30
0.0
 10
102.4409477825495
 20
-129.1021972333494
 30
0.0
 10
102.4409477825495
 20
-129.1021972333494
 30
0.0
 10
102.4219997573806
 20
-129.2778971030972
 30
0.0
 10
102.4219997573806
 20
-129.2778971030972
 30
0.0
 10
102.4219997573806
 20
-129.2778971030972
 30
0.0
 10
101.5758843062032
 20
-129.1573187611135
 30
0.0
 10
101.5758843062032
 20
-129.1573187611135
 30
0.0
 10
101.5758843062032
 20
-129.1573187611135
 30
0.0
 10
101.5758843062032
 20
-128.378727181447
 30
0.0
 10
101.5758843062032
 20
-128.378727181447
 30
0.0
 10
101.5758843062032
 20
-128.378727181447
 30
0.0
 10
101.7701876915714
 20
-128.378727181447
 30
0.0
 10
101.7701876915714
 20
-128.378727181447
 30
0.0
 10
101.7701876915714
 20
-128.378727181447
 30
0.0
 10
101.7701876915714
 20
-128.9943657446611
 30
0.0
 10
101.7701876915714
 20
-128.9943657446611
 30
0.0
 10
101.7701876915714
 20
-128.9943657446611
 30
0.0
 10
102.19324541716
 20
-129.0598225588809
 30
0.0
 10
102.19324541716
 20
-129.0598225588809
 30
0.0
 10
102.1594834814046
 20
-128.9984998592434
 30
0.0
 10
102.1195203737757
 20
-128.916162077146
 30
0.0
 10
102.1195203737757
 20
-128.7976507924534
 30
0.0
 10
102.1195203737757
 20
-128.5437472551905
 30
0.0
 10
102.3055555299792
 20
-128.3067246858053
 30
0.0
 10
102.6183702000399
 20
-128.3067246858053
 30
0.0
 10
102.9360080037799
 20
-128.3067246858053
 30
0.0
 10
103.1709635158739
 20
-128.531000401895
 30
0.0
 10
103.1709635158739
 20
-128.8334797855
 30
0.0
  0
HATCH
  5
7D
330
78
100
AcDbEntity
  8
_U+30EC_U+30A4_U+30E4_U+30FC 1
 62
   179
420
  2234388
100
AcDbHatch
 10
0.0
 20
0.0
 30
0.0
210
0.0
220
0.0
230
1.0
  2
SOLID
 70
     1
 71
     0
 91
        1
 92
        1
 93
        1
 72
     4
 94
        3
 73
     0
 74
     1
 95
       53
 96
       49
 40
0.0
 40
0.0
 40
0.0
 40
0.0
 40
1.0
 40
1.0
 40
1.0
 40
2.0
 40
2.0
 40
2.0
 40
3.0
 40
3.0
 40
3.0
 40
4.0
 40
4.0
 40
4.0
 40
5.0
 40
5.0
 40
5.0
 40
6.0
 40
6.0
 40
6.0
 40
7.0
 40
7.0
 40
7.0
 40
8.0
 40
8.0
 40
8.0
 40
9.0
 40
9.0
 40
9.0
 40
10.0
 40
10.0
 40
10.0
 40
11.0
 40
11.0
 40
11.0
 40
12.0
 40
12.0
 40
12.0
 40
13.0
 40
13.0
 40
13.0
 40
14.0
 40
14.0
 40
14.0
 40
15.0
 40
15.0
 40
15.0
 40
16.0
 40
16.0
 40
16.0
 40
16.0
 10
103.1709635158739
 20
-128.8334797855
 10
103.1709635158739
 20
-128.9120279625637
 10
103.1537380384477
 20
-129.01331376983
 10
103.0903482815191
 20
-129.1149440866449
 10
102.9801052259911
 20
-129.2882323895529
 10
102.8491915975516
 20
-129.3095919815615
 10
102.7413601088633
 20
-129.3285400067304
 10
102.7413601088633
 20
-129.3285400067304
 10
102.7413601088633
 20
-129.1063313479318
 10
102.7413601088633
 20
-129.1063313479318
 10
102.9401421183622
 20
-129.0512098201678
 10
102.9697699395353
 20
-128.9244303063106
 10
102.9697699395353
 20
-128.8314127282088
 10
102.9697699395353
 20
-128.6918863610562
 10
102.8705511895601
 20
-128.5394408858339
 10
102.6376627347573
 20
-128.5394408858339
 10
102.3816921402032
 20
-128.5394408858339
 10
102.3117567018526
 20
-128.7192748701639
 10
102.3117567018526
 20
-128.8396809573734
 10
102.3117567018526
 20
-128.8713758358377
 10
102.3117567018526
 20
-129.01331376983
 10
102.4409477825495
 20
-129.1021972333494
 10
102.4409477825495
 20
-129.1021972333494
 10
102.4219997573806
 20
-129.2778971030972
 10
102.4219997573806
 20
-129.2778971030972
 10
102.4219997573806
 20
-129.2778971030972
 10
101.5758843062032
 20
-129.1573187611135
 10
101.5758843062032
 20
-129.1573187611135
 10
101.5758843062032
 20
-129.1573187611135
 10
101.5758843062032
 20
-128.378727181447
 10
101.5758843062032
 20
-128.378727181447
 10
101.5758843062032
 20
-128.378727181447
 10
101.7701876915714
 20
-128.378727181447
 10
101.7701876915714
 20
-128.378727181447
 10
101.7701876915714
 20
-128.378727181447
 10
101.7701876915714
 20
-128.9943657446611
 10
101.7701876915714
 20
-128.9943657446611
 10
101.7701876915714
 20
-128.9943657446611
 10
102.19324541716
 20
-129.0598225588809
 10
102.19324541716
 20
-129.0598225588809
 10
102.1594834814046
 20
-128.9984998592434
 10
102.1195203737757
 20
-128.916162077146
 10
102.1195203737757
 20
-128.7976507924534
 10
102.1195203737757
 20
-128.5437472551905
 10
102.3055555299792
 20
-128.3067246858053
 10
102.6183702000399
 20
-128.3067246858053
 10
102.9360080037799
 20
-128.3067246858053
 10
103.1709635158739
 20
-128.531000401895
 10
103.1709635158739
 20
-128.8334797855
 97
        0
 97
        0
 75
     2
 76
     1
 98
        0
  0
POLYLINE
  5
7E
330
78
100
AcDbEntity
  8
_U+30EC_U+30A4_U+30E4_U+30FC 1
370
     0
100
AcDb2dPolyline
 66
     1
 10
0.0
 20
0.0
 30
0.0
  0
VERTEX
  5
7F
330
7E
100
AcDbEntity
  8
_U+30EC_U+30A4_U+30E4_U+30FC 1
370
     0
100
AcDbVertex
100
AcDb2dVertex
 10
103.1199761026922
 20
-128.0776258360362
 30
0.0
  0
VERTEX
  5
80
330
7E
100
AcDbEntity
  8
_U+30EC_U+30A4_U+30E4_U+30FC 1
370
     0
100
AcDbVertex
100
AcDb2dVertex
 10
102.868484132269
 20
-128.0776258360362
 30
0.0
  0
VERTEX
  5
81
330
7E
100
AcDbEntity
  8
_U+30EC_U+30A4_U+30E4_U+30FC 1
370
     0
100
AcDbVertex
100
AcDb2dVertex
 10
102.868484132269
 20
-127.8259616108387
 30
0.0
  0
VERTEX
  5
82
330
7E
100
AcDbEntity
  8
_U+30EC_U+30A4_U+30E4_U+30FC 1
370
     0
100
AcDbVertex
100
AcDb2dVertex
 10
103.1199761026922
 20
-127.8259616108387
 30
0.0
  0
VERTEX
  5
83
330
7E
100
AcDbEntity
  8
_U+30EC_U+30A4_U+30E4_U+30FC 1
370
     0
100
AcDbVertex
100
AcDb2dVertex
 10
103.1199761026922
 20
-128.0776258360362
 30
0.0
  0
SEQEND
  5
84
330
7E
100
AcDbEntity
  8
_U+30EC_U+30A4_U+30E4_U+30FC 1
370
     0
  0
HATCH
  5
85
330
78
100
AcDbEntity
  8
_U+30EC_U+30A4_U+30E4_U+30FC 1
 62
   179
420
  2234388
100
AcDbHatch
 10
0.0
 20
0.0
 30
0.0
210
0.0
220
0.0
230
1.0
  2
SOLID
 70
     1
 71
     0
 91
        1
 92
        1
 93
        4
 72
     1
 10
103.1199761026922
 20
-128.0776258360362
 11
102.868484132269
 21
-128.0776258360362
 72
     1
 10
102.868484132269
 20
-128.0776258360362
 11
102.868484132269
 21
-127.8259616108387
 72
     1
 10
102.868484132269
 20
-127.8259616108387
 11
103.1199761026922
 21
-127.8259616108387
 72
     1
 10
103.1199761026922
 20
-127.8259616108387
 11
103.1199761026922
 21
-128.0776258360362
 97
        0
 75
     2
 76
     1
 98
        0
  0
SPLINE
  5
86
330
78
100
AcDbEntity
  8
_U+30EC_U+30A4_U+30E4_U+30FC 1
370
     0
100
AcDbSpline
210
0.0
220
0.0
230
1.0
 70
    11
 71
     3
 72
    62
 73
    58
 74
     0
 42
0.0000000001
 43
0.0000000001
 12
1.0
 22
0.0
 32
0.0
 13
1.0
 23
0.0
 33
0.0
 40
0.0
 40
0.0
 40
0.0
 40
0.0
 40
1.0
 40
1.0
 40
1.0
 40
2.0
 40
2.0
 40
2.0
 40
3.0
 40
3.0
 40
3.0
 40
4.0
 40
4.0
 40
4.0
 40
5.0
 40
5.0
 40
5.0
 40
6.0
 40
6.0
 40
6.0
 40
7.0
 40
7.0
 40
7.0
 40
8.0
 40
8.0
 40
8.0
 40
9.0
 40
9.0
 40
9.0
 40
10.0
 40
10.0
 40
10.0
 40
11.0
 40
11.0
 40
11.0
 40
12.0
 40
12.0
 40
12.0
 40
13.0
 40
13.0
 40
13.0
 40
14.0
 40
14.0
 40
14.0
 40
15.0
 40
15.0
 40
15.0
 40
16.0
 40
16.0
 40
16.0
 40
17.0
 40
17.0
 40
17.0
 40
18.0
 40
18.0
 40
18.0
 40
19.0
 40
19.0
 40
19.0
 40
19.0
 10
103.1709635158739
 20
-127.0978406800311
 30
0.0
 10
103.1709635158739
 20
-127.1930975701983
 30
0.0
 10
103.1496039238654
 20
-127.4109998596403
 30
0.0
 10
102.9635687676619
 20
-127.5357123162064
 30
0.0
 10
102.8512586548428
 20
-127.6097818691392
 30
0.0
 10
102.7520399048675
 20
-127.6140882384958
 30
0.0
 10
102.6672905559304
 20
-127.6182223530781
 30
0.0
 10
102.6672905559304
 20
-127.6182223530781
 30
0.0
 10
102.6672905559304
 20
-127.3982530063449
 30
0.0
 10
102.6672905559304
 20
-127.3982530063449
 30
0.0
 10
102.7413601088633
 20
-127.3961859490537
 30
0.0
 10
102.9759711114088
 20
-127.3855061530495
 30
0.0
 10
102.9759711114088
 20
-127.1019747946134
 30
0.0
 10
102.9759711114088
 20
-126.9645154847519
 30
0.0
 10
102.9063801826067
 20
-126.8122422643039
 30
0.0
 10
102.6776258423861
 20
-126.8122422643039
 30
0.0
 10
102.5615261245332
 20
-126.8122422643039
 30
0.0
 10
102.5129502781912
 20
-126.8503105694159
 30
0.0
 10
102.4812553997269
 20
-126.8820054478802
 30
0.0
 10
102.4068413372455
 20
-126.9560750008131
 30
0.0
 10
102.3944389934986
 20
-127.0725192282145
 30
0.0
 10
102.3944389934986
 20
-127.1274685012042
 30
0.0
 10
102.3944389934986
 20
-127.1464165263731
 30
0.0
 10
102.3965060507898
 20
-127.182417774194
 30
0.0
 10
102.4006401653721
 20
-127.209978538076
 30
0.0
 10
102.4006401653721
 20
-127.209978538076
 30
0.0
 10
102.206336780004
 20
-127.209978538076
 30
0.0
 10
102.206336780004
 20
-127.209978538076
 30
0.0
 10
102.2125379518774
 20
-127.171910232964
 30
0.0
 10
102.2146050091686
 20
-127.1295355584954
 30
0.0
 10
102.2146050091686
 20
-127.1231621318477
 30
0.0
 10
102.2146050091686
 20
-127.0577053176279
 30
0.0
 10
102.19324541716
 20
-126.8587510533548
 30
0.0
 10
101.9562228477748
 20
-126.8587510533548
 30
0.0
 10
101.7788004302845
 20
-126.8587510533548
 30
0.0
 10
101.7236789025205
 20
-126.9900091913428
 30
0.0
 10
101.7236789025205
 20
-127.0999077373223
 30
0.0
 10
101.7236789025205
 20
-127.3643188158152
 30
0.0
 10
101.9562228477748
 20
-127.372759299754
 30
0.0
 10
102.0285698529651
 20
-127.3770656691106
 30
0.0
 10
102.0285698529651
 20
-127.3770656691106
 30
0.0
 10
102.0285698529651
 20
-127.5801540479661
 30
0.0
 10
102.0285698529651
 20
-127.5801540479661
 30
0.0
 10
101.9035128868505
 20
-127.5717135640272
 30
0.0
 10
101.5269639503127
 20
-127.5441528001452
 30
0.0
 10
101.5269639503127
 20
-127.0873331388011
 30
0.0
 10
101.5269639503127
 20
-126.8630574227113
 30
0.0
 10
101.6537434641699
 20
-126.6219007387438
 30
0.0
 10
101.9500216759014
 20
-126.6219007387438
 30
0.0
 10
102.1360568321049
 20
-126.6219007387438
 30
0.0
 10
102.2187391237509
 20
-126.7169853741367
 30
0.0
 10
102.2800618233883
 20
-126.8165486336604
 30
0.0
 10
102.3076225872703
 20
-126.7550536792487
 30
0.0
 10
102.3882378216252
 20
-126.5731526376275
 30
0.0
 10
102.6652234986393
 20
-126.5731526376275
 30
0.0
 10
103.0035318752908
 20
-126.5731526376275
 30
0.0
 10
103.1709635158739
 20
-126.8206827482427
 30
0.0
 10
103.1709635158739
 20
-127.0978406800311
 30
0.0
  0
HATCH
  5
87
330
78
100
AcDbEntity
  8
_U+30EC_U+30A4_U+30E4_U+30FC 1
 62
   179
420
  2234388
100
AcDbHatch
 10
0.0
 20
0.0
 30
0.0
210
0.0
220
0.0
230
1.0
  2
SOLID
 70
     1
 71
     0
 91
        1
 92
        1
 93
        1
 72
     4
 94
        3
 73
     0
 74
     1
 95
       62
 96
       58
 40
0.0
 40
0.0
 40
0.0
 40
0.0
 40
1.0
 40
1.0
 40
1.0
 40
2.0
 40
2.0
 40
2.0
 40
3.0
 40
3.0
 40
3.0
 40
4.0
 40
4.0
 40
4.0
 40
5.0
 40
5.0
 40
5.0
 40
6.0
 40
6.0
 40
6.0
 40
7.0
 40
7.0
 40
7.0
 40
8.0
 40
8.0
 40
8.0
 40
9.0
 40
9.0
 40
9.0
 40
10.0
 40
10.0
 40
10.0
 40
11.0
 40
11.0
 40
11.0
 40
12.0
 40
12.0
 40
12.0
 40
13.0
 40
13.0
 40
13.0
 40
14.0
 40
14.0
 40
14.0
 40
15.0
 40
15.0
 40
15.0
 40
16.0
 40
16.0
 40
16.0
 40
17.0
 40
17.0
 40
17.0
 40
18.0
 40
18.0
 40
18.0
 40
19.0
 40
19.0
 40
19.0
 40
19.0
 10
103.1709635158739
 20
-127.0978406800311
 10
103.1709635158739
 20
-127.1930975701983
 10
103.1496039238654
 20
-127.4109998596403
 10
102.9635687676619
 20
-127.5357123162064
 10
102.8512586548428
 20
-127.6097818691392
 10
102.7520399048675
 20
-127.6140882384958
 10
102.6672905559304
 20
-127.6182223530781
 10
102.6672905559304
 20
-127.6182223530781
 10
102.6672905559304
 20
-127.3982530063449
 10
102.6672905559304
 20
-127.3982530063449
 10
102.7413601088633
 20
-127.3961859490537
 10
102.9759711114088
 20
-127.3855061530495
 10
102.9759711114088
 20
-127.1019747946134
 10
102.9759711114088
 20
-126.9645154847519
 10
102.9063801826067
 20
-126.8122422643039
 10
102.6776258423861
 20
-126.8122422643039
 10
102.5615261245332
 20
-126.8122422643039
 10
102.5129502781912
 20
-126.8503105694159
 10
102.4812553997269
 20
-126.8820054478802
 10
102.4068413372455
 20
-126.9560750008131
 10
102.3944389934986
 20
-127.0725192282145
 10
102.3944389934986
 20
-127.1274685012042
 10
102.3944389934986
 20
-127.1464165263731
 10
102.3965060507898
 20
-127.182417774194
 10
102.4006401653721
 20
-127.209978538076
 10
102.4006401653721
 20
-127.209978538076
 10
102.206336780004
 20
-127.209978538076
 10
102.206336780004
 20
-127.209978538076
 10
102.2125379518774
 20
-127.171910232964
 10
102.2146050091686
 20
-127.1295355584954
 10
102.2146050091686
 20
-127.1231621318477
 10
102.2146050091686
 20
-127.0577053176279
 10
102.19324541716
 20
-126.8587510533548
 10
101.9562228477748
 20
-126.8587510533548
 10
101.7788004302845
 20
-126.8587510533548
 10
101.7236789025205
 20
-126.9900091913428
 10
101.7236789025205
 20
-127.0999077373223
 10
101.7236789025205
 20
-127.3643188158152
 10
101.9562228477748
 20
-127.372759299754
 10
102.0285698529651
 20
-127.3770656691106
 10
102.0285698529651
 20
-127.3770656691106
 10
102.0285698529651
 20
-127.5801540479661
 10
102.0285698529651
 20
-127.5801540479661
 10
101.9035128868505
 20
-127.5717135640272
 10
101.5269639503127
 20
-127.5441528001452
 10
101.5269639503127
 20
-127.0873331388011
 10
101.5269639503127
 20
-126.8630574227113
 10
101.6537434641699
 20
-126.6219007387438
 10
101.9500216759014
 20
-126.6219007387438
 10
102.1360568321049
 20
-126.6219007387438
 10
102.2187391237509
 20
-126.7169853741367
 10
102.2800618233883
 20
-126.8165486336604
 10
102.3076225872703
 20
-126.7550536792487
 10
102.3882378216252
 20
-126.5731526376275
 10
102.6652234986393
 20
-126.5731526376275
 10
103.0035318752908
 20
-126.5731526376275
 10
103.1709635158739
 20
-126.8206827482427
 10
103.1709635158739
 20
-127.0978406800311
 97
        0
 97
        0
 75
     2
 76
     1
 98
        0
  0
ENDBLK
  5
7B
330
78
100
AcDbEntity
  8
0
100
AcDbBlockEnd
  0
BLOCK
  5
8A
330
88
100
AcDbEntity
  8
0
100
AcDbBlockBegin
  2
block 4
 70
     0
 10
0.0
 20
0.0
 30
0.0
  3
block 4
  1

  0
SPLINE
  5
8C
330
88
100
AcDbEntity
  8
_U+30EC_U+30A4_U+30E4_U+30FC 1
370
     0
100
AcDbSpline
210
0.0
220
0.0
230
1.0
 70
    11
 71
     3
 72
    62
 73
    58
 74
     0
 42
0.0000000001
 43
0.0000000001
 12
1.0
 22
0.0
 32
0.0
 13
1.0
 23
0.0
 33
0.0
 40
0.0
 40
0.0
 40
0.0
 40
0.0
 40
1.0
 40
1.0
 40
1.0
 40
2.0
 40
2.0
 40
2.0
 40
3.0
 40
3.0
 40
3.0
 40
4.0
 40
4.0
 40
4.0
 40
5.0
 40
5.0
 40
5.0
 40
6.0
 40
6.0
 40
6.0
 40
7.0
 40
7.0
 40
7.0
 40
8.0
 40
8.0
 40
8.0
 40
9.0
 40
9.0
 40
9.0
 40
10.0
 40
10.0
 40
10.0
 40
11.0
 40
11.0
 40
11.0
 40
12.0
 40
12.0
 40
12.0
 40
13.0
 40
13.0
 40
13.0
 40
14.0
 40
14.0
 40
14.0
 40
15.0
 40
15.0
 40
15.0
 40
16.0
 40
16.0
 40
16.0
 40
17.0
 40
17.0
 40
17.0
 40
18.0
 40
18.0
 40
18.0
 40
19.0
 40
19.0
 40
19.0
 40
19.0
 10
103.1709635158739
 20
-132.102186381905
 30
0.0
 10
103.1709635158739
 20
-132.1972710172979
 30
0.0
 10
103.1496039238654
 20
-132.4153455615142
 30
0.0
 10
102.9635687676619
 20
-132.5400580180803
 30
0.0
 10
102.8512586548428
 20
-132.6141275710131
 30
0.0
 10
102.7520399048675
 20
-132.6182616855954
 30
0.0
 10
102.6672905559304
 20
-132.6223958001777
 30
0.0
 10
102.6672905559304
 20
-132.6223958001777
 30
0.0
 10
102.6672905559304
 20
-132.4025987082188
 30
0.0
 10
102.6672905559304
 20
-132.4025987082188
 30
0.0
 10
102.7413601088633
 20
-132.4005316509277
 30
0.0
 10
102.9759711114088
 20
-132.3898518549234
 30
0.0
 10
102.9759711114088
 20
-132.1063204964873
 30
0.0
 10
102.9759711114088
 20
-131.9688611866258
 30
0.0
 10
102.9063801826067
 20
-131.8165879661778
 30
0.0
 10
102.6776258423861
 20
-131.8165879661778
 30
0.0
 10
102.5615261245332
 20
-131.8165879661778
 30
0.0
 10
102.5129502781912
 20
-131.8548285260641
 30
0.0
 10
102.4812553997269
 20
-131.8865234045284
 30
0.0
 10
102.4068413372455
 20
-131.9602484479127
 30
0.0
 10
102.3944389934986
 20
-132.0766926753142
 30
0.0
 10
102.3944389934986
 20
-132.1318142030782
 30
0.0
 10
102.3944389934986
 20
-132.150762228247
 30
0.0
 10
102.3965060507898
 20
-132.1869357308422
 30
0.0
 10
102.4006401653721
 20
-132.2144964947242
 30
0.0
 10
102.4006401653721
 20
-132.2144964947242
 30
0.0
 10
102.206336780004
 20
-132.2144964947242
 30
0.0
 10
102.206336780004
 20
-132.2144964947242
 30
0.0
 10
102.2125379518774
 20
-132.1762559348379
 30
0.0
 10
102.2146050091686
 20
-132.1338812603693
 30
0.0
 10
102.2146050091686
 20
-132.1276800884959
 30
0.0
 10
102.2146050091686
 20
-132.0622232742761
 30
0.0
 10
102.19324541716
 20
-131.8630967552287
 30
0.0
 10
101.9562228477748
 20
-131.8630967552287
 30
0.0
 10
101.7788004302845
 20
-131.8630967552287
 30
0.0
 10
101.7236789025205
 20
-131.9943548932167
 30
0.0
 10
101.7236789025205
 20
-132.1042534391962
 30
0.0
 10
101.7236789025205
 20
-132.3688367724633
 30
0.0
 10
101.9562228477748
 20
-132.3771050016279
 30
0.0
 10
102.0285698529651
 20
-132.3812391162103
 30
0.0
 10
102.0285698529651
 20
-132.3812391162103
 30
0.0
 10
102.0285698529651
 20
-132.58449974984
 30
0.0
 10
102.0285698529651
 20
-132.58449974984
 30
0.0
 10
101.9035128868505
 20
-132.5762315206754
 30
0.0
 10
101.5269639503127
 20
-132.5486707567934
 30
0.0
 10
101.5269639503127
 20
-132.0918510954493
 30
0.0
 10
101.5269639503127
 20
-131.867230869811
 30
0.0
 10
101.6537434641699
 20
-131.6260741858435
 30
0.0
 10
101.9500216759014
 20
-131.6260741858435
 30
0.0
 10
102.1360568321049
 20
-131.6260741858435
 30
0.0
 10
102.2187391237509
 20
-131.7211588212364
 30
0.0
 10
102.2800618233883
 20
-131.8210665903086
 30
0.0
 10
102.3076225872703
 20
-131.7593993811226
 30
0.0
 10
102.3882378216252
 20
-131.5774983395015
 30
0.0
 10
102.6652234986393
 20
-131.5774983395015
 30
0.0
 10
103.0035318752908
 20
-131.5774983395015
 30
0.0
 10
103.1709635158739
 20
-131.8252007048909
 30
0.0
 10
103.1709635158739
 20
-132.102186381905
 30
0.0
  0
HATCH
  5
8D
330
88
100
AcDbEntity
  8
_U+30EC_U+30A4_U+30E4_U+30FC 1
 62
   179
420
  2234388
100
AcDbHatch
 10
0.0
 20
0.0
 30
0.0
210
0.0
220
0.0
230
1.0
  2
SOLID
 70
     1
 71
     0
 91
        1
 92
        1
 93
        1
 72
     4
 94
        3
 73
     0
 74
     1
 95
       62
 96
       58
 40
0.0
 40
0.0
 40
0.0
 40
0.0
 40
1.0
 40
1.0
 40
1.0
 40
2.0
 40
2.0
 40
2.0
 40
3.0
 40
3.0
 40
3.0
 40
4.0
 40
4.0
 40
4.0
 40
5.0
 40
5.0
 40
5.0
 40
6.0
 40
6.0
 40
6.0
 40
7.0
 40
7.0
 40
7.0
 40
8.0
 40
8.0
 40
8.0
 40
9.0
 40
9.0
 40
9.0
 40
10.0
 40
10.0
 40
10.0
 40
11.0
 40
11.0
 40
11.0
 40
12.0
 40
12.0
 40
12.0
 40
13.0
 40
13.0
 40
13.0
 40
14.0
 40
14.0
 40
14.0
 40
15.0
 40
15.0
 40
15.0
 40
16.0
 40
16.0
 40
16.0
 40
17.0
 40
17.0
 40
17.0
 40
18.0
 40
18.0
 40
18.0
 40
19.0
 40
19.0
 40
19.0
 40
19.0
 10
103.1709635158739
 20
-132.102186381905
 10
103.1709635158739
 20
-132.1972710172979
 10
103.1496039238654
 20
-132.4153455615142
 10
102.9635687676619
 20
-132.5400580180803
 10
102.8512586548428
 20
-132.6141275710131
 10
102.7520399048675
 20
-132.6182616855954
 10
102.6672905559304
 20
-132.6223958001777
 10
102.6672905559304
 20
-132.6223958001777
 10
102.6672905559304
 20
-132.4025987082188
 10
102.6672905559304
 20
-132.4025987082188
 10
102.7413601088633
 20
-132.4005316509277
 10
102.9759711114088
 20
-132.3898518549234
 10
102.9759711114088
 20
-132.1063204964873
 10
102.9759711114088
 20
-131.9688611866258
 10
102.9063801826067
 20
-131.8165879661778
 10
102.6776258423861
 20
-131.8165879661778
 10
102.5615261245332
 20
-131.8165879661778
 10
102.5129502781912
 20
-131.8548285260641
 10
102.4812553997269
 20
-131.8865234045284
 10
102.4068413372455
 20
-131.9602484479127
 10
102.3944389934986
 20
-132.0766926753142
 10
102.3944389934986
 20
-132.1318142030782
 10
102.3944389934986
 20
-132.150762228247
 10
102.3965060507898
 20
-132.1869357308422
 10
102.4006401653721
 20
-132.2144964947242
 10
102.4006401653721
 20
-132.2144964947242
 10
102.206336780004
 20
-132.2144964947242
 10
102.206336780004
 20
-132.2144964947242
 10
102.2125379518774
 20
-132.1762559348379
 10
102.2146050091686
 20
-132.1338812603693
 10
102.2146050091686
 20
-132.1276800884959
 10
102.2146050091686
 20
-132.0622232742761
 10
102.19324541716
 20
-131.8630967552287
 10
101.9562228477748
 20
-131.8630967552287
 10
101.7788004302845
 20
-131.8630967552287
 10
101.7236789025205
 20
-131.9943548932167
 10
101.7236789025205
 20
-132.1042534391962
 10
101.7236789025205
 20
-132.3688367724633
 10
101.9562228477748
 20
-132.3771050016279
 10
102.0285698529651
 20
-132.3812391162103
 10
102.0285698529651
 20
-132.3812391162103
 10
102.0285698529651
 20
-132.58449974984
 10
102.0285698529651
 20
-132.58449974984
 10
101.9035128868505
 20
-132.5762315206754
 10
101.5269639503127
 20
-132.5486707567934
 10
101.5269639503127
 20
-132.0918510954493
 10
101.5269639503127
 20
-131.867230869811
 10
101.6537434641699
 20
-131.6260741858435
 10
101.9500216759014
 20
-131.6260741858435
 10
102.1360568321049
 20
-131.6260741858435
 10
102.2187391237509
 20
-131.7211588212364
 10
102.2800618233883
 20
-131.8210665903086
 10
102.3076225872703
 20
-131.7593993811226
 10
102.3882378216252
 20
-131.5774983395015
 10
102.6652234986393
 20
-131.5774983395015
 10
103.0035318752908
 20
-131.5774983395015
 10
103.1709635158739
 20
-131.8252007048909
 10
103.1709635158739
 20
-132.102186381905
 97
        0
 97
        0
 75
     2
 76
     1
 98
        0
  0
ENDBLK
  5
8B
330
88
100
AcDbEntity
  8
0
100
AcDbBlockEnd
  0
BLOCK
  5
90
330
8E
100
AcDbEntity
  8
0
100
AcDbBlockBegin
  2
block 5
 70
     0
 10
0.0
 20
0.0
 30
0.0
  3
block 5
  1

  0
SPLINE
  5
92
330
8E
100
AcDbEntity
  8
_U+30EC_U+30A4_U+30E4_U+30FC 1
370
     0
100
AcDbSpline
210
0.0
220
0.0
230
1.0
 70
    11
 71
     3
 72
    26
 73
    22
 74
     0
 42
0.0000000001
 43
0.0000000001
 12
1.0
 22
0.0
 32
0.0
 13
1.0
 23
0.0
 33
0.0
 40
0.0
 40
0.0
 40
0.0
 40
0.0
 40
1.0
 40
1.0
 40
1.0
 40
2.0
 40
2.0
 40
2.0
 40
3.0
 40
3.0
 40
3.0
 40
4.0
 40
4.0
 40
4.0
 40
5.0
 40
5.0
 40
5.0
 40
6.0
 40
6.0
 40
6.0
 40
7.0
 40
7.0
 40
7.0
 40
7.0
 10
103.1199761026922
 20
-121.4797512174599
 30
0.0
 10
103.1199761026922
 20
-121.4797512174599
 30
0.0
 10
102.0154784901211
 20
-121.4797512174599
 30
0.0
 10
102.0154784901211
 20
-121.4797512174599
 30
0.0
 10
102.0154784901211
 20
-121.4797512174599
 30
0.0
 10
102.0154784901211
 20
-121.8097913649469
 30
0.0
 10
102.0154784901211
 20
-121.8097913649469
 30
0.0
 10
102.0154784901211
 20
-121.8097913649469
 30
0.0
 10
101.8673393842554
 20
-121.8097913649469
 30
0.0
 10
101.8673393842554
 20
-121.8097913649469
 30
0.0
 10
101.8528699832173
 20
-121.4776841601688
 30
0.0
 10
101.689916966765
 20
-121.4311753711179
 30
0.0
 10
101.5758843062032
 20
-121.4015475499448
 30
0.0
 10
101.5758843062032
 20
-121.4015475499448
 30
0.0
 10
101.5758843062032
 20
-121.2554755013702
 30
0.0
 10
101.5758843062032
 20
-121.2554755013702
 30
0.0
 10
101.5758843062032
 20
-121.2554755013702
 30
0.0
 10
103.1199761026922
 20
-121.2554755013702
 30
0.0
 10
103.1199761026922
 20
-121.2554755013702
 30
0.0
 10
103.1199761026922
 20
-121.2554755013702
 30
0.0
 10
103.1199761026922
 20
-121.4797512174599
 30
0.0
 10
103.1199761026922
 20
-121.4797512174599
 30
0.0
  0
HATCH
  5
93
330
8E
100
AcDbEntity
  8
_U+30EC_U+30A4_U+30E4_U+30FC 1
 62
   179
420
  2234388
100
AcDbHatch
 10
0.0
 20
0.0
 30
0.0
210
0.0
220
0.0
230
1.0
  2
SOLID
 70
     1
 71
     0
 91
        1
 92
        1
 93
        1
 72
     4
 94
        3
 73
     0
 74
     1
 95
       26
 96
       22
 40
0.0
 40
0.0
 40
0.0
 40
0.0
 40
1.0
 40
1.0
 40
1.0
 40
2.0
 40
2.0
 40
2.0
 40
3.0
 40
3.0
 40
3.0
 40
4.0
 40
4.0
 40
4.0
 40
5.0
 40
5.0
 40
5.0
 40
6.0
 40
6.0
 40
6.0
 40
7.0
 40
7.0
 40
7.0
 40
7.0
 10
103.1199761026922
 20
-121.4797512174599
 10
103.1199761026922
 20
-121.4797512174599
 10
102.0154784901211
 20
-121.4797512174599
 10
102.0154784901211
 20
-121.4797512174599
 10
102.0154784901211
 20
-121.4797512174599
 10
102.0154784901211
 20
-121.8097913649469
 10
102.0154784901211
 20
-121.8097913649469
 10
102.0154784901211
 20
-121.8097913649469
 10
101.8673393842554
 20
-121.8097913649469
 10
101.8673393842554
 20
-121.8097913649469
 10
101.8528699832173
 20
-121.4776841601688
 10
101.689916966765
 20
-121.4311753711179
 10
101.5758843062032
 20
-121.4015475499448
 10
101.5758843062032
 20
-121.4015475499448
 10
101.5758843062032
 20
-121.2554755013702
 10
101.5758843062032
 20
-121.2554755013702
 10
101.5758843062032
 20
-121.2554755013702
 10
103.1199761026922
 20
-121.2554755013702
 10
103.1199761026922
 20
-121.2554755013702
 10
103.1199761026922
 20
-121.2554755013702
 10
103.1199761026922
 20
-121.4797512174599
 10
103.1199761026922
 20
-121.4797512174599
 97
        0
 97
        0
 75
     2
 76
     1
 98
        0
  0
ENDBLK
  5
91
330
8E
100
AcDbEntity
  8
0
100
AcDbBlockEnd
  0
BLOCK
  5
B4
330
B2
100
AcDbEntity
  8
0
100
AcDbBlockBegin
  2
block 6
 70
     0
 10
0.0
 20
0.0
 30
0.0
  3
block 6
  1

  0
SPLINE
  5
B6
330
B2
100
AcDbEntity
  8
_U+30EC_U+30A4_U+30E4_U+30FC 1
370
     0
100
AcDbSpline
210
0.0
220
0.0
230
1.0
 70
    11
 71
     3
 72
    44
 73
    40
 74
     0
 42
0.0000000001
 43
0.0000000001
 12
1.0
 22
0.0
 32
0.0
 13
1.0
 23
0.0
 33
0.0
 40
0.0
 40
0.0
 40
0.0
 40
0.0
 40
1.0
 40
1.0
 40
1.0
 40
2.0
 40
2.0
 40
2.0
 40
3.0
 40
3.0
 40
3.0
 40
4.0
 40
4.0
 40
4.0
 40
5.0
 40
5.0
 40
5.0
 40
6.0
 40
6.0
 40
6.0
 40
7.0
 40
7.0
 40
7.0
 40
8.0
 40
8.0
 40
8.0
 40
9.0
 40
9.0
 40
9.0
 40
10.0
 40
10.0
 40
10.0
 40
11.0
 40
11.0
 40
11.0
 40
12.0
 40
12.0
 40
12.0
 40
13.0
 40
13.0
 40
13.0
 40
13.0
 10
88.63662242792765
 20
-119.9423773571672
 30
0.0
 10
88.4187201384856
 20
-120.1011962590372
 30
0.0
 10
88.32553030560959
 20
-120.1752658119701
 30
0.0
 10
88.27695445926757
 20
-120.318926293705
 30
0.0
 10
88.27695445926757
 20
-120.318926293705
 30
0.0
 10
89.05537378415977
 20
-120.318926293705
 30
0.0
 10
89.05537378415977
 20
-120.318926293705
 30
0.0
 10
89.05537378415977
 20
-120.318926293705
 30
0.0
 10
89.05537378415977
 20
-120.5242539846259
 30
0.0
 10
89.05537378415977
 20
-120.5242539846259
 30
0.0
 10
89.05537378415977
 20
-120.5242539846259
 30
0.0
 10
88.02735729136123
 20
-120.5242539846259
 30
0.0
 10
88.02735729136123
 20
-120.5242539846259
 30
0.0
 10
88.05905216982552
 20
-120.166653073257
 30
0.0
 10
88.12468123881953
 20
-120.0884494057418
 30
0.0
 10
88.50967065929619
 20
-119.7901041367192
 30
0.0
 10
88.76564125385026
 20
-119.5913221272202
 30
0.0
 10
88.83109806807
 20
-119.5234537461608
 30
0.0
 10
88.83109806807
 20
-119.3859944362993
 30
0.0
 10
88.83109806807
 20
-119.2674831516067
 30
0.0
 10
88.75926782720255
 20
-119.1365695231673
 30
0.0
 10
88.56255287499478
 20
-119.1365695231673
 30
0.0
 10
88.30227591108415
 20
-119.1365695231673
 30
0.0
 10
88.2938354271453
 20
-119.3670464111305
 30
0.0
 10
88.28952905778873
 20
-119.4834906385319
 30
0.0
 10
88.28952905778873
 20
-119.4834906385319
 30
0.0
 10
88.06542559647323
 20
-119.4834906385319
 30
0.0
 10
88.06542559647323
 20
-119.4834906385319
 30
0.0
 10
88.07386608041209
 20
-119.3563666151262
 30
0.0
 10
88.0843736216421
 20
-119.2444010118556
 30
0.0
 10
88.16481660122268
 20
-119.125889727163
 30
0.0
 10
88.27471514720216
 20
-118.9650037680018
 30
0.0
 10
88.46092255817992
 20
-118.9312418322464
 30
0.0
 10
88.57736678558136
 20
-118.9312418322464
 30
0.0
 10
88.8545247173697
 20
-118.9312418322464
 30
0.0
 10
89.06174721080748
 20
-119.1152099311587
 30
0.0
 10
89.06174721080748
 20
-119.3880614935905
 30
0.0
 10
89.06174721080748
 20
-119.6168158338111
 30
0.0
 10
88.94547523818031
 20
-119.7160345837863
 30
0.0
 10
88.63662242792765
 20
-119.9423773571672
 30
0.0
  0
HATCH
  5
B7
330
B2
100
AcDbEntity
  8
_U+30EC_U+30A4_U+30E4_U+30FC 1
 62
   179
420
  2234388
100
AcDbHatch
 10
0.0
 20
0.0
 30
0.0
210
0.0
220
0.0
230
1.0
  2
SOLID
 70
     1
 71
     0
 91
        1
 92
        1
 93
        1
 72
     4
 94
        3
 73
     0
 74
     1
 95
       44
 96
       40
 40
0.0
 40
0.0
 40
0.0
 40
0.0
 40
1.0
 40
1.0
 40
1.0
 40
2.0
 40
2.0
 40
2.0
 40
3.0
 40
3.0
 40
3.0
 40
4.0
 40
4.0
 40
4.0
 40
5.0
 40
5.0
 40
5.0
 40
6.0
 40
6.0
 40
6.0
 40
7.0
 40
7.0
 40
7.0
 40
8.0
 40
8.0
 40
8.0
 40
9.0
 40
9.0
 40
9.0
 40
10.0
 40
10.0
 40
10.0
 40
11.0
 40
11.0
 40
11.0
 40
12.0
 40
12.0
 40
12.0
 40
13.0
 40
13.0
 40
13.0
 40
13.0
 10
88.63662242792765
 20
-119.9423773571672
 10
88.4187201384856
 20
-120.1011962590372
 10
88.32553030560959
 20
-120.1752658119701
 10
88.27695445926757
 20
-120.318926293705
 10
88.27695445926757
 20
-120.318926293705
 10
89.05537378415977
 20
-120.318926293705
 10
89.05537378415977
 20
-120.318926293705
 10
89.05537378415977
 20
-120.318926293705
 10
89.05537378415977
 20
-120.5242539846259
 10
89.05537378415977
 20
-120.5242539846259
 10
89.05537378415977
 20
-120.5242539846259
 10
88.02735729136123
 20
-120.5242539846259
 10
88.02735729136123
 20
-120.5242539846259
 10
88.05905216982552
 20
-120.166653073257
 10
88.12468123881953
 20
-120.0884494057418
 10
88.50967065929619
 20
-119.7901041367192
 10
88.76564125385026
 20
-119.5913221272202
 10
88.83109806807
 20
-119.5234537461608
 10
88.83109806807
 20
-119.3859944362993
 10
88.83109806807
 20
-119.2674831516067
 10
88.75926782720255
 20
-119.1365695231673
 10
88.56255287499478
 20
-119.1365695231673
 10
88.30227591108415
 20
-119.1365695231673
 10
88.2938354271453
 20
-119.3670464111305
 10
88.28952905778873
 20
-119.4834906385319
 10
88.28952905778873
 20
-119.4834906385319
 10
88.06542559647323
 20
-119.4834906385319
 10
88.06542559647323
 20
-119.4834906385319
 10
88.07386608041209
 20
-119.3563666151262
 10
88.0843736216421
 20
-119.2444010118556
 10
88.16481660122268
 20
-119.125889727163
 10
88.27471514720216
 20
-118.9650037680018
 10
88.46092255817992
 20
-118.9312418322464
 10
88.57736678558136
 20
-118.9312418322464
 10
88.8545247173697
 20
-118.9312418322464
 10
89.06174721080748
 20
-119.1152099311587
 10
89.06174721080748
 20
-119.3880614935905
 10
89.06174721080748
 20
-119.6168158338111
 10
88.94547523818031
 20
-119.7160345837863
 10
88.63662242792765
 20
-119.9423773571672
 97
        0
 97
        0
 75
     2
 76
     1
 98
        0
  0
SPLINE
  5
B8
330
B2
100
AcDbEntity
  8
_U+30EC_U+30A4_U+30E4_U+30FC 1
370
     0
100
AcDbSpline
210
0.0
220
0.0
230
1.0
 70
    11
 71
     3
 72
    26
 73
    22
 74
     0
 42
0.0000000001
 43
0.0000000001
 12
1.0
 22
0.0
 32
0.0
 13
1.0
 23
0.0
 33
0.0
 40
0.0
 40
0.0
 40
0.0
 40
0.0
 40
1.0
 40
1.0
 40
1.0
 40
2.0
 40
2.0
 40
2.0
 40
3.0
 40
3.0
 40
3.0
 40
4.0
 40
4.0
 40
4.0
 40
5.0
 40
5.0
 40
5.0
 40
6.0
 40
6.0
 40
6.0
 40
7.0
 40
7.0
 40
7.0
 40
7.0
 10
89.67170136647097
 20
-120.5242539846259
 30
0.0
 10
89.67170136647097
 20
-120.5242539846259
 30
0.0
 10
89.67170136647097
 20
-119.4201008816033
 30
0.0
 10
89.67170136647097
 20
-119.4201008816033
 30
0.0
 10
89.67170136647097
 20
-119.4201008816033
 30
0.0
 10
89.34166121898403
 20
-119.4201008816033
 30
0.0
 10
89.34166121898403
 20
-119.4201008816033
 30
0.0
 10
89.34166121898403
 20
-119.4201008816033
 30
0.0
 10
89.34166121898403
 20
-119.2719617757376
 30
0.0
 10
89.34166121898403
 20
-119.2719617757376
 30
0.0
 10
89.67376842376211
 20
-119.257147865151
 30
0.0
 10
89.72027721281299
 20
-119.0941948486987
 30
0.0
 10
89.74990503398614
 20
-118.9798176785884
 30
0.0
 10
89.74990503398614
 20
-118.9798176785884
 30
0.0
 10
89.89597708256073
 20
-118.9798176785884
 30
0.0
 10
89.89597708256073
 20
-118.9798176785884
 30
0.0
 10
89.89597708256073
 20
-118.9798176785884
 30
0.0
 10
89.89597708256073
 20
-120.5242539846259
 30
0.0
 10
89.89597708256073
 20
-120.5242539846259
 30
0.0
 10
89.89597708256073
 20
-120.5242539846259
 30
0.0
 10
89.67170136647097
 20
-120.5242539846259
 30
0.0
 10
89.67170136647097
 20
-120.5242539846259
 30
0.0
  0
HATCH
  5
B9
330
B2
100
AcDbEntity
  8
_U+30EC_U+30A4_U+30E4_U+30FC 1
 62
   179
420
  2234388
100
AcDbHatch
 10
0.0
 20
0.0
 30
0.0
210
0.0
220
0.0
230
1.0
  2
SOLID
 70
     1
 71
     0
 91
        1
 92
        1
 93
        1
 72
     4
 94
        3
 73
     0
 74
     1
 95
       26
 96
       22
 40
0.0
 40
0.0
 40
0.0
 40
0.0
 40
1.0
 40
1.0
 40
1.0
 40
2.0
 40
2.0
 40
2.0
 40
3.0
 40
3.0
 40
3.0
 40
4.0
 40
4.0
 40
4.0
 40
5.0
 40
5.0
 40
5.0
 40
6.0
 40
6.0
 40
6.0
 40
7.0
 40
7.0
 40
7.0
 40
7.0
 10
89.67170136647097
 20
-120.5242539846259
 10
89.67170136647097
 20
-120.5242539846259
 10
89.67170136647097
 20
-119.4201008816033
 10
89.67170136647097
 20
-119.4201008816033
 10
89.67170136647097
 20
-119.4201008816033
 10
89.34166121898403
 20
-119.4201008816033
 10
89.34166121898403
 20
-119.4201008816033
 10
89.34166121898403
 20
-119.4201008816033
 10
89.34166121898403
 20
-119.2719617757376
 10
89.34166121898403
 20
-119.2719617757376
 10
89.67376842376211
 20
-119.257147865151
 10
89.72027721281299
 20
-119.0941948486987
 10
89.74990503398614
 20
-118.9798176785884
 10
89.74990503398614
 20
-118.9798176785884
 10
89.89597708256073
 20
-118.9798176785884
 10
89.89597708256073
 20
-118.9798176785884
 10
89.89597708256073
 20
-118.9798176785884
 10
89.89597708256073
 20
-120.5242539846259
 10
89.89597708256073
 20
-120.5242539846259
 10
89.89597708256073
 20
-120.5242539846259
 10
89.67170136647097
 20
-120.5242539846259
 10
89.67170136647097
 20
-120.5242539846259
 97
        0
 97
        0
 75
     2
 76
     1
 98
        0
  0
ENDBLK
  5
B5
330
B2
100
AcDbEntity
  8
0
100
AcDbBlockEnd
  0
ENDSEC
  0
SECTION
  2
ENTITIES
  0
POLYLINE
  5
41
330
1F
100
AcDbEntity
  8
_U+30EC_U+30A4_U+30E4_U+30FC 1
 62
   179
420
  2234388
370
    25
100
AcDb2dPolyline
 66
     1
 10
0.0
 20
0.0
 30
0.0
  0
VERTEX
  5
42
330
41
100
AcDbEntity
  8
_U+30EC_U+30A4_U+30E4_U+30FC 1
 62
   179
420
  2234388
370
    25
100
AcDbVertex
100
AcDb2dVertex
 10
79.61650963548028
 20
-130.5970280229062
 30
0.0
  0
VERTEX
  5
43
330
41
100
AcDbEntity
  8
_U+30EC_U+30A4_U+30E4_U+30FC 1
 62
   179
420
  2234388
370
    25
100
AcDbVertex
100
AcDb2dVertex
 10
87.61119470929665
 20
-130.5976983006842
 30
0.0
  0
VERTEX
  5
44
330
41
100
AcDbEntity
  8
_U+30EC_U+30A4_U+30E4_U+30FC 1
 62
   179
420
  2234388
370
    25
100
AcDbVertex
100
AcDb2dVertex
 10
87.61119470929665
 20
-133.5966621888228
 30
0.0
  0
VERTEX
  5
45
330
41
100
AcDbEntity
  8
_U+30EC_U+30A4_U+30E4_U+30FC 1
 62
   179
420
  2234388
370
    25
100
AcDbVertex
100
AcDb2dVertex
 10
77.61111109170834
 20
-133.5966621888228
 30
0.0
  0
SEQEND
  5
46
330
41
100
AcDbEntity
  8
_U+30EC_U+30A4_U+30E4_U+30FC 1
 62
   179
420
  2234388
370
    25
  0
POLYLINE
  5
47
330
1F
100
AcDbEntity
  8
_U+30EC_U+30A4_U+30E4_U+30FC 1
 62
   179
420
  2234388
370
    25
100
AcDb2dPolyline
 66
     1
 10
0.0
 20
0.0
 30
0.0
  0
VERTEX
  5
48
330
47
100
AcDbEntity
  8
_U+30EC_U+30A4_U+30E4_U+30FC 1
 62
   179
420
  2234388
370
    25
100
AcDbVertex
100
AcDb2dVertex
 10
78.61433854993669
 20
-130.596004967351
 30
0.0
  0
VERTEX
  5
49
330
47
100
AcDbEntity
  8
_U+30EC_U+30A4_U+30E4_U+30FC 1
 62
   179
420
  2234388
370
    25
100
AcDbVertex
100
AcDb2dVertex
 10
79.11418937051776
 20
-131.5957419115454
 30
0.0
  0
VERTEX
  5
4A
330
47
100
AcDbEntity
  8
_U+30EC_U+30A4_U+30E4_U+30FC 1
 62
   179
420
  2234388
370
    25
100
AcDbVertex
100
AcDb2dVertex
 10
79.61425185776011
 20
-130.596004967351
 30
0.0
  0
VERTEX
  5
4B
330
47
100
AcDbEntity
  8
_U+30EC_U+30A4_U+30E4_U+30FC 1
 62
   179
420
  2234388
370
    25
100
AcDbVertex
100
AcDb2dVertex
 10
79.6144282466445
 20
-125.2958716353426
 30
0.0
  0
VERTEX
  5
4C
330
47
100
AcDbEntity
  8
_U+30EC_U+30A4_U+30E4_U+30FC 1
 62
   179
420
  2234388
370
    25
100
AcDbVertex
100
AcDb2dVertex
 10
99.61424662529551
 20
-125.2958716353426
 30
0.0
  0
VERTEX
  5
4D
330
47
100
AcDbEntity
  8
_U+30EC_U+30A4_U+30E4_U+30FC 1
 62
   179
420
  2234388
370
    25
100
AcDbVertex
100
AcDb2dVertex
 10
99.61424662529551
 20
-124.2959583022594
 30
0.0
  0
VERTEX
  5
4E
330
47
100
AcDbEntity
  8
_U+30EC_U+30A4_U+30E4_U+30FC 1
 62
   179
420
  2234388
370
    25
100
AcDbVertex
100
AcDb2dVertex
 10
78.61433854993669
 20
-124.2959583022594
 30
0.0
  0
VERTEX
  5
4F
330
47
100
AcDbEntity
  8
_U+30EC_U+30A4_U+30E4_U+30FC 1
 62
   179
420
  2234388
370
    25
100
AcDbVertex
100
AcDb2dVertex
 10
78.61433854993669
 20
-130.596004967351
 30
0.0
  0
SEQEND
  5
50
330
47
100
AcDbEntity
  8
_U+30EC_U+30A4_U+30E4_U+30FC 1
 62
   179
420
  2234388
370
    25
  0
POLYLINE
  5
51
330
1F
100
AcDbEntity
  8
_U+30EC_U+30A4_U+30E4_U+30FC 1
 62
   179
420
  2234388
370
    25
100
AcDb2dPolyline
 66
     1
 10
0.0
 20
0.0
 30
0.0
  0
VERTEX
  5
52
330
51
100
AcDbEntity
  8
_U+30EC_U+30A4_U+30E4_U+30FC 1
 62
   179
420
  2234388
370
    25
100
AcDbVertex
100
AcDb2dVertex
 10
78.61433854993669
 20
-130.596004967351
 30
0.0
  0
VERTEX
  5
53
330
51
100
AcDbEntity
  8
_U+30EC_U+30A4_U+30E4_U+30FC 1
 62
   179
420
  2234388
370
    25
100
AcDbVertex
100
AcDb2dVertex
 10
77.61111109170834
 20
-133.5966621888228
 30
0.0
  0
SEQEND
  5
54
330
51
100
AcDbEntity
  8
_U+30EC_U+30A4_U+30E4_U+30FC 1
 62
   179
420
  2234388
370
    25
  0
SPLINE
  5
55
330
1F
100
AcDbEntity
  8
_U+30EC_U+30A4_U+30E4_U+30FC 1
 62
   179
420
  2234388
370
     9
100
AcDbSpline
210
0.0
220
0.0
230
1.0
 70
    11
 71
     3
 72
    17
 73
    13
 74
     0
 42
0.0000000001
 43
0.0000000001
 12
1.0
 22
0.0
 32
0.0
 13
1.0
 23
0.0
 33
0.0
 40
0.0
 40
0.0
 40
0.0
 40
0.0
 40
1.0
 40
1.0
 40
1.0
 40
2.0
 40
2.0
 40
2.0
 40
3.0
 40
3.0
 40
3.0
 40
4.0
 40
4.0
 40
4.0
 40
4.0
 10
87.7111013734145
 20
-137.5964213544896
 30
0.0
 10
87.7111013734145
 20
-137.5413174656147
 30
0.0
 10
87.66629859677973
 20
-137.496514687848
 30
0.0
 10
87.61119470929665
 20
-137.496514687848
 30
0.0
 10
87.55640832180548
 20
-137.496514687848
 30
0.0
 10
87.51128804517882
 20
-137.5413174656147
 30
0.0
 10
87.51128804517882
 20
-137.5964213544896
 30
0.0
 10
87.51128804517882
 20
-137.6515605211427
 30
0.0
 10
87.55640832180548
 20
-137.6963280211313
 30
0.0
 10
87.61119470929665
 20
-137.6963280211313
 30
0.0
 10
87.66629859677973
 20
-137.6963280211313
 30
0.0
 10
87.7111013734145
 20
-137.6515605211427
 30
0.0
 10
87.7111013734145
 20
-137.5964213544896
 30
0.0
  0
SPLINE
  5
56
330
1F
100
AcDbEntity
  8
_U+30EC_U+30A4_U+30E4_U+30FC 1
 62
   179
420
  2234388
370
     9
100
AcDbSpline
210
0.0
220
0.0
230
1.0
 70
    11
 71
     3
 72
    17
 73
    13
 74
     0
 42
0.0000000001
 43
0.0000000001
 12
1.0
 22
0.0
 32
0.0
 13
1.0
 23
0.0
 33
0.0
 40
0.0
 40
0.0
 40
0.0
 40
0.0
 40
1.0
 40
1.0
 40
1.0
 40
2.0
 40
2.0
 40
2.0
 40
3.0
 40
3.0
 40
3.0
 40
4.0
 40
4.0
 40
4.0
 40
4.0
 10
77.71172135074215
 20
-137.5964213544896
 30
0.0
 10
77.71172135074215
 20
-137.5413174656147
 30
0.0
 10
77.66691857410738
 20
-137.496514687848
 30
0.0
 10
77.61111109170834
 20
-137.496514687848
 30
0.0
 10
77.55600524360369
 20
-137.496514687848
 30
0.0
 10
77.51120246696892
 20
-137.5413174656147
 30
0.0
 10
77.51120246696892
 20
-137.5964213544896
 30
0.0
 10
77.51120246696892
 20
-137.6515605211427
 30
0.0
 10
77.55600524360369
 20
-137.6963280211313
 30
0.0
 10
77.61111109170834
 20
-137.6963280211313
 30
0.0
 10
77.66691857410738
 20
-137.6963280211313
 30
0.0
 10
77.71172135074215
 20
-137.6515605211427
 30
0.0
 10
77.71172135074215
 20
-137.5964213544896
 30
0.0
  0
POLYLINE
  5
57
330
1F
100
AcDbEntity
  8
_U+30EC_U+30A4_U+30E4_U+30FC 1
 62
   179
420
  2234388
370
     9
100
AcDb2dPolyline
 66
     1
 10
0.0
 20
0.0
 30
0.0
  0
VERTEX
  5
58
330
57
100
AcDbEntity
  8
_U+30EC_U+30A4_U+30E4_U+30FC 1
 62
   179
420
  2234388
370
     9
100
AcDbVertex
100
AcDb2dVertex
 10
77.61111109170834
 20
-137.5964213544896
 30
0.0
  0
VERTEX
  5
59
330
57
100
AcDbEntity
  8
_U+30EC_U+30A4_U+30E4_U+30FC 1
 62
   179
420
  2234388
370
     9
100
AcDbVertex
100
AcDb2dVertex
 10
87.61119470929665
 20
-137.5964213544896
 30
0.0
  0
SEQEND
  5
5A
330
57
100
AcDbEntity
  8
_U+30EC_U+30A4_U+30E4_U+30FC 1
 62
   179
420
  2234388
370
     9
  0
POLYLINE
  5
5B
330
1F
100
AcDbEntity
  8
_U+30EC_U+30A4_U+30E4_U+30FC 1
 62
   179
420
  2234388
370
     9
100
AcDb2dPolyline
 66
     1
 10
0.0
 20
0.0
 30
0.0
  0
VERTEX
  5
5C
330
5B
100
AcDbEntity
  8
_U+30EC_U+30A4_U+30E4_U+30FC 1
 62
   179
420
  2234388
370
     9
100
AcDbVertex
100
AcDb2dVertex
 10
77.61111109170834
 20
-135.135937466216
 30
0.0
  0
VERTEX
  5
5D
330
5B
100
AcDbEntity
  8
_U+30EC_U+30A4_U+30E4_U+30FC 1
 62
   179
420
  2234388
370
     9
100
AcDbVertex
100
AcDb2dVertex
 10
77.61111109170834
 20
-138.5961935764622
 30
0.0
  0
SEQEND
  5
5E
330
5B
100
AcDbEntity
  8
_U+30EC_U+30A4_U+30E4_U+30FC 1
 62
   179
420
  2234388
370
     9
  0
POLYLINE
  5
5F
330
1F
100
AcDbEntity
  8
_U+30EC_U+30A4_U+30E4_U+30FC 1
 62
   179
420
  2234388
370
     9
100
AcDb2dPolyline
 66
     1
 10
0.0
 20
0.0
 30
0.0
  0
VERTEX
  5
60
330
5F
100
AcDbEntity
  8
_U+30EC_U+30A4_U+30E4_U+30FC 1
 62
   179
420
  2234388
370
     9
100
AcDbVertex
100
AcDb2dVertex
 10
87.61119470929665
 20
-135.135937466216
 30
0.0
  0
VERTEX
  5
61
330
5F
100
AcDbEntity
  8
_U+30EC_U+30A4_U+30E4_U+30FC 1
 62
   179
420
  2234388
370
     9
100
AcDbVertex
100
AcDb2dVertex
 10
87.61119470929665
 20
-138.5961935764622
 30
0.0
  0
SEQEND
  5
62
330
5F
100
AcDbEntity
  8
_U+30EC_U+30A4_U+30E4_U+30FC 1
 62
   179
420
  2234388
370
     9
  0
INSERT
  5
64
330
1F
100
AcDbEntity
  8
_U+30EC_U+30A4_U+30E4_U+30FC 1
100
AcDbBlockReference
  2
block 2
 10
0.0
 20
0.0
 30
0.0
  0
POLYLINE
  5
6C
330
1F
100
AcDbEntity
  8
_U+30EC_U+30A4_U+30E4_U+30FC 1
 62
   179
420
  2234388
370
     9
100
AcDb2dPolyline
 66
     1
 10
0.0
 20
0.0
 30
0.0
  0
VERTEX
  5
6D
330
6C
100
AcDbEntity
  8
_U+30EC_U+30A4_U+30E4_U+30FC 1
 62
   179
420
  2234388
370
     9
100
AcDbVertex
100
AcDb2dVertex
 10
104.8628416404509
 20
-130.596004967351
 30
0.0
  0
VERTEX
  5
6E
330
6C
100
AcDbEntity
  8
_U+30EC_U+30A4_U+30E4_U+30FC 1
 62
   179
420
  2234388
370
     9
100
AcDbVertex
100
AcDb2dVertex
 10
88.76114440218122
 20
-130.596004967351
 30
0.0
  0
SEQEND
  5
6F
330
6C
100
AcDbEntity
  8
_U+30EC_U+30A4_U+30E4_U+30FC 1
 62
   179
420
  2234388
370
     9
  0
POLYLINE
  5
70
330
1F
100
AcDbEntity
  8
_U+30EC_U+30A4_U+30E4_U+30FC 1
 62
   179
420
  2234388
370
     9
100
AcDb2dPolyline
 66
     1
 10
0.0
 20
0.0
 30
0.0
  0
VERTEX
  5
71
330
70
100
AcDbEntity
  8
_U+30EC_U+30A4_U+30E4_U+30FC 1
 62
   179
420
  2234388
370
     9
100
AcDbVertex
100
AcDb2dVertex
 10
104.8628416404509
 20
-125.2958716353426
 30
0.0
  0
VERTEX
  5
72
330
70
100
AcDbEntity
  8
_U+30EC_U+30A4_U+30E4_U+30FC 1
 62
   179
420
  2234388
370
     9
100
AcDbVertex
100
AcDb2dVertex
 10
100.7966165951307
 20
-125.2958716353426
 30
0.0
  0
SEQEND
  5
73
330
70
100
AcDbEntity
  8
_U+30EC_U+30A4_U+30E4_U+30FC 1
 62
   179
420
  2234388
370
     9
  0
POLYLINE
  5
74
330
1F
100
AcDbEntity
  8
_U+30EC_U+30A4_U+30E4_U+30FC 1
 62
   179
420
  2234388
370
     9
100
AcDb2dPolyline
 66
     1
 10
0.0
 20
0.0
 30
0.0
  0
VERTEX
  5
75
330
74
100
AcDbEntity
  8
_U+30EC_U+30A4_U+30E4_U+30FC 1
 62
   179
420
  2234388
370
     9
100
AcDbVertex
100
AcDb2dVertex
 10
104.8628416404509
 20
-124.3546958022448
 30
0.0
  0
VERTEX
  5
76
330
74
100
AcDbEntity
  8
_U+30EC_U+30A4_U+30E4_U+30FC 1
 62
   179
420
  2234388
370
     9
100
AcDbVertex
100
AcDb2dVertex
 10
100.7966165951307
 20
-124.3546958022448
 30
0.0
  0
SEQEND
  5
77
330
74
100
AcDbEntity
  8
_U+30EC_U+30A4_U+30E4_U+30FC 1
 62
   179
420
  2234388
370
     9
  0
INSERT
  5
79
330
1F
100
AcDbEntity
  8
_U+30EC_U+30A4_U+30E4_U+30FC 1
100
AcDbBlockReference
  2
block 3
 10
0.0
 20
0.0
 30
0.0
  0
INSERT
  5
89
330
1F
100
AcDbEntity
  8
_U+30EC_U+30A4_U+30E4_U+30FC 1
100
AcDbBlockReference
  2
block 4
 10
0.0
 20
0.0
 30
0.0
  0
INSERT
  5
8F
330
1F
100
AcDbEntity
  8
_U+30EC_U+30A4_U+30E4_U+30FC 1
100
AcDbBlockReference
  2
block 5
 10
0.0
 20
0.0
 30
0.0
  0
SPLINE
  5
94
330
1F
100
AcDbEntity
  8
_U+30EC_U+30A4_U+30E4_U+30FC 1
 62
   179
420
  2234388
370
     9
100
AcDbSpline
210
0.0
220
0.0
230
1.0
 70
    11
 71
     3
 72
    17
 73
    13
 74
     0
 42
0.0000000001
 43
0.0000000001
 12
1.0
 22
0.0
 32
0.0
 13
1.0
 23
0.0
 33
0.0
 40
0.0
 40
0.0
 40
0.0
 40
0.0
 40
1.0
 40
1.0
 40
1.0
 40
2.0
 40
2.0
 40
2.0
 40
3.0
 40
3.0
 40
3.0
 40
4.0
 40
4.0
 40
4.0
 40
4.0
 10
103.9626559588028
 20
-130.5870444117976
 30
0.0
 10
103.9626559588028
 20
-130.6421483006725
 30
0.0
 10
103.917853182168
 20
-130.6869510784392
 30
0.0
 10
103.862749294685
 20
-130.6869510784392
 30
0.0
 10
103.807610129425
 20
-130.6869510784392
 30
0.0
 10
103.7628426305671
 20
-130.6421483006725
 30
0.0
 10
103.7628426305671
 20
-130.5870444117976
 30
0.0
 10
103.7628426305671
 20
-130.5319052451445
 30
0.0
 10
103.807610129425
 20
-130.4871377451559
 30
0.0
 10
103.862749294685
 20
-130.4871377451559
 30
0.0
 10
103.917853182168
 20
-130.4871377451559
 30
0.0
 10
103.9626559588028
 20
-130.5319052451445
 30
0.0
 10
103.9626559588028
 20
-130.5870444117976
 30
0.0
  0
HATCH
  5
95
330
1F
100
AcDbEntity
  8
_U+30EC_U+30A4_U+30E4_U+30FC 1
 62
   179
420
  2234388
100
AcDbHatch
 10
0.0
 20
0.0
 30
0.0
210
0.0
220
0.0
230
1.0
  2
SOLID
 70
     1
 71
     0
 91
        1
 92
        1
 93
        1
 72
     4
 94
        3
 73
     0
 74
     1
 95
       17
 96
       13
 40
0.0
 40
0.0
 40
0.0
 40
0.0
 40
1.0
 40
1.0
 40
1.0
 40
2.0
 40
2.0
 40
2.0
 40
3.0
 40
3.0
 40
3.0
 40
4.0
 40
4.0
 40
4.0
 40
4.0
 10
103.9626559588028
 20
-130.5870444117976
 10
103.9626559588028
 20
-130.6421483006725
 10
103.917853182168
 20
-130.6869510784392
 10
103.862749294685
 20
-130.6869510784392
 10
103.807610129425
 20
-130.6869510784392
 10
103.7628426305671
 20
-130.6421483006725
 10
103.7628426305671
 20
-130.5870444117976
 10
103.7628426305671
 20
-130.5319052451445
 10
103.807610129425
 20
-130.4871377451559
 10
103.862749294685
 20
-130.4871377451559
 10
103.917853182168
 20
-130.4871377451559
 10
103.9626559588028
 20
-130.5319052451445
 10
103.9626559588028
 20
-130.5870444117976
 97
        0
 97
        0
 75
     2
 76
     1
 98
        0
  0
POLYLINE
  5
96
330
1F
100
AcDbEntity
  8
_U+30EC_U+30A4_U+30E4_U+30FC 1
 62
   179
420
  2234388
370
     9
100
AcDb2dPolyline
 66
     1
 10
0.0
 20
0.0
 30
0.0
  0
VERTEX
  5
97
330
96
100
AcDbEntity
  8
_U+30EC_U+30A4_U+30E4_U+30FC 1
 62
   179
420
  2234388
370
     9
100
AcDbVertex
100
AcDb2dVertex
 10
103.862749294685
 20
-133.5870313554919
 30
0.0
  0
VERTEX
  5
98
330
96
100
AcDbEntity
  8
_U+30EC_U+30A4_U+30E4_U+30FC 1
 62
   179
420
  2234388
370
     9
100
AcDbVertex
100
AcDb2dVertex
 10
103.862749294685
 20
-120.5843833031874
 30
0.0
  0
SEQEND
  5
99
330
96
100
AcDbEntity
  8
_U+30EC_U+30A4_U+30E4_U+30FC 1
 62
   179
420
  2234388
370
     9
  0
POLYLINE
  5
9A
330
1F
100
AcDbEntity
  8
_U+30EC_U+30A4_U+30E4_U+30FC 1
 62
   179
420
  2234388
370
     9
100
AcDb2dPolyline
 66
     1
 10
0.0
 20
0.0
 30
0.0
  0
VERTEX
  5
9B
330
9A
100
AcDbEntity
  8
_U+30EC_U+30A4_U+30E4_U+30FC 1
 62
   179
420
  2234388
370
     9
100
AcDbVertex
100
AcDb2dVertex
 10
104.8628416404509
 20
-133.5959919110454
 30
0.0
  0
VERTEX
  5
9C
330
9A
100
AcDbEntity
  8
_U+30EC_U+30A4_U+30E4_U+30FC 1
 62
   179
420
  2234388
370
     9
100
AcDbVertex
100
AcDb2dVertex
 10
88.76114440218122
 20
-133.5959919110454
 30
0.0
  0
SEQEND
  5
9D
330
9A
100
AcDbEntity
  8
_U+30EC_U+30A4_U+30E4_U+30FC 1
 62
   179
420
  2234388
370
     9
  0
SPLINE
  5
9E
330
1F
100
AcDbEntity
  8
_U+30EC_U+30A4_U+30E4_U+30FC 1
 62
   179
420
  2234388
370
     9
100
AcDbSpline
210
0.0
220
0.0
230
1.0
 70
    11
 71
     3
 72
    17
 73
    13
 74
     0
 42
0.0000000001
 43
0.0000000001
 12
1.0
 22
0.0
 32
0.0
 13
1.0
 23
0.0
 33
0.0
 40
0.0
 40
0.0
 40
0.0
 40
0.0
 40
1.0
 40
1.0
 40
1.0
 40
2.0
 40
2.0
 40
2.0
 40
3.0
 40
3.0
 40
3.0
 40
4.0
 40
4.0
 40
4.0
 40
4.0
 10
103.9626559588028
 20
-133.5870313554919
 30
0.0
 10
103.9626559588028
 20
-133.6421352443675
 30
0.0
 10
103.917853182168
 20
-133.6869380221335
 30
0.0
 10
103.862749294685
 20
-133.6869380221335
 30
0.0
 10
103.807610129425
 20
-133.6869380221335
 30
0.0
 10
103.7628426305671
 20
-133.6421352443675
 30
0.0
 10
103.7628426305671
 20
-133.5870313554919
 30
0.0
 10
103.7628426305671
 20
-133.5318921888395
 30
0.0
 10
103.807610129425
 20
-133.4871246888503
 30
0.0
 10
103.862749294685
 20
-133.4871246888503
 30
0.0
 10
103.917853182168
 20
-133.4871246888503
 30
0.0
 10
103.9626559588028
 20
-133.5318921888395
 30
0.0
 10
103.9626559588028
 20
-133.5870313554919
 30
0.0
  0
HATCH
  5
9F
330
1F
100
AcDbEntity
  8
_U+30EC_U+30A4_U+30E4_U+30FC 1
 62
   179
420
  2234388
100
AcDbHatch
 10
0.0
 20
0.0
 30
0.0
210
0.0
220
0.0
230
1.0
  2
SOLID
 70
     1
 71
     0
 91
        1
 92
        1
 93
        1
 72
     4
 94
        3
 73
     0
 74
     1
 95
       17
 96
       13
 40
0.0
 40
0.0
 40
0.0
 40
0.0
 40
1.0
 40
1.0
 40
1.0
 40
2.0
 40
2.0
 40
2.0
 40
3.0
 40
3.0
 40
3.0
 40
4.0
 40
4.0
 40
4.0
 40
4.0
 10
103.9626559588028
 20
-133.5870313554919
 10
103.9626559588028
 20
-133.6421352443675
 10
103.917853182168
 20
-133.6869380221335
 10
103.862749294685
 20
-133.6869380221335
 10
103.807610129425
 20
-133.6869380221335
 10
103.7628426305671
 20
-133.6421352443675
 10
103.7628426305671
 20
-133.5870313554919
 10
103.7628426305671
 20
-133.5318921888395
 10
103.807610129425
 20
-133.4871246888503
 10
103.862749294685
 20
-133.4871246888503
 10
103.917853182168
 20
-133.4871246888503
 10
103.9626559588028
 20
-133.5318921888395
 10
103.9626559588028
 20
-133.5870313554919
 97
        0
 97
        0
 75
     2
 76
     1
 98
        0
  0
SPLINE
  5
A0
330
1F
100
AcDbEntity
  8
_U+30EC_U+30A4_U+30E4_U+30FC 1
 62
   179
420
  2234388
370
     9
100
AcDbSpline
210
0.0
220
0.0
230
1.0
 70
    11
 71
     3
 72
    17
 73
    13
 74
     0
 42
0.0000000001
 43
0.0000000001
 12
1.0
 22
0.0
 32
0.0
 13
1.0
 23
0.0
 33
0.0
 40
0.0
 40
0.0
 40
0.0
 40
0.0
 40
1.0
 40
1.0
 40
1.0
 40
2.0
 40
2.0
 40
2.0
 40
3.0
 40
3.0
 40
3.0
 40
4.0
 40
4.0
 40
4.0
 40
4.0
 10
103.9626559588028
 20
-125.2958716353426
 30
0.0
 10
103.9626559588028
 20
-125.3510108019957
 30
0.0
 10
103.917853182168
 20
-125.3957783019843
 30
0.0
 10
103.862749294685
 20
-125.3957783019843
 30
0.0
 10
103.807610129425
 20
-125.3957783019843
 30
0.0
 10
103.7628426305671
 20
-125.3510108019957
 30
0.0
 10
103.7628426305671
 20
-125.2958716353426
 30
0.0
 10
103.7628426305671
 20
-125.2407677464677
 30
0.0
 10
103.807610129425
 20
-125.195964968701
 30
0.0
 10
103.862749294685
 20
-125.195964968701
 30
0.0
 10
103.917853182168
 20
-125.195964968701
 30
0.0
 10
103.9626559588028
 20
-125.2407677464677
 30
0.0
 10
103.9626559588028
 20
-125.2958716353426
 30
0.0
  0
HATCH
  5
A1
330
1F
100
AcDbEntity
  8
_U+30EC_U+30A4_U+30E4_U+30FC 1
 62
   179
420
  2234388
100
AcDbHatch
 10
0.0
 20
0.0
 30
0.0
210
0.0
220
0.0
230
1.0
  2
SOLID
 70
     1
 71
     0
 91
        1
 92
        1
 93
        1
 72
     4
 94
        3
 73
     0
 74
     1
 95
       17
 96
       13
 40
0.0
 40
0.0
 40
0.0
 40
0.0
 40
1.0
 40
1.0
 40
1.0
 40
2.0
 40
2.0
 40
2.0
 40
3.0
 40
3.0
 40
3.0
 40
4.0
 40
4.0
 40
4.0
 40
4.0
 10
103.9626559588028
 20
-125.2958716353426
 10
103.9626559588028
 20
-125.3510108019957
 10
103.917853182168
 20
-125.3957783019843
 10
103.862749294685
 20
-125.3957783019843
 10
103.807610129425
 20
-125.3957783019843
 10
103.7628426305671
 20
-125.3510108019957
 10
103.7628426305671
 20
-125.2958716353426
 10
103.7628426305671
 20
-125.2407677464677
 10
103.807610129425
 20
-125.195964968701
 10
103.862749294685
 20
-125.195964968701
 10
103.917853182168
 20
-125.195964968701
 10
103.9626559588028
 20
-125.2407677464677
 10
103.9626559588028
 20
-125.2958716353426
 97
        0
 97
        0
 75
     2
 76
     1
 98
        0
  0
SPLINE
  5
A2
330
1F
100
AcDbEntity
  8
_U+30EC_U+30A4_U+30E4_U+30FC 1
 62
   179
420
  2234388
370
     9
100
AcDbSpline
210
0.0
220
0.0
230
1.0
 70
    11
 71
     3
 72
    17
 73
    13
 74
     0
 42
0.0000000001
 43
0.0000000001
 12
1.0
 22
0.0
 32
0.0
 13
1.0
 23
0.0
 33
0.0
 40
0.0
 40
0.0
 40
0.0
 40
0.0
 40
1.0
 40
1.0
 40
1.0
 40
2.0
 40
2.0
 40
2.0
 40
3.0
 40
3.0
 40
3.0
 40
4.0
 40
4.0
 40
4.0
 40
4.0
 10
103.9626559588028
 20
-124.3546958022448
 30
0.0
 10
103.9626559588028
 20
-124.4097996911197
 30
0.0
 10
103.917853182168
 20
-124.4546024688864
 30
0.0
 10
103.862749294685
 20
-124.4546024688864
 30
0.0
 10
103.807610129425
 20
-124.4546024688864
 30
0.0
 10
103.7628426305671
 20
-124.4097996911197
 30
0.0
 10
103.7628426305671
 20
-124.3546958022448
 30
0.0
 10
103.7628426305671
 20
-124.2995566355917
 30
0.0
 10
103.807610129425
 20
-124.2547891356031
 30
0.0
 10
103.862749294685
 20
-124.2547891356031
 30
0.0
 10
103.917853182168
 20
-124.2547891356031
 30
0.0
 10
103.9626559588028
 20
-124.2995566355917
 30
0.0
 10
103.9626559588028
 20
-124.3546958022448
 30
0.0
  0
HATCH
  5
A3
330
1F
100
AcDbEntity
  8
_U+30EC_U+30A4_U+30E4_U+30FC 1
 62
   179
420
  2234388
100
AcDbHatch
 10
0.0
 20
0.0
 30
0.0
210
0.0
220
0.0
230
1.0
  2
SOLID
 70
     1
 71
     0
 91
        1
 92
        1
 93
        1
 72
     4
 94
        3
 73
     0
 74
     1
 95
       17
 96
       13
 40
0.0
 40
0.0
 40
0.0
 40
0.0
 40
1.0
 40
1.0
 40
1.0
 40
2.0
 40
2.0
 40
2.0
 40
3.0
 40
3.0
 40
3.0
 40
4.0
 40
4.0
 40
4.0
 40
4.0
 10
103.9626559588028
 20
-124.3546958022448
 10
103.9626559588028
 20
-124.4097996911197
 10
103.917853182168
 20
-124.4546024688864
 10
103.862749294685
 20
-124.4546024688864
 10
103.807610129425
 20
-124.4546024688864
 10
103.7628426305671
 20
-124.4097996911197
 10
103.7628426305671
 20
-124.3546958022448
 10
103.7628426305671
 20
-124.2995566355917
 10
103.807610129425
 20
-124.2547891356031
 10
103.862749294685
 20
-124.2547891356031
 10
103.917853182168
 20
-124.2547891356031
 10
103.9626559588028
 20
-124.2995566355917
 10
103.9626559588028
 20
-124.3546958022448
 97
        0
 97
        0
 75
     2
 76
     1
 98
        0
  0
SPLINE
  5
A4
330
1F
100
AcDbEntity
  8
_U+30EC_U+30A4_U+30E4_U+30FC 1
 62
   179
420
  2234388
370
     9
100
AcDbSpline
210
0.0
220
0.0
230
1.0
 70
    11
 71
     3
 72
    17
 73
    13
 74
     0
 42
0.0000000001
 43
0.0000000001
 12
1.0
 22
0.0
 32
0.0
 13
1.0
 23
0.0
 33
0.0
 40
0.0
 40
0.0
 40
0.0
 40
0.0
 40
1.0
 40
1.0
 40
1.0
 40
2.0
 40
2.0
 40
2.0
 40
3.0
 40
3.0
 40
3.0
 40
4.0
 40
4.0
 40
4.0
 40
4.0
 10
78.7142472025438
 20
-121.1202527474976
 30
0.0
 10
78.7142472025438
 20
-121.0651488586227
 30
0.0
 10
78.66944442477708
 20
-121.020346080856
 30
0.0
 10
78.61433854993669
 20
-121.020346080856
 30
0.0
 10
78.55937775813797
 20
-121.020346080856
 30
0.0
 10
78.51457498037125
 20
-121.0651488586227
 30
0.0
 10
78.51457498037125
 20
-121.1202527474976
 30
0.0
 10
78.51457498037125
 20
-121.1753919141507
 30
0.0
 10
78.55937775813797
 20
-121.2201594141395
 30
0.0
 10
78.61433854993669
 20
-121.2201594141395
 30
0.0
 10
78.66944442477708
 20
-121.2201594141395
 30
0.0
 10
78.7142472025438
 20
-121.1753919141507
 30
0.0
 10
78.7142472025438
 20
-121.1202527474976
 30
0.0
  0
POLYLINE
  5
A5
330
1F
100
AcDbEntity
  8
_U+30EC_U+30A4_U+30E4_U+30FC 1
 62
   179
420
  2234388
370
     9
100
AcDb2dPolyline
 66
     1
 10
0.0
 20
0.0
 30
0.0
  0
VERTEX
  5
A6
330
A5
100
AcDbEntity
  8
_U+30EC_U+30A4_U+30E4_U+30FC 1
 62
   179
420
  2234388
370
     9
100
AcDbVertex
100
AcDb2dVertex
 10
78.61433854993669
 20
-122.5802941360216
 30
0.0
  0
VERTEX
  5
A7
330
A5
100
AcDbEntity
  8
_U+30EC_U+30A4_U+30E4_U+30FC 1
 62
   179
420
  2234388
370
     9
100
AcDbVertex
100
AcDb2dVertex
 10
78.61433854993669
 20
-120.1204805255254
 30
0.0
  0
SEQEND
  5
A8
330
A5
100
AcDbEntity
  8
_U+30EC_U+30A4_U+30E4_U+30FC 1
 62
   179
420
  2234388
370
     9
  0
SPLINE
  5
A9
330
1F
100
AcDbEntity
  8
_U+30EC_U+30A4_U+30E4_U+30FC 1
 62
   179
420
  2234388
370
     9
100
AcDbSpline
210
0.0
220
0.0
230
1.0
 70
    11
 71
     3
 72
    17
 73
    13
 74
     0
 42
0.0000000001
 43
0.0000000001
 12
1.0
 22
0.0
 32
0.0
 13
1.0
 23
0.0
 33
0.0
 40
0.0
 40
0.0
 40
0.0
 40
0.0
 40
1.0
 40
1.0
 40
1.0
 40
2.0
 40
2.0
 40
2.0
 40
3.0
 40
3.0
 40
3.0
 40
4.0
 40
4.0
 40
4.0
 40
4.0
 10
99.71415328941335
 20
-121.1202527474976
 30
0.0
 10
99.71415328941335
 20
-121.0651488586227
 30
0.0
 10
99.66935051277858
 20
-121.020346080856
 30
0.0
 10
99.61424662529551
 20
-121.020346080856
 30
0.0
 10
99.55946023780434
 20
-121.020346080856
 30
0.0
 10
99.51469273894645
 20
-121.0651488586227
 30
0.0
 10
99.51469273894645
 20
-121.1202527474976
 30
0.0
 10
99.51469273894645
 20
-121.1753919141507
 30
0.0
 10
99.55946023780434
 20
-121.2201594141395
 30
0.0
 10
99.61424662529551
 20
-121.2201594141395
 30
0.0
 10
99.66935051277858
 20
-121.2201594141395
 30
0.0
 10
99.71415328941335
 20
-121.1753919141507
 30
0.0
 10
99.71415328941335
 20
-121.1202527474976
 30
0.0
  0
POLYLINE
  5
AA
330
1F
100
AcDbEntity
  8
_U+30EC_U+30A4_U+30E4_U+30FC 1
 62
   179
420
  2234388
370
     9
100
AcDb2dPolyline
 66
     1
 10
0.0
 20
0.0
 30
0.0
  0
VERTEX
  5
AB
330
AA
100
AcDbEntity
  8
_U+30EC_U+30A4_U+30E4_U+30FC 1
 62
   179
420
  2234388
370
     9
100
AcDbVertex
100
AcDb2dVertex
 10
99.61424662529551
 20
-122.5802941360216
 30
0.0
  0
VERTEX
  5
AC
330
AA
100
AcDbEntity
  8
_U+30EC_U+30A4_U+30E4_U+30FC 1
 62
   179
420
  2234388
370
     9
100
AcDbVertex
100
AcDb2dVertex
 10
99.61424662529551
 20
-120.1204805255254
 30
0.0
  0
SEQEND
  5
AD
330
AA
100
AcDbEntity
  8
_U+30EC_U+30A4_U+30E4_U+30FC 1
 62
   179
420
  2234388
370
     9
  0
POLYLINE
  5
AE
330
1F
100
AcDbEntity
  8
_U+30EC_U+30A4_U+30E4_U+30FC 1
 62
   179
420
  2234388
370
     9
100
AcDb2dPolyline
 66
     1
 10
0.0
 20
0.0
 30
0.0
  0
VERTEX
  5
AF
330
AE
100
AcDbEntity
  8
_U+30EC_U+30A4_U+30E4_U+30FC 1
 62
   179
420
  2234388
370
     9
100
AcDbVertex
100
AcDb2dVertex
 10
78.61500882769737
 20
-121.1202527474976
 30
0.0
  0
VERTEX
  5
B0
330
AE
100
AcDbEntity
  8
_U+30EC_U+30A4_U+30E4_U+30FC 1
 62
   179
420
  2234388
370
     9
100
AcDbVertex
100
AcDb2dVertex
 10
99.61424662529551
 20
-121.1202527474976
 30
0.0
  0
SEQEND
  5
B1
330
AE
100
AcDbEntity
  8
_U+30EC_U+30A4_U+30E4_U+30FC 1
 62
   179
420
  2234388
370
     9
  0
INSERT
  5
B3
330
1F
100
AcDbEntity
  8
_U+30EC_U+30A4_U+30E4_U+30FC 1
100
AcDbBlockReference
  2
block 6
 10
0.0
 20
0.0
 30
0.0
  0
ENDSEC
  0
SECTION
  2
OBJECTS
  0
DICTIONARY
  5
C
330
0
100
AcDbDictionary
281
     1
  3
ACAD_GROUP
350
D
  3
ACAD_LAYOUT
350
1A
  3
ACAD_MATERIAL
350
3B
  3
ACAD_MLEADERSTYLE
350
BB
  3
ACAD_MLINESTYLE
350
17
  3
ACAD_PLOTSETTINGS
350
19
  3
ACAD_PLOTSTYLENAME
350
E
  3
ACAD_TABLESTYLE
350
BA
  3
ACAD_VISUALSTYLE
350
2A
  0
SUN
  5
3F
330
29
100
AcDbSun
 90
        1
290
     0
 63
     7
421
 16777215
 40
1.0
291
     1
 91
  2455826
 92
 54000000
292
     0
 70
     2
 71
   256
280
     1
  0
DICTIONARY
  5
D
102
{ACAD_REACTORS
330
C
102
}
330
C
100
AcDbDictionary
281
     1
  0
DICTIONARY
  5
1A
102
{ACAD_REACTORS
330
C
102
}
330
C
100
AcDbDictionary
281
     1
  3
Layout1
350
1E
  3
Layout2
350
26
  3
Model
350
22
  0
DICTIONARY
  5
3B
102
{ACAD_REACTORS
330
C
102
}
330
C
100
AcDbDictionary
281
     1
  3
ByBlock
350
3D
  3
ByLayer
350
3C
  3
Global
350
3E
  0
DICTIONARY
  5
BB
102
{ACAD_REACTORS
330
C
102
}
330
C
100
AcDbDictionary
281
     1
  0
DICTIONARY
  5
17
102
{ACAD_REACTORS
330
C
102
}
330
C
100
AcDbDictionary
281
     1
  3
Standard
350
18
  0
DICTIONARY
  5
19
102
{ACAD_REACTORS
330
C
102
}
330
C
100
AcDbDictionary
281
     1
  0
ACDBDICTIONARYWDFLT
  5
E
102
{ACAD_REACTORS
330
C
102
}
330
C
100
AcDbDictionary
281
     1
  3
Normal
350
F
100
AcDbDictionaryWithDefault
340
F
  0
DICTIONARY
  5
BA
102
{ACAD_REACTORS
330
C
102
}
330
C
100
AcDbDictionary
281
     1
  0
DICTIONARY
  5
2A
102
{ACAD_REACTORS
330
C
102
}
330
C
100
AcDbDictionary
281
     1
  3
2dWireframe
350
2F
  3
3D Hidden
350
31
  3
3dWireframe
350
30
  3
Basic
350
32
  3
Brighten
350
36
  3
ColorChange
350
3A
  3
Conceptual
350
34
  3
Dim
350
35
  3
Facepattern
350
39
  3
Flat
350
2B
  3
FlatWithEdges
350
2C
  3
Gouraud
350
2D
  3
GouraudWithEdges
350
2E
  3
Linepattern
350
38
  3
Realistic
350
33
  3
Thicken
350
37
  0
LAYOUT
  5
1E
102
{ACAD_REACTORS
330
1A
102
}
330
1A
100
AcDbPlotSettings
  1

  2
none_device
  4

  6

 40
0.0
 41
0.0
 42
0.0
 43
0.0
 44
0.0
 45
0.0
 46
0.0
 47
0.0
 48
0.0
 49
0.0
140
0.0
141
0.0
142
1.0
143
1.0
 70
   688
 72
     0
 73
     0
 74
     5
  7

 75
    16
 76
     0
 77
     2
 78
   300
147
1.0
148
0.0
149
0.0
100
AcDbLayout
  1
Layout1
 70
     1
 71
     1
 10
0.0
 20
0.0
 11
12.0
 21
9.0
 12
0.0
 22
0.0
 32
0.0
 14
1.000000000000000E+20
 24
1.000000000000000E+20
 34
1.000000000000000E+20
 15
-1.000000000000000E+20
 25
-1.000000000000000E+20
 35
-1.000000000000000E+20
146
0.0
 13
0.0
 23
0.0
 33
0.0
 16
1.0
 26
0.0
 36
0.0
 17
0.0
 27
1.0
 37
0.0
 76
     0
330
1B
  0
LAYOUT
  5
26
102
{ACAD_REACTORS
330
1A
102
}
330
1A
100
AcDbPlotSettings
  1

  2
none_device
  4

  6

 40
0.0
 41
0.0
 42
0.0
 43
0.0
 44
0.0
 45
0.0
 46
0.0
 47
0.0
 48
0.0
 49
0.0
140
0.0
141
0.0
142
1.0
143
1.0
 70
   688
 72
     0
 73
     0
 74
     5
  7

 75
    16
 76
     0
 77
     2
 78
   300
147
1.0
148
0.0
149
0.0
100
AcDbLayout
  1
Layout2
 70
     1
 71
     2
 10
0.0
 20
0.0
 11
0.0
 21
0.0
 12
0.0
 22
0.0
 32
0.0
 14
0.0
 24
0.0
 34
0.0
 15
0.0
 25
0.0
 35
0.0
146
0.0
 13
0.0
 23
0.0
 33
0.0
 16
1.0
 26
0.0
 36
0.0
 17
0.0
 27
1.0
 37
0.0
 76
     0
330
23
  0
LAYOUT
  5
22
102
{ACAD_REACTORS
330
1A
102
}
330
1A
100
AcDbPlotSettings
  1

  2
none_device
  4

  6

 40
0.0
 41
0.0
 42
0.0
 43
0.0
 44
0.0
 45
0.0
 46
0.0
 47
0.0
 48
0.0
 49
0.0
140
0.0
141
0.0
142
1.0
143
1.0
 70
  1712
 72
     0
 73
     0
 74
     0
  7

 75
     0
 76
     0
 77
     2
 78
   300
147
1.0
148
0.0
149
0.0
100
AcDbLayout
  1
Model
 70
     1
 71
     0
 10
0.0
 20
0.0
 11
12.0
 21
9.0
 12
0.0
 22
0.0
 32
0.0
 14
1.000000000000000E+20
 24
1.000000000000000E+20
 34
1.000000000000000E+20
 15
-1.000000000000000E+20
 25
-1.000000000000000E+20
 35
-1.000000000000000E+20
146
0.0
 13
0.0
 23
0.0
 33
0.0
 16
1.0
 26
0.0
 36
0.0
 17
0.0
 27
1.0
 37
0.0
 76
     0
330
1F
331
29
  0
MATERIAL
  5
3D
102
{ACAD_REACTORS
330
3B
102
}
330
3B
100
AcDbMaterial
  1
ByBlock
 72
     1
 94
      127
  0
MATERIAL
  5
3C
102
{ACAD_REACTORS
330
3B
102
}
330
3B
100
AcDbMaterial
  1
ByLayer
 72
     1
 94
      127
  0
MATERIAL
  5
3E
102
{ACAD_REACTORS
330
3B
102
}
330
3B
100
AcDbMaterial
  1
Global
 72
     1
 94
      127
  0
MLINESTYLE
  5
18
102
{ACAD_REACTORS
330
17
102
}
330
17
100
AcDbMlineStyle
  2
Standard
 70
     0
  3

 62
   256
 51
90.0
 52
90.0
 71
     2
 49
0.5
 62
   256
  6
BYLAYER
 49
-0.5
 62
   256
  6
BYLAYER
  0
ACDBPLACEHOLDER
  5
F
102
{ACAD_REACTORS
330
E
102
}
330
E
  0
VISUALSTYLE
  5
2F
102
{ACAD_REACTORS
330
2A
102
}
330
2A
100
AcDbVisualStyle
  2
2dWireframe
 70
     4
177
     2
291
     0
 71
     0
176
     1
 72
     2
176
     1
 73
     0
176
     1
 90
        0
176
     1
 40
-0.6
176
     1
 41
-30.0
176
     1
 62
     5
 63
     7
421
 16777215
176
     1
 74
     1
176
     1
 91
        4
176
     1
 64
     7
176
     1
 65
   257
176
     1
 75
     1
176
     1
175
     1
176
     1
 42
1.0
176
     1
 92
        0
176
     1
 66
   257
176
     1
 43
1.0
176
     1
 76
     1
176
     1
 77
     6
176
     1
 78
     2
176
     1
 67
     7
176
     1
 79
     5
176
     1
170
     0
176
     1
171
     0
176
     1
290
     0
176
     1
 93
        1
176
     1
 44
0.0
176
     1
173
     0
176
     1
  0
VISUALSTYLE
  5
31
102
{ACAD_REACTORS
330
2A
102
}
330
2A
100
AcDbVisualStyle
  2
3D Hidden
 70
     6
177
     2
291
     0
 71
     1
176
     1
 72
     2
176
     1
 73
     2
176
     1
 90
        0
176
     1
 40
-0.6
176
     1
 41
-30.0
176
     1
 62
     5
 63
     7
421
 16777215
176
     1
 74
     2
176
     1
 91
        2
176
     1
 64
     7
176
     1
 65
   257
176
     1
 75
     2
176
     1
175
     1
176
     1
 42
40.0
176
     1
 92
        0
176
     1
 66
   257
176
     1
 43
1.0
176
     1
 76
     1
176
     1
 77
     6
176
     1
 78
     2
176
     1
 67
     7
176
     1
 79
     3
176
     1
170
     0
176
     1
171
     0
176
     1
290
     0
176
     1
 93
        1
176
     1
 44
0.0
176
     1
173
     0
176
     1
  0
VISUALSTYLE
  5
30
102
{ACAD_REACTORS
330
2A
102
}
330
2A
100
AcDbVisualStyle
  2
3dWireframe
 70
     5
177
     2
291
     0
 71
     0
176
     1
 72
     2
176
     1
 73
     0
176
     1
 90
        0
176
     1
 40
-0.6
176
     1
 41
-30.0
176
     1
 62
     5
 63
     7
421
 16777215
176
     1
 74
     1
176
     1
 91
        4
176
     1
 64
     7
176
     1
 65
   257
176
     1
 75
     1
176
     1
175
     1
176
     1
 42
1.0
176
     1
 92
        0
176
     1
 66
   257
176
     1
 43
1.0
176
     1
 76
     1
176
     1
 77
     6
176
     1
 78
     2
176
     1
 67
     7
176
     1
 79
     5
176
     1
170
     0
176
     1
171
     0
176
     1
290
     0
176
     1
 93
        1
176
     1
 44
0.0
176
     1
173
     0
176
     1
  0
VISUALSTYLE
  5
32
102
{ACAD_REACTORS
330
2A
102
}
330
2A
100
AcDbVisualStyle
  2
Basic
 70
     7
177
     2
291
     1
 71
     1
176
     1
 72
     0
176
     1
 73
     1
176
     1
 90
        0
176
     1
 40
-0.6
176
     1
 41
-30.0
176
     1
 62
     5
 63
     7
421
 16777215
176
     1
 74
     0
176
     1
 91
        4
176
     1
 64
     7
176
     1
 65
   257
176
     1
 75
     1
176
     1
175
     1
176
     1
 42
1.0
176
     1
 92
        8
176
     1
 66
     7
176
     1
 43
1.0
176
     1
 76
     1
176
     1
 77
     6
176
     1
 78
     2
176
     1
 67
     7
176
     1
 79
     5
176
     1
170
     0
176
     1
171
     0
176
     1
290
     0
176
     1
 93
        1
176
     1
 44
0.0
176
     1
173
     0
176
     1
  0
VISUALSTYLE
  5
36
102
{ACAD_REACTORS
330
2A
102
}
330
2A
100
AcDbVisualStyle
  2
Brighten
 70
    12
177
     2
291
     1
 71
     2
176
     1
 72
     2
176
     1
 73
     0
176
     1
 90
        0
176
     1
 40
-0.6
176
     1
 41
-30.0
176
     1
 62
     5
 63
     7
421
 16777215
176
     1
 74
     1
176
     1
 91
        4
176
     1
 64
     7
176
     1
 65
   257
176
     1
 75
     1
176
     1
175
     1
176
     1
 42
1.0
176
     1
 92
        8
176
     1
 66
     7
176
     1
 43
1.0
176
     1
 76
     1
176
     1
 77
     6
176
     1
 78
     2
176
     1
 67
     7
176
     1
 79
     5
176
     1
170
     0
176
     1
171
     0
176
     1
290
     0
176
     1
 93
        1
176
     1
 44
50.0
176
     1
173
     0
176
     1
  0
VISUALSTYLE
  5
3A
102
{ACAD_REACTORS
330
2A
102
}
330
2A
100
AcDbVisualStyle
  2
ColorChange
 70
    16
177
     2
291
     1
 71
     2
176
     1
 72
     2
176
     1
 73
     3
176
     1
 90
        0
176
     1
 40
-0.6
176
     1
 41
-30.0
176
     1
 62
     5
 63
     8
421
  8421504
176
     1
 74
     1
176
     1
 91
        4
176
     1
 64
     7
176
     1
 65
   257
176
     1
 75
     1
176
     1
175
     1
176
     1
 42
1.0
176
     1
 92
        8
176
     1
 66
     8
424
  8421504
176
     1
 43
1.0
176
     1
 76
     1
176
     1
 77
     6
176
     1
 78
     2
176
     1
 67
     7
176
     1
 79
     5
176
     1
170
     0
176
     1
171
     0
176
     1
290
     0
176
     1
 93
        1
176
     1
 44
0.0
176
     1
173
     0
176
     1
  0
VISUALSTYLE
  5
34
102
{ACAD_REACTORS
330
2A
102
}
330
2A
100
AcDbVisualStyle
  2
Conceptual
 70
     9
177
     2
291
     0
 71
     3
176
     1
 72
     2
176
     1
 73
     0
176
     1
 90
        0
176
     1
 40
-0.6
176
     1
 41
-30.0
176
     1
 62
     5
 63
     7
421
 16777215
176
     1
 74
     2
176
     1
 91
        2
176
     1
 64
     7
176
     1
 65
   257
176
     1
 75
     1
176
     1
175
     1
176
     1
 42
40.0
176
     1
 92
        8
176
     1
 66
     7
176
     1
 43
1.0
176
     1
 76
     1
176
     1
 77
     6
176
     1
 78
     2
176
     1
 67
     7
176
     1
 79
     3
176
     1
170
     0
176
     1
171
     0
176
     1
290
     0
176
     1
 93
        1
176
     1
 44
0.0
176
     1
173
     0
176
     1
  0
VISUALSTYLE
  5
35
102
{ACAD_REACTORS
330
2A
102
}
330
2A
100
AcDbVisualStyle
  2
Dim
 70
    11
177
     2
291
     1
 71
     2
176
     1
 72
     2
176
     1
 73
     0
176
     1
 90
        0
176
     1
 40
-0.6
176
     1
 41
-30.0
176
     1
 62
     5
 63
     7
421
 16777215
176
     1
 74
     1
176
     1
 91
        4
176
     1
 64
     7
176
     1
 65
   257
176
     1
 75
     1
176
     1
175
     1
176
     1
 42
1.0
176
     1
 92
        8
176
     1
 66
     7
176
     1
 43
1.0
176
     1
 76
     1
176
     1
 77
     6
176
     1
 78
     2
176
     1
 67
     7
176
     1
 79
     5
176
     1
170
     0
176
     1
171
     0
176
     1
290
     0
176
     1
 93
        1
176
     1
 44
-50.0
176
     1
173
     0
176
     1
  0
VISUALSTYLE
  5
39
102
{ACAD_REACTORS
330
2A
102
}
330
2A
100
AcDbVisualStyle
  2
Facepattern
 70
    15
177
     2
291
     1
 71
     2
176
     1
 72
     2
176
     1
 73
     0
176
     1
 90
        0
176
     1
 40
-0.6
176
     1
 41
-30.0
176
     1
 62
     5
 63
     7
421
 16777215
176
     1
 74
     1
176
     1
 91
        4
176
     1
 64
     7
176
     1
 65
   257
176
     1
 75
     1
176
     1
175
     1
176
     1
 42
1.0
176
     1
 92
        8
176
     1
 66
     7
176
     1
 43
1.0
176
     1
 76
     1
176
     1
 77
     6
176
     1
 78
     2
176
     1
 67
     7
176
     1
 79
     5
176
     1
170
     0
176
     1
171
     0
176
     1
290
     0
176
     1
 93
        1
176
     1
 44
0.0
176
     1
173
     0
176
     1
  0
VISUALSTYLE
  5
2B
102
{ACAD_REACTORS
330
2A
102
}
330
2A
100
AcDbVisualStyle
  2
Flat
 70
     0
177
     2
291
     1
 71
     2
176
     1
 72
     1
176
     1
 73
     1
176
     1
 90
        2
176
     1
 40
-0.6
176
     1
 41
30.0
176
     1
 62
     5
 63
     7
421
 16777215
176
     1
 74
     0
176
     1
 91
        4
176
     1
 64
     7
176
     1
 65
   257
176
     1
 75
     1
176
     1
175
     1
176
     1
 42
1.0
176
     1
 92
        8
176
     1
 66
     7
176
     1
 43
1.0
176
     1
 76
     1
176
     1
 77
     6
176
     1
 78
     2
176
     1
 67
     7
176
     1
 79
     5
176
     1
170
     0
176
     1
171
     0
176
     1
290
     0
176
     1
 93
       13
176
     1
 44
0.0
176
     1
173
     0
176
     1
  0
VISUALSTYLE
  5
2C
102
{ACAD_REACTORS
330
2A
102
}
330
2A
100
AcDbVisualStyle
  2
FlatWithEdges
 70
     1
177
     2
291
     1
 71
     2
176
     1
 72
     1
176
     1
 73
     1
176
     1
 90
        2
176
     1
 40
-0.6
176
     1
 41
30.0
176
     1
 62
     5
 63
     7
421
 16777215
176
     1
 74
     1
176
     1
 91
        4
176
     1
 64
     7
176
     1
 65
   257
176
     1
 75
     1
176
     1
175
     1
176
     1
 42
1.0
176
     1
 92
        0
176
     1
 66
   257
176
     1
 43
1.0
176
     1
 76
     1
176
     1
 77
     6
176
     1
 78
     2
176
     1
 67
     7
176
     1
 79
     5
176
     1
170
     0
176
     1
171
     0
176
     1
290
     0
176
     1
 93
       13
176
     1
 44
0.0
176
     1
173
     0
176
     1
  0
VISUALSTYLE
  5
2D
102
{ACAD_REACTORS
330
2A
102
}
330
2A
100
AcDbVisualStyle
  2
Gouraud
 70
     2
177
     2
291
     1
 71
     2
176
     1
 72
     2
176
     1
 73
     1
176
     1
 90
        2
176
     1
 40
-0.6
176
     1
 41
30.0
176
     1
 62
     5
 63
     7
421
 16777215
176
     1
 74
     0
176
     1
 91
        4
176
     1
 64
     7
176
     1
 65
   257
176
     1
 75
     1
176
     1
175
     1
176
     1
 42
1.0
176
     1
 92
        0
176
     1
 66
     7
176
     1
 43
1.0
176
     1
 76
     1
176
     1
 77
     6
176
     1
 78
     2
176
     1
 67
     7
176
     1
 79
     5
176
     1
170
     0
176
     1
171
     0
176
     1
290
     0
176
     1
 93
       13
176
     1
 44
0.0
176
     1
173
     0
176
     1
  0
VISUALSTYLE
  5
2E
102
{ACAD_REACTORS
330
2A
102
}
330
2A
100
AcDbVisualStyle
  2
GouraudWithEdges
 70
     3
177
     2
291
     1
 71
     2
176
     1
 72
     2
176
     1
 73
     1
176
     1
 90
        2
176
     1
 40
-0.6
176
     1
 41
30.0
176
     1
 62
     5
 63
     7
421
 16777215
176
     1
 74
     1
176
     1
 91
        4
176
     1
 64
     7
176
     1
 65
   257
176
     1
 75
     1
176
     1
175
     1
176
     1
 42
1.0
176
     1
 92
        0
176
     1
 66
   257
176
     1
 43
1.0
176
     1
 76
     1
176
     1
 77
     6
176
     1
 78
     2
176
     1
 67
     7
176
     1
 79
     5
176
     1
170
     0
176
     1
171
     0
176
     1
290
     0
176
     1
 93
       13
176
     1
 44
0.0
176
     1
173
     0
176
     1
  0
VISUALSTYLE
  5
38
102
{ACAD_REACTORS
330
2A
102
}
330
2A
100
AcDbVisualStyle
  2
Linepattern
 70
    14
177
     2
291
     1
 71
     2
176
     1
 72
     2
176
     1
 73
     0
176
     1
 90
        0
176
     1
 40
-0.6
176
     1
 41
-30.0
176
     1
 62
     5
 63
     7
421
 16777215
176
     1
 74
     1
176
     1
 91
        4
176
     1
 64
     7
176
     1
 65
   257
176
     1
 75
     7
176
     1
175
     7
176
     1
 42
1.0
176
     1
 92
        8
176
     1
 66
     7
176
     1
 43
1.0
176
     1
 76
     1
176
     1
 77
     6
176
     1
 78
     2
176
     1
 67
     7
176
     1
 79
     5
176
     1
170
     0
176
     1
171
     0
176
     1
290
     0
176
     1
 93
        1
176
     1
 44
0.0
176
     1
173
     0
176
     1
  0
VISUALSTYLE
  5
33
102
{ACAD_REACTORS
330
2A
102
}
330
2A
100
AcDbVisualStyle
  2
Realistic
 70
     8
177
     2
291
     0
 71
     2
176
     1
 72
     2
176
     1
 73
     0
176
     1
 90
        0
176
     1
 40
-0.6
176
     1
 41
-30.0
176
     1
 62
     5
 63
     7
421
 16777215
176
     1
 74
     1
176
     1
 91
        0
176
     1
 64
     7
176
     1
 65
   257
176
     1
 75
     1
176
     1
175
     1
176
     1
 42
1.0
176
     1
 92
        8
176
     1
 66
     8
424
  7895160
176
     1
 43
1.0
176
     1
 76
     1
176
     1
 77
     6
176
     1
 78
     2
176
     1
 67
     7
176
     1
 79
     5
176
     1
170
     0
176
     1
171
     0
176
     1
290
     0
176
     1
 93
       13
176
     1
 44
0.0
176
     1
173
     0
176
     1
  0
VISUALSTYLE
  5
37
102
{ACAD_REACTORS
330
2A
102
}
330
2A
100
AcDbVisualStyle
  2
Thicken
 70
    13
177
     2
291
     1
 71
     2
176
     1
 72
     2
176
     1
 73
     0
176
     1
 90
        0
176
     1
 40
-0.6
176
     1
 41
-30.0
176
     1
 62
     5
 63
     7
421
 16777215
176
     1
 74
     1
176
     1
 91
        4
176
     1
 64
     7
176
     1
 65
   257
176
     1
 75
     1
176
     1
175
     1
176
     1
 42
1.0
176
     1
 92
       12
176
     1
 66
     7
176
     1
 43
1.0
176
     1
 76
     1
176
     1
 77
     6
176
     1
 78
     2
176
     1
 67
     7
176
     1
 79
     5
176
     1
170
     0
176
     1
171
     0
176
     1
290
     0
176
     1
 93
        1
176
     1
 44
0.0
176
     1
173
     0
176
     1
  0
ENDSEC
  0
EOF
