  0
SECTION
  2
HEADER
  9
$ACADVER
  1
AC1024
  9
$ACADMAINTVER
 70
   226
  9
$DWGCODEPAGE
  3
ANSI_932
  9
$INSBASE
 10
0.0
 20
0.0
 30
0.0
  9
$EXTMIN
 10
1.000000000000000E+20
 20
1.000000000000000E+20
 30
1.000000000000000E+20
  9
$EXTMAX
 10
-1.000000000000000E+20
 20
-1.000000000000000E+20
 30
-1.000000000000000E+20
  9
$LIMMIN
 10
0.0
 20
0.0
  9
$LIMMAX
 10
12.0
 20
9.0
  9
$ORTHOMODE
 70
     0
  9
$REGENMODE
 70
     1
  9
$FILLMODE
 70
     1
  9
$QTEXTMODE
 70
     0
  9
$MIRRTEXT
 70
     0
  9
$LTSCALE
 40
1.0
  9
$ATTMODE
 70
     1
  9
$TEXTSIZE
 40
0.2
  9
$TRACEWID
 40
0.05
  9
$TEXTSTYLE
  7
Standard
  9
$CLAYER
  8
0
  9
$CELTYPE
  6
ByLayer
  9
$CECOLOR
 62
   256
  9
$CELTSCALE
 40
1.0
  9
$DISPSILH
 70
     0
  9
$DIMSCALE
 40
1.0
  9
$DIMASZ
 40
0.18
  9
$DIMEXO
 40
0.0625
  9
$DIMDLI
 40
0.38
  9
$DIMRND
 40
0.0
  9
$DIMDLE
 40
0.0
  9
$DIMEXE
 40
0.18
  9
$DIMTP
 40
0.0
  9
$DIMTM
 40
0.0
  9
$DIMTXT
 40
0.18
  9
$DIMCEN
 40
0.09
  9
$DIMTSZ
 40
0.0
  9
$DIMTOL
 70
     0
  9
$DIMLIM
 70
     0
  9
$DIMTIH
 70
     1
  9
$DIMTOH
 70
     1
  9
$DIMSE1
 70
     0
  9
$DIMSE2
 70
     0
  9
$DIMTAD
 70
     0
  9
$DIMZIN
 70
     0
  9
$DIMBLK
  1

  9
$DIMASO
 70
     1
  9
$DIMSHO
 70
     1
  9
$DIMPOST
  1

  9
$DIMAPOST
  1

  9
$DIMALT
 70
     0
  9
$DIMALTD
 70
     2
  9
$DIMALTF
 40
25.4
  9
$DIMLFAC
 40
1.0
  9
$DIMTOFL
 70
     0
  9
$DIMTVP
 40
0.0
  9
$DIMTIX
 70
     0
  9
$DIMSOXD
 70
     0
  9
$DIMSAH
 70
     0
  9
$DIMBLK1
  1

  9
$DIMBLK2
  1

  9
$DIMSTYLE
  2
Standard
  9
$DIMCLRD
 70
     0
  9
$DIMCLRE
 70
     0
  9
$DIMCLRT
 70
     0
  9
$DIMTFAC
 40
1.0
  9
$DIMGAP
 40
0.09
  9
$DIMJUST
 70
     0
  9
$DIMSD1
 70
     0
  9
$DIMSD2
 70
     0
  9
$DIMTOLJ
 70
     1
  9
$DIMTZIN
 70
     0
  9
$DIMALTZ
 70
     0
  9
$DIMALTTZ
 70
     0
  9
$DIMUPT
 70
     0
  9
$DIMDEC
 70
     4
  9
$DIMTDEC
 70
     4
  9
$DIMALTU
 70
     2
  9
$DIMALTTD
 70
     2
  9
$DIMTXSTY
  7
Standard
  9
$DIMAUNIT
 70
     0
  9
$DIMADEC
 70
     0
  9
$DIMALTRND
 40
0.0
  9
$DIMAZIN
 70
     0
  9
$DIMDSEP
 70
    46
  9
$DIMATFIT
 70
     3
  9
$DIMFRAC
 70
     0
  9
$DIMLDRBLK
  1

  9
$DIMLUNIT
 70
     2
  9
$DIMLWD
 70
    -2
  9
$DIMLWE
 70
    -2
  9
$DIMTMOVE
 70
     0
  9
$DIMFXL
 40
1.0
  9
$DIMFXLON
 70
     0
  9
$DIMJOGANG
 40
0.7853981633974483
  9
$DIMTFILL
 70
     0
  9
$DIMTFILLCLR
 70
     0
  9
$DIMARCSYM
 70
     0
  9
$DIMLTYPE
  6

  9
$DIMLTEX1
  6

  9
$DIMLTEX2
  6

  9
$DIMTXTDIRECTION
 70
     0
  9
$LUNITS
 70
     2
  9
$LUPREC
 70
     4
  9
$SKETCHINC
 40
0.1
  9
$FILLETRAD
 40
0.0
  9
$AUNITS
 70
     0
  9
$AUPREC
 70
     0
  9
$MENU
  1
.
  9
$ELEVATION
 40
0.0
  9
$PELEVATION
 40
0.0
  9
$THICKNESS
 40
0.0
  9
$LIMCHECK
 70
     0
  9
$CHAMFERA
 40
0.0
  9
$CHAMFERB
 40
0.0
  9
$CHAMFERC
 40
0.0
  9
$CHAMFERD
 40
0.0
  9
$SKPOLY
 70
     0
  9
$TDCREATE
 40
2459569.488865741
  9
$TDUCREATE
 40
2459569.113865740
  9
$TDUPDATE
 40
2459569.488865741
  9
$TDUUPDATE
 40
2459569.113865740
  9
$TDINDWG
 40
0.0000000000
  9
$TDUSRTIMER
 40
0.0000000000
  9
$USRTIMER
 70
     1
  9
$ANGBASE
 50
0.0
  9
$ANGDIR
 70
     0
  9
$PDMODE
 70
     0
  9
$PDSIZE
 40
0.0
  9
$PLINEWID
 40
0.0
  9
$SPLFRAME
 70
     0
  9
$SPLINETYPE
 70
     6
  9
$SPLINESEGS
 70
     8
  9
$HANDSEED
  5
133
  9
$SURFTAB1
 70
     6
  9
$SURFTAB2
 70
     6
  9
$SURFTYPE
 70
     6
  9
$SURFU
 70
     6
  9
$SURFV
 70
     6
  9
$UCSBASE
  2

  9
$UCSNAME
  2

  9
$UCSORG
 10
0.0
 20
0.0
 30
0.0
  9
$UCSXDIR
 10
1.0
 20
0.0
 30
0.0
  9
$UCSYDIR
 10
0.0
 20
1.0
 30
0.0
  9
$UCSORTHOREF
  2

  9
$UCSORTHOVIEW
 70
     0
  9
$UCSORGTOP
 10
0.0
 20
0.0
 30
0.0
  9
$UCSORGBOTTOM
 10
0.0
 20
0.0
 30
0.0
  9
$UCSORGLEFT
 10
0.0
 20
0.0
 30
0.0
  9
$UCSORGRIGHT
 10
0.0
 20
0.0
 30
0.0
  9
$UCSORGFRONT
 10
0.0
 20
0.0
 30
0.0
  9
$UCSORGBACK
 10
0.0
 20
0.0
 30
0.0
  9
$PUCSBASE
  2

  9
$PUCSNAME
  2

  9
$PUCSORG
 10
0.0
 20
0.0
 30
0.0
  9
$PUCSXDIR
 10
1.0
 20
0.0
 30
0.0
  9
$PUCSYDIR
 10
0.0
 20
1.0
 30
0.0
  9
$PUCSORTHOREF
  2

  9
$PUCSORTHOVIEW
 70
     0
  9
$PUCSORGTOP
 10
0.0
 20
0.0
 30
0.0
  9
$PUCSORGBOTTOM
 10
0.0
 20
0.0
 30
0.0
  9
$PUCSORGLEFT
 10
0.0
 20
0.0
 30
0.0
  9
$PUCSORGRIGHT
 10
0.0
 20
0.0
 30
0.0
  9
$PUCSORGFRONT
 10
0.0
 20
0.0
 30
0.0
  9
$PUCSORGBACK
 10
0.0
 20
0.0
 30
0.0
  9
$USERI1
 70
     0
  9
$USERI2
 70
     0
  9
$USERI3
 70
     0
  9
$USERI4
 70
     0
  9
$USERI5
 70
     0
  9
$USERR1
 40
0.0
  9
$USERR2
 40
0.0
  9
$USERR3
 40
0.0
  9
$USERR4
 40
0.0
  9
$USERR5
 40
0.0
  9
$WORLDVIEW
 70
     1
  9
$SHADEDGE
 70
     3
  9
$SHADEDIF
 70
    70
  9
$TILEMODE
 70
     1
  9
$MAXACTVP
 70
    64
  9
$PINSBASE
 10
0.0
 20
0.0
 30
0.0
  9
$PLIMCHECK
 70
     0
  9
$PEXTMIN
 10
1.000000000000000E+20
 20
1.000000000000000E+20
 30
1.000000000000000E+20
  9
$PEXTMAX
 10
-1.000000000000000E+20
 20
-1.000000000000000E+20
 30
-1.000000000000000E+20
  9
$PLIMMIN
 10
0.0
 20
0.0
  9
$PLIMMAX
 10
12.0
 20
9.0
  9
$UNITMODE
 70
     0
  9
$VISRETAIN
 70
     1
  9
$PLINEGEN
 70
     0
  9
$PSLTSCALE
 70
     1
  9
$TREEDEPTH
 70
  3020
  9
$CMLSTYLE
  2
Standard
  9
$CMLJUST
 70
     0
  9
$CMLSCALE
 40
1.0
  9
$PROXYGRAPHICS
 70
     1
  9
$MEASUREMENT
 70
     0
  9
$CELWEIGHT
370
    -1
  9
$ENDCAPS
280
     0
  9
$JOINSTYLE
280
     0
  9
$LWDISPLAY
290
     1
  9
$INSUNITS
 70
     4
  9
$HYPERLINKBASE
  1

  9
$STYLESHEET
  1

  9
$XEDIT
290
     1
  9
$CEPSNTYPE
380
     0
  9
$PSTYLEMODE
290
     1
  9
$FINGERPRINTGUID
  2
{F42ED6E1-2331-0543-AFA8-6074284DE6B7}
  9
$VERSIONGUID
  2
{ED56F60C-932F-9148-A9C4-E2038385C6AE}
  9
$EXTNAMES
290
     1
  9
$PSVPSCALE
 40
0.0
  9
$OLESTARTUP
290
     0
  9
$SORTENTS
280
   127
  9
$INDEXCTL
280
     0
  9
$HIDETEXT
280
     1
  9
$XCLIPFRAME
280
     2
  9
$HALOGAP
280
     0
  9
$OBSCOLOR
 70
   257
  9
$OBSLTYPE
280
     0
  9
$INTERSECTIONDISPLAY
280
     0
  9
$INTERSECTIONCOLOR
 70
   257
  9
$DIMASSOC
280
     2
  9
$PROJECTNAME
  1

  9
$CAMERADISPLAY
290
     0
  9
$LENSLENGTH
 40
50.0
  9
$CAMERAHEIGHT
 40
0.0
  9
$STEPSPERSEC
 40
2.0
  9
$STEPSIZE
 40
6.0
  9
$3DDWFPREC
 40
2.0
  9
$PSOLWIDTH
 40
0.25
  9
$PSOLHEIGHT
 40
4.0
  9
$LOFTANG1
 40
1.570796326794896
  9
$LOFTANG2
 40
1.570796326794896
  9
$LOFTMAG1
 40
0.0
  9
$LOFTMAG2
 40
0.0
  9
$LOFTPARAM
 70
     7
  9
$LOFTNORMALS
280
     1
  9
$LATITUDE
 40
37.795
  9
$LONGITUDE
 40
-122.394
  9
$NORTHDIRECTION
 40
0.0
  9
$TIMEZONE
 70
 -8000
  9
$LIGHTGLYPHDISPLAY
280
     1
  9
$TILEMODELIGHTSYNCH
280
     1
  9
$CMATERIAL
347
11
  9
$SOLIDHIST
280
     0
  9
$SHOWHIST
280
     1
  9
$DWFFRAME
280
     2
  9
$DGNFRAME
280
     0
  9
$REALWORLDSCALE
290
     1
  9
$INTERFERECOLOR
 62
     1
  9
$INTERFEREOBJVS
345
33
  9
$INTERFEREVPVS
346
30
  9
$CSHADOW
280
     0
  9
$SHADOWPLANELOCATION
 40
0.0
  0
ENDSEC
  0
SECTION
  2
CLASSES
  0
CLASS
  1
ACDBDICTIONARYWDFLT
  2
AcDbDictionaryWithDefault
  3
ObjectDBX Classes
 90
        0
 91
        1
280
     0
281
     0
  0
CLASS
  1
MATERIAL
  2
AcDbMaterial
  3
ObjectDBX Classes
 90
     1153
 91
        3
280
     0
281
     0
  0
CLASS
  1
VISUALSTYLE
  2
AcDbVisualStyle
  3
ObjectDBX Classes
 90
     4095
 91
       24
280
     0
281
     0
  0
CLASS
  1
SCALE
  2
AcDbScale
  3
ObjectDBX Classes
 90
     1153
 91
       17
280
     0
281
     0
  0
CLASS
  1
TABLESTYLE
  2
AcDbTableStyle
  3
ObjectDBX Classes
 90
     4095
 91
        1
280
     0
281
     0
  0
CLASS
  1
MLEADERSTYLE
  2
AcDbMLeaderStyle
  3
ACDB_MLEADERSTYLE_CLASS
 90
     4095
 91
        1
280
     0
281
     0
  0
CLASS
  1
ACDBSECTIONVIEWSTYLE
  2
AcDbSectionViewStyle
  3
ObjectDBX Classes
 90
     1025
 91
        1
280
     0
281
     0
  0
CLASS
  1
ACDBDETAILVIEWSTYLE
  2
AcDbDetailViewStyle
  3
ObjectDBX Classes
 90
     1025
 91
        1
280
     0
281
     0
  0
CLASS
  1
DICTIONARYVAR
  2
AcDbDictionaryVar
  3
ObjectDBX Classes
 90
        0
 91
        5
280
     0
281
     0
  0
CLASS
  1
CELLSTYLEMAP
  2
AcDbCellStyleMap
  3
ObjectDBX Classes
 90
     1152
 91
        1
280
     0
281
     0
  0
ENDSEC
  0
SECTION
  2
TABLES
  0
TABLE
  2
VPORT
  5
8
330
0
100
AcDbSymbolTable
 70
     1
  0
VPORT
  5
57
330
8
100
AcDbSymbolTableRecord
100
AcDbViewportTableRecord
  2
*Active
 70
     0
 10
0.0
 20
0.0
 11
1.0
 21
1.0
 12
0.0
 22
0.0
 13
0.0
 23
0.0
 14
1.0
 24
1.0
 15
0.0
 25
0.0
 16
0.0
 26
0.0
 36
1.0
 17
104.9999999737534
 27
-148.4999999628701
 37
0.0
 40
302.939999924255
 41
0.7070707070707534
 42
50.0
 43
0.0
 44
0.0
 50
0.0
 51
0.0
 71
     0
 72
   100
 73
     1
 74
     0
 75
     1
 76
     0
 77
     0
 78
     0
281
     0
 65
     1
110
0.0
120
0.0
130
0.0
111
1.0
121
0.0
131
0.0
112
0.0
122
1.0
132
0.0
 79
     0
146
0.0
 60
     3
 61
     5
292
     1
282
     1
141
0.0
142
0.0
 63
   250
421
  3355443
  0
ENDTAB
  0
TABLE
  2
LTYPE
  5
5
330
0
100
AcDbSymbolTable
 70
     2
  0
LTYPE
  5
5B
330
5
100
AcDbSymbolTableRecord
100
AcDbLinetypeTableRecord
  2
ByBlock
 70
     0
  3

 72
    65
 73
     0
 40
0.0
  0
LTYPE
  5
5C
330
5
100
AcDbSymbolTableRecord
100
AcDbLinetypeTableRecord
  2
ByLayer
 70
     0
  3

 72
    65
 73
     0
 40
0.0
  0
LTYPE
  5
5D
330
5
100
AcDbSymbolTableRecord
100
AcDbLinetypeTableRecord
  2
Continuous
 70
     0
  3
Solid line
 72
    65
 73
     0
 40
0.0
  0
LTYPE
  5
D7
330
5
100
AcDbSymbolTableRecord
100
AcDbLinetypeTableRecord
  2
AI-Linetype-0
 70
     0
  3
Adobe Illustrator Linetype No. 0
 72
    65
 73
     2
 40
1.411111110758333
 49
0.7055555553791667
 74
     0
 49
-0.7055555553791667
 74
     0
  0
ENDTAB
  0
TABLE
  2
LAYER
  5
2
330
0
100
AcDbSymbolTable
 70
     2
  0
LAYER
  5
54
330
2
100
AcDbSymbolTableRecord
100
AcDbLayerTableRecord
  2
0
 70
     0
 62
     7
  6
Continuous
370
    -3
390
F
347
21
  0
LAYER
  5
78
330
2
100
AcDbSymbolTableRecord
100
AcDbLayerTableRecord
  2
レイヤー 1
 70
     0
 62
     7
  6
Continuous
370
     0
390
F
347
21
  0
ENDTAB
  0
TABLE
  2
STYLE
  5
3
330
0
100
AcDbSymbolTable
 70
     2
  0
STYLE
  5
55
330
3
100
AcDbSymbolTableRecord
100
AcDbTextStyleTableRecord
  2
Standard
 70
     0
 40
0.0
 41
1.0
 50
0.0
 71
     0
 42
0.2
  3
txt
  4

  0
STYLE
  5
5A
330
3
100
AcDbSymbolTableRecord
100
AcDbTextStyleTableRecord
  2
Annotative
 70
     0
 40
0.0
 41
1.0
 50
0.0
 71
     0
 42
0.2
  3
txt
  4

1001
AcadAnnotative
1000
AnnotativeData
1002
{
1070
     1
1070
     1
1002
}
  0
ENDTAB
  0
TABLE
  2
VIEW
  5
6
330
0
100
AcDbSymbolTable
 70
     0
  0
ENDTAB
  0
TABLE
  2
UCS
  5
7
330
0
100
AcDbSymbolTable
 70
     0
  0
ENDTAB
  0
TABLE
  2
APPID
  5
9
330
0
100
AcDbSymbolTable
 70
     2
  0
APPID
  5
56
330
9
100
AcDbSymbolTableRecord
100
AcDbRegAppTableRecord
  2
ACAD
 70
     0
  0
APPID
  5
5E
330
9
100
AcDbSymbolTableRecord
100
AcDbRegAppTableRecord
  2
AcadAnnotative
 70
     0
  0
ENDTAB
  0
TABLE
  2
DIMSTYLE
  5
A
330
0
100
AcDbSymbolTable
 70
     2
100
AcDbDimStyleTable
 71
     0
  0
DIMSTYLE
105
58
330
A
100
AcDbSymbolTableRecord
100
AcDbDimStyleTableRecord
  2
Standard
 70
     0
340
55
  0
DIMSTYLE
105
59
330
A
100
AcDbSymbolTableRecord
100
AcDbDimStyleTableRecord
  2
Annotative
 70
     0
340
55
1001
AcadAnnotative
1000
AnnotativeData
1002
{
1070
     1
1070
     1
1002
}
  0
ENDTAB
  0
TABLE
  2
BLOCK_RECORD
  5
1
330
0
100
AcDbSymbolTable
 70
    14
  0
BLOCK_RECORD
  5
70
330
1
100
AcDbSymbolTableRecord
100
AcDbBlockTableRecord
  2
*Model_Space
340
73
 70
     0
280
     1
281
     0
  0
BLOCK_RECORD
  5
6C
330
1
100
AcDbSymbolTableRecord
100
AcDbBlockTableRecord
  2
*Paper_Space
340
6F
 70
     0
280
     1
281
     0
  0
BLOCK_RECORD
  5
74
330
1
100
AcDbSymbolTableRecord
100
AcDbBlockTableRecord
  2
*Paper_Space0
340
77
 70
     0
280
     1
281
     0
  0
BLOCK_RECORD
  5
81
330
1
100
AcDbSymbolTableRecord
100
AcDbBlockTableRecord
  2
Block_0
340
0
102
{BLKREFS
331
82
102
}
 70
     0
280
     1
281
     0
  0
BLOCK_RECORD
  5
85
330
1
100
AcDbSymbolTableRecord
100
AcDbBlockTableRecord
  2
Block_1
340
0
102
{BLKREFS
331
86
102
}
 70
     0
280
     1
281
     0
  0
BLOCK_RECORD
  5
8E
330
1
100
AcDbSymbolTableRecord
100
AcDbBlockTableRecord
  2
Block_2
340
0
102
{BLKREFS
331
8F
102
}
 70
     0
280
     1
281
     0
  0
BLOCK_RECORD
  5
95
330
1
100
AcDbSymbolTableRecord
100
AcDbBlockTableRecord
  2
Block_3
340
0
102
{BLKREFS
331
96
102
}
 70
     0
280
     1
281
     0
  0
BLOCK_RECORD
  5
99
330
1
100
AcDbSymbolTableRecord
100
AcDbBlockTableRecord
  2
Block_4
340
0
102
{BLKREFS
331
9A
102
}
 70
     0
280
     1
281
     0
  0
BLOCK_RECORD
  5
A7
330
1
100
AcDbSymbolTableRecord
100
AcDbBlockTableRecord
  2
Block_5
340
0
102
{BLKREFS
331
A8
102
}
 70
     0
280
     1
281
     0
  0
BLOCK_RECORD
  5
AD
330
1
100
AcDbSymbolTableRecord
100
AcDbBlockTableRecord
  2
Block_6
340
0
102
{BLKREFS
331
AE
102
}
 70
     0
280
     1
281
     0
  0
BLOCK_RECORD
  5
B5
330
1
100
AcDbSymbolTableRecord
100
AcDbBlockTableRecord
  2
Block_7
340
0
102
{BLKREFS
331
B6
102
}
 70
     0
280
     1
281
     0
  0
BLOCK_RECORD
  5
C6
330
1
100
AcDbSymbolTableRecord
100
AcDbBlockTableRecord
  2
Block_8
340
0
102
{BLKREFS
331
C7
102
}
 70
     0
280
     1
281
     0
  0
BLOCK_RECORD
  5
CA
330
1
100
AcDbSymbolTableRecord
100
AcDbBlockTableRecord
  2
Block_9
340
0
102
{BLKREFS
331
CB
102
}
 70
     0
280
     1
281
     0
  0
BLOCK_RECORD
  5
D2
330
1
100
AcDbSymbolTableRecord
100
AcDbBlockTableRecord
  2
Block_10
340
0
102
{BLKREFS
331
D3
102
}
 70
     0
280
     1
281
     0
  0
BLOCK_RECORD
  5
DA
330
1
100
AcDbSymbolTableRecord
100
AcDbBlockTableRecord
  2
Block_11
340
0
102
{BLKREFS
331
DB
102
}
 70
     0
280
     1
281
     0
  0
BLOCK_RECORD
  5
DE
330
1
100
AcDbSymbolTableRecord
100
AcDbBlockTableRecord
  2
Block_12
340
0
102
{BLKREFS
331
DF
102
}
 70
     0
280
     1
281
     0
  0
ENDTAB
  0
ENDSEC
  0
SECTION
  2
BLOCKS
  0
BLOCK
  5
71
330
70
100
AcDbEntity
  8
0
100
AcDbBlockBegin
  2
*Model_Space
 70
     0
 10
0.0
 20
0.0
 30
0.0
  3
*Model_Space
  1

  0
ENDBLK
  5
72
330
70
100
AcDbEntity
  8
0
100
AcDbBlockEnd
  0
BLOCK
  5
6D
330
6C
100
AcDbEntity
 67
     1
  8
0
100
AcDbBlockBegin
  2
*Paper_Space
 70
     0
 10
0.0
 20
0.0
 30
0.0
  3
*Paper_Space
  1

  0
ENDBLK
  5
6E
330
6C
100
AcDbEntity
 67
     1
  8
0
100
AcDbBlockEnd
  0
BLOCK
  5
75
330
74
100
AcDbEntity
 67
     1
  8
0
100
AcDbBlockBegin
  2
*Paper_Space0
 70
     0
 10
0.0
 20
0.0
 30
0.0
  3
*Paper_Space0
  1

  0
ENDBLK
  5
76
330
74
100
AcDbEntity
 67
     1
  8
0
100
AcDbBlockEnd
  0
BLOCK
  5
83
330
81
100
AcDbEntity
  8
0
100
AcDbBlockBegin
  2
Block_0
 70
     0
 10
0.0
 20
0.0
 30
0.0
  3
Block_0
  1

  0
INSERT
  5
86
330
81
100
AcDbEntity
  8
レイヤー 1
100
AcDbBlockReference
  2
Block_1
 10
0.0
 20
0.0
 30
0.0
  0
ENDBLK
  5
84
330
81
100
AcDbEntity
  8
0
100
AcDbBlockEnd
  0
BLOCK
  5
87
330
85
100
AcDbEntity
  8
0
100
AcDbBlockBegin
  2
Block_1
 70
     0
 10
0.0
 20
0.0
 30
0.0
  3
Block_1
  1

  0
SPLINE
  5
89
330
85
100
AcDbEntity
  8
レイヤー 1
100
AcDbSpline
210
0.0
220
0.0
230
1.0
 70
    11
 71
     3
 72
    26
 73
    22
 74
     0
 42
0.0000000001
 43
0.0000000001
 40
0.0
 40
0.0
 40
0.0
 40
0.0
 40
1.0
 40
1.0
 40
1.0
 40
2.0
 40
2.0
 40
2.0
 40
3.0
 40
3.0
 40
3.0
 40
4.0
 40
4.0
 40
4.0
 40
5.0
 40
5.0
 40
5.0
 40
6.0
 40
6.0
 40
6.0
 40
7.0
 40
7.0
 40
7.0
 40
7.0
 10
95.76400822258678
 20
-162.2126654325371
 30
0.0
 10
95.76400822258678
 20
-162.2126654325371
 30
0.0
 10
95.76400822258678
 20
-161.1085123295145
 30
0.0
 10
95.76400822258678
 20
-161.1085123295145
 30
0.0
 10
95.76400822258678
 20
-161.1085123295145
 30
0.0
 10
95.43396807509983
 20
-161.1085123295145
 30
0.0
 10
95.43396807509983
 20
-161.1085123295145
 30
0.0
 10
95.43396807509983
 20
-161.1085123295145
 30
0.0
 10
95.43396807509983
 20
-160.9603732236488
 30
0.0
 10
95.43396807509983
 20
-160.9603732236488
 30
0.0
 10
95.76607527987793
 20
-160.9455593130622
 30
0.0
 10
95.8125840689288
 20
-160.7826062966099
 30
0.0
 10
95.84221189010195
 20
-160.6682291264996
 30
0.0
 10
95.84221189010195
 20
-160.6682291264996
 30
0.0
 10
95.98828393867654
 20
-160.6682291264996
 30
0.0
 10
95.98828393867654
 20
-160.6682291264996
 30
0.0
 10
95.98828393867654
 20
-160.6682291264996
 30
0.0
 10
95.98828393867654
 20
-162.2126654325371
 30
0.0
 10
95.98828393867654
 20
-162.2126654325371
 30
0.0
 10
95.98828393867654
 20
-162.2126654325371
 30
0.0
 10
95.76400822258678
 20
-162.2126654325371
 30
0.0
 10
95.76400822258678
 20
-162.2126654325371
 30
0.0
  0
HATCH
  5
8A
330
85
100
AcDbEntity
  8
レイヤー 1
 62
   250
420
  2299925
440
 33554687
100
AcDbHatch
 10
0.0
 20
0.0
 30
0.0
210
0.0
220
0.0
230
1.0
  2
SOLID
 70
     1
 71
     1
 91
        1
 92
        1
 93
        1
 72
     4
 94
        3
 73
     0
 74
     0
 95
       26
 96
       22
 40
0.0
 40
0.0
 40
0.0
 40
0.0
 40
1.0
 40
1.0
 40
1.0
 40
2.0
 40
2.0
 40
2.0
 40
3.0
 40
3.0
 40
3.0
 40
4.0
 40
4.0
 40
4.0
 40
5.0
 40
5.0
 40
5.0
 40
6.0
 40
6.0
 40
6.0
 40
7.0
 40
7.0
 40
7.0
 40
7.0
 10
95.76400822258678
 20
-162.2126654325371
 10
95.76400822258678
 20
-162.2126654325371
 10
95.76400822258678
 20
-161.1085123295145
 10
95.76400822258678
 20
-161.1085123295145
 10
95.76400822258678
 20
-161.1085123295145
 10
95.43396807509983
 20
-161.1085123295145
 10
95.43396807509983
 20
-161.1085123295145
 10
95.43396807509983
 20
-161.1085123295145
 10
95.43396807509983
 20
-160.9603732236488
 10
95.43396807509983
 20
-160.9603732236488
 10
95.76607527987793
 20
-160.9455593130622
 10
95.8125840689288
 20
-160.7826062966099
 10
95.84221189010195
 20
-160.6682291264996
 10
95.84221189010195
 20
-160.6682291264996
 10
95.98828393867654
 20
-160.6682291264996
 10
95.98828393867654
 20
-160.6682291264996
 10
95.98828393867654
 20
-160.6682291264996
 10
95.98828393867654
 20
-162.2126654325371
 10
95.98828393867654
 20
-162.2126654325371
 10
95.98828393867654
 20
-162.2126654325371
 10
95.76400822258678
 20
-162.2126654325371
 10
95.76400822258678
 20
-162.2126654325371
 97
        0
 97
        1
330
89
 75
     2
 76
     1
 98
        1
 10
0.0
 20
0.0
450
        0
451
        0
460
0.0
461
0.0
452
        0
462
0.0
453
        0
470

  0
SPLINE
  5
8B
330
85
100
AcDbEntity
  8
レイヤー 1
100
AcDbSpline
210
0.0
220
0.0
230
1.0
 70
     9
 71
     3
 72
    17
 73
    13
 74
     0
 42
0.0000000001
 43
0.0000000001
 40
0.0
 40
0.0
 40
0.0
 40
0.0
 40
1.0
 40
1.0
 40
1.0
 40
2.0
 40
2.0
 40
2.0
 40
3.0
 40
3.0
 40
3.0
 40
4.0
 40
4.0
 40
4.0
 40
4.0
 10
96.98942868669014
 20
-160.812234117783
 30
0.0
 10
96.74000377355806
 20
-160.812234117783
 30
0.0
 10
96.69315047495866
 20
-161.0957654762191
 30
0.0
 10
96.69315047495866
 20
-161.4406195342926
 30
0.0
 10
96.69315047495866
 20
-161.7599798857753
 30
0.0
 10
96.7293239775538
 20
-162.0686604412537
 30
0.0
 10
96.98942868669014
 20
-162.0686604412537
 30
0.0
 10
97.23713105207961
 20
-162.0686604412537
 30
0.0
 10
97.28570689842165
 20
-161.7875406496573
 30
0.0
 10
97.28570689842165
 20
-161.4406195342926
 30
0.0
 10
97.28570689842165
 20
-161.1209146732614
 30
0.0
 10
97.24746633853536
 20
-160.812234117783
 30
0.0
 10
96.98942868669014
 20
-160.812234117783
 30
0.0
  0
SPLINE
  5
8C
330
85
100
AcDbEntity
  8
レイヤー 1
100
AcDbSpline
210
0.0
220
0.0
230
1.0
 70
     9
 71
     3
 72
    29
 73
    25
 74
     0
 42
0.0000000001
 43
0.0000000001
 40
0.0
 40
0.0
 40
0.0
 40
0.0
 40
1.0
 40
1.0
 40
1.0
 40
2.0
 40
2.0
 40
2.0
 40
3.0
 40
3.0
 40
3.0
 40
4.0
 40
4.0
 40
4.0
 40
5.0
 40
5.0
 40
5.0
 40
6.0
 40
6.0
 40
6.0
 40
7.0
 40
7.0
 40
7.0
 40
8.0
 40
8.0
 40
8.0
 40
8.0
 10
97.38733721523651
 20
-162.0348985054982
 30
0.0
 10
97.27916121699966
 20
-162.2443603110014
 30
0.0
 10
97.1058729140916
 20
-162.2633083361703
 30
0.0
 10
96.98942868669014
 20
-162.2633083361703
 30
0.0
 10
96.82854272752898
 20
-162.2633083361703
 30
0.0
 10
96.68694930308522
 20
-162.2167995471194
 30
0.0
 10
96.59186466769233
 20
-162.0348985054982
 30
0.0
 10
96.4881672935863
 20
-161.8402506105816
 30
0.0
 10
96.46921926841741
 20
-161.6035725507449
 30
0.0
 10
96.46921926841741
 20
-161.4406195342926
 30
0.0
 10
96.46921926841741
 20
-161.2966145430092
 30
0.0
 10
96.48610023629515
 20
-161.0447780630374
 30
0.0
 10
96.59186466769233
 20
-160.8459960535385
 30
0.0
 10
96.69969615638065
 20
-160.6430799294573
 30
0.0
 10
96.86058211554181
 20
-160.6196532801576
 30
0.0
 10
96.98942868669014
 20
-160.6196532801576
 30
0.0
 10
97.14824758856018
 20
-160.6196532801576
 30
0.0
 10
97.29190807029509
 20
-160.6640950119173
 30
0.0
 10
97.38733721523651
 20
-160.8459960535385
 30
0.0
 10
97.48655596521169
 20
-161.038576891164
 30
0.0
 10
97.5099826145114
 20
-161.266986721836
 30
0.0
 10
97.5099826145114
 20
-161.4406195342926
 30
0.0
 10
97.5099826145114
 20
-161.6118407799095
 30
0.0
 10
97.48862302250286
 20
-161.8423176678727
 30
0.0
 10
97.38733721523651
 20
-162.0348985054982
 30
0.0
  0
HATCH
  5
8D
330
85
100
AcDbEntity
  8
レイヤー 1
 62
   250
420
  2299925
440
 33554687
100
AcDbHatch
 10
0.0
 20
0.0
 30
0.0
210
0.0
220
0.0
230
1.0
  2
SOLID
 70
     1
 71
     1
 91
        2
 92
        1
 93
        1
 72
     4
 94
        3
 73
     0
 74
     0
 95
       17
 96
       13
 40
0.0
 40
0.0
 40
0.0
 40
0.0
 40
1.0
 40
1.0
 40
1.0
 40
2.0
 40
2.0
 40
2.0
 40
3.0
 40
3.0
 40
3.0
 40
4.0
 40
4.0
 40
4.0
 40
4.0
 10
96.98942868669014
 20
-160.812234117783
 10
96.74000377355806
 20
-160.812234117783
 10
96.69315047495866
 20
-161.0957654762191
 10
96.69315047495866
 20
-161.4406195342926
 10
96.69315047495866
 20
-161.7599798857753
 10
96.7293239775538
 20
-162.0686604412537
 10
96.98942868669014
 20
-162.0686604412537
 10
97.23713105207961
 20
-162.0686604412537
 10
97.28570689842165
 20
-161.7875406496573
 10
97.28570689842165
 20
-161.4406195342926
 10
97.28570689842165
 20
-161.1209146732614
 10
97.24746633853536
 20
-160.812234117783
 10
96.98942868669014
 20
-160.812234117783
 97
        0
 97
        1
330
8B
 92
        1
 93
        1
 72
     4
 94
        3
 73
     0
 74
     0
 95
       29
 96
       25
 40
0.0
 40
0.0
 40
0.0
 40
0.0
 40
1.0
 40
1.0
 40
1.0
 40
2.0
 40
2.0
 40
2.0
 40
3.0
 40
3.0
 40
3.0
 40
4.0
 40
4.0
 40
4.0
 40
5.0
 40
5.0
 40
5.0
 40
6.0
 40
6.0
 40
6.0
 40
7.0
 40
7.0
 40
7.0
 40
8.0
 40
8.0
 40
8.0
 40
8.0
 10
97.38733721523651
 20
-162.0348985054982
 10
97.27916121699966
 20
-162.2443603110014
 10
97.1058729140916
 20
-162.2633083361703
 10
96.98942868669014
 20
-162.2633083361703
 10
96.82854272752898
 20
-162.2633083361703
 10
96.68694930308522
 20
-162.2167995471194
 10
96.59186466769233
 20
-162.0348985054982
 10
96.4881672935863
 20
-161.8402506105816
 10
96.46921926841741
 20
-161.6035725507449
 10
96.46921926841741
 20
-161.4406195342926
 10
96.46921926841741
 20
-161.2966145430092
 10
96.48610023629515
 20
-161.0447780630374
 10
96.59186466769233
 20
-160.8459960535385
 10
96.69969615638065
 20
-160.6430799294573
 10
96.86058211554181
 20
-160.6196532801576
 10
96.98942868669014
 20
-160.6196532801576
 10
97.14824758856018
 20
-160.6196532801576
 10
97.29190807029509
 20
-160.6640950119173
 10
97.38733721523651
 20
-160.8459960535385
 10
97.48655596521169
 20
-161.038576891164
 10
97.5099826145114
 20
-161.266986721836
 10
97.5099826145114
 20
-161.4406195342926
 10
97.5099826145114
 20
-161.6118407799095
 10
97.48862302250286
 20
-161.8423176678727
 10
97.38733721523651
 20
-162.0348985054982
 97
        0
 97
        1
330
8C
 75
     2
 76
     1
 98
        1
 10
0.0
 20
0.0
450
        0
451
        0
460
0.0
461
0.0
452
        0
462
0.0
453
        0
470

  0
ENDBLK
  5
88
330
85
100
AcDbEntity
  8
0
100
AcDbBlockEnd
  0
BLOCK
  5
90
330
8E
100
AcDbEntity
  8
0
100
AcDbBlockBegin
  2
Block_2
 70
     0
 10
0.0
 20
0.0
 30
0.0
  3
Block_2
  1

  0
LINE
  5
92
330
8E
100
AcDbEntity
  8
レイヤー 1
 62
   250
420
  2299925
370
     9
100
AcDbLine
 10
118.6776214129275
 20
-155.8089006725254
 30
0.0
 11
102.575926823716
 21
-155.8089006725254
 31
0.0
  0
LINE
  5
93
330
8E
100
AcDbEntity
  8
レイヤー 1
 62
   250
420
  2299925
370
     9
100
AcDbLine
 10
118.6776214129275
 20
-143.0088228289328
 30
0.0
 11
114.6117165166574
 21
-143.0088228289328
 31
0.0
  0
LINE
  5
94
330
8E
100
AcDbEntity
  8
レイヤー 1
 62
   250
420
  2299925
370
     9
100
AcDbLine
 10
118.6776214129275
 20
-142.0676470196108
 30
0.0
 11
114.6117165166574
 21
-142.0676470196108
 31
0.0
  0
ENDBLK
  5
91
330
8E
100
AcDbEntity
  8
0
100
AcDbBlockEnd
  0
BLOCK
  5
97
330
95
100
AcDbEntity
  8
0
100
AcDbBlockBegin
  2
Block_3
 70
     0
 10
0.0
 20
0.0
 30
0.0
  3
Block_3
  1

  0
INSERT
  5
9A
330
95
100
AcDbEntity
  8
レイヤー 1
100
AcDbBlockReference
  2
Block_4
 10
0.0
 20
0.0
 30
0.0
  0
ENDBLK
  5
98
330
95
100
AcDbEntity
  8
0
100
AcDbBlockEnd
  0
BLOCK
  5
9B
330
99
100
AcDbEntity
  8
0
100
AcDbBlockBegin
  2
Block_4
 70
     0
 10
0.0
 20
0.0
 30
0.0
  3
Block_4
  1

  0
SPLINE
  5
9D
330
99
100
AcDbEntity
  8
レイヤー 1
100
AcDbSpline
210
0.0
220
0.0
230
1.0
 70
    11
 71
     3
 72
    26
 73
    22
 74
     0
 42
0.0000000001
 43
0.0000000001
 40
0.0
 40
0.0
 40
0.0
 40
0.0
 40
1.0
 40
1.0
 40
1.0
 40
2.0
 40
2.0
 40
2.0
 40
3.0
 40
3.0
 40
3.0
 40
4.0
 40
4.0
 40
4.0
 40
5.0
 40
5.0
 40
5.0
 40
6.0
 40
6.0
 40
6.0
 40
7.0
 40
7.0
 40
7.0
 40
7.0
 10
116.9348089985441
 20
-150.8462618980523
 30
0.0
 10
116.9348089985441
 20
-150.8462618980523
 30
0.0
 10
115.8306558955215
 20
-150.8462618980523
 30
0.0
 10
115.8306558955215
 20
-150.8462618980523
 30
0.0
 10
115.8306558955215
 20
-150.8462618980523
 30
0.0
 10
115.8306558955215
 20
-151.1763020455392
 30
0.0
 10
115.8306558955215
 20
-151.1763020455392
 30
0.0
 10
115.8306558955215
 20
-151.1763020455392
 30
0.0
 10
115.6825167896557
 20
-151.1763020455392
 30
0.0
 10
115.6825167896557
 20
-151.1763020455392
 30
0.0
 10
115.6677028790692
 20
-150.8441948407612
 30
0.0
 10
115.5047498626168
 20
-150.7976860517103
 30
0.0
 10
115.3907172020551
 20
-150.7680582305371
 30
0.0
 10
115.3907172020551
 20
-150.7680582305371
 30
0.0
 10
115.3907172020551
 20
-150.6219861819625
 30
0.0
 10
115.3907172020551
 20
-150.6219861819625
 30
0.0
 10
115.3907172020551
 20
-150.6219861819625
 30
0.0
 10
116.9348089985441
 20
-150.6219861819625
 30
0.0
 10
116.9348089985441
 20
-150.6219861819625
 30
0.0
 10
116.9348089985441
 20
-150.6219861819625
 30
0.0
 10
116.9348089985441
 20
-150.8462618980523
 30
0.0
 10
116.9348089985441
 20
-150.8462618980523
 30
0.0
  0
HATCH
  5
9E
330
99
100
AcDbEntity
  8
レイヤー 1
 62
   250
420
  2299925
440
 33554687
100
AcDbHatch
 10
0.0
 20
0.0
 30
0.0
210
0.0
220
0.0
230
1.0
  2
SOLID
 70
     1
 71
     1
 91
        1
 92
        1
 93
        1
 72
     4
 94
        3
 73
     0
 74
     0
 95
       26
 96
       22
 40
0.0
 40
0.0
 40
0.0
 40
0.0
 40
1.0
 40
1.0
 40
1.0
 40
2.0
 40
2.0
 40
2.0
 40
3.0
 40
3.0
 40
3.0
 40
4.0
 40
4.0
 40
4.0
 40
5.0
 40
5.0
 40
5.0
 40
6.0
 40
6.0
 40
6.0
 40
7.0
 40
7.0
 40
7.0
 40
7.0
 10
116.9348089985441
 20
-150.8462618980523
 10
116.9348089985441
 20
-150.8462618980523
 10
115.8306558955215
 20
-150.8462618980523
 10
115.8306558955215
 20
-150.8462618980523
 10
115.8306558955215
 20
-150.8462618980523
 10
115.8306558955215
 20
-151.1763020455392
 10
115.8306558955215
 20
-151.1763020455392
 10
115.8306558955215
 20
-151.1763020455392
 10
115.6825167896557
 20
-151.1763020455392
 10
115.6825167896557
 20
-151.1763020455392
 10
115.6677028790692
 20
-150.8441948407612
 10
115.5047498626168
 20
-150.7976860517103
 10
115.3907172020551
 20
-150.7680582305371
 10
115.3907172020551
 20
-150.7680582305371
 10
115.3907172020551
 20
-150.6219861819625
 10
115.3907172020551
 20
-150.6219861819625
 10
115.3907172020551
 20
-150.6219861819625
 10
116.9348089985441
 20
-150.6219861819625
 10
116.9348089985441
 20
-150.6219861819625
 10
116.9348089985441
 20
-150.6219861819625
 10
116.9348089985441
 20
-150.8462618980523
 10
116.9348089985441
 20
-150.8462618980523
 97
        0
 97
        1
330
9D
 75
     2
 76
     1
 98
        1
 10
0.0
 20
0.0
450
        0
451
        0
460
0.0
461
0.0
452
        0
462
0.0
453
        0
470

  0
SPLINE
  5
9F
330
99
100
AcDbEntity
  8
レイヤー 1
100
AcDbSpline
210
0.0
220
0.0
230
1.0
 70
     9
 71
     3
 72
    44
 73
    40
 74
     0
 42
0.0000000001
 43
0.0000000001
 40
0.0
 40
0.0
 40
0.0
 40
0.0
 40
1.0
 40
1.0
 40
1.0
 40
2.0
 40
2.0
 40
2.0
 40
3.0
 40
3.0
 40
3.0
 40
4.0
 40
4.0
 40
4.0
 40
5.0
 40
5.0
 40
5.0
 40
6.0
 40
6.0
 40
6.0
 40
7.0
 40
7.0
 40
7.0
 40
8.0
 40
8.0
 40
8.0
 40
9.0
 40
9.0
 40
9.0
 40
10.0
 40
10.0
 40
10.0
 40
11.0
 40
11.0
 40
11.0
 40
12.0
 40
12.0
 40
12.0
 40
13.0
 40
13.0
 40
13.0
 40
13.0
 10
116.3532768806339
 20
-149.5274793462987
 30
0.0
 10
116.5117512729554
 20
-149.745553890515
 30
0.0
 10
116.5858208258883
 20
-149.8389159781653
 30
0.0
 10
116.7298258171717
 20
-149.8871473149588
 30
0.0
 10
116.7298258171717
 20
-149.8871473149588
 30
0.0
 10
116.7298258171717
 20
-149.1089002448408
 30
0.0
 10
116.7298258171717
 20
-149.1089002448408
 30
0.0
 10
116.7298258171717
 20
-149.1089002448408
 30
0.0
 10
116.9348089985441
 20
-149.1089002448408
 30
0.0
 10
116.9348089985441
 20
-149.1089002448408
 30
0.0
 10
116.9348089985441
 20
-149.1089002448408
 30
0.0
 10
116.9348089985441
 20
-150.1369167376394
 30
0.0
 10
116.9348089985441
 20
-150.1369167376394
 30
0.0
 10
116.5772080871751
 20
-150.1052218591751
 30
0.0
 10
116.49900441966
 20
-150.0397650449553
 30
0.0
 10
116.2006591506373
 20
-149.6546033697044
 30
0.0
 10
116.0018771411384
 20
-149.3986327751503
 30
0.0
 10
115.9343532696275
 20
-149.3331759609306
 30
0.0
 10
115.796893959766
 20
-149.3331759609306
 30
0.0
 10
115.6783826750734
 20
-149.3331759609306
 30
0.0
 10
115.5471245370854
 20
-149.4048339470238
 30
0.0
 10
115.5471245370854
 20
-149.6018934087801
 30
0.0
 10
115.5471245370854
 20
-149.8619981179164
 30
0.0
 10
115.7776014250486
 20
-149.8706108566296
 30
0.0
 10
115.8940456524501
 20
-149.8747449712118
 30
0.0
 10
115.8940456524501
 20
-149.8747449712118
 30
0.0
 10
115.8940456524501
 20
-150.0986761777531
 30
0.0
 10
115.8940456524501
 20
-150.0986761777531
 30
0.0
 10
115.7672661385929
 20
-150.0904079485885
 30
0.0
 10
115.6549560257738
 20
-150.0800726621328
 30
0.0
 10
115.5364447410812
 20
-149.9994574277779
 30
0.0
 10
115.3759032914685
 20
-149.8895588817984
 30
0.0
 10
115.3417968461645
 20
-149.7031792160464
 30
0.0
 10
115.3417968461645
 20
-149.586734988645
 30
0.0
 10
115.3417968461645
 20
-149.3097493116309
 30
0.0
 10
115.5261094546254
 20
-149.1023545634188
 30
0.0
 10
115.7989610170572
 20
-149.1023545634188
 30
0.0
 10
116.0273708477292
 20
-149.1023545634188
 30
0.0
 10
116.126934107253
 20
-149.2187987908203
 30
0.0
 10
116.3532768806339
 20
-149.5274793462987
 30
0.0
  0
HATCH
  5
A0
330
99
100
AcDbEntity
  8
レイヤー 1
 62
   250
420
  2299925
440
 33554687
100
AcDbHatch
 10
0.0
 20
0.0
 30
0.0
210
0.0
220
0.0
230
1.0
  2
SOLID
 70
     1
 71
     1
 91
        1
 92
        1
 93
        1
 72
     4
 94
        3
 73
     0
 74
     0
 95
       44
 96
       40
 40
0.0
 40
0.0
 40
0.0
 40
0.0
 40
1.0
 40
1.0
 40
1.0
 40
2.0
 40
2.0
 40
2.0
 40
3.0
 40
3.0
 40
3.0
 40
4.0
 40
4.0
 40
4.0
 40
5.0
 40
5.0
 40
5.0
 40
6.0
 40
6.0
 40
6.0
 40
7.0
 40
7.0
 40
7.0
 40
8.0
 40
8.0
 40
8.0
 40
9.0
 40
9.0
 40
9.0
 40
10.0
 40
10.0
 40
10.0
 40
11.0
 40
11.0
 40
11.0
 40
12.0
 40
12.0
 40
12.0
 40
13.0
 40
13.0
 40
13.0
 40
13.0
 10
116.3532768806339
 20
-149.5274793462987
 10
116.5117512729554
 20
-149.745553890515
 10
116.5858208258883
 20
-149.8389159781653
 10
116.7298258171717
 20
-149.8871473149588
 10
116.7298258171717
 20
-149.8871473149588
 10
116.7298258171717
 20
-149.1089002448408
 10
116.7298258171717
 20
-149.1089002448408
 10
116.7298258171717
 20
-149.1089002448408
 10
116.9348089985441
 20
-149.1089002448408
 10
116.9348089985441
 20
-149.1089002448408
 10
116.9348089985441
 20
-149.1089002448408
 10
116.9348089985441
 20
-150.1369167376394
 10
116.9348089985441
 20
-150.1369167376394
 10
116.5772080871751
 20
-150.1052218591751
 10
116.49900441966
 20
-150.0397650449553
 10
116.2006591506373
 20
-149.6546033697044
 10
116.0018771411384
 20
-149.3986327751503
 10
115.9343532696275
 20
-149.3331759609306
 10
115.796893959766
 20
-149.3331759609306
 10
115.6783826750734
 20
-149.3331759609306
 10
115.5471245370854
 20
-149.4048339470238
 10
115.5471245370854
 20
-149.6018934087801
 10
115.5471245370854
 20
-149.8619981179164
 10
115.7776014250486
 20
-149.8706108566296
 10
115.8940456524501
 20
-149.8747449712118
 10
115.8940456524501
 20
-149.8747449712118
 10
115.8940456524501
 20
-150.0986761777531
 10
115.8940456524501
 20
-150.0986761777531
 10
115.7672661385929
 20
-150.0904079485885
 10
115.6549560257738
 20
-150.0800726621328
 10
115.5364447410812
 20
-149.9994574277779
 10
115.3759032914685
 20
-149.8895588817984
 10
115.3417968461645
 20
-149.7031792160464
 10
115.3417968461645
 20
-149.586734988645
 10
115.3417968461645
 20
-149.3097493116309
 10
115.5261094546254
 20
-149.1023545634188
 10
115.7989610170572
 20
-149.1023545634188
 10
116.0273708477292
 20
-149.1023545634188
 10
116.126934107253
 20
-149.2187987908203
 10
116.3532768806339
 20
-149.5274793462987
 97
        0
 97
        1
330
9F
 75
     2
 76
     1
 98
        1
 10
0.0
 20
0.0
450
        0
451
        0
460
0.0
461
0.0
452
        0
462
0.0
453
        0
470

  0
SPLINE
  5
A1
330
99
100
AcDbEntity
  8
レイヤー 1
100
AcDbSpline
210
0.0
220
0.0
230
1.0
 70
    11
 71
     3
 72
    17
 73
    13
 74
     0
 42
0.0000000001
 43
0.0000000001
 40
0.0
 40
0.0
 40
0.0
 40
0.0
 40
1.0
 40
1.0
 40
1.0
 40
2.0
 40
2.0
 40
2.0
 40
3.0
 40
3.0
 40
3.0
 40
4.0
 40
4.0
 40
4.0
 40
4.0
 10
116.9348089985441
 20
-148.883935509654
 30
0.0
 10
116.9348089985441
 20
-148.883935509654
 30
0.0
 10
116.6833170281208
 20
-148.883935509654
 30
0.0
 10
116.6833170281208
 20
-148.883935509654
 30
0.0
 10
116.6833170281208
 20
-148.883935509654
 30
0.0
 10
116.6833170281208
 20
-148.6322712844565
 30
0.0
 10
116.6833170281208
 20
-148.6322712844565
 30
0.0
 10
116.6833170281208
 20
-148.6322712844565
 30
0.0
 10
116.9348089985441
 20
-148.6322712844565
 30
0.0
 10
116.9348089985441
 20
-148.6322712844565
 30
0.0
 10
116.9348089985441
 20
-148.6322712844565
 30
0.0
 10
116.9348089985441
 20
-148.883935509654
 30
0.0
 10
116.9348089985441
 20
-148.883935509654
 30
0.0
  0
HATCH
  5
A2
330
99
100
AcDbEntity
  8
レイヤー 1
 62
   250
420
  2299925
440
 33554687
100
AcDbHatch
 10
0.0
 20
0.0
 30
0.0
210
0.0
220
0.0
230
1.0
  2
SOLID
 70
     1
 71
     1
 91
        1
 92
        1
 93
        1
 72
     4
 94
        3
 73
     0
 74
     0
 95
       17
 96
       13
 40
0.0
 40
0.0
 40
0.0
 40
0.0
 40
1.0
 40
1.0
 40
1.0
 40
2.0
 40
2.0
 40
2.0
 40
3.0
 40
3.0
 40
3.0
 40
4.0
 40
4.0
 40
4.0
 40
4.0
 10
116.9348089985441
 20
-148.883935509654
 10
116.9348089985441
 20
-148.883935509654
 10
116.6833170281208
 20
-148.883935509654
 10
116.6833170281208
 20
-148.883935509654
 10
116.6833170281208
 20
-148.883935509654
 10
116.6833170281208
 20
-148.6322712844565
 10
116.6833170281208
 20
-148.6322712844565
 10
116.6833170281208
 20
-148.6322712844565
 10
116.9348089985441
 20
-148.6322712844565
 10
116.9348089985441
 20
-148.6322712844565
 10
116.9348089985441
 20
-148.6322712844565
 10
116.9348089985441
 20
-148.883935509654
 10
116.9348089985441
 20
-148.883935509654
 97
        0
 97
        1
330
A1
 75
     2
 76
     1
 98
        1
 10
0.0
 20
0.0
450
        0
451
        0
460
0.0
461
0.0
452
        0
462
0.0
453
        0
470

  0
SPLINE
  5
A3
330
99
100
AcDbEntity
  8
レイヤー 1
100
AcDbSpline
210
0.0
220
0.0
230
1.0
 70
     9
 71
     3
 72
    17
 73
    13
 74
     0
 42
0.0000000001
 43
0.0000000001
 40
0.0
 40
0.0
 40
0.0
 40
0.0
 40
1.0
 40
1.0
 40
1.0
 40
2.0
 40
2.0
 40
2.0
 40
3.0
 40
3.0
 40
3.0
 40
4.0
 40
4.0
 40
4.0
 40
4.0
 10
116.1944579787639
 20
-147.8957098697101
 30
0.0
 10
116.1944579787639
 20
-148.0395426062193
 30
0.0
 10
116.2812743849922
 20
-148.1918158266673
 30
0.0
 10
116.4841905090734
 20
-148.1918158266673
 30
0.0
 10
116.6895181999943
 20
-148.1918158266673
 30
0.0
 10
116.7911485168091
 20
-148.0648640580358
 30
0.0
 10
116.7911485168091
 20
-147.8957098697101
 30
0.0
 10
116.7911485168091
 20
-147.7095024587323
 30
0.0
 10
116.6685031175342
 20
-147.5994316579786
 30
0.0
 10
116.4907361904954
 20
-147.5994316579786
 30
0.0
 10
116.2685275316967
 20
-147.5994316579786
 30
0.0
 10
116.1944579787639
 20
-147.7623846744309
 30
0.0
 10
116.1944579787639
 20
-147.8957098697101
 30
0.0
  0
SPLINE
  5
A4
330
99
100
AcDbEntity
  8
レイヤー 1
100
AcDbSpline
210
0.0
220
0.0
230
1.0
 70
     9
 71
     3
 72
    17
 73
    13
 74
     0
 42
0.0000000001
 43
0.0000000001
 40
0.0
 40
0.0
 40
0.0
 40
0.0
 40
1.0
 40
1.0
 40
1.0
 40
2.0
 40
2.0
 40
2.0
 40
3.0
 40
3.0
 40
3.0
 40
4.0
 40
4.0
 40
4.0
 40
4.0
 10
115.53437768379
 20
-147.8957098697101
 30
0.0
 10
115.53437768379
 20
-148.0607299434535
 30
0.0
 10
115.6294623191829
 20
-148.1453070376164
 30
0.0
 10
115.7648545717532
 20
-148.1453070376164
 30
0.0
 10
115.8878444805766
 20
-148.1453070376164
 30
0.0
 10
116.0063557652692
 20
-148.0733045419747
 30
0.0
 10
116.0063557652692
 20
-147.8957098697101
 30
0.0
 10
116.0063557652692
 20
-147.7179429426712
 30
0.0
 10
115.8878444805766
 20
-147.6461127018037
 30
0.0
 10
115.7648545717532
 20
-147.6461127018037
 30
0.0
 10
115.6294623191829
 20
-147.6461127018037
 30
0.0
 10
115.53437768379
 20
-147.7327568532578
 30
0.0
 10
115.53437768379
 20
-147.8957098697101
 30
0.0
  0
SPLINE
  5
A5
330
99
100
AcDbEntity
  8
レイヤー 1
100
AcDbSpline
210
0.0
220
0.0
230
1.0
 70
     9
 71
     3
 72
    29
 73
    25
 74
     0
 42
0.0000000001
 43
0.0000000001
 40
0.0
 40
0.0
 40
0.0
 40
0.0
 40
1.0
 40
1.0
 40
1.0
 40
2.0
 40
2.0
 40
2.0
 40
3.0
 40
3.0
 40
3.0
 40
4.0
 40
4.0
 40
4.0
 40
5.0
 40
5.0
 40
5.0
 40
6.0
 40
6.0
 40
6.0
 40
7.0
 40
7.0
 40
7.0
 40
8.0
 40
8.0
 40
8.0
 40
8.0
 10
116.9857964117257
 20
-147.8957098697101
 30
0.0
 10
116.9857964117257
 20
-148.1621880054942
 30
0.0
 10
116.8479925923158
 20
-148.4160915427571
 30
0.0
 10
116.49900441966
 20
-148.4160915427571
 30
0.0
 10
116.2430338251059
 20
-148.4160915427571
 30
0.0
 10
116.147949189713
 20
-148.2743258635391
 30
0.0
 10
116.0866264900755
 20
-148.1685614321419
 30
0.0
 10
116.0273708477292
 20
-148.2934461434822
 30
0.0
 10
115.912993677619
 20
-148.3695827537062
 30
0.0
 10
115.7524522280063
 20
-148.3695827537062
 30
0.0
 10
115.4771890987349
 20
-148.3695827537062
 30
0.0
 10
115.3417968461645
 20
-148.170628489433
 30
0.0
 10
115.3417968461645
 20
-147.8957098697101
 30
0.0
 10
115.3417968461645
 20
-147.612178511274
 30
0.0
 10
115.485801837448
 20
-147.421836985714
 30
0.0
 10
115.7524522280063
 20
-147.421836985714
 30
0.0
 10
115.912993677619
 20
-147.421836985714
 30
0.0
 10
116.0273708477292
 20
-147.5000406532291
 30
0.0
 10
116.0866264900755
 20
-147.6249253645694
 30
0.0
 10
116.1372693937087
 20
-147.53604190105
 30
0.0
 10
116.2326985386501
 20
-147.3773952539542
 30
0.0
 10
116.4948703050777
 20
-147.3773952539542
 30
0.0
 10
116.8693521843243
 20
-147.3773952539542
 30
0.0
 10
116.9857964117257
 20
-147.6566202430337
 30
0.0
 10
116.9857964117257
 20
-147.8957098697101
 30
0.0
  0
HATCH
  5
A6
330
99
100
AcDbEntity
  8
レイヤー 1
 62
   250
420
  2299925
440
 33554687
100
AcDbHatch
 10
0.0
 20
0.0
 30
0.0
210
0.0
220
0.0
230
1.0
  2
SOLID
 70
     1
 71
     1
 91
        3
 92
        1
 93
        1
 72
     4
 94
        3
 73
     0
 74
     0
 95
       17
 96
       13
 40
0.0
 40
0.0
 40
0.0
 40
0.0
 40
1.0
 40
1.0
 40
1.0
 40
2.0
 40
2.0
 40
2.0
 40
3.0
 40
3.0
 40
3.0
 40
4.0
 40
4.0
 40
4.0
 40
4.0
 10
116.1944579787639
 20
-147.8957098697101
 10
116.1944579787639
 20
-148.0395426062193
 10
116.2812743849922
 20
-148.1918158266673
 10
116.4841905090734
 20
-148.1918158266673
 10
116.6895181999943
 20
-148.1918158266673
 10
116.7911485168091
 20
-148.0648640580358
 10
116.7911485168091
 20
-147.8957098697101
 10
116.7911485168091
 20
-147.7095024587323
 10
116.6685031175342
 20
-147.5994316579786
 10
116.4907361904954
 20
-147.5994316579786
 10
116.2685275316967
 20
-147.5994316579786
 10
116.1944579787639
 20
-147.7623846744309
 10
116.1944579787639
 20
-147.8957098697101
 97
        0
 97
        1
330
A3
 92
        1
 93
        1
 72
     4
 94
        3
 73
     0
 74
     0
 95
       17
 96
       13
 40
0.0
 40
0.0
 40
0.0
 40
0.0
 40
1.0
 40
1.0
 40
1.0
 40
2.0
 40
2.0
 40
2.0
 40
3.0
 40
3.0
 40
3.0
 40
4.0
 40
4.0
 40
4.0
 40
4.0
 10
115.53437768379
 20
-147.8957098697101
 10
115.53437768379
 20
-148.0607299434535
 10
115.6294623191829
 20
-148.1453070376164
 10
115.7648545717532
 20
-148.1453070376164
 10
115.8878444805766
 20
-148.1453070376164
 10
116.0063557652692
 20
-148.0733045419747
 10
116.0063557652692
 20
-147.8957098697101
 10
116.0063557652692
 20
-147.7179429426712
 10
115.8878444805766
 20
-147.6461127018037
 10
115.7648545717532
 20
-147.6461127018037
 10
115.6294623191829
 20
-147.6461127018037
 10
115.53437768379
 20
-147.7327568532578
 10
115.53437768379
 20
-147.8957098697101
 97
        0
 97
        1
330
A4
 92
        1
 93
        1
 72
     4
 94
        3
 73
     0
 74
     0
 95
       29
 96
       25
 40
0.0
 40
0.0
 40
0.0
 40
0.0
 40
1.0
 40
1.0
 40
1.0
 40
2.0
 40
2.0
 40
2.0
 40
3.0
 40
3.0
 40
3.0
 40
4.0
 40
4.0
 40
4.0
 40
5.0
 40
5.0
 40
5.0
 40
6.0
 40
6.0
 40
6.0
 40
7.0
 40
7.0
 40
7.0
 40
8.0
 40
8.0
 40
8.0
 40
8.0
 10
116.9857964117257
 20
-147.8957098697101
 10
116.9857964117257
 20
-148.1621880054942
 10
116.8479925923158
 20
-148.4160915427571
 10
116.49900441966
 20
-148.4160915427571
 10
116.2430338251059
 20
-148.4160915427571
 10
116.147949189713
 20
-148.2743258635391
 10
116.0866264900755
 20
-148.1685614321419
 10
116.0273708477292
 20
-148.2934461434822
 10
115.912993677619
 20
-148.3695827537062
 10
115.7524522280063
 20
-148.3695827537062
 10
115.4771890987349
 20
-148.3695827537062
 10
115.3417968461645
 20
-148.170628489433
 10
115.3417968461645
 20
-147.8957098697101
 10
115.3417968461645
 20
-147.612178511274
 10
115.485801837448
 20
-147.421836985714
 10
115.7524522280063
 20
-147.421836985714
 10
115.912993677619
 20
-147.421836985714
 10
116.0273708477292
 20
-147.5000406532291
 10
116.0866264900755
 20
-147.6249253645694
 10
116.1372693937087
 20
-147.53604190105
 10
116.2326985386501
 20
-147.3773952539542
 10
116.4948703050777
 20
-147.3773952539542
 10
116.8693521843243
 20
-147.3773952539542
 10
116.9857964117257
 20
-147.6566202430337
 10
116.9857964117257
 20
-147.8957098697101
 97
        0
 97
        1
330
A5
 75
     2
 76
     1
 98
        1
 10
0.0
 20
0.0
450
        0
451
        0
460
0.0
461
0.0
452
        0
462
0.0
453
        0
470

  0
ENDBLK
  5
9C
330
99
100
AcDbEntity
  8
0
100
AcDbBlockEnd
  0
BLOCK
  5
A9
330
A7
100
AcDbEntity
  8
0
100
AcDbBlockBegin
  2
Block_5
 70
     0
 10
0.0
 20
0.0
 30
0.0
  3
Block_5
  1

  0
SPLINE
  5
AB
330
A7
100
AcDbEntity
  8
レイヤー 1
100
AcDbSpline
210
0.0
220
0.0
230
1.0
 70
     9
 71
     3
 72
    62
 73
    58
 74
     0
 42
0.0000000001
 43
0.0000000001
 40
0.0
 40
0.0
 40
0.0
 40
0.0
 40
1.0
 40
1.0
 40
1.0
 40
2.0
 40
2.0
 40
2.0
 40
3.0
 40
3.0
 40
3.0
 40
4.0
 40
4.0
 40
4.0
 40
5.0
 40
5.0
 40
5.0
 40
6.0
 40
6.0
 40
6.0
 40
7.0
 40
7.0
 40
7.0
 40
8.0
 40
8.0
 40
8.0
 40
9.0
 40
9.0
 40
9.0
 40
10.0
 40
10.0
 40
10.0
 40
11.0
 40
11.0
 40
11.0
 40
12.0
 40
12.0
 40
12.0
 40
13.0
 40
13.0
 40
13.0
 40
14.0
 40
14.0
 40
14.0
 40
15.0
 40
15.0
 40
15.0
 40
16.0
 40
16.0
 40
16.0
 40
17.0
 40
17.0
 40
17.0
 40
18.0
 40
18.0
 40
18.0
 40
19.0
 40
19.0
 40
19.0
 40
19.0
 10
116.9857964117257
 20
-157.3161512193515
 30
0.0
 10
116.9857964117257
 20
-157.4112358547444
 30
0.0
 10
116.9644368197172
 20
-157.6293103989607
 30
0.0
 10
116.7784016635137
 20
-157.7540228555268
 30
0.0
 10
116.6660915506946
 20
-157.8280924084596
 30
0.0
 10
116.5668728007194
 20
-157.8322265230419
 30
0.0
 10
116.4821234517822
 20
-157.8363606376242
 30
0.0
 10
116.4821234517822
 20
-157.8363606376242
 30
0.0
 10
116.4821234517822
 20
-157.6165635456653
 30
0.0
 10
116.4821234517822
 20
-157.6165635456653
 30
0.0
 10
116.5561930047151
 20
-157.6144964883741
 30
0.0
 10
116.7911485168091
 20
-157.6038166923699
 30
0.0
 10
116.7911485168091
 20
-157.3202853339338
 30
0.0
 10
116.7911485168091
 20
-157.1828260240723
 30
0.0
 10
116.7212130784586
 20
-157.0305528036243
 30
0.0
 10
116.4928032477865
 20
-157.0305528036243
 30
0.0
 10
116.3763590203851
 20
-157.0305528036243
 30
0.0
 10
116.327783174043
 20
-157.0687933635106
 30
0.0
 10
116.2960882955787
 20
-157.1004882419749
 30
0.0
 10
116.2220187426459
 20
-157.1742132853592
 30
0.0
 10
116.2092718893504
 20
-157.2906575127607
 30
0.0
 10
116.2092718893504
 20
-157.3457790405246
 30
0.0
 10
116.2092718893504
 20
-157.3647270656935
 30
0.0
 10
116.2113389466416
 20
-157.4009005682887
 30
0.0
 10
116.2154730612239
 20
-157.4284613321706
 30
0.0
 10
116.2154730612239
 20
-157.4284613321706
 30
0.0
 10
116.0211696758558
 20
-157.4284613321706
 30
0.0
 10
116.0211696758558
 20
-157.4284613321706
 30
0.0
 10
116.0273708477292
 20
-157.3902207722844
 30
0.0
 10
116.0294379050204
 20
-157.3478460978158
 30
0.0
 10
116.0294379050204
 20
-157.3416449259424
 30
0.0
 10
116.0294379050204
 20
-157.2761881117226
 30
0.0
 10
116.0084228225604
 20
-157.0770615926752
 30
0.0
 10
115.7714002531752
 20
-157.0770615926752
 30
0.0
 10
115.5936333261363
 20
-157.0770615926752
 30
0.0
 10
115.5385117983723
 20
-157.2083197306632
 30
0.0
 10
115.5385117983723
 20
-157.3182182766427
 30
0.0
 10
115.5385117983723
 20
-157.5828016099098
 30
0.0
 10
115.7714002531752
 20
-157.5910698390744
 30
0.0
 10
115.8434027488169
 20
-157.5952039536567
 30
0.0
 10
115.8434027488169
 20
-157.5952039536567
 30
0.0
 10
115.8434027488169
 20
-157.7984645872865
 30
0.0
 10
115.8434027488169
 20
-157.7984645872865
 30
0.0
 10
115.7183457827023
 20
-157.7901963581219
 30
0.0
 10
115.3417968461645
 20
-157.7626355942399
 30
0.0
 10
115.3417968461645
 20
-157.3058159328957
 30
0.0
 10
115.3417968461645
 20
-157.0811957072575
 30
0.0
 10
115.4689208695703
 20
-156.84003902329
 30
0.0
 10
115.7648545717532
 20
-156.84003902329
 30
0.0
 10
115.9512342375052
 20
-156.84003902329
 30
0.0
 10
116.0335720196027
 20
-156.9351236586829
 30
0.0
 10
116.0948947192401
 20
-157.0350314277551
 30
0.0
 10
116.1224554831221
 20
-156.9733642185692
 30
0.0
 10
116.203070717477
 20
-156.791463176948
 30
0.0
 10
116.4800563944911
 20
-156.791463176948
 30
0.0
 10
116.8187092806912
 20
-156.791463176948
 30
0.0
 10
116.9857964117257
 20
-157.0391655423374
 30
0.0
 10
116.9857964117257
 20
-157.3161512193515
 30
0.0
  0
HATCH
  5
AC
330
A7
100
AcDbEntity
  8
レイヤー 1
 62
   250
420
  2299925
440
 33554687
100
AcDbHatch
 10
0.0
 20
0.0
 30
0.0
210
0.0
220
0.0
230
1.0
  2
SOLID
 70
     1
 71
     1
 91
        1
 92
        1
 93
        1
 72
     4
 94
        3
 73
     0
 74
     0
 95
       62
 96
       58
 40
0.0
 40
0.0
 40
0.0
 40
0.0
 40
1.0
 40
1.0
 40
1.0
 40
2.0
 40
2.0
 40
2.0
 40
3.0
 40
3.0
 40
3.0
 40
4.0
 40
4.0
 40
4.0
 40
5.0
 40
5.0
 40
5.0
 40
6.0
 40
6.0
 40
6.0
 40
7.0
 40
7.0
 40
7.0
 40
8.0
 40
8.0
 40
8.0
 40
9.0
 40
9.0
 40
9.0
 40
10.0
 40
10.0
 40
10.0
 40
11.0
 40
11.0
 40
11.0
 40
12.0
 40
12.0
 40
12.0
 40
13.0
 40
13.0
 40
13.0
 40
14.0
 40
14.0
 40
14.0
 40
15.0
 40
15.0
 40
15.0
 40
16.0
 40
16.0
 40
16.0
 40
17.0
 40
17.0
 40
17.0
 40
18.0
 40
18.0
 40
18.0
 40
19.0
 40
19.0
 40
19.0
 40
19.0
 10
116.9857964117257
 20
-157.3161512193515
 10
116.9857964117257
 20
-157.4112358547444
 10
116.9644368197172
 20
-157.6293103989607
 10
116.7784016635137
 20
-157.7540228555268
 10
116.6660915506946
 20
-157.8280924084596
 10
116.5668728007194
 20
-157.8322265230419
 10
116.4821234517822
 20
-157.8363606376242
 10
116.4821234517822
 20
-157.8363606376242
 10
116.4821234517822
 20
-157.6165635456653
 10
116.4821234517822
 20
-157.6165635456653
 10
116.5561930047151
 20
-157.6144964883741
 10
116.7911485168091
 20
-157.6038166923699
 10
116.7911485168091
 20
-157.3202853339338
 10
116.7911485168091
 20
-157.1828260240723
 10
116.7212130784586
 20
-157.0305528036243
 10
116.4928032477865
 20
-157.0305528036243
 10
116.3763590203851
 20
-157.0305528036243
 10
116.327783174043
 20
-157.0687933635106
 10
116.2960882955787
 20
-157.1004882419749
 10
116.2220187426459
 20
-157.1742132853592
 10
116.2092718893504
 20
-157.2906575127607
 10
116.2092718893504
 20
-157.3457790405246
 10
116.2092718893504
 20
-157.3647270656935
 10
116.2113389466416
 20
-157.4009005682887
 10
116.2154730612239
 20
-157.4284613321706
 10
116.2154730612239
 20
-157.4284613321706
 10
116.0211696758558
 20
-157.4284613321706
 10
116.0211696758558
 20
-157.4284613321706
 10
116.0273708477292
 20
-157.3902207722844
 10
116.0294379050204
 20
-157.3478460978158
 10
116.0294379050204
 20
-157.3416449259424
 10
116.0294379050204
 20
-157.2761881117226
 10
116.0084228225604
 20
-157.0770615926752
 10
115.7714002531752
 20
-157.0770615926752
 10
115.5936333261363
 20
-157.0770615926752
 10
115.5385117983723
 20
-157.2083197306632
 10
115.5385117983723
 20
-157.3182182766427
 10
115.5385117983723
 20
-157.5828016099098
 10
115.7714002531752
 20
-157.5910698390744
 10
115.8434027488169
 20
-157.5952039536567
 10
115.8434027488169
 20
-157.5952039536567
 10
115.8434027488169
 20
-157.7984645872865
 10
115.8434027488169
 20
-157.7984645872865
 10
115.7183457827023
 20
-157.7901963581219
 10
115.3417968461645
 20
-157.7626355942399
 10
115.3417968461645
 20
-157.3058159328957
 10
115.3417968461645
 20
-157.0811957072575
 10
115.4689208695703
 20
-156.84003902329
 10
115.7648545717532
 20
-156.84003902329
 10
115.9512342375052
 20
-156.84003902329
 10
116.0335720196027
 20
-156.9351236586829
 10
116.0948947192401
 20
-157.0350314277551
 10
116.1224554831221
 20
-156.9733642185692
 10
116.203070717477
 20
-156.791463176948
 10
116.4800563944911
 20
-156.791463176948
 10
116.8187092806912
 20
-156.791463176948
 10
116.9857964117257
 20
-157.0391655423374
 10
116.9857964117257
 20
-157.3161512193515
 97
        0
 97
        1
330
AB
 75
     2
 76
     1
 98
        1
 10
0.0
 20
0.0
450
        0
451
        0
460
0.0
461
0.0
452
        0
462
0.0
453
        0
470

  0
ENDBLK
  5
AA
330
A7
100
AcDbEntity
  8
0
100
AcDbBlockEnd
  0
BLOCK
  5
AF
330
AD
100
AcDbEntity
  8
0
100
AcDbBlockBegin
  2
Block_6
 70
     0
 10
0.0
 20
0.0
 30
0.0
  3
Block_6
  1

  0
SPLINE
  5
B1
330
AD
100
AcDbEntity
  8
レイヤー 1
100
AcDbSpline
210
0.0
220
0.0
230
1.0
 70
    11
 71
     3
 72
    26
 73
    22
 74
     0
 42
0.0000000001
 43
0.0000000001
 40
0.0
 40
0.0
 40
0.0
 40
0.0
 40
1.0
 40
1.0
 40
1.0
 40
2.0
 40
2.0
 40
2.0
 40
3.0
 40
3.0
 40
3.0
 40
4.0
 40
4.0
 40
4.0
 40
5.0
 40
5.0
 40
5.0
 40
6.0
 40
6.0
 40
6.0
 40
7.0
 40
7.0
 40
7.0
 40
7.0
 10
116.9348089985441
 20
-139.1937431835175
 30
0.0
 10
116.9348089985441
 20
-139.1937431835175
 30
0.0
 10
115.8306558955215
 20
-139.1937431835175
 30
0.0
 10
115.8306558955215
 20
-139.1937431835175
 30
0.0
 10
115.8306558955215
 20
-139.1937431835175
 30
0.0
 10
115.8306558955215
 20
-139.5237833310044
 30
0.0
 10
115.8306558955215
 20
-139.5237833310044
 30
0.0
 10
115.8306558955215
 20
-139.5237833310044
 30
0.0
 10
115.6825167896557
 20
-139.5237833310044
 30
0.0
 10
115.6825167896557
 20
-139.5237833310044
 30
0.0
 10
115.6677028790692
 20
-139.1916761262264
 30
0.0
 10
115.5047498626168
 20
-139.1451673371755
 30
0.0
 10
115.3907172020551
 20
-139.1155395160023
 30
0.0
 10
115.3907172020551
 20
-139.1155395160023
 30
0.0
 10
115.3907172020551
 20
-138.9694674674278
 30
0.0
 10
115.3907172020551
 20
-138.9694674674278
 30
0.0
 10
115.3907172020551
 20
-138.9694674674278
 30
0.0
 10
116.9348089985441
 20
-138.9694674674278
 30
0.0
 10
116.9348089985441
 20
-138.9694674674278
 30
0.0
 10
116.9348089985441
 20
-138.9694674674278
 30
0.0
 10
116.9348089985441
 20
-139.1937431835175
 30
0.0
 10
116.9348089985441
 20
-139.1937431835175
 30
0.0
  0
HATCH
  5
B2
330
AD
100
AcDbEntity
  8
レイヤー 1
 62
   250
420
  2299925
440
 33554687
100
AcDbHatch
 10
0.0
 20
0.0
 30
0.0
210
0.0
220
0.0
230
1.0
  2
SOLID
 70
     1
 71
     1
 91
        1
 92
        1
 93
        1
 72
     4
 94
        3
 73
     0
 74
     0
 95
       26
 96
       22
 40
0.0
 40
0.0
 40
0.0
 40
0.0
 40
1.0
 40
1.0
 40
1.0
 40
2.0
 40
2.0
 40
2.0
 40
3.0
 40
3.0
 40
3.0
 40
4.0
 40
4.0
 40
4.0
 40
5.0
 40
5.0
 40
5.0
 40
6.0
 40
6.0
 40
6.0
 40
7.0
 40
7.0
 40
7.0
 40
7.0
 10
116.9348089985441
 20
-139.1937431835175
 10
116.9348089985441
 20
-139.1937431835175
 10
115.8306558955215
 20
-139.1937431835175
 10
115.8306558955215
 20
-139.1937431835175
 10
115.8306558955215
 20
-139.1937431835175
 10
115.8306558955215
 20
-139.5237833310044
 10
115.8306558955215
 20
-139.5237833310044
 10
115.8306558955215
 20
-139.5237833310044
 10
115.6825167896557
 20
-139.5237833310044
 10
115.6825167896557
 20
-139.5237833310044
 10
115.6677028790692
 20
-139.1916761262264
 10
115.5047498626168
 20
-139.1451673371755
 10
115.3907172020551
 20
-139.1155395160023
 10
115.3907172020551
 20
-139.1155395160023
 10
115.3907172020551
 20
-138.9694674674278
 10
115.3907172020551
 20
-138.9694674674278
 10
115.3907172020551
 20
-138.9694674674278
 10
116.9348089985441
 20
-138.9694674674278
 10
116.9348089985441
 20
-138.9694674674278
 10
116.9348089985441
 20
-138.9694674674278
 10
116.9348089985441
 20
-139.1937431835175
 10
116.9348089985441
 20
-139.1937431835175
 97
        0
 97
        1
330
B1
 75
     2
 76
     1
 98
        1
 10
0.0
 20
0.0
450
        0
451
        0
460
0.0
461
0.0
452
        0
462
0.0
453
        0
470

  0
ENDBLK
  5
B0
330
AD
100
AcDbEntity
  8
0
100
AcDbBlockEnd
  0
BLOCK
  5
B7
330
B5
100
AcDbEntity
  8
0
100
AcDbBlockBegin
  2
Block_7
 70
     0
 10
0.0
 20
0.0
 30
0.0
  3
Block_7
  1

  0
LINE
  5
B9
330
B5
100
AcDbEntity
  8
レイヤー 1
 62
   250
420
  2299925
370
     9
100
AcDbLine
 10
117.6778492162116
 20
-158.8002846482812
 30
0.0
 11
117.6778492162116
 21
-138.2973346157995
 31
0.0
  0
LINE
  5
BA
330
B5
100
AcDbEntity
  8
レイヤー 1
 62
   250
420
  2299925
370
     9
100
AcDbLine
 10
118.6776214129275
 20
-158.8092452036082
 30
0.0
 11
102.575926823716
 21
-158.8092452036082
 31
0.0
  0
ENDBLK
  5
B8
330
B5
100
AcDbEntity
  8
0
100
AcDbBlockEnd
  0
BLOCK
  5
C8
330
C6
100
AcDbEntity
  8
0
100
AcDbBlockBegin
  2
Block_8
 70
     0
 10
0.0
 20
0.0
 30
0.0
  3
Block_8
  1

  0
INSERT
  5
CB
330
C6
100
AcDbEntity
  8
レイヤー 1
100
AcDbBlockReference
  2
Block_9
 10
0.0
 20
0.0
 30
0.0
  0
ENDBLK
  5
C9
330
C6
100
AcDbEntity
  8
0
100
AcDbBlockEnd
  0
BLOCK
  5
CC
330
CA
100
AcDbEntity
  8
0
100
AcDbBlockBegin
  2
Block_9
 70
     0
 10
0.0
 20
0.0
 30
0.0
  3
Block_9
  1

  0
SPLINE
  5
CE
330
CA
100
AcDbEntity
  8
レイヤー 1
100
AcDbSpline
210
0.0
220
0.0
230
1.0
 70
     9
 71
     3
 72
    44
 73
    40
 74
     0
 42
0.0000000001
 43
0.0000000001
 40
0.0
 40
0.0
 40
0.0
 40
0.0
 40
1.0
 40
1.0
 40
1.0
 40
2.0
 40
2.0
 40
2.0
 40
3.0
 40
3.0
 40
3.0
 40
4.0
 40
4.0
 40
4.0
 40
5.0
 40
5.0
 40
5.0
 40
6.0
 40
6.0
 40
6.0
 40
7.0
 40
7.0
 40
7.0
 40
8.0
 40
8.0
 40
8.0
 40
9.0
 40
9.0
 40
9.0
 40
10.0
 40
10.0
 40
10.0
 40
11.0
 40
11.0
 40
11.0
 40
12.0
 40
12.0
 40
12.0
 40
13.0
 40
13.0
 40
13.0
 40
13.0
 10
102.4516275785537
 20
-137.6551635398049
 30
0.0
 10
102.2337252891117
 20
-137.813982441675
 30
0.0
 10
102.1405354562357
 20
-137.8880519946078
 30
0.0
 10
102.0919596098937
 20
-138.0317124763427
 30
0.0
 10
102.0919596098937
 20
-138.0317124763427
 30
0.0
 10
102.8703789347858
 20
-138.0317124763427
 30
0.0
 10
102.8703789347858
 20
-138.0317124763427
 30
0.0
 10
102.8703789347858
 20
-138.0317124763427
 30
0.0
 10
102.8703789347858
 20
-138.2370401672637
 30
0.0
 10
102.8703789347858
 20
-138.2370401672637
 30
0.0
 10
102.8703789347858
 20
-138.2370401672637
 30
0.0
 10
101.8423624419873
 20
-138.2370401672637
 30
0.0
 10
101.8423624419873
 20
-138.2370401672637
 30
0.0
 10
101.8740573204516
 20
-137.8794392558947
 30
0.0
 10
101.9396863894456
 20
-137.8012355883796
 30
0.0
 10
102.3246758099223
 20
-137.5028903193569
 30
0.0
 10
102.5806464044763
 20
-137.304108309858
 30
0.0
 10
102.6461032186961
 20
-137.2362399287986
 30
0.0
 10
102.6461032186961
 20
-137.0987806189371
 30
0.0
 10
102.6461032186961
 20
-136.9802693342445
 30
0.0
 10
102.5742729778286
 20
-136.849355705805
 30
0.0
 10
102.3775580256209
 20
-136.849355705805
 30
0.0
 10
102.1172810617102
 20
-136.849355705805
 30
0.0
 10
102.1088405777714
 20
-137.0798325937682
 30
0.0
 10
102.1045342084148
 20
-137.1962768211697
 30
0.0
 10
102.1045342084148
 20
-137.1962768211697
 30
0.0
 10
101.8804307470993
 20
-137.1962768211697
 30
0.0
 10
101.8804307470993
 20
-137.1962768211697
 30
0.0
 10
101.8888712310382
 20
-137.0691527977639
 30
0.0
 10
101.8993787722682
 20
-136.9571871944933
 30
0.0
 10
101.9798217518488
 20
-136.8386759098007
 30
0.0
 10
102.0897202978282
 20
-136.6777899506395
 30
0.0
 10
102.275927708806
 20
-136.6440280148841
 30
0.0
 10
102.3923719362074
 20
-136.6440280148841
 30
0.0
 10
102.6695298679958
 20
-136.6440280148841
 30
0.0
 10
102.8767523614336
 20
-136.8279961137965
 30
0.0
 10
102.8767523614336
 20
-137.1008476762282
 30
0.0
 10
102.8767523614336
 20
-137.3296020164488
 30
0.0
 10
102.7604803888064
 20
-137.428820766424
 30
0.0
 10
102.4516275785537
 20
-137.6551635398049
 30
0.0
  0
HATCH
  5
CF
330
CA
100
AcDbEntity
  8
レイヤー 1
 62
   250
420
  2299925
440
 33554687
100
AcDbHatch
 10
0.0
 20
0.0
 30
0.0
210
0.0
220
0.0
230
1.0
  2
SOLID
 70
     1
 71
     1
 91
        1
 92
        1
 93
        1
 72
     4
 94
        3
 73
     0
 74
     0
 95
       44
 96
       40
 40
0.0
 40
0.0
 40
0.0
 40
0.0
 40
1.0
 40
1.0
 40
1.0
 40
2.0
 40
2.0
 40
2.0
 40
3.0
 40
3.0
 40
3.0
 40
4.0
 40
4.0
 40
4.0
 40
5.0
 40
5.0
 40
5.0
 40
6.0
 40
6.0
 40
6.0
 40
7.0
 40
7.0
 40
7.0
 40
8.0
 40
8.0
 40
8.0
 40
9.0
 40
9.0
 40
9.0
 40
10.0
 40
10.0
 40
10.0
 40
11.0
 40
11.0
 40
11.0
 40
12.0
 40
12.0
 40
12.0
 40
13.0
 40
13.0
 40
13.0
 40
13.0
 10
102.4516275785537
 20
-137.6551635398049
 10
102.2337252891117
 20
-137.813982441675
 10
102.1405354562357
 20
-137.8880519946078
 10
102.0919596098937
 20
-138.0317124763427
 10
102.0919596098937
 20
-138.0317124763427
 10
102.8703789347858
 20
-138.0317124763427
 10
102.8703789347858
 20
-138.0317124763427
 10
102.8703789347858
 20
-138.0317124763427
 10
102.8703789347858
 20
-138.2370401672637
 10
102.8703789347858
 20
-138.2370401672637
 10
102.8703789347858
 20
-138.2370401672637
 10
101.8423624419873
 20
-138.2370401672637
 10
101.8423624419873
 20
-138.2370401672637
 10
101.8740573204516
 20
-137.8794392558947
 10
101.9396863894456
 20
-137.8012355883796
 10
102.3246758099223
 20
-137.5028903193569
 10
102.5806464044763
 20
-137.304108309858
 10
102.6461032186961
 20
-137.2362399287986
 10
102.6461032186961
 20
-137.0987806189371
 10
102.6461032186961
 20
-136.9802693342445
 10
102.5742729778286
 20
-136.849355705805
 10
102.3775580256209
 20
-136.849355705805
 10
102.1172810617102
 20
-136.849355705805
 10
102.1088405777714
 20
-137.0798325937682
 10
102.1045342084148
 20
-137.1962768211697
 10
102.1045342084148
 20
-137.1962768211697
 10
101.8804307470993
 20
-137.1962768211697
 10
101.8804307470993
 20
-137.1962768211697
 10
101.8888712310382
 20
-137.0691527977639
 10
101.8993787722682
 20
-136.9571871944933
 10
101.9798217518488
 20
-136.8386759098007
 10
102.0897202978282
 20
-136.6777899506395
 10
102.275927708806
 20
-136.6440280148841
 10
102.3923719362074
 20
-136.6440280148841
 10
102.6695298679958
 20
-136.6440280148841
 10
102.8767523614336
 20
-136.8279961137965
 10
102.8767523614336
 20
-137.1008476762282
 10
102.8767523614336
 20
-137.3296020164488
 10
102.7604803888064
 20
-137.428820766424
 10
102.4516275785537
 20
-137.6551635398049
 97
        0
 97
        1
330
CE
 75
     2
 76
     1
 98
        1
 10
0.0
 20
0.0
450
        0
451
        0
460
0.0
461
0.0
452
        0
462
0.0
453
        0
470

  0
SPLINE
  5
D0
330
CA
100
AcDbEntity
  8
レイヤー 1
100
AcDbSpline
210
0.0
220
0.0
230
1.0
 70
    11
 71
     3
 72
    26
 73
    22
 74
     0
 42
0.0000000001
 43
0.0000000001
 40
0.0
 40
0.0
 40
0.0
 40
0.0
 40
1.0
 40
1.0
 40
1.0
 40
2.0
 40
2.0
 40
2.0
 40
3.0
 40
3.0
 40
3.0
 40
4.0
 40
4.0
 40
4.0
 40
5.0
 40
5.0
 40
5.0
 40
6.0
 40
6.0
 40
6.0
 40
7.0
 40
7.0
 40
7.0
 40
7.0
 10
103.4867065170971
 20
-138.2370401672637
 30
0.0
 10
103.4867065170971
 20
-138.2370401672637
 30
0.0
 10
103.4867065170971
 20
-137.1328870642411
 30
0.0
 10
103.4867065170971
 20
-137.1328870642411
 30
0.0
 10
103.4867065170971
 20
-137.1328870642411
 30
0.0
 10
103.1566663696101
 20
-137.1328870642411
 30
0.0
 10
103.1566663696101
 20
-137.1328870642411
 30
0.0
 10
103.1566663696101
 20
-137.1328870642411
 30
0.0
 10
103.1566663696101
 20
-136.9847479583753
 30
0.0
 10
103.1566663696101
 20
-136.9847479583753
 30
0.0
 10
103.4887735743882
 20
-136.9699340477887
 30
0.0
 10
103.5352823634391
 20
-136.8069810313364
 30
0.0
 10
103.5649101846122
 20
-136.6926038612261
 30
0.0
 10
103.5649101846122
 20
-136.6926038612261
 30
0.0
 10
103.7109822331868
 20
-136.6926038612261
 30
0.0
 10
103.7109822331868
 20
-136.6926038612261
 30
0.0
 10
103.7109822331868
 20
-136.6926038612261
 30
0.0
 10
103.7109822331868
 20
-138.2370401672637
 30
0.0
 10
103.7109822331868
 20
-138.2370401672637
 30
0.0
 10
103.7109822331868
 20
-138.2370401672637
 30
0.0
 10
103.4867065170971
 20
-138.2370401672637
 30
0.0
 10
103.4867065170971
 20
-138.2370401672637
 30
0.0
  0
HATCH
  5
D1
330
CA
100
AcDbEntity
  8
レイヤー 1
 62
   250
420
  2299925
440
 33554687
100
AcDbHatch
 10
0.0
 20
0.0
 30
0.0
210
0.0
220
0.0
230
1.0
  2
SOLID
 70
     1
 71
     1
 91
        1
 92
        1
 93
        1
 72
     4
 94
        3
 73
     0
 74
     0
 95
       26
 96
       22
 40
0.0
 40
0.0
 40
0.0
 40
0.0
 40
1.0
 40
1.0
 40
1.0
 40
2.0
 40
2.0
 40
2.0
 40
3.0
 40
3.0
 40
3.0
 40
4.0
 40
4.0
 40
4.0
 40
5.0
 40
5.0
 40
5.0
 40
6.0
 40
6.0
 40
6.0
 40
7.0
 40
7.0
 40
7.0
 40
7.0
 10
103.4867065170971
 20
-138.2370401672637
 10
103.4867065170971
 20
-138.2370401672637
 10
103.4867065170971
 20
-137.1328870642411
 10
103.4867065170971
 20
-137.1328870642411
 10
103.4867065170971
 20
-137.1328870642411
 10
103.1566663696101
 20
-137.1328870642411
 10
103.1566663696101
 20
-137.1328870642411
 10
103.1566663696101
 20
-137.1328870642411
 10
103.1566663696101
 20
-136.9847479583753
 10
103.1566663696101
 20
-136.9847479583753
 10
103.4887735743882
 20
-136.9699340477887
 10
103.5352823634391
 20
-136.8069810313364
 10
103.5649101846122
 20
-136.6926038612261
 10
103.5649101846122
 20
-136.6926038612261
 10
103.7109822331868
 20
-136.6926038612261
 10
103.7109822331868
 20
-136.6926038612261
 10
103.7109822331868
 20
-136.6926038612261
 10
103.7109822331868
 20
-138.2370401672637
 10
103.7109822331868
 20
-138.2370401672637
 10
103.7109822331868
 20
-138.2370401672637
 10
103.4867065170971
 20
-138.2370401672637
 10
103.4867065170971
 20
-138.2370401672637
 97
        0
 97
        1
330
D0
 75
     2
 76
     1
 98
        1
 10
0.0
 20
0.0
450
        0
451
        0
460
0.0
461
0.0
452
        0
462
0.0
453
        0
470

  0
ENDBLK
  5
CD
330
CA
100
AcDbEntity
  8
0
100
AcDbBlockEnd
  0
BLOCK
  5
D4
330
D2
100
AcDbEntity
  8
0
100
AcDbBlockBegin
  2
Block_10
 70
     0
 10
0.0
 20
0.0
 30
0.0
  3
Block_10
  1

  0
LINE
  5
D6
330
D2
100
AcDbEntity
  8
レイヤー 1
  6
AI-Linetype-0
 62
   154
420
    23468
370
    25
100
AcDbLine
 10
112.4100885939462
 20
-141.4620987981583
 30
0.0
 11
93.4136697116188
 21
-141.4620987981583
 31
0.0
  0
LINE
  5
D8
330
D2
100
AcDbEntity
  8
レイヤー 1
 62
   250
420
  2299925
370
     9
100
AcDbLine
 10
104.3545537836271
 20
-140.8809631949645
 30
0.0
 11
108.6932043938563
 21
-136.5423407102053
 31
0.0
  0
LWPOLYLINE
  5
D9
330
D2
100
AcDbEntity
  8
レイヤー 1
 62
   250
420
  2299925
370
     9
100
AcDbPolyline
 90
        3
 70
     0
 43
0.0
 10
104.8547926598315
 20
-140.0148584948833
 10
104.3545537836271
 20
-140.8809631949645
 10
105.2206603469411
 20
-140.3807243189154
  0
INSERT
  5
DB
330
D2
100
AcDbEntity
  8
レイヤー 1
100
AcDbBlockReference
  2
Block_11
 10
0.0
 20
0.0
 30
0.0
  0
ENDBLK
  5
D5
330
D2
100
AcDbEntity
  8
0
100
AcDbBlockEnd
  0
BLOCK
  5
DC
330
DA
100
AcDbEntity
  8
0
100
AcDbBlockBegin
  2
Block_11
 70
     0
 10
0.0
 20
0.0
 30
0.0
  3
Block_11
  1

  0
INSERT
  5
DF
330
DA
100
AcDbEntity
  8
レイヤー 1
100
AcDbBlockReference
  2
Block_12
 10
0.0
 20
0.0
 30
0.0
  0
ENDBLK
  5
DD
330
DA
100
AcDbEntity
  8
0
100
AcDbBlockEnd
  0
BLOCK
  5
E0
330
DE
100
AcDbEntity
  8
0
100
AcDbBlockBegin
  2
Block_12
 70
     0
 10
0.0
 20
0.0
 30
0.0
  3
Block_12
  1

  0
SPLINE
  5
E2
330
DE
100
AcDbEntity
  8
レイヤー 1
100
AcDbSpline
210
0.0
220
0.0
230
1.0
 70
     9
 71
     3
 72
    17
 73
    13
 74
     0
 42
0.0000000001
 43
0.0000000001
 40
0.0
 40
0.0
 40
0.0
 40
0.0
 40
1.0
 40
1.0
 40
1.0
 40
2.0
 40
2.0
 40
2.0
 40
3.0
 40
3.0
 40
3.0
 40
4.0
 40
4.0
 40
4.0
 40
4.0
 10
107.2912977162327
 20
-135.1064818998171
 30
0.0
 10
107.274416748355
 20
-135.135937466216
 30
0.0
 10
107.2237738447218
 20
-135.229127299092
 30
0.0
 10
107.2130940487175
 20
-135.2480753242609
 30
0.0
 10
107.4036078290518
 20
-135.3073309666072
 30
0.0
 10
107.4246229115119
 20
-135.3137043932549
 30
0.0
 10
107.4966254071536
 20
-135.3412651571369
 30
0.0
 10
107.5517469349176
 20
-135.2544487509086
 30
0.0
 10
107.5748290746688
 20
-135.1803791979757
 30
0.0
 10
107.5896429852553
 20
-135.1064818998171
 30
0.0
 10
107.5896429852553
 20
-135.1064818998171
 30
0.0
 10
107.2912977162327
 20
-135.1064818998171
 30
0.0
 10
107.2912977162327
 20
-135.1064818998171
 30
0.0
  0
SPLINE
  5
E3
330
DE
100
AcDbEntity
  8
レイヤー 1
100
AcDbSpline
210
0.0
220
0.0
230
1.0
 70
    11
 71
     3
 72
    20
 73
    16
 74
     0
 42
0.0000000001
 43
0.0000000001
 40
0.0
 40
0.0
 40
0.0
 40
0.0
 40
1.0
 40
1.0
 40
1.0
 40
2.0
 40
2.0
 40
2.0
 40
3.0
 40
3.0
 40
3.0
 40
4.0
 40
4.0
 40
4.0
 40
5.0
 40
5.0
 40
5.0
 40
5.0
 10
107.2279079593041
 20
-134.2560600792832
 30
0.0
 10
107.2279079593041
 20
-134.2560600792832
 30
0.0
 10
107.1962130808398
 20
-134.2560600792832
 30
0.0
 10
107.1962130808398
 20
-134.2560600792832
 30
0.0
 10
107.2427218698907
 20
-134.3554510840326
 30
0.0
 10
107.274416748355
 20
-134.435721808839
 30
0.0
 10
107.3081786841104
 20
-134.5626735774704
 30
0.0
 10
107.3081786841104
 20
-134.5626735774704
 30
0.0
 10
107.5155734323225
 20
-134.5626735774704
 30
0.0
 10
107.5155734323225
 20
-134.5626735774704
 30
0.0
 10
107.5472683107868
 20
-134.4696559993687
 30
0.0
 10
107.5706949600865
 20
-134.3850789052058
 30
0.0
 10
107.5937770998376
 20
-134.2560600792832
 30
0.0
 10
107.5937770998376
 20
-134.2560600792832
 30
0.0
 10
107.2279079593041
 20
-134.2560600792832
 30
0.0
 10
107.2279079593041
 20
-134.2560600792832
 30
0.0
  0
SPLINE
  5
E4
330
DE
100
AcDbEntity
  8
レイヤー 1
100
AcDbSpline
210
0.0
220
0.0
230
1.0
 70
     9
 71
     3
 72
   242
 73
   238
 74
     0
 42
0.0000000001
 43
0.0000000001
 40
0.0
 40
0.0
 40
0.0
 40
0.0
 40
1.0
 40
1.0
 40
1.0
 40
2.0
 40
2.0
 40
2.0
 40
3.0
 40
3.0
 40
3.0
 40
4.0
 40
4.0
 40
4.0
 40
5.0
 40
5.0
 40
5.0
 40
6.0
 40
6.0
 40
6.0
 40
7.0
 40
7.0
 40
7.0
 40
8.0
 40
8.0
 40
8.0
 40
9.0
 40
9.0
 40
9.0
 40
10.0
 40
10.0
 40
10.0
 40
11.0
 40
11.0
 40
11.0
 40
12.0
 40
12.0
 40
12.0
 40
13.0
 40
13.0
 40
13.0
 40
14.0
 40
14.0
 40
14.0
 40
15.0
 40
15.0
 40
15.0
 40
16.0
 40
16.0
 40
16.0
 40
17.0
 40
17.0
 40
17.0
 40
18.0
 40
18.0
 40
18.0
 40
19.0
 40
19.0
 40
19.0
 40
20.0
 40
20.0
 40
20.0
 40
21.0
 40
21.0
 40
21.0
 40
22.0
 40
22.0
 40
22.0
 40
23.0
 40
23.0
 40
23.0
 40
24.0
 40
24.0
 40
24.0
 40
25.0
 40
25.0
 40
25.0
 40
26.0
 40
26.0
 40
26.0
 40
27.0
 40
27.0
 40
27.0
 40
28.0
 40
28.0
 40
28.0
 40
29.0
 40
29.0
 40
29.0
 40
30.0
 40
30.0
 40
30.0
 40
31.0
 40
31.0
 40
31.0
 40
32.0
 40
32.0
 40
32.0
 40
33.0
 40
33.0
 40
33.0
 40
34.0
 40
34.0
 40
34.0
 40
35.0
 40
35.0
 40
35.0
 40
36.0
 40
36.0
 40
36.0
 40
37.0
 40
37.0
 40
37.0
 40
38.0
 40
38.0
 40
38.0
 40
39.0
 40
39.0
 40
39.0
 40
40.0
 40
40.0
 40
40.0
 40
41.0
 40
41.0
 40
41.0
 40
42.0
 40
42.0
 40
42.0
 40
43.0
 40
43.0
 40
43.0
 40
44.0
 40
44.0
 40
44.0
 40
45.0
 40
45.0
 40
45.0
 40
46.0
 40
46.0
 40
46.0
 40
47.0
 40
47.0
 40
47.0
 40
48.0
 40
48.0
 40
48.0
 40
49.0
 40
49.0
 40
49.0
 40
50.0
 40
50.0
 40
50.0
 40
51.0
 40
51.0
 40
51.0
 40
52.0
 40
52.0
 40
52.0
 40
53.0
 40
53.0
 40
53.0
 40
54.0
 40
54.0
 40
54.0
 40
55.0
 40
55.0
 40
55.0
 40
56.0
 40
56.0
 40
56.0
 40
57.0
 40
57.0
 40
57.0
 40
58.0
 40
58.0
 40
58.0
 40
59.0
 40
59.0
 40
59.0
 40
60.0
 40
60.0
 40
60.0
 40
61.0
 40
61.0
 40
61.0
 40
62.0
 40
62.0
 40
62.0
 40
63.0
 40
63.0
 40
63.0
 40
64.0
 40
64.0
 40
64.0
 40
65.0
 40
65.0
 40
65.0
 40
66.0
 40
66.0
 40
66.0
 40
67.0
 40
67.0
 40
67.0
 40
68.0
 40
68.0
 40
68.0
 40
69.0
 40
69.0
 40
69.0
 40
70.0
 40
70.0
 40
70.0
 40
71.0
 40
71.0
 40
71.0
 40
72.0
 40
72.0
 40
72.0
 40
73.0
 40
73.0
 40
73.0
 40
74.0
 40
74.0
 40
74.0
 40
75.0
 40
75.0
 40
75.0
 40
76.0
 40
76.0
 40
76.0
 40
77.0
 40
77.0
 40
77.0
 40
78.0
 40
78.0
 40
78.0
 40
79.0
 40
79.0
 40
79.0
 40
79.0
 10
107.8562933758137
 20
-134.7213202245662
 30
0.0
 10
107.8562933758137
 20
-134.7213202245662
 30
0.0
 10
107.6023898385508
 20
-134.7213202245662
 30
0.0
 10
107.6023898385508
 20
-134.7213202245662
 30
0.0
 10
107.6023898385508
 20
-134.7213202245662
 30
0.0
 10
107.3254041615367
 20
-134.7213202245662
 30
0.0
 10
107.3254041615367
 20
-134.7213202245662
 30
0.0
 10
107.3254041615367
 20
-134.7213202245662
 30
0.0
 10
107.4521836753939
 20
-134.7636948990348
 30
0.0
 10
107.4521836753939
 20
-134.7636948990348
 30
0.0
 10
107.4628634713981
 20
-134.7680012683913
 30
0.0
 10
107.4756103246936
 20
-134.7742024402648
 30
0.0
 10
107.4756103246936
 20
-134.7869492935602
 30
0.0
 10
107.4756103246936
 20
-134.8081366307945
 30
0.0
 10
107.4435709366808
 20
-134.8145100574422
 30
0.0
 10
107.4225558542207
 20
-134.8186441720245
 30
0.0
 10
107.4118760582164
 20
-134.8418985665499
 30
0.0
 10
107.3822482370433
 20
-134.9075276355439
 30
0.0
 10
107.3633002118744
 20
-134.9519693673037
 30
0.0
 10
107.3633002118744
 20
-134.9519693673037
 30
0.0
 10
107.6340847170151
 20
-134.9519693673037
 30
0.0
 10
107.6340847170151
 20
-134.9519693673037
 30
0.0
 10
107.7250352378257
 20
-134.9519693673037
 30
0.0
 10
107.9217501900334
 20
-134.9476629979471
 30
0.0
 10
108.0636881240257
 20
-134.9392225140082
 30
0.0
 10
108.0636881240257
 20
-134.9392225140082
 30
0.0
 10
108.0636881240257
 20
-135.1169894410471
 30
0.0
 10
108.0636881240257
 20
-135.1169894410471
 30
0.0
 10
107.9810058323797
 20
-135.1126830716905
 30
0.0
 10
107.9599907499197
 20
-135.1126830716905
 30
0.0
 10
107.7801567655897
 20
-135.1085489571083
 30
0.0
 10
107.7484618871254
 20
-135.2628892348475
 30
0.0
 10
107.7040201553656
 20
-135.343332214428
 30
0.0
 10
107.6595784236059
 20
-135.4130953980043
 30
0.0
 10
107.7801567655897
 20
-135.4723510403506
 30
0.0
 10
107.8859211969868
 20
-135.5400471666358
 30
0.0
 10
107.9896185710929
 20
-135.6225572035075
 30
0.0
 10
107.9896185710929
 20
-135.6225572035075
 30
0.0
 10
107.8711072864003
 20
-135.7896443345421
 30
0.0
 10
107.8711072864003
 20
-135.7896443345421
 30
0.0
 10
107.8476806371005
 20
-135.7706963093733
 30
0.0
 10
107.8349337838051
 20
-135.7622558254344
 30
0.0
 10
107.7229681805345
 20
-135.6775064764973
 30
0.0
 10
107.6743923341925
 20
-135.6394381713853
 30
0.0
 10
107.6151366918462
 20
-135.6036091783387
 30
0.0
 10
107.5345214574914
 20
-135.5591674465789
 30
0.0
 10
107.322992594697
 20
-135.7453748575567
 30
0.0
 10
107.1180094133246
 20
-135.7686292520821
 30
0.0
 10
106.8279323734666
 20
-135.7982570732553
 30
0.0
 10
106.8279323734666
 20
-135.7982570732553
 30
0.0
 10
106.7245795089091
 20
-135.6184230889252
 30
0.0
 10
106.7245795089091
 20
-135.6184230889252
 30
0.0
 10
107.0418728031006
 20
-135.6141167195687
 30
0.0
 10
107.2172281632998
 20
-135.5887952677521
 30
0.0
 10
107.3695013837479
 20
-135.4787244669984
 30
0.0
 10
107.2513346086038
 20
-135.4279093085909
 30
0.0
 10
107.1624511450844
 20
-135.4005207994832
 30
0.0
 10
107.1262776424892
 20
-135.3877739461878
 30
0.0
 10
107.1073296173204
 20
-135.4153347100697
 30
0.0
 10
107.0925157067338
 20
-135.4342827352386
 30
0.0
 10
107.0649549428518
 20
-135.4682169257683
 30
0.0
 10
107.0649549428518
 20
-135.4682169257683
 30
0.0
 10
106.868239990644
 20
-135.3857068888966
 30
0.0
 10
106.868239990644
 20
-135.3857068888966
 30
0.0
 10
106.95092228229
 20
-135.305263909316
 30
0.0
 10
107.0122449819275
 20
-135.2100070191489
 30
0.0
 10
107.0690890574341
 20
-135.1085489571083
 30
0.0
 10
106.8789197866483
 20
-135.1126830716905
 30
0.0
 10
106.8575601946398
 20
-135.1126830716905
 30
0.0
 10
106.7752224125423
 20
-135.1169894410471
 30
0.0
 10
106.7752224125423
 20
-135.1169894410471
 30
0.0
 10
106.7752224125423
 20
-134.9392225140082
 30
0.0
 10
106.7752224125423
 20
-134.9392225140082
 30
0.0
 10
106.9147487796949
 20
-134.945595940656
 30
0.0
 10
107.1242105851981
 20
-134.9499023100125
 30
0.0
 10
107.1497042917889
 20
-134.9499023100125
 30
0.0
 10
107.1665852596667
 20
-134.9159681194828
 30
0.0
 10
107.2217067874307
 20
-134.795389777499
 30
0.0
 10
107.2406548125995
 20
-134.7213202245662
 30
0.0
 10
107.2217067874307
 20
-134.7213202245662
 30
0.0
 10
107.0439398603918
 20
-134.7276936512139
 30
0.0
 10
106.8492919654752
 20
-134.7404405045093
 30
0.0
 10
106.8492919654752
 20
-134.7404405045093
 30
0.0
 10
106.8492919654752
 20
-134.8737656997885
 30
0.0
 10
106.8492919654752
 20
-134.8737656997885
 30
0.0
 10
106.8007161191331
 20
-134.8990871516051
 30
0.0
 10
106.7414604767868
 20
-134.9307820300694
 30
0.0
 10
106.6081352815077
 20
-134.9964110990634
 30
0.0
 10
106.6081352815077
 20
-134.9964110990634
 30
0.0
 10
106.6081352815077
 20
-135.1423108928637
 30
0.0
 10
106.6081352815077
 20
-135.1423108928637
 30
0.0
 10
106.6081352815077
 20
-135.1423108928637
 30
0.0
 10
106.6081352815077
 20
-135.6099826049864
 30
0.0
 10
106.6081352815077
 20
-135.6099826049864
 30
0.0
 10
106.6081352815077
 20
-135.7367621188436
 30
0.0
 10
106.5719617789125
 20
-135.7960177611899
 30
0.0
 10
106.288774930025
 20
-135.787577277251
 30
0.0
 10
106.288774930025
 20
-135.787577277251
 30
0.0
 10
106.185077555919
 20
-135.5803547838132
 30
0.0
 10
106.185077555919
 20
-135.5803547838132
 30
0.0
 10
106.2484673128476
 20
-135.5929293823344
 30
0.0
 10
106.2970431591896
 20
-135.597235751691
 30
0.0
 10
106.337350776367
 20
-135.597235751691
 30
0.0
 10
106.413487386591
 20
-135.597235751691
 30
0.0
 10
106.4241671825953
 20
-135.5739813571655
 30
0.0
 10
106.4241671825953
 20
-135.5083522881715
 30
0.0
 10
106.4241671825953
 20
-135.5083522881715
 30
0.0
 10
106.4241671825953
 20
-135.0789211359351
 30
0.0
 10
106.4241671825953
 20
-135.0789211359351
 30
0.0
 10
106.3266709803627
 20
-135.1190564983383
 30
0.0
 10
106.309790012485
 20
-135.125429924986
 30
0.0
 10
106.2632812234342
 20
-135.1445502049291
 30
0.0
 10
106.2591471088519
 20
-135.1655652873891
 30
0.0
 10
106.254668484721
 20
-135.1951931085623
 30
0.0
 10
106.2357204595522
 20
-135.1951931085623
 30
0.0
 10
106.2274522303876
 20
-135.1951931085623
 30
0.0
 10
106.2167724343833
 20
-135.19105899398
 30
0.0
 10
106.2102267529613
 20
-135.1678045994545
 30
0.0
 10
106.2102267529613
 20
-135.1678045994545
 30
0.0
 10
106.157516792037
 20
-134.9752237618291
 30
0.0
 10
106.157516792037
 20
-134.9752237618291
 30
0.0
 10
106.3035888406116
 20
-134.9287149727782
 30
0.0
 10
106.3690456548313
 20
-134.9054605782528
 30
0.0
 10
106.4241671825953
 20
-134.8842732410185
 30
0.0
 10
106.4241671825953
 20
-134.8842732410185
 30
0.0
 10
106.4241671825953
 20
-134.4717230566598
 30
0.0
 10
106.4241671825953
 20
-134.4717230566598
 30
0.0
 10
106.4241671825953
 20
-134.4717230566598
 30
0.0
 10
106.3711127121225
 20
-134.4717230566598
 30
0.0
 10
106.3711127121225
 20
-134.4717230566598
 30
0.0
 10
106.3711127121225
 20
-134.4717230566598
 30
0.0
 10
106.2929090446073
 20
-134.4717230566598
 30
0.0
 10
106.2929090446073
 20
-134.4717230566598
 30
0.0
 10
106.2250406635479
 20
-134.4717230566598
 30
0.0
 10
106.2167724343833
 20
-134.4717230566598
 30
0.0
 10
106.1805989317882
 20
-134.4780964833075
 30
0.0
 10
106.1805989317882
 20
-134.4780964833075
 30
0.0
 10
106.1805989317882
 20
-134.2834485883909
 30
0.0
 10
106.1805989317882
 20
-134.2834485883909
 30
0.0
 10
106.2081596956702
 20
-134.2898220150386
 30
0.0
 10
106.2167724343833
 20
-134.2898220150386
 30
0.0
 10
106.2863633631853
 20
-134.2898220150386
 30
0.0
 10
106.2863633631853
 20
-134.2898220150386
 30
0.0
 10
106.4196885584645
 20
-134.2898220150386
 30
0.0
 10
106.4196885584645
 20
-134.2898220150386
 30
0.0
 10
106.4196885584645
 20
-134.2200588314623
 30
0.0
 10
106.4196885584645
 20
-134.1375487945906
 30
0.0
 10
106.4176215011733
 20
-134.133242425234
 30
0.0
 10
106.4093532720087
 20
-133.953408440904
 30
0.0
 10
106.4093532720087
 20
-133.9344604157351
 30
0.0
 10
106.4069417051691
 20
-133.8879516266842
 30
0.0
 10
106.4069417051691
 20
-133.8879516266842
 30
0.0
 10
106.6229491920942
 20
-133.8963921106231
 30
0.0
 10
106.6229491920942
 20
-133.8963921106231
 30
0.0
 10
106.6336289880985
 20
-133.8963921106231
 30
0.0
 10
106.6546440705585
 20
-133.8984591679142
 30
0.0
 10
106.6546440705585
 20
-133.915340135792
 30
0.0
 10
106.6546440705585
 20
-133.9344604157351
 30
0.0
 10
106.639830159972
 20
-133.9449679569651
 30
0.0
 10
106.6143364533811
 20
-133.9640882369083
 30
0.0
 10
106.6143364533811
 20
-134.0147311405414
 30
0.0
 10
106.6081352815077
 20
-134.2433132259877
 30
0.0
 10
106.6102023387988
 20
-134.2898220150386
 30
0.0
 10
106.7393934194957
 20
-134.2898220150386
 30
0.0
 10
106.7517957632426
 20
-134.2898220150386
 30
0.0
 10
106.8492919654752
 20
-134.2813815310998
 30
0.0
 10
106.8492919654752
 20
-134.2813815310998
 30
0.0
 10
106.8492919654752
 20
-134.4760294260164
 30
0.0
 10
106.8492919654752
 20
-134.4760294260164
 30
0.0
 10
106.8110514055889
 20
-134.473790113951
 30
0.0
 10
106.743527534078
 20
-134.4696559993687
 30
0.0
 10
106.6081352815077
 20
-134.4717230566598
 30
0.0
 10
106.6081352815077
 20
-134.4717230566598
 30
0.0
 10
106.6081352815077
 20
-134.8102036880856
 30
0.0
 10
106.6081352815077
 20
-134.8102036880856
 30
0.0
 10
106.6632568092717
 20
-134.7869492935602
 30
0.0
 10
106.7287136234914
 20
-134.7593885296782
 30
0.0
 10
106.7772894698334
 20
-134.7361341351527
 30
0.0
 10
106.7772894698334
 20
-134.7361341351527
 30
0.0
 10
106.7772894698334
 20
-134.5585394628881
 30
0.0
 10
106.7772894698334
 20
-134.5585394628881
 30
0.0
 10
106.8916666399437
 20
-134.5711140614093
 30
0.0
 10
107.0101779246363
 20
-134.5711140614093
 30
0.0
 10
107.1262776424892
 20
-134.5711140614093
 30
0.0
 10
107.1031955027381
 20
-134.4760294260164
 30
0.0
 10
107.0756347388561
 20
-134.3935193891446
 30
0.0
 10
107.0122449819275
 20
-134.2601941938655
 30
0.0
 10
106.9678032501677
 20
-134.2622612511567
 30
0.0
 10
106.8851209585218
 20
-134.2665676205132
 30
0.0
 10
106.847224908184
 20
-134.2686346778044
 30
0.0
 10
106.847224908184
 20
-134.2686346778044
 30
0.0
 10
106.847224908184
 20
-134.0888006934743
 30
0.0
 10
106.847224908184
 20
-134.0888006934743
 30
0.0
 10
106.9719373647501
 20
-134.0972411774132
 30
0.0
 10
107.1455701772066
 20
-134.1015475467697
 30
0.0
 10
107.2279079593041
 20
-134.1015475467697
 30
0.0
 10
107.2279079593041
 20
-134.1015475467697
 30
0.0
 10
107.3105902509501
 20
-134.1015475467697
 30
0.0
 10
107.3105902509501
 20
-134.1015475467697
 30
0.0
 10
107.3105902509501
 20
-133.9385945303174
 30
0.0
 10
107.3105902509501
 20
-133.9280869890874
 30
0.0
 10
107.3081786841104
 20
-133.8731377160977
 30
0.0
 10
107.3081786841104
 20
-133.8731377160977
 30
0.0
 10
107.5324544002002
 20
-133.8984591679142
 30
0.0
 10
107.5324544002002
 20
-133.8984591679142
 30
0.0
 10
107.536933024331
 20
-133.8984591679142
 30
0.0
 10
107.557948106791
 20
-133.9005262252054
 30
0.0
 10
107.557948106791
 20
-133.9174071930831
 30
0.0
 10
107.557948106791
 20
-133.9322211036697
 30
0.0
 10
107.5472683107868
 20
-133.9408338423828
 30
0.0
 10
107.5197075469048
 20
-133.9556477529694
 30
0.0
 10
107.5135063750313
 20
-134.0211045671892
 30
0.0
 10
107.5114393177402
 20
-134.0422919044234
 30
0.0
 10
107.5114393177402
 20
-134.1015475467697
 30
0.0
 10
107.5114393177402
 20
-134.1015475467697
 30
0.0
 10
107.6065239531331
 20
-134.1015475467697
 30
0.0
 10
107.6065239531331
 20
-134.1015475467697
 30
0.0
 10
107.6892062447791
 20
-134.1015475467697
 30
0.0
 10
107.8624945476871
 20
-134.0972411774132
 30
0.0
 10
107.9875515138017
 20
-134.0888006934743
 30
0.0
 10
107.9875515138017
 20
-134.0888006934743
 30
0.0
 10
107.9875515138017
 20
-134.2686346778044
 30
0.0
 10
107.9875515138017
 20
-134.2686346778044
 30
0.0
 10
107.9579236926285
 20
-134.2665676205132
 30
0.0
 10
107.8394124079359
 20
-134.2622612511567
 30
0.0
 10
107.7991047907585
 20
-134.2601941938655
 30
0.0
 10
107.784290880172
 20
-134.3110093522729
 30
0.0
 10
107.7505289444165
 20
-134.4231472103178
 30
0.0
 10
107.6847276206482
 20
-134.5626735774704
 30
0.0
 10
107.7271022951168
 20
-134.5626735774704
 30
0.0
 10
108.0044324816794
 20
-134.5437255523015
 30
0.0
 10
108.0657551813169
 20
-134.5414862402361
 30
0.0
 10
108.0657551813169
 20
-134.5414862402361
 30
0.0
 10
108.0657551813169
 20
-134.7256265939227
 30
0.0
 10
108.0657551813169
 20
-134.7256265939227
 30
0.0
 10
108.0361273601437
 20
-134.7256265939227
 30
0.0
 10
108.019246392266
 20
-134.7213202245662
 30
0.0
 10
107.8562933758137
 20
-134.7213202245662
 30
0.0
  0
HATCH
  5
E5
330
DE
100
AcDbEntity
  8
レイヤー 1
 62
   250
420
  2299925
440
 33554687
100
AcDbHatch
 10
0.0
 20
0.0
 30
0.0
210
0.0
220
0.0
230
1.0
  2
SOLID
 70
     1
 71
     1
 91
        3
 92
        1
 93
        1
 72
     4
 94
        3
 73
     0
 74
     0
 95
       17
 96
       13
 40
0.0
 40
0.0
 40
0.0
 40
0.0
 40
1.0
 40
1.0
 40
1.0
 40
2.0
 40
2.0
 40
2.0
 40
3.0
 40
3.0
 40
3.0
 40
4.0
 40
4.0
 40
4.0
 40
4.0
 10
107.2912977162327
 20
-135.1064818998171
 10
107.274416748355
 20
-135.135937466216
 10
107.2237738447218
 20
-135.229127299092
 10
107.2130940487175
 20
-135.2480753242609
 10
107.4036078290518
 20
-135.3073309666072
 10
107.4246229115119
 20
-135.3137043932549
 10
107.4966254071536
 20
-135.3412651571369
 10
107.5517469349176
 20
-135.2544487509086
 10
107.5748290746688
 20
-135.1803791979757
 10
107.5896429852553
 20
-135.1064818998171
 10
107.5896429852553
 20
-135.1064818998171
 10
107.2912977162327
 20
-135.1064818998171
 10
107.2912977162327
 20
-135.1064818998171
 97
        0
 97
        1
330
E2
 92
        1
 93
        1
 72
     4
 94
        3
 73
     0
 74
     0
 95
       20
 96
       16
 40
0.0
 40
0.0
 40
0.0
 40
0.0
 40
1.0
 40
1.0
 40
1.0
 40
2.0
 40
2.0
 40
2.0
 40
3.0
 40
3.0
 40
3.0
 40
4.0
 40
4.0
 40
4.0
 40
5.0
 40
5.0
 40
5.0
 40
5.0
 10
107.2279079593041
 20
-134.2560600792832
 10
107.2279079593041
 20
-134.2560600792832
 10
107.1962130808398
 20
-134.2560600792832
 10
107.1962130808398
 20
-134.2560600792832
 10
107.2427218698907
 20
-134.3554510840326
 10
107.274416748355
 20
-134.435721808839
 10
107.3081786841104
 20
-134.5626735774704
 10
107.3081786841104
 20
-134.5626735774704
 10
107.5155734323225
 20
-134.5626735774704
 10
107.5155734323225
 20
-134.5626735774704
 10
107.5472683107868
 20
-134.4696559993687
 10
107.5706949600865
 20
-134.3850789052058
 10
107.5937770998376
 20
-134.2560600792832
 10
107.5937770998376
 20
-134.2560600792832
 10
107.2279079593041
 20
-134.2560600792832
 10
107.2279079593041
 20
-134.2560600792832
 97
        0
 97
        1
330
E3
 92
        1
 93
        1
 72
     4
 94
        3
 73
     0
 74
     0
 95
      242
 96
      238
 40
0.0
 40
0.0
 40
0.0
 40
0.0
 40
1.0
 40
1.0
 40
1.0
 40
2.0
 40
2.0
 40
2.0
 40
3.0
 40
3.0
 40
3.0
 40
4.0
 40
4.0
 40
4.0
 40
5.0
 40
5.0
 40
5.0
 40
6.0
 40
6.0
 40
6.0
 40
7.0
 40
7.0
 40
7.0
 40
8.0
 40
8.0
 40
8.0
 40
9.0
 40
9.0
 40
9.0
 40
10.0
 40
10.0
 40
10.0
 40
11.0
 40
11.0
 40
11.0
 40
12.0
 40
12.0
 40
12.0
 40
13.0
 40
13.0
 40
13.0
 40
14.0
 40
14.0
 40
14.0
 40
15.0
 40
15.0
 40
15.0
 40
16.0
 40
16.0
 40
16.0
 40
17.0
 40
17.0
 40
17.0
 40
18.0
 40
18.0
 40
18.0
 40
19.0
 40
19.0
 40
19.0
 40
20.0
 40
20.0
 40
20.0
 40
21.0
 40
21.0
 40
21.0
 40
22.0
 40
22.0
 40
22.0
 40
23.0
 40
23.0
 40
23.0
 40
24.0
 40
24.0
 40
24.0
 40
25.0
 40
25.0
 40
25.0
 40
26.0
 40
26.0
 40
26.0
 40
27.0
 40
27.0
 40
27.0
 40
28.0
 40
28.0
 40
28.0
 40
29.0
 40
29.0
 40
29.0
 40
30.0
 40
30.0
 40
30.0
 40
31.0
 40
31.0
 40
31.0
 40
32.0
 40
32.0
 40
32.0
 40
33.0
 40
33.0
 40
33.0
 40
34.0
 40
34.0
 40
34.0
 40
35.0
 40
35.0
 40
35.0
 40
36.0
 40
36.0
 40
36.0
 40
37.0
 40
37.0
 40
37.0
 40
38.0
 40
38.0
 40
38.0
 40
39.0
 40
39.0
 40
39.0
 40
40.0
 40
40.0
 40
40.0
 40
41.0
 40
41.0
 40
41.0
 40
42.0
 40
42.0
 40
42.0
 40
43.0
 40
43.0
 40
43.0
 40
44.0
 40
44.0
 40
44.0
 40
45.0
 40
45.0
 40
45.0
 40
46.0
 40
46.0
 40
46.0
 40
47.0
 40
47.0
 40
47.0
 40
48.0
 40
48.0
 40
48.0
 40
49.0
 40
49.0
 40
49.0
 40
50.0
 40
50.0
 40
50.0
 40
51.0
 40
51.0
 40
51.0
 40
52.0
 40
52.0
 40
52.0
 40
53.0
 40
53.0
 40
53.0
 40
54.0
 40
54.0
 40
54.0
 40
55.0
 40
55.0
 40
55.0
 40
56.0
 40
56.0
 40
56.0
 40
57.0
 40
57.0
 40
57.0
 40
58.0
 40
58.0
 40
58.0
 40
59.0
 40
59.0
 40
59.0
 40
60.0
 40
60.0
 40
60.0
 40
61.0
 40
61.0
 40
61.0
 40
62.0
 40
62.0
 40
62.0
 40
63.0
 40
63.0
 40
63.0
 40
64.0
 40
64.0
 40
64.0
 40
65.0
 40
65.0
 40
65.0
 40
66.0
 40
66.0
 40
66.0
 40
67.0
 40
67.0
 40
67.0
 40
68.0
 40
68.0
 40
68.0
 40
69.0
 40
69.0
 40
69.0
 40
70.0
 40
70.0
 40
70.0
 40
71.0
 40
71.0
 40
71.0
 40
72.0
 40
72.0
 40
72.0
 40
73.0
 40
73.0
 40
73.0
 40
74.0
 40
74.0
 40
74.0
 40
75.0
 40
75.0
 40
75.0
 40
76.0
 40
76.0
 40
76.0
 40
77.0
 40
77.0
 40
77.0
 40
78.0
 40
78.0
 40
78.0
 40
79.0
 40
79.0
 40
79.0
 40
79.0
 10
107.8562933758137
 20
-134.7213202245662
 10
107.8562933758137
 20
-134.7213202245662
 10
107.6023898385508
 20
-134.7213202245662
 10
107.6023898385508
 20
-134.7213202245662
 10
107.6023898385508
 20
-134.7213202245662
 10
107.3254041615367
 20
-134.7213202245662
 10
107.3254041615367
 20
-134.7213202245662
 10
107.3254041615367
 20
-134.7213202245662
 10
107.4521836753939
 20
-134.7636948990348
 10
107.4521836753939
 20
-134.7636948990348
 10
107.4628634713981
 20
-134.7680012683913
 10
107.4756103246936
 20
-134.7742024402648
 10
107.4756103246936
 20
-134.7869492935602
 10
107.4756103246936
 20
-134.8081366307945
 10
107.4435709366808
 20
-134.8145100574422
 10
107.4225558542207
 20
-134.8186441720245
 10
107.4118760582164
 20
-134.8418985665499
 10
107.3822482370433
 20
-134.9075276355439
 10
107.3633002118744
 20
-134.9519693673037
 10
107.3633002118744
 20
-134.9519693673037
 10
107.6340847170151
 20
-134.9519693673037
 10
107.6340847170151
 20
-134.9519693673037
 10
107.7250352378257
 20
-134.9519693673037
 10
107.9217501900334
 20
-134.9476629979471
 10
108.0636881240257
 20
-134.9392225140082
 10
108.0636881240257
 20
-134.9392225140082
 10
108.0636881240257
 20
-135.1169894410471
 10
108.0636881240257
 20
-135.1169894410471
 10
107.9810058323797
 20
-135.1126830716905
 10
107.9599907499197
 20
-135.1126830716905
 10
107.7801567655897
 20
-135.1085489571083
 10
107.7484618871254
 20
-135.2628892348475
 10
107.7040201553656
 20
-135.343332214428
 10
107.6595784236059
 20
-135.4130953980043
 10
107.7801567655897
 20
-135.4723510403506
 10
107.8859211969868
 20
-135.5400471666358
 10
107.9896185710929
 20
-135.6225572035075
 10
107.9896185710929
 20
-135.6225572035075
 10
107.8711072864003
 20
-135.7896443345421
 10
107.8711072864003
 20
-135.7896443345421
 10
107.8476806371005
 20
-135.7706963093733
 10
107.8349337838051
 20
-135.7622558254344
 10
107.7229681805345
 20
-135.6775064764973
 10
107.6743923341925
 20
-135.6394381713853
 10
107.6151366918462
 20
-135.6036091783387
 10
107.5345214574914
 20
-135.5591674465789
 10
107.322992594697
 20
-135.7453748575567
 10
107.1180094133246
 20
-135.7686292520821
 10
106.8279323734666
 20
-135.7982570732553
 10
106.8279323734666
 20
-135.7982570732553
 10
106.7245795089091
 20
-135.6184230889252
 10
106.7245795089091
 20
-135.6184230889252
 10
107.0418728031006
 20
-135.6141167195687
 10
107.2172281632998
 20
-135.5887952677521
 10
107.3695013837479
 20
-135.4787244669984
 10
107.2513346086038
 20
-135.4279093085909
 10
107.1624511450844
 20
-135.4005207994832
 10
107.1262776424892
 20
-135.3877739461878
 10
107.1073296173204
 20
-135.4153347100697
 10
107.0925157067338
 20
-135.4342827352386
 10
107.0649549428518
 20
-135.4682169257683
 10
107.0649549428518
 20
-135.4682169257683
 10
106.868239990644
 20
-135.3857068888966
 10
106.868239990644
 20
-135.3857068888966
 10
106.95092228229
 20
-135.305263909316
 10
107.0122449819275
 20
-135.2100070191489
 10
107.0690890574341
 20
-135.1085489571083
 10
106.8789197866483
 20
-135.1126830716905
 10
106.8575601946398
 20
-135.1126830716905
 10
106.7752224125423
 20
-135.1169894410471
 10
106.7752224125423
 20
-135.1169894410471
 10
106.7752224125423
 20
-134.9392225140082
 10
106.7752224125423
 20
-134.9392225140082
 10
106.9147487796949
 20
-134.945595940656
 10
107.1242105851981
 20
-134.9499023100125
 10
107.1497042917889
 20
-134.9499023100125
 10
107.1665852596667
 20
-134.9159681194828
 10
107.2217067874307
 20
-134.795389777499
 10
107.2406548125995
 20
-134.7213202245662
 10
107.2217067874307
 20
-134.7213202245662
 10
107.0439398603918
 20
-134.7276936512139
 10
106.8492919654752
 20
-134.7404405045093
 10
106.8492919654752
 20
-134.7404405045093
 10
106.8492919654752
 20
-134.8737656997885
 10
106.8492919654752
 20
-134.8737656997885
 10
106.8007161191331
 20
-134.8990871516051
 10
106.7414604767868
 20
-134.9307820300694
 10
106.6081352815077
 20
-134.9964110990634
 10
106.6081352815077
 20
-134.9964110990634
 10
106.6081352815077
 20
-135.1423108928637
 10
106.6081352815077
 20
-135.1423108928637
 10
106.6081352815077
 20
-135.1423108928637
 10
106.6081352815077
 20
-135.6099826049864
 10
106.6081352815077
 20
-135.6099826049864
 10
106.6081352815077
 20
-135.7367621188436
 10
106.5719617789125
 20
-135.7960177611899
 10
106.288774930025
 20
-135.787577277251
 10
106.288774930025
 20
-135.787577277251
 10
106.185077555919
 20
-135.5803547838132
 10
106.185077555919
 20
-135.5803547838132
 10
106.2484673128476
 20
-135.5929293823344
 10
106.2970431591896
 20
-135.597235751691
 10
106.337350776367
 20
-135.597235751691
 10
106.413487386591
 20
-135.597235751691
 10
106.4241671825953
 20
-135.5739813571655
 10
106.4241671825953
 20
-135.5083522881715
 10
106.4241671825953
 20
-135.5083522881715
 10
106.4241671825953
 20
-135.0789211359351
 10
106.4241671825953
 20
-135.0789211359351
 10
106.3266709803627
 20
-135.1190564983383
 10
106.309790012485
 20
-135.125429924986
 10
106.2632812234342
 20
-135.1445502049291
 10
106.2591471088519
 20
-135.1655652873891
 10
106.254668484721
 20
-135.1951931085623
 10
106.2357204595522
 20
-135.1951931085623
 10
106.2274522303876
 20
-135.1951931085623
 10
106.2167724343833
 20
-135.19105899398
 10
106.2102267529613
 20
-135.1678045994545
 10
106.2102267529613
 20
-135.1678045994545
 10
106.157516792037
 20
-134.9752237618291
 10
106.157516792037
 20
-134.9752237618291
 10
106.3035888406116
 20
-134.9287149727782
 10
106.3690456548313
 20
-134.9054605782528
 10
106.4241671825953
 20
-134.8842732410185
 10
106.4241671825953
 20
-134.8842732410185
 10
106.4241671825953
 20
-134.4717230566598
 10
106.4241671825953
 20
-134.4717230566598
 10
106.4241671825953
 20
-134.4717230566598
 10
106.3711127121225
 20
-134.4717230566598
 10
106.3711127121225
 20
-134.4717230566598
 10
106.3711127121225
 20
-134.4717230566598
 10
106.2929090446073
 20
-134.4717230566598
 10
106.2929090446073
 20
-134.4717230566598
 10
106.2250406635479
 20
-134.4717230566598
 10
106.2167724343833
 20
-134.4717230566598
 10
106.1805989317882
 20
-134.4780964833075
 10
106.1805989317882
 20
-134.4780964833075
 10
106.1805989317882
 20
-134.2834485883909
 10
106.1805989317882
 20
-134.2834485883909
 10
106.2081596956702
 20
-134.2898220150386
 10
106.2167724343833
 20
-134.2898220150386
 10
106.2863633631853
 20
-134.2898220150386
 10
106.2863633631853
 20
-134.2898220150386
 10
106.4196885584645
 20
-134.2898220150386
 10
106.4196885584645
 20
-134.2898220150386
 10
106.4196885584645
 20
-134.2200588314623
 10
106.4196885584645
 20
-134.1375487945906
 10
106.4176215011733
 20
-134.133242425234
 10
106.4093532720087
 20
-133.953408440904
 10
106.4093532720087
 20
-133.9344604157351
 10
106.4069417051691
 20
-133.8879516266842
 10
106.4069417051691
 20
-133.8879516266842
 10
106.6229491920942
 20
-133.8963921106231
 10
106.6229491920942
 20
-133.8963921106231
 10
106.6336289880985
 20
-133.8963921106231
 10
106.6546440705585
 20
-133.8984591679142
 10
106.6546440705585
 20
-133.915340135792
 10
106.6546440705585
 20
-133.9344604157351
 10
106.639830159972
 20
-133.9449679569651
 10
106.6143364533811
 20
-133.9640882369083
 10
106.6143364533811
 20
-134.0147311405414
 10
106.6081352815077
 20
-134.2433132259877
 10
106.6102023387988
 20
-134.2898220150386
 10
106.7393934194957
 20
-134.2898220150386
 10
106.7517957632426
 20
-134.2898220150386
 10
106.8492919654752
 20
-134.2813815310998
 10
106.8492919654752
 20
-134.2813815310998
 10
106.8492919654752
 20
-134.4760294260164
 10
106.8492919654752
 20
-134.4760294260164
 10
106.8110514055889
 20
-134.473790113951
 10
106.743527534078
 20
-134.4696559993687
 10
106.6081352815077
 20
-134.4717230566598
 10
106.6081352815077
 20
-134.4717230566598
 10
106.6081352815077
 20
-134.8102036880856
 10
106.6081352815077
 20
-134.8102036880856
 10
106.6632568092717
 20
-134.7869492935602
 10
106.7287136234914
 20
-134.7593885296782
 10
106.7772894698334
 20
-134.7361341351527
 10
106.7772894698334
 20
-134.7361341351527
 10
106.7772894698334
 20
-134.5585394628881
 10
106.7772894698334
 20
-134.5585394628881
 10
106.8916666399437
 20
-134.5711140614093
 10
107.0101779246363
 20
-134.5711140614093
 10
107.1262776424892
 20
-134.5711140614093
 10
107.1031955027381
 20
-134.4760294260164
 10
107.0756347388561
 20
-134.3935193891446
 10
107.0122449819275
 20
-134.2601941938655
 10
106.9678032501677
 20
-134.2622612511567
 10
106.8851209585218
 20
-134.2665676205132
 10
106.847224908184
 20
-134.2686346778044
 10
106.847224908184
 20
-134.2686346778044
 10
106.847224908184
 20
-134.0888006934743
 10
106.847224908184
 20
-134.0888006934743
 10
106.9719373647501
 20
-134.0972411774132
 10
107.1455701772066
 20
-134.1015475467697
 10
107.2279079593041
 20
-134.1015475467697
 10
107.2279079593041
 20
-134.1015475467697
 10
107.3105902509501
 20
-134.1015475467697
 10
107.3105902509501
 20
-134.1015475467697
 10
107.3105902509501
 20
-133.9385945303174
 10
107.3105902509501
 20
-133.9280869890874
 10
107.3081786841104
 20
-133.8731377160977
 10
107.3081786841104
 20
-133.8731377160977
 10
107.5324544002002
 20
-133.8984591679142
 10
107.5324544002002
 20
-133.8984591679142
 10
107.536933024331
 20
-133.8984591679142
 10
107.557948106791
 20
-133.9005262252054
 10
107.557948106791
 20
-133.9174071930831
 10
107.557948106791
 20
-133.9322211036697
 10
107.5472683107868
 20
-133.9408338423828
 10
107.5197075469048
 20
-133.9556477529694
 10
107.5135063750313
 20
-134.0211045671892
 10
107.5114393177402
 20
-134.0422919044234
 10
107.5114393177402
 20
-134.1015475467697
 10
107.5114393177402
 20
-134.1015475467697
 10
107.6065239531331
 20
-134.1015475467697
 10
107.6065239531331
 20
-134.1015475467697
 10
107.6892062447791
 20
-134.1015475467697
 10
107.8624945476871
 20
-134.0972411774132
 10
107.9875515138017
 20
-134.0888006934743
 10
107.9875515138017
 20
-134.0888006934743
 10
107.9875515138017
 20
-134.2686346778044
 10
107.9875515138017
 20
-134.2686346778044
 10
107.9579236926285
 20
-134.2665676205132
 10
107.8394124079359
 20
-134.2622612511567
 10
107.7991047907585
 20
-134.2601941938655
 10
107.784290880172
 20
-134.3110093522729
 10
107.7505289444165
 20
-134.4231472103178
 10
107.6847276206482
 20
-134.5626735774704
 10
107.7271022951168
 20
-134.5626735774704
 10
108.0044324816794
 20
-134.5437255523015
 10
108.0657551813169
 20
-134.5414862402361
 10
108.0657551813169
 20
-134.5414862402361
 10
108.0657551813169
 20
-134.7256265939227
 10
108.0657551813169
 20
-134.7256265939227
 10
108.0361273601437
 20
-134.7256265939227
 10
108.019246392266
 20
-134.7213202245662
 10
107.8562933758137
 20
-134.7213202245662
 97
        0
 97
        1
330
E4
 75
     2
 76
     1
 98
        1
 10
0.0
 20
0.0
450
        0
451
        0
460
0.0
461
0.0
452
        0
462
0.0
453
        0
470

  0
SPLINE
  5
E6
330
DE
100
AcDbEntity
  8
レイヤー 1
100
AcDbSpline
210
0.0
220
0.0
230
1.0
 70
    11
 71
     3
 72
    17
 73
    13
 74
     0
 42
0.0000000001
 43
0.0000000001
 40
0.0
 40
0.0
 40
0.0
 40
0.0
 40
1.0
 40
1.0
 40
1.0
 40
2.0
 40
2.0
 40
2.0
 40
3.0
 40
3.0
 40
3.0
 40
4.0
 40
4.0
 40
4.0
 40
4.0
 10
109.7128553328148
 20
-135.5210991414669
 30
0.0
 10
109.7128553328148
 20
-135.5210991414669
 30
0.0
 10
109.0062662487901
 20
-135.5210991414669
 30
0.0
 10
109.0062662487901
 20
-135.5210991414669
 30
0.0
 10
109.0062662487901
 20
-135.5210991414669
 30
0.0
 10
109.0062662487901
 20
-135.635304056803
 30
0.0
 10
109.0062662487901
 20
-135.635304056803
 30
0.0
 10
109.0062662487901
 20
-135.635304056803
 30
0.0
 10
109.7128553328148
 20
-135.635304056803
 30
0.0
 10
109.7128553328148
 20
-135.635304056803
 30
0.0
 10
109.7128553328148
 20
-135.635304056803
 30
0.0
 10
109.7128553328148
 20
-135.5210991414669
 30
0.0
 10
109.7128553328148
 20
-135.5210991414669
 30
0.0
  0
SPLINE
  5
E7
330
DE
100
AcDbEntity
  8
レイヤー 1
100
AcDbSpline
210
0.0
220
0.0
230
1.0
 70
    11
 71
     3
 72
    17
 73
    13
 74
     0
 42
0.0000000001
 43
0.0000000001
 40
0.0
 40
0.0
 40
0.0
 40
0.0
 40
1.0
 40
1.0
 40
1.0
 40
2.0
 40
2.0
 40
2.0
 40
3.0
 40
3.0
 40
3.0
 40
4.0
 40
4.0
 40
4.0
 40
4.0
 10
109.7128553328148
 20
-135.277703145434
 30
0.0
 10
109.7128553328148
 20
-135.277703145434
 30
0.0
 10
109.0062662487901
 20
-135.277703145434
 30
0.0
 10
109.0062662487901
 20
-135.277703145434
 30
0.0
 10
109.0062662487901
 20
-135.277703145434
 30
0.0
 10
109.0062662487901
 20
-135.3920803155443
 30
0.0
 10
109.0062662487901
 20
-135.3920803155443
 30
0.0
 10
109.0062662487901
 20
-135.3920803155443
 30
0.0
 10
109.7128553328148
 20
-135.3920803155443
 30
0.0
 10
109.7128553328148
 20
-135.3920803155443
 30
0.0
 10
109.7128553328148
 20
-135.3920803155443
 30
0.0
 10
109.7128553328148
 20
-135.277703145434
 30
0.0
 10
109.7128553328148
 20
-135.277703145434
 30
0.0
  0
SPLINE
  5
E8
330
DE
100
AcDbEntity
  8
レイヤー 1
100
AcDbSpline
210
0.0
220
0.0
230
1.0
 70
    11
 71
     3
 72
    17
 73
    13
 74
     0
 42
0.0000000001
 43
0.0000000001
 40
0.0
 40
0.0
 40
0.0
 40
0.0
 40
1.0
 40
1.0
 40
1.0
 40
2.0
 40
2.0
 40
2.0
 40
3.0
 40
3.0
 40
3.0
 40
4.0
 40
4.0
 40
4.0
 40
4.0
 10
109.7128553328148
 20
-135.0449869454054
 30
0.0
 10
109.7128553328148
 20
-135.0449869454054
 30
0.0
 10
109.0062662487901
 20
-135.0449869454054
 30
0.0
 10
109.0062662487901
 20
-135.0449869454054
 30
0.0
 10
109.0062662487901
 20
-135.0449869454054
 30
0.0
 10
109.0062662487901
 20
-135.152990688868
 30
0.0
 10
109.0062662487901
 20
-135.152990688868
 30
0.0
 10
109.0062662487901
 20
-135.152990688868
 30
0.0
 10
109.7128553328148
 20
-135.152990688868
 30
0.0
 10
109.7128553328148
 20
-135.152990688868
 30
0.0
 10
109.7128553328148
 20
-135.152990688868
 30
0.0
 10
109.7128553328148
 20
-135.0449869454054
 30
0.0
 10
109.7128553328148
 20
-135.0449869454054
 30
0.0
  0
SPLINE
  5
E9
330
DE
100
AcDbEntity
  8
レイヤー 1
100
AcDbSpline
210
0.0
220
0.0
230
1.0
 70
     9
 71
     3
 72
   203
 73
   199
 74
     0
 42
0.0000000001
 43
0.0000000001
 40
0.0
 40
0.0
 40
0.0
 40
0.0
 40
1.0
 40
1.0
 40
1.0
 40
2.0
 40
2.0
 40
2.0
 40
3.0
 40
3.0
 40
3.0
 40
4.0
 40
4.0
 40
4.0
 40
5.0
 40
5.0
 40
5.0
 40
6.0
 40
6.0
 40
6.0
 40
7.0
 40
7.0
 40
7.0
 40
8.0
 40
8.0
 40
8.0
 40
9.0
 40
9.0
 40
9.0
 40
10.0
 40
10.0
 40
10.0
 40
11.0
 40
11.0
 40
11.0
 40
12.0
 40
12.0
 40
12.0
 40
13.0
 40
13.0
 40
13.0
 40
14.0
 40
14.0
 40
14.0
 40
15.0
 40
15.0
 40
15.0
 40
16.0
 40
16.0
 40
16.0
 40
17.0
 40
17.0
 40
17.0
 40
18.0
 40
18.0
 40
18.0
 40
19.0
 40
19.0
 40
19.0
 40
20.0
 40
20.0
 40
20.0
 40
21.0
 40
21.0
 40
21.0
 40
22.0
 40
22.0
 40
22.0
 40
23.0
 40
23.0
 40
23.0
 40
24.0
 40
24.0
 40
24.0
 40
25.0
 40
25.0
 40
25.0
 40
26.0
 40
26.0
 40
26.0
 40
27.0
 40
27.0
 40
27.0
 40
28.0
 40
28.0
 40
28.0
 40
29.0
 40
29.0
 40
29.0
 40
30.0
 40
30.0
 40
30.0
 40
31.0
 40
31.0
 40
31.0
 40
32.0
 40
32.0
 40
32.0
 40
33.0
 40
33.0
 40
33.0
 40
34.0
 40
34.0
 40
34.0
 40
35.0
 40
35.0
 40
35.0
 40
36.0
 40
36.0
 40
36.0
 40
37.0
 40
37.0
 40
37.0
 40
38.0
 40
38.0
 40
38.0
 40
39.0
 40
39.0
 40
39.0
 40
40.0
 40
40.0
 40
40.0
 40
41.0
 40
41.0
 40
41.0
 40
42.0
 40
42.0
 40
42.0
 40
43.0
 40
43.0
 40
43.0
 40
44.0
 40
44.0
 40
44.0
 40
45.0
 40
45.0
 40
45.0
 40
46.0
 40
46.0
 40
46.0
 40
47.0
 40
47.0
 40
47.0
 40
48.0
 40
48.0
 40
48.0
 40
49.0
 40
49.0
 40
49.0
 40
50.0
 40
50.0
 40
50.0
 40
51.0
 40
51.0
 40
51.0
 40
52.0
 40
52.0
 40
52.0
 40
53.0
 40
53.0
 40
53.0
 40
54.0
 40
54.0
 40
54.0
 40
55.0
 40
55.0
 40
55.0
 40
56.0
 40
56.0
 40
56.0
 40
57.0
 40
57.0
 40
57.0
 40
58.0
 40
58.0
 40
58.0
 40
59.0
 40
59.0
 40
59.0
 40
60.0
 40
60.0
 40
60.0
 40
61.0
 40
61.0
 40
61.0
 40
62.0
 40
62.0
 40
62.0
 40
63.0
 40
63.0
 40
63.0
 40
64.0
 40
64.0
 40
64.0
 40
65.0
 40
65.0
 40
65.0
 40
66.0
 40
66.0
 40
66.0
 40
66.0
 10
109.5478352590713
 20
-134.7890163508513
 30
0.0
 10
109.5478352590713
 20
-134.7890163508513
 30
0.0
 10
108.9890407713638
 20
-134.7890163508513
 30
0.0
 10
108.9890407713638
 20
-134.7890163508513
 30
0.0
 10
108.9787054849081
 20
-134.8334580826111
 30
0.0
 10
108.970092746195
 20
-134.8651529610753
 30
0.0
 10
108.9573458928995
 20
-134.9033935209616
 30
0.0
 10
108.9828395994904
 20
-134.9033935209616
 30
0.0
 10
108.997653510077
 20
-134.9054605782528
 30
0.0
 10
109.0038546819504
 20
-134.9054605782528
 30
0.0
 10
109.0038546819504
 20
-134.9054605782528
 30
0.0
 10
109.1923014049936
 20
-134.9054605782528
 30
0.0
 10
109.1923014049936
 20
-134.9054605782528
 30
0.0
 10
109.1923014049936
 20
-134.9054605782528
 30
0.0
 10
109.5667832842402
 20
-134.9054605782528
 30
0.0
 10
109.5667832842402
 20
-134.9054605782528
 30
0.0
 10
109.6174261878734
 20
-134.9054605782528
 30
0.0
 10
109.9009575463095
 20
-134.8927137249574
 30
0.0
 10
109.9326524247738
 20
-134.8927137249574
 30
0.0
 10
109.9305853674826
 20
-134.9202744888393
 30
0.0
 10
109.9285183101915
 20
-134.9392225140082
 30
0.0
 10
109.9285183101915
 20
-134.9688503351814
 30
0.0
 10
109.9264512529003
 20
-135.0005452136457
 30
0.0
 10
109.9264512529003
 20
-135.135937466216
 30
0.0
 10
109.9264512529003
 20
-135.163498230098
 30
0.0
 10
109.9264512529003
 20
-135.163498230098
 30
0.0
 10
109.9264512529003
 20
-135.408961283422
 30
0.0
 10
109.9264512529003
 20
-135.408961283422
 30
0.0
 10
109.9264512529003
 20
-135.4534030151818
 30
0.0
 10
109.9305853674826
 20
-135.6501179673895
 30
0.0
 10
109.9347194820649
 20
-135.8023911878376
 30
0.0
 10
109.9347194820649
 20
-135.8023911878376
 30
0.0
 10
109.708376708684
 20
-135.8023911878376
 30
0.0
 10
109.708376708684
 20
-135.8023911878376
 30
0.0
 10
109.708376708684
 20
-135.8023911878376
 30
0.0
 10
109.7104437659751
 20
-135.7686292520821
 30
0.0
 10
109.7104437659751
 20
-135.7686292520821
 30
0.0
 10
109.7104437659751
 20
-135.7686292520821
 30
0.0
 10
109.0083333060812
 20
-135.7686292520821
 30
0.0
 10
109.0083333060812
 20
-135.7686292520821
 30
0.0
 10
109.0083333060812
 20
-135.7686292520821
 30
0.0
 10
109.0104003633724
 20
-135.8023911878376
 30
0.0
 10
109.0104003633724
 20
-135.8023911878376
 30
0.0
 10
109.0104003633724
 20
-135.8023911878376
 30
0.0
 10
108.7923258191561
 20
-135.8023911878376
 30
0.0
 10
108.7923258191561
 20
-135.8023911878376
 30
0.0
 10
108.7968044432869
 20
-135.7474419148478
 30
0.0
 10
108.7968044432869
 20
-135.7346950615524
 30
0.0
 10
108.8030056151603
 20
-135.6204901462164
 30
0.0
 10
108.8050726724515
 20
-135.5929293823344
 30
0.0
 10
108.8071397297426
 20
-135.4597764418295
 30
0.0
 10
108.8071397297426
 20
-135.4406561618864
 30
0.0
 10
108.8071397297426
 20
-135.4406561618864
 30
0.0
 10
108.8071397297426
 20
-135.2375677830309
 30
0.0
 10
108.8071397297426
 20
-135.2375677830309
 30
0.0
 10
108.66761336259
 20
-135.4871649509372
 30
0.0
 10
108.4984591742643
 20
-135.6184230889252
 30
0.0
 10
108.3926947428671
 20
-135.683879903145
 30
0.0
 10
108.3926947428671
 20
-135.683879903145
 30
0.0
 10
108.2190619304105
 20
-135.5443535359924
 30
0.0
 10
108.2190619304105
 20
-135.5443535359924
 30
0.0
 10
108.30794539393
 20
-135.4935383775849
 30
0.0
 10
108.4519503852134
 20
-135.4067219713566
 30
0.0
 10
108.5894096950749
 20
-135.2122463312143
 30
0.0
 10
108.6803602158854
 20
-135.0852945625828
 30
0.0
 10
108.7458170301052
 20
-134.9414618260736
 30
0.0
 10
108.7799234754092
 20
-134.7890163508513
 30
0.0
 10
108.5511691351886
 20
-134.7912556629167
 30
0.0
 10
108.3713351508585
 20
-134.7976290895644
 30
0.0
 10
108.2762505154656
 20
-134.7996961468556
 30
0.0
 10
108.2762505154656
 20
-134.7996961468556
 30
0.0
 10
108.2762505154656
 20
-134.6219292198167
 30
0.0
 10
108.2762505154656
 20
-134.6219292198167
 30
0.0
 10
108.4729654676734
 20
-134.6283026464644
 30
0.0
 10
108.7564968261095
 20
-134.632609015821
 30
0.0
 10
108.9067029892664
 20
-134.632609015821
 30
0.0
 10
108.9067029892664
 20
-134.632609015821
 30
0.0
 10
109.1202989093519
 20
-134.632609015821
 30
0.0
 10
109.1202989093519
 20
-134.632609015821
 30
0.0
 10
109.1202989093519
 20
-134.632609015821
 30
0.0
 10
109.1202989093519
 20
-134.5246052723584
 30
0.0
 10
109.1202989093519
 20
-134.5246052723584
 30
0.0
 10
109.1202989093519
 20
-134.5246052723584
 30
0.0
 10
108.9742268607773
 20
-134.5246052723584
 30
0.0
 10
108.9742268607773
 20
-134.5246052723584
 30
0.0
 10
108.8050726724515
 20
-134.5246052723584
 30
0.0
 10
108.6359184841257
 20
-134.528911641715
 30
0.0
 10
108.4688313530911
 20
-134.5352850683627
 30
0.0
 10
108.4688313530911
 20
-134.5352850683627
 30
0.0
 10
108.4688313530911
 20
-134.3638915679715
 30
0.0
 10
108.4688313530911
 20
-134.3638915679715
 30
0.0
 10
108.6231716308303
 20
-134.3743991092015
 30
0.0
 10
108.8092067870338
 20
-134.3743991092015
 30
0.0
 10
108.9742268607773
 20
-134.3743991092015
 30
0.0
 10
108.9742268607773
 20
-134.3743991092015
 30
0.0
 10
109.1202989093519
 20
-134.3743991092015
 30
0.0
 10
109.1202989093519
 20
-134.3743991092015
 30
0.0
 10
109.1202989093519
 20
-134.3743991092015
 30
0.0
 10
109.1202989093519
 20
-134.2560600792832
 30
0.0
 10
109.1202989093519
 20
-134.2560600792832
 30
0.0
 10
109.1202989093519
 20
-134.2560600792832
 30
0.0
 10
108.9890407713638
 20
-134.2560600792832
 30
0.0
 10
108.9890407713638
 20
-134.2560600792832
 30
0.0
 10
108.942531982313
 20
-134.2560600792832
 30
0.0
 10
108.7396158582317
 20
-134.2645005632221
 30
0.0
 10
108.6972411837632
 20
-134.2645005632221
 30
0.0
 10
108.494325059682
 20
-134.2686346778044
 30
0.0
 10
108.4178439399094
 20
-134.2707017350955
 30
0.0
 10
108.3396402723942
 20
-134.2729410471609
 30
0.0
 10
108.3396402723942
 20
-134.2729410471609
 30
0.0
 10
108.3396402723942
 20
-134.0888006934743
 30
0.0
 10
108.3396402723942
 20
-134.0888006934743
 30
0.0
 10
108.4540174425045
 20
-134.0972411774132
 30
0.0
 10
108.4984591742643
 20
-134.0972411774132
 30
0.0
 10
108.8812092826755
 20
-134.1058539161263
 30
0.0
 10
108.8178195257469
 20
-134.0105970259591
 30
0.0
 10
108.7902587618649
 20
-133.9830362620771
 30
0.0
 10
108.7544297688183
 20
-133.9470350142563
 30
0.0
 10
108.7544297688183
 20
-133.9470350142563
 30
0.0
 10
108.9297851290175
 20
-133.8645249773845
 30
0.0
 10
108.9297851290175
 20
-133.8645249773845
 30
0.0
 10
108.970092746195
 20
-133.9005262252054
 30
0.0
 10
109.0145344779547
 20
-133.942900899674
 30
0.0
 10
109.0886040308876
 20
-134.0527994456534
 30
0.0
 10
109.0886040308876
 20
-134.0527994456534
 30
0.0
 10
108.9742268607773
 20
-134.1079209734174
 30
0.0
 10
108.9742268607773
 20
-134.1079209734174
 30
0.0
 10
108.9742268607773
 20
-134.1079209734174
 30
0.0
 10
108.9849066567815
 20
-134.1079209734174
 30
0.0
 10
108.9849066567815
 20
-134.1079209734174
 30
0.0
 10
108.9849066567815
 20
-134.1079209734174
 30
0.0
 10
109.5075276418939
 20
-134.1079209734174
 30
0.0
 10
109.5075276418939
 20
-134.1079209734174
 30
0.0
 10
109.5075276418939
 20
-134.1079209734174
 30
0.0
 10
109.412443006501
 20
-134.0634792416577
 30
0.0
 10
109.412443006501
 20
-134.0634792416577
 30
0.0
 10
109.4396592608345
 20
-134.0254109365457
 30
0.0
 10
109.4968478458897
 20
-133.9449679569651
 30
0.0
 10
109.5116617564762
 20
-133.8708984040323
 30
0.0
 10
109.5116617564762
 20
-133.8708984040323
 30
0.0
 10
109.7252576765617
 20
-133.9344604157351
 30
0.0
 10
109.7252576765617
 20
-133.9344604157351
 30
0.0
 10
109.7338704152748
 20
-133.9365274730263
 30
0.0
 10
109.7548854977349
 20
-133.9470350142563
 30
0.0
 10
109.7548854977349
 20
-133.9682223514906
 30
0.0
 10
109.7548854977349
 20
-134.0062906566026
 30
0.0
 10
109.6894286835151
 20
-134.0062906566026
 30
0.0
 10
109.6704806583463
 20
-134.0062906566026
 30
0.0
 10
109.659800862342
 20
-134.0254109365457
 30
0.0
 10
109.6363742130423
 20
-134.0655462989489
 30
0.0
 10
109.6067463918691
 20
-134.1058539161263
 30
0.0
 10
110.0067219777066
 20
-134.0994804894786
 30
0.0
 10
110.0363497988798
 20
-134.0972411774132
 30
0.0
 10
110.1124864091038
 20
-134.0910400055397
 30
0.0
 10
110.1124864091038
 20
-134.0910400055397
 30
0.0
 10
110.1124864091038
 20
-134.2729410471609
 30
0.0
 10
110.1124864091038
 20
-134.2729410471609
 30
0.0
 10
110.0935383839349
 20
-134.2729410471609
 30
0.0
 10
110.0680446773441
 20
-134.2707017350955
 30
0.0
 10
109.8482475853851
 20
-134.2622612511567
 30
0.0
 10
109.7972601722034
 20
-134.2601941938655
 30
0.0
 10
109.5774630802445
 20
-134.2560600792832
 30
0.0
 10
109.5330213484848
 20
-134.2560600792832
 30
0.0
 10
109.5330213484848
 20
-134.2560600792832
 30
0.0
 10
109.3170138615596
 20
-134.2560600792832
 30
0.0
 10
109.3170138615596
 20
-134.2560600792832
 30
0.0
 10
109.3170138615596
 20
-134.2560600792832
 30
0.0
 10
109.3170138615596
 20
-134.3743991092015
 30
0.0
 10
109.3170138615596
 20
-134.3743991092015
 30
0.0
 10
109.3170138615596
 20
-134.3743991092015
 30
0.0
 10
109.4906466740162
 20
-134.3743991092015
 30
0.0
 10
109.4906466740162
 20
-134.3743991092015
 30
0.0
 10
109.6535996904685
 20
-134.3743991092015
 30
0.0
 10
109.8437689612543
 20
-134.3743991092015
 30
0.0
 10
110.0005208058332
 20
-134.3638915679715
 30
0.0
 10
110.0005208058332
 20
-134.3638915679715
 30
0.0
 10
110.0005208058332
 20
-134.5352850683627
 30
0.0
 10
110.0005208058332
 20
-134.5352850683627
 30
0.0
 10
109.79105900033
 20
-134.5268445844238
 30
0.0
 10
109.5943440481222
 20
-134.5246052723584
 30
0.0
 10
109.4906466740162
 20
-134.5246052723584
 30
0.0
 10
109.4906466740162
 20
-134.5246052723584
 30
0.0
 10
109.3170138615596
 20
-134.5246052723584
 30
0.0
 10
109.3170138615596
 20
-134.5246052723584
 30
0.0
 10
109.3170138615596
 20
-134.5246052723584
 30
0.0
 10
109.3170138615596
 20
-134.632609015821
 30
0.0
 10
109.3170138615596
 20
-134.632609015821
 30
0.0
 10
109.3170138615596
 20
-134.632609015821
 30
0.0
 10
109.5478352590713
 20
-134.632609015821
 30
0.0
 10
109.5478352590713
 20
-134.632609015821
 30
0.0
 10
109.680815944802
 20
-134.632609015821
 30
0.0
 10
109.9688259273689
 20
-134.6283026464644
 30
0.0
 10
110.1779432233236
 20
-134.6219292198167
 30
0.0
 10
110.1779432233236
 20
-134.6219292198167
 30
0.0
 10
110.1779432233236
 20
-134.7996961468556
 30
0.0
 10
110.1779432233236
 20
-134.7996961468556
 30
0.0
 10
109.9857068952466
 20
-134.7933227202079
 30
0.0
 10
109.6725477156374
 20
-134.7890163508513
 30
0.0
 10
109.5478352590713
 20
-134.7890163508513
 30
0.0
  0
HATCH
  5
EA
330
DE
100
AcDbEntity
  8
レイヤー 1
 62
   250
420
  2299925
440
 33554687
100
AcDbHatch
 10
0.0
 20
0.0
 30
0.0
210
0.0
220
0.0
230
1.0
  2
SOLID
 70
     1
 71
     1
 91
        4
 92
        1
 93
        1
 72
     4
 94
        3
 73
     0
 74
     0
 95
       17
 96
       13
 40
0.0
 40
0.0
 40
0.0
 40
0.0
 40
1.0
 40
1.0
 40
1.0
 40
2.0
 40
2.0
 40
2.0
 40
3.0
 40
3.0
 40
3.0
 40
4.0
 40
4.0
 40
4.0
 40
4.0
 10
109.7128553328148
 20
-135.5210991414669
 10
109.7128553328148
 20
-135.5210991414669
 10
109.0062662487901
 20
-135.5210991414669
 10
109.0062662487901
 20
-135.5210991414669
 10
109.0062662487901
 20
-135.5210991414669
 10
109.0062662487901
 20
-135.635304056803
 10
109.0062662487901
 20
-135.635304056803
 10
109.0062662487901
 20
-135.635304056803
 10
109.7128553328148
 20
-135.635304056803
 10
109.7128553328148
 20
-135.635304056803
 10
109.7128553328148
 20
-135.635304056803
 10
109.7128553328148
 20
-135.5210991414669
 10
109.7128553328148
 20
-135.5210991414669
 97
        0
 97
        1
330
E6
 92
        1
 93
        1
 72
     4
 94
        3
 73
     0
 74
     0
 95
       17
 96
       13
 40
0.0
 40
0.0
 40
0.0
 40
0.0
 40
1.0
 40
1.0
 40
1.0
 40
2.0
 40
2.0
 40
2.0
 40
3.0
 40
3.0
 40
3.0
 40
4.0
 40
4.0
 40
4.0
 40
4.0
 10
109.7128553328148
 20
-135.277703145434
 10
109.7128553328148
 20
-135.277703145434
 10
109.0062662487901
 20
-135.277703145434
 10
109.0062662487901
 20
-135.277703145434
 10
109.0062662487901
 20
-135.277703145434
 10
109.0062662487901
 20
-135.3920803155443
 10
109.0062662487901
 20
-135.3920803155443
 10
109.0062662487901
 20
-135.3920803155443
 10
109.7128553328148
 20
-135.3920803155443
 10
109.7128553328148
 20
-135.3920803155443
 10
109.7128553328148
 20
-135.3920803155443
 10
109.7128553328148
 20
-135.277703145434
 10
109.7128553328148
 20
-135.277703145434
 97
        0
 97
        1
330
E7
 92
        1
 93
        1
 72
     4
 94
        3
 73
     0
 74
     0
 95
       17
 96
       13
 40
0.0
 40
0.0
 40
0.0
 40
0.0
 40
1.0
 40
1.0
 40
1.0
 40
2.0
 40
2.0
 40
2.0
 40
3.0
 40
3.0
 40
3.0
 40
4.0
 40
4.0
 40
4.0
 40
4.0
 10
109.7128553328148
 20
-135.0449869454054
 10
109.7128553328148
 20
-135.0449869454054
 10
109.0062662487901
 20
-135.0449869454054
 10
109.0062662487901
 20
-135.0449869454054
 10
109.0062662487901
 20
-135.0449869454054
 10
109.0062662487901
 20
-135.152990688868
 10
109.0062662487901
 20
-135.152990688868
 10
109.0062662487901
 20
-135.152990688868
 10
109.7128553328148
 20
-135.152990688868
 10
109.7128553328148
 20
-135.152990688868
 10
109.7128553328148
 20
-135.152990688868
 10
109.7128553328148
 20
-135.0449869454054
 10
109.7128553328148
 20
-135.0449869454054
 97
        0
 97
        1
330
E8
 92
        1
 93
        1
 72
     4
 94
        3
 73
     0
 74
     0
 95
      203
 96
      199
 40
0.0
 40
0.0
 40
0.0
 40
0.0
 40
1.0
 40
1.0
 40
1.0
 40
2.0
 40
2.0
 40
2.0
 40
3.0
 40
3.0
 40
3.0
 40
4.0
 40
4.0
 40
4.0
 40
5.0
 40
5.0
 40
5.0
 40
6.0
 40
6.0
 40
6.0
 40
7.0
 40
7.0
 40
7.0
 40
8.0
 40
8.0
 40
8.0
 40
9.0
 40
9.0
 40
9.0
 40
10.0
 40
10.0
 40
10.0
 40
11.0
 40
11.0
 40
11.0
 40
12.0
 40
12.0
 40
12.0
 40
13.0
 40
13.0
 40
13.0
 40
14.0
 40
14.0
 40
14.0
 40
15.0
 40
15.0
 40
15.0
 40
16.0
 40
16.0
 40
16.0
 40
17.0
 40
17.0
 40
17.0
 40
18.0
 40
18.0
 40
18.0
 40
19.0
 40
19.0
 40
19.0
 40
20.0
 40
20.0
 40
20.0
 40
21.0
 40
21.0
 40
21.0
 40
22.0
 40
22.0
 40
22.0
 40
23.0
 40
23.0
 40
23.0
 40
24.0
 40
24.0
 40
24.0
 40
25.0
 40
25.0
 40
25.0
 40
26.0
 40
26.0
 40
26.0
 40
27.0
 40
27.0
 40
27.0
 40
28.0
 40
28.0
 40
28.0
 40
29.0
 40
29.0
 40
29.0
 40
30.0
 40
30.0
 40
30.0
 40
31.0
 40
31.0
 40
31.0
 40
32.0
 40
32.0
 40
32.0
 40
33.0
 40
33.0
 40
33.0
 40
34.0
 40
34.0
 40
34.0
 40
35.0
 40
35.0
 40
35.0
 40
36.0
 40
36.0
 40
36.0
 40
37.0
 40
37.0
 40
37.0
 40
38.0
 40
38.0
 40
38.0
 40
39.0
 40
39.0
 40
39.0
 40
40.0
 40
40.0
 40
40.0
 40
41.0
 40
41.0
 40
41.0
 40
42.0
 40
42.0
 40
42.0
 40
43.0
 40
43.0
 40
43.0
 40
44.0
 40
44.0
 40
44.0
 40
45.0
 40
45.0
 40
45.0
 40
46.0
 40
46.0
 40
46.0
 40
47.0
 40
47.0
 40
47.0
 40
48.0
 40
48.0
 40
48.0
 40
49.0
 40
49.0
 40
49.0
 40
50.0
 40
50.0
 40
50.0
 40
51.0
 40
51.0
 40
51.0
 40
52.0
 40
52.0
 40
52.0
 40
53.0
 40
53.0
 40
53.0
 40
54.0
 40
54.0
 40
54.0
 40
55.0
 40
55.0
 40
55.0
 40
56.0
 40
56.0
 40
56.0
 40
57.0
 40
57.0
 40
57.0
 40
58.0
 40
58.0
 40
58.0
 40
59.0
 40
59.0
 40
59.0
 40
60.0
 40
60.0
 40
60.0
 40
61.0
 40
61.0
 40
61.0
 40
62.0
 40
62.0
 40
62.0
 40
63.0
 40
63.0
 40
63.0
 40
64.0
 40
64.0
 40
64.0
 40
65.0
 40
65.0
 40
65.0
 40
66.0
 40
66.0
 40
66.0
 40
66.0
 10
109.5478352590713
 20
-134.7890163508513
 10
109.5478352590713
 20
-134.7890163508513
 10
108.9890407713638
 20
-134.7890163508513
 10
108.9890407713638
 20
-134.7890163508513
 10
108.9787054849081
 20
-134.8334580826111
 10
108.970092746195
 20
-134.8651529610753
 10
108.9573458928995
 20
-134.9033935209616
 10
108.9828395994904
 20
-134.9033935209616
 10
108.997653510077
 20
-134.9054605782528
 10
109.0038546819504
 20
-134.9054605782528
 10
109.0038546819504
 20
-134.9054605782528
 10
109.1923014049936
 20
-134.9054605782528
 10
109.1923014049936
 20
-134.9054605782528
 10
109.1923014049936
 20
-134.9054605782528
 10
109.5667832842402
 20
-134.9054605782528
 10
109.5667832842402
 20
-134.9054605782528
 10
109.6174261878734
 20
-134.9054605782528
 10
109.9009575463095
 20
-134.8927137249574
 10
109.9326524247738
 20
-134.8927137249574
 10
109.9305853674826
 20
-134.9202744888393
 10
109.9285183101915
 20
-134.9392225140082
 10
109.9285183101915
 20
-134.9688503351814
 10
109.9264512529003
 20
-135.0005452136457
 10
109.9264512529003
 20
-135.135937466216
 10
109.9264512529003
 20
-135.163498230098
 10
109.9264512529003
 20
-135.163498230098
 10
109.9264512529003
 20
-135.408961283422
 10
109.9264512529003
 20
-135.408961283422
 10
109.9264512529003
 20
-135.4534030151818
 10
109.9305853674826
 20
-135.6501179673895
 10
109.9347194820649
 20
-135.8023911878376
 10
109.9347194820649
 20
-135.8023911878376
 10
109.708376708684
 20
-135.8023911878376
 10
109.708376708684
 20
-135.8023911878376
 10
109.708376708684
 20
-135.8023911878376
 10
109.7104437659751
 20
-135.7686292520821
 10
109.7104437659751
 20
-135.7686292520821
 10
109.7104437659751
 20
-135.7686292520821
 10
109.0083333060812
 20
-135.7686292520821
 10
109.0083333060812
 20
-135.7686292520821
 10
109.0083333060812
 20
-135.7686292520821
 10
109.0104003633724
 20
-135.8023911878376
 10
109.0104003633724
 20
-135.8023911878376
 10
109.0104003633724
 20
-135.8023911878376
 10
108.7923258191561
 20
-135.8023911878376
 10
108.7923258191561
 20
-135.8023911878376
 10
108.7968044432869
 20
-135.7474419148478
 10
108.7968044432869
 20
-135.7346950615524
 10
108.8030056151603
 20
-135.6204901462164
 10
108.8050726724515
 20
-135.5929293823344
 10
108.8071397297426
 20
-135.4597764418295
 10
108.8071397297426
 20
-135.4406561618864
 10
108.8071397297426
 20
-135.4406561618864
 10
108.8071397297426
 20
-135.2375677830309
 10
108.8071397297426
 20
-135.2375677830309
 10
108.66761336259
 20
-135.4871649509372
 10
108.4984591742643
 20
-135.6184230889252
 10
108.3926947428671
 20
-135.683879903145
 10
108.3926947428671
 20
-135.683879903145
 10
108.2190619304105
 20
-135.5443535359924
 10
108.2190619304105
 20
-135.5443535359924
 10
108.30794539393
 20
-135.4935383775849
 10
108.4519503852134
 20
-135.4067219713566
 10
108.5894096950749
 20
-135.2122463312143
 10
108.6803602158854
 20
-135.0852945625828
 10
108.7458170301052
 20
-134.9414618260736
 10
108.7799234754092
 20
-134.7890163508513
 10
108.5511691351886
 20
-134.7912556629167
 10
108.3713351508585
 20
-134.7976290895644
 10
108.2762505154656
 20
-134.7996961468556
 10
108.2762505154656
 20
-134.7996961468556
 10
108.2762505154656
 20
-134.6219292198167
 10
108.2762505154656
 20
-134.6219292198167
 10
108.4729654676734
 20
-134.6283026464644
 10
108.7564968261095
 20
-134.632609015821
 10
108.9067029892664
 20
-134.632609015821
 10
108.9067029892664
 20
-134.632609015821
 10
109.1202989093519
 20
-134.632609015821
 10
109.1202989093519
 20
-134.632609015821
 10
109.1202989093519
 20
-134.632609015821
 10
109.1202989093519
 20
-134.5246052723584
 10
109.1202989093519
 20
-134.5246052723584
 10
109.1202989093519
 20
-134.5246052723584
 10
108.9742268607773
 20
-134.5246052723584
 10
108.9742268607773
 20
-134.5246052723584
 10
108.8050726724515
 20
-134.5246052723584
 10
108.6359184841257
 20
-134.528911641715
 10
108.4688313530911
 20
-134.5352850683627
 10
108.4688313530911
 20
-134.5352850683627
 10
108.4688313530911
 20
-134.3638915679715
 10
108.4688313530911
 20
-134.3638915679715
 10
108.6231716308303
 20
-134.3743991092015
 10
108.8092067870338
 20
-134.3743991092015
 10
108.9742268607773
 20
-134.3743991092015
 10
108.9742268607773
 20
-134.3743991092015
 10
109.1202989093519
 20
-134.3743991092015
 10
109.1202989093519
 20
-134.3743991092015
 10
109.1202989093519
 20
-134.3743991092015
 10
109.1202989093519
 20
-134.2560600792832
 10
109.1202989093519
 20
-134.2560600792832
 10
109.1202989093519
 20
-134.2560600792832
 10
108.9890407713638
 20
-134.2560600792832
 10
108.9890407713638
 20
-134.2560600792832
 10
108.942531982313
 20
-134.2560600792832
 10
108.7396158582317
 20
-134.2645005632221
 10
108.6972411837632
 20
-134.2645005632221
 10
108.494325059682
 20
-134.2686346778044
 10
108.4178439399094
 20
-134.2707017350955
 10
108.3396402723942
 20
-134.2729410471609
 10
108.3396402723942
 20
-134.2729410471609
 10
108.3396402723942
 20
-134.0888006934743
 10
108.3396402723942
 20
-134.0888006934743
 10
108.4540174425045
 20
-134.0972411774132
 10
108.4984591742643
 20
-134.0972411774132
 10
108.8812092826755
 20
-134.1058539161263
 10
108.8178195257469
 20
-134.0105970259591
 10
108.7902587618649
 20
-133.9830362620771
 10
108.7544297688183
 20
-133.9470350142563
 10
108.7544297688183
 20
-133.9470350142563
 10
108.9297851290175
 20
-133.8645249773845
 10
108.9297851290175
 20
-133.8645249773845
 10
108.970092746195
 20
-133.9005262252054
 10
109.0145344779547
 20
-133.942900899674
 10
109.0886040308876
 20
-134.0527994456534
 10
109.0886040308876
 20
-134.0527994456534
 10
108.9742268607773
 20
-134.1079209734174
 10
108.9742268607773
 20
-134.1079209734174
 10
108.9742268607773
 20
-134.1079209734174
 10
108.9849066567815
 20
-134.1079209734174
 10
108.9849066567815
 20
-134.1079209734174
 10
108.9849066567815
 20
-134.1079209734174
 10
109.5075276418939
 20
-134.1079209734174
 10
109.5075276418939
 20
-134.1079209734174
 10
109.5075276418939
 20
-134.1079209734174
 10
109.412443006501
 20
-134.0634792416577
 10
109.412443006501
 20
-134.0634792416577
 10
109.4396592608345
 20
-134.0254109365457
 10
109.4968478458897
 20
-133.9449679569651
 10
109.5116617564762
 20
-133.8708984040323
 10
109.5116617564762
 20
-133.8708984040323
 10
109.7252576765617
 20
-133.9344604157351
 10
109.7252576765617
 20
-133.9344604157351
 10
109.7338704152748
 20
-133.9365274730263
 10
109.7548854977349
 20
-133.9470350142563
 10
109.7548854977349
 20
-133.9682223514906
 10
109.7548854977349
 20
-134.0062906566026
 10
109.6894286835151
 20
-134.0062906566026
 10
109.6704806583463
 20
-134.0062906566026
 10
109.659800862342
 20
-134.0254109365457
 10
109.6363742130423
 20
-134.0655462989489
 10
109.6067463918691
 20
-134.1058539161263
 10
110.0067219777066
 20
-134.0994804894786
 10
110.0363497988798
 20
-134.0972411774132
 10
110.1124864091038
 20
-134.0910400055397
 10
110.1124864091038
 20
-134.0910400055397
 10
110.1124864091038
 20
-134.2729410471609
 10
110.1124864091038
 20
-134.2729410471609
 10
110.0935383839349
 20
-134.2729410471609
 10
110.0680446773441
 20
-134.2707017350955
 10
109.8482475853851
 20
-134.2622612511567
 10
109.7972601722034
 20
-134.2601941938655
 10
109.5774630802445
 20
-134.2560600792832
 10
109.5330213484848
 20
-134.2560600792832
 10
109.5330213484848
 20
-134.2560600792832
 10
109.3170138615596
 20
-134.2560600792832
 10
109.3170138615596
 20
-134.2560600792832
 10
109.3170138615596
 20
-134.2560600792832
 10
109.3170138615596
 20
-134.3743991092015
 10
109.3170138615596
 20
-134.3743991092015
 10
109.3170138615596
 20
-134.3743991092015
 10
109.4906466740162
 20
-134.3743991092015
 10
109.4906466740162
 20
-134.3743991092015
 10
109.6535996904685
 20
-134.3743991092015
 10
109.8437689612543
 20
-134.3743991092015
 10
110.0005208058332
 20
-134.3638915679715
 10
110.0005208058332
 20
-134.3638915679715
 10
110.0005208058332
 20
-134.5352850683627
 10
110.0005208058332
 20
-134.5352850683627
 10
109.79105900033
 20
-134.5268445844238
 10
109.5943440481222
 20
-134.5246052723584
 10
109.4906466740162
 20
-134.5246052723584
 10
109.4906466740162
 20
-134.5246052723584
 10
109.3170138615596
 20
-134.5246052723584
 10
109.3170138615596
 20
-134.5246052723584
 10
109.3170138615596
 20
-134.5246052723584
 10
109.3170138615596
 20
-134.632609015821
 10
109.3170138615596
 20
-134.632609015821
 10
109.3170138615596
 20
-134.632609015821
 10
109.5478352590713
 20
-134.632609015821
 10
109.5478352590713
 20
-134.632609015821
 10
109.680815944802
 20
-134.632609015821
 10
109.9688259273689
 20
-134.6283026464644
 10
110.1779432233236
 20
-134.6219292198167
 10
110.1779432233236
 20
-134.6219292198167
 10
110.1779432233236
 20
-134.7996961468556
 10
110.1779432233236
 20
-134.7996961468556
 10
109.9857068952466
 20
-134.7933227202079
 10
109.6725477156374
 20
-134.7890163508513
 10
109.5478352590713
 20
-134.7890163508513
 97
        0
 97
        1
330
E9
 75
     2
 76
     1
 98
        1
 10
0.0
 20
0.0
450
        0
451
        0
460
0.0
461
0.0
452
        0
462
0.0
453
        0
470

  0
SPLINE
  5
EB
330
DE
100
AcDbEntity
  8
レイヤー 1
100
AcDbSpline
210
0.0
220
0.0
230
1.0
 70
     9
 71
     3
 72
    29
 73
    25
 74
     0
 42
0.0000000001
 43
0.0000000001
 40
0.0
 40
0.0
 40
0.0
 40
0.0
 40
1.0
 40
1.0
 40
1.0
 40
2.0
 40
2.0
 40
2.0
 40
3.0
 40
3.0
 40
3.0
 40
4.0
 40
4.0
 40
4.0
 40
5.0
 40
5.0
 40
5.0
 40
6.0
 40
6.0
 40
6.0
 40
7.0
 40
7.0
 40
7.0
 40
8.0
 40
8.0
 40
8.0
 40
8.0
 10
111.4230007316928
 20
-134.23693979934
 30
0.0
 10
111.4230007316928
 20
-134.23693979934
 30
0.0
 10
111.0695339349062
 20
-134.23693979934
 30
0.0
 10
111.0695339349062
 20
-134.23693979934
 30
0.0
 10
110.9575683316356
 20
-134.23693979934
 30
0.0
 10
110.818041964483
 20
-134.2433132259877
 30
0.0
 10
110.7102104757947
 20
-134.2560600792832
 30
0.0
 10
110.7102104757947
 20
-134.2560600792832
 30
0.0
 10
110.7102104757947
 20
-134.0211045671892
 30
0.0
 10
110.7102104757947
 20
-134.0211045671892
 30
0.0
 10
110.8283772509387
 20
-134.0359184777757
 30
0.0
 10
111.0126898593996
 20
-134.0402248471323
 30
0.0
 10
111.0695339349062
 20
-134.0402248471323
 30
0.0
 10
111.0695339349062
 20
-134.0402248471323
 30
0.0
 10
111.4230007316928
 20
-134.0402248471323
 30
0.0
 10
111.4230007316928
 20
-134.0402248471323
 30
0.0
 10
111.4419487568617
 20
-134.0402248471323
 30
0.0
 10
111.6452093904915
 20
-134.0402248471323
 30
0.0
 10
111.7868028149352
 20
-134.0211045671892
 30
0.0
 10
111.7868028149352
 20
-134.0211045671892
 30
0.0
 10
111.7868028149352
 20
-134.2560600792832
 30
0.0
 10
111.7868028149352
 20
-134.2560600792832
 30
0.0
 10
111.6303954799049
 20
-134.23693979934
 30
0.0
 10
111.4398816995706
 20
-134.23693979934
 30
0.0
 10
111.4230007316928
 20
-134.23693979934
 30
0.0
  0
SPLINE
  5
EC
330
DE
100
AcDbEntity
  8
レイヤー 1
100
AcDbSpline
210
0.0
220
0.0
230
1.0
 70
     9
 71
     3
 72
    47
 73
    43
 74
     0
 42
0.0000000001
 43
0.0000000001
 40
0.0
 40
0.0
 40
0.0
 40
0.0
 40
1.0
 40
1.0
 40
1.0
 40
2.0
 40
2.0
 40
2.0
 40
3.0
 40
3.0
 40
3.0
 40
4.0
 40
4.0
 40
4.0
 40
5.0
 40
5.0
 40
5.0
 40
6.0
 40
6.0
 40
6.0
 40
7.0
 40
7.0
 40
7.0
 40
8.0
 40
8.0
 40
8.0
 40
9.0
 40
9.0
 40
9.0
 40
10.0
 40
10.0
 40
10.0
 40
11.0
 40
11.0
 40
11.0
 40
12.0
 40
12.0
 40
12.0
 40
13.0
 40
13.0
 40
13.0
 40
14.0
 40
14.0
 40
14.0
 40
14.0
 10
111.5246310485077
 20
-134.7657619563259
 30
0.0
 10
111.5246310485077
 20
-134.7657619563259
 30
0.0
 10
111.4230007316928
 20
-134.7657619563259
 30
0.0
 10
111.4230007316928
 20
-134.7657619563259
 30
0.0
 10
111.4230007316928
 20
-134.8525783625542
 30
0.0
 10
111.4019856492328
 20
-135.2418741523874
 30
0.0
 10
111.2052706970251
 20
-135.4618434991206
 30
0.0
 10
111.0526529670285
 20
-135.6309976874464
 30
0.0
 10
110.845602728365
 20
-135.700933125797
 30
0.0
 10
110.7608533794278
 20
-135.7283216349047
 30
0.0
 10
110.7608533794278
 20
-135.7283216349047
 30
0.0
 10
110.5662054845112
 20
-135.5612345038701
 30
0.0
 10
110.5662054845112
 20
-135.5612345038701
 30
0.0
 10
110.6637016867438
 20
-135.5484876505747
 30
0.0
 10
110.839057046943
 20
-135.5252332560492
 30
0.0
 10
111.0275037699862
 20
-135.3369587877803
 30
0.0
 10
111.101573322919
 20
-135.2651285469129
 30
0.0
 10
111.2052706970251
 20
-135.125429924986
 30
0.0
 10
111.2052706970251
 20
-134.7657619563259
 30
0.0
 10
111.2052706970251
 20
-134.7657619563259
 30
0.0
 10
110.9744492995133
 20
-134.7657619563259
 30
0.0
 10
110.9744492995133
 20
-134.7657619563259
 30
0.0
 10
110.7884141433098
 20
-134.7657619563259
 30
0.0
 10
110.6020344775578
 20
-134.7700683256825
 30
0.0
 10
110.4159993213543
 20
-134.784882236269
 30
0.0
 10
110.4159993213543
 20
-134.784882236269
 30
0.0
 10
110.4159993213543
 20
-134.5649128895358
 30
0.0
 10
110.4159993213543
 20
-134.5649128895358
 30
0.0
 10
110.6044460443975
 20
-134.5797268001224
 30
0.0
 10
110.8900444601247
 20
-134.5838609147047
 30
0.0
 10
110.9744492995133
 20
-134.5838609147047
 30
0.0
 10
110.9744492995133
 20
-134.5838609147047
 30
0.0
 10
111.5246310485077
 20
-134.5838609147047
 30
0.0
 10
111.5246310485077
 20
-134.5838609147047
 30
0.0
 10
111.5435790736766
 20
-134.5838609147047
 30
0.0
 10
111.8608723678681
 20
-134.5838609147047
 30
0.0
 10
112.0892821985402
 20
-134.5649128895358
 30
0.0
 10
112.0892821985402
 20
-134.5649128895358
 30
0.0
 10
112.0892821985402
 20
-134.784882236269
 30
0.0
 10
112.0892821985402
 20
-134.784882236269
 30
0.0
 10
111.9011799850455
 20
-134.7700683256825
 30
0.0
 10
111.7127332620023
 20
-134.7657619563259
 30
0.0
 10
111.5246310485077
 20
-134.7657619563259
 30
0.0
  0
HATCH
  5
ED
330
DE
100
AcDbEntity
  8
レイヤー 1
 62
   250
420
  2299925
440
 33554687
100
AcDbHatch
 10
0.0
 20
0.0
 30
0.0
210
0.0
220
0.0
230
1.0
  2
SOLID
 70
     1
 71
     1
 91
        2
 92
        1
 93
        1
 72
     4
 94
        3
 73
     0
 74
     0
 95
       29
 96
       25
 40
0.0
 40
0.0
 40
0.0
 40
0.0
 40
1.0
 40
1.0
 40
1.0
 40
2.0
 40
2.0
 40
2.0
 40
3.0
 40
3.0
 40
3.0
 40
4.0
 40
4.0
 40
4.0
 40
5.0
 40
5.0
 40
5.0
 40
6.0
 40
6.0
 40
6.0
 40
7.0
 40
7.0
 40
7.0
 40
8.0
 40
8.0
 40
8.0
 40
8.0
 10
111.4230007316928
 20
-134.23693979934
 10
111.4230007316928
 20
-134.23693979934
 10
111.0695339349062
 20
-134.23693979934
 10
111.0695339349062
 20
-134.23693979934
 10
110.9575683316356
 20
-134.23693979934
 10
110.818041964483
 20
-134.2433132259877
 10
110.7102104757947
 20
-134.2560600792832
 10
110.7102104757947
 20
-134.2560600792832
 10
110.7102104757947
 20
-134.0211045671892
 10
110.7102104757947
 20
-134.0211045671892
 10
110.8283772509387
 20
-134.0359184777757
 10
111.0126898593996
 20
-134.0402248471323
 10
111.0695339349062
 20
-134.0402248471323
 10
111.0695339349062
 20
-134.0402248471323
 10
111.4230007316928
 20
-134.0402248471323
 10
111.4230007316928
 20
-134.0402248471323
 10
111.4419487568617
 20
-134.0402248471323
 10
111.6452093904915
 20
-134.0402248471323
 10
111.7868028149352
 20
-134.0211045671892
 10
111.7868028149352
 20
-134.0211045671892
 10
111.7868028149352
 20
-134.2560600792832
 10
111.7868028149352
 20
-134.2560600792832
 10
111.6303954799049
 20
-134.23693979934
 10
111.4398816995706
 20
-134.23693979934
 10
111.4230007316928
 20
-134.23693979934
 97
        0
 97
        1
330
EB
 92
        1
 93
        1
 72
     4
 94
        3
 73
     0
 74
     0
 95
       47
 96
       43
 40
0.0
 40
0.0
 40
0.0
 40
0.0
 40
1.0
 40
1.0
 40
1.0
 40
2.0
 40
2.0
 40
2.0
 40
3.0
 40
3.0
 40
3.0
 40
4.0
 40
4.0
 40
4.0
 40
5.0
 40
5.0
 40
5.0
 40
6.0
 40
6.0
 40
6.0
 40
7.0
 40
7.0
 40
7.0
 40
8.0
 40
8.0
 40
8.0
 40
9.0
 40
9.0
 40
9.0
 40
10.0
 40
10.0
 40
10.0
 40
11.0
 40
11.0
 40
11.0
 40
12.0
 40
12.0
 40
12.0
 40
13.0
 40
13.0
 40
13.0
 40
14.0
 40
14.0
 40
14.0
 40
14.0
 10
111.5246310485077
 20
-134.7657619563259
 10
111.5246310485077
 20
-134.7657619563259
 10
111.4230007316928
 20
-134.7657619563259
 10
111.4230007316928
 20
-134.7657619563259
 10
111.4230007316928
 20
-134.8525783625542
 10
111.4019856492328
 20
-135.2418741523874
 10
111.2052706970251
 20
-135.4618434991206
 10
111.0526529670285
 20
-135.6309976874464
 10
110.845602728365
 20
-135.700933125797
 10
110.7608533794278
 20
-135.7283216349047
 10
110.7608533794278
 20
-135.7283216349047
 10
110.5662054845112
 20
-135.5612345038701
 10
110.5662054845112
 20
-135.5612345038701
 10
110.6637016867438
 20
-135.5484876505747
 10
110.839057046943
 20
-135.5252332560492
 10
111.0275037699862
 20
-135.3369587877803
 10
111.101573322919
 20
-135.2651285469129
 10
111.2052706970251
 20
-135.125429924986
 10
111.2052706970251
 20
-134.7657619563259
 10
111.2052706970251
 20
-134.7657619563259
 10
110.9744492995133
 20
-134.7657619563259
 10
110.9744492995133
 20
-134.7657619563259
 10
110.7884141433098
 20
-134.7657619563259
 10
110.6020344775578
 20
-134.7700683256825
 10
110.4159993213543
 20
-134.784882236269
 10
110.4159993213543
 20
-134.784882236269
 10
110.4159993213543
 20
-134.5649128895358
 10
110.4159993213543
 20
-134.5649128895358
 10
110.6044460443975
 20
-134.5797268001224
 10
110.8900444601247
 20
-134.5838609147047
 10
110.9744492995133
 20
-134.5838609147047
 10
110.9744492995133
 20
-134.5838609147047
 10
111.5246310485077
 20
-134.5838609147047
 10
111.5246310485077
 20
-134.5838609147047
 10
111.5435790736766
 20
-134.5838609147047
 10
111.8608723678681
 20
-134.5838609147047
 10
112.0892821985402
 20
-134.5649128895358
 10
112.0892821985402
 20
-134.5649128895358
 10
112.0892821985402
 20
-134.784882236269
 10
112.0892821985402
 20
-134.784882236269
 10
111.9011799850455
 20
-134.7700683256825
 10
111.7127332620023
 20
-134.7657619563259
 10
111.5246310485077
 20
-134.7657619563259
 97
        0
 97
        1
330
EC
 75
     2
 76
     1
 98
        1
 10
0.0
 20
0.0
450
        0
451
        0
460
0.0
461
0.0
452
        0
462
0.0
453
        0
470

  0
SPLINE
  5
EE
330
DE
100
AcDbEntity
  8
レイヤー 1
100
AcDbSpline
210
0.0
220
0.0
230
1.0
 70
     9
 71
     3
 72
    29
 73
    25
 74
     0
 42
0.0000000001
 43
0.0000000001
 40
0.0
 40
0.0
 40
0.0
 40
0.0
 40
1.0
 40
1.0
 40
1.0
 40
2.0
 40
2.0
 40
2.0
 40
3.0
 40
3.0
 40
3.0
 40
4.0
 40
4.0
 40
4.0
 40
5.0
 40
5.0
 40
5.0
 40
6.0
 40
6.0
 40
6.0
 40
7.0
 40
7.0
 40
7.0
 40
8.0
 40
8.0
 40
8.0
 40
8.0
 10
113.3705132095046
 20
-134.9287149727782
 30
0.0
 10
113.3705132095046
 20
-134.9287149727782
 30
0.0
 10
112.8861327842785
 20
-134.9287149727782
 30
0.0
 10
112.8861327842785
 20
-134.9287149727782
 30
0.0
 10
112.8585720203965
 20
-134.9287149727782
 30
0.0
 10
112.5412787262049
 20
-134.9287149727782
 30
0.0
 10
112.3297498634106
 20
-134.9540364245948
 30
0.0
 10
112.3297498634106
 20
-134.9540364245948
 30
0.0
 10
112.3297498634106
 20
-134.7235595366316
 30
0.0
 10
112.3297498634106
 20
-134.7235595366316
 30
0.0
 10
112.4882242557321
 20
-134.746813931157
 30
0.0
 10
112.6787380360664
 20
-134.7488809884482
 30
0.0
 10
112.8861327842785
 20
-134.7488809884482
 30
0.0
 10
112.8861327842785
 20
-134.7488809884482
 30
0.0
 10
113.3705132095046
 20
-134.7488809884482
 30
0.0
 10
113.3705132095046
 20
-134.7488809884482
 30
0.0
 10
113.5565483657081
 20
-134.7488809884482
 30
0.0
 10
113.7429280314601
 20
-134.746813931157
 30
0.0
 10
113.9268961303724
 20
-134.7235595366316
 30
0.0
 10
113.9268961303724
 20
-134.7235595366316
 30
0.0
 10
113.9268961303724
 20
-134.9540364245948
 30
0.0
 10
113.9268961303724
 20
-134.9540364245948
 30
0.0
 10
113.7429280314601
 20
-134.9307820300694
 30
0.0
 10
113.4952256660706
 20
-134.9287149727782
 30
0.0
 10
113.3705132095046
 20
-134.9287149727782
 30
0.0
  0
HATCH
  5
EF
330
DE
100
AcDbEntity
  8
レイヤー 1
 62
   250
420
  2299925
440
 33554687
100
AcDbHatch
 10
0.0
 20
0.0
 30
0.0
210
0.0
220
0.0
230
1.0
  2
SOLID
 70
     1
 71
     1
 91
        1
 92
        1
 93
        1
 72
     4
 94
        3
 73
     0
 74
     0
 95
       29
 96
       25
 40
0.0
 40
0.0
 40
0.0
 40
0.0
 40
1.0
 40
1.0
 40
1.0
 40
2.0
 40
2.0
 40
2.0
 40
3.0
 40
3.0
 40
3.0
 40
4.0
 40
4.0
 40
4.0
 40
5.0
 40
5.0
 40
5.0
 40
6.0
 40
6.0
 40
6.0
 40
7.0
 40
7.0
 40
7.0
 40
8.0
 40
8.0
 40
8.0
 40
8.0
 10
113.3705132095046
 20
-134.9287149727782
 10
113.3705132095046
 20
-134.9287149727782
 10
112.8861327842785
 20
-134.9287149727782
 10
112.8861327842785
 20
-134.9287149727782
 10
112.8585720203965
 20
-134.9287149727782
 10
112.5412787262049
 20
-134.9287149727782
 10
112.3297498634106
 20
-134.9540364245948
 10
112.3297498634106
 20
-134.9540364245948
 10
112.3297498634106
 20
-134.7235595366316
 10
112.3297498634106
 20
-134.7235595366316
 10
112.4882242557321
 20
-134.746813931157
 10
112.6787380360664
 20
-134.7488809884482
 10
112.8861327842785
 20
-134.7488809884482
 10
112.8861327842785
 20
-134.7488809884482
 10
113.3705132095046
 20
-134.7488809884482
 10
113.3705132095046
 20
-134.7488809884482
 10
113.5565483657081
 20
-134.7488809884482
 10
113.7429280314601
 20
-134.746813931157
 10
113.9268961303724
 20
-134.7235595366316
 10
113.9268961303724
 20
-134.7235595366316
 10
113.9268961303724
 20
-134.9540364245948
 10
113.9268961303724
 20
-134.9540364245948
 10
113.7429280314601
 20
-134.9307820300694
 10
113.4952256660706
 20
-134.9287149727782
 10
113.3705132095046
 20
-134.9287149727782
 97
        0
 97
        1
330
EE
 75
     2
 76
     1
 98
        1
 10
0.0
 20
0.0
450
        0
451
        0
460
0.0
461
0.0
452
        0
462
0.0
453
        0
470

  0
SPLINE
  5
F0
330
DE
100
AcDbEntity
  8
レイヤー 1
100
AcDbSpline
210
0.0
220
0.0
230
1.0
 70
     9
 71
     3
 72
    17
 73
    13
 74
     0
 42
0.0000000001
 43
0.0000000001
 40
0.0
 40
0.0
 40
0.0
 40
0.0
 40
1.0
 40
1.0
 40
1.0
 40
2.0
 40
2.0
 40
2.0
 40
3.0
 40
3.0
 40
3.0
 40
4.0
 40
4.0
 40
4.0
 40
4.0
 10
115.7893147496985
 20
-133.9618489248429
 30
0.0
 10
115.734537731483
 20
-133.9618489248429
 30
0.0
 10
115.6900959997233
 20
-134.0062906566026
 30
0.0
 10
115.6900959997233
 20
-134.0614121843666
 30
0.0
 10
115.6900959997233
 20
-134.1184285146475
 30
0.0
 10
115.734537731483
 20
-134.1671766157637
 30
0.0
 10
115.7934488642808
 20
-134.1671766157637
 30
0.0
 10
115.8527045066271
 20
-134.1671766157637
 30
0.0
 10
115.8930121238045
 20
-134.1163614573563
 30
0.0
 10
115.8930121238045
 20
-134.0634792416577
 30
0.0
 10
115.8930121238045
 20
-134.0062906566026
 30
0.0
 10
115.8465033347536
 20
-133.9618489248429
 30
0.0
 10
115.7893147496985
 20
-133.9618489248429
 30
0.0
  0
SPLINE
  5
F1
330
DE
100
AcDbEntity
  8
レイヤー 1
100
AcDbSpline
210
0.0
220
0.0
230
1.0
 70
     9
 71
     3
 72
    17
 73
    13
 74
     0
 42
0.0000000001
 43
0.0000000001
 40
0.0
 40
0.0
 40
0.0
 40
0.0
 40
1.0
 40
1.0
 40
1.0
 40
2.0
 40
2.0
 40
2.0
 40
3.0
 40
3.0
 40
3.0
 40
4.0
 40
4.0
 40
4.0
 40
4.0
 10
115.7913818069896
 20
-134.2918890723298
 30
0.0
 10
115.6646022931324
 20
-134.2918890723298
 30
0.0
 10
115.5629719763176
 20
-134.1904310102892
 30
0.0
 10
115.5629719763176
 20
-134.0634792416577
 30
0.0
 10
115.5629719763176
 20
-133.9365274730263
 30
0.0
 10
115.6646022931324
 20
-133.8328300989203
 30
0.0
 10
115.7913818069896
 20
-133.8328300989203
 30
0.0
 10
115.9185058303954
 20
-133.8328300989203
 30
0.0
 10
116.0222032045014
 20
-133.9365274730263
 30
0.0
 10
116.0222032045014
 20
-134.0634792416577
 30
0.0
 10
116.0222032045014
 20
-134.1904310102892
 30
0.0
 10
115.9185058303954
 20
-134.2918890723298
 30
0.0
 10
115.7913818069896
 20
-134.2918890723298
 30
0.0
  0
SPLINE
  5
F2
330
DE
100
AcDbEntity
  8
レイヤー 1
100
AcDbSpline
210
0.0
220
0.0
230
1.0
 70
     9
 71
     3
 72
    44
 73
    40
 74
     0
 42
0.0000000001
 43
0.0000000001
 40
0.0
 40
0.0
 40
0.0
 40
0.0
 40
1.0
 40
1.0
 40
1.0
 40
2.0
 40
2.0
 40
2.0
 40
3.0
 40
3.0
 40
3.0
 40
4.0
 40
4.0
 40
4.0
 40
5.0
 40
5.0
 40
5.0
 40
6.0
 40
6.0
 40
6.0
 40
7.0
 40
7.0
 40
7.0
 40
8.0
 40
8.0
 40
8.0
 40
9.0
 40
9.0
 40
9.0
 40
10.0
 40
10.0
 40
10.0
 40
11.0
 40
11.0
 40
11.0
 40
12.0
 40
12.0
 40
12.0
 40
13.0
 40
13.0
 40
13.0
 40
13.0
 10
115.5819200014864
 20
-134.4908433366029
 30
0.0
 10
115.4699543982158
 20
-134.8589517892019
 30
0.0
 10
115.4193114945826
 20
-135.0175984362977
 30
0.0
 10
115.2225965423749
 20
-135.267195604204
 30
0.0
 10
115.038283933914
 20
-135.4978447469415
 30
0.0
 10
114.8016058740774
 20
-135.683879903145
 30
0.0
 10
114.5222086302236
 20
-135.777069736021
 30
0.0
 10
114.5222086302236
 20
-135.777069736021
 30
0.0
 10
114.3296277925981
 20
-135.597235751691
 30
0.0
 10
114.3296277925981
 20
-135.597235751691
 30
0.0
 10
114.9707600624031
 20
-135.4449625312429
 30
0.0
 10
115.3008002098901
 20
-134.8885796103751
 30
0.0
 10
115.3641899668187
 20
-134.4484686621344
 30
0.0
 10
115.3641899668187
 20
-134.4484686621344
 30
0.0
 10
114.5983452404476
 20
-134.4484686621344
 30
0.0
 10
114.5983452404476
 20
-134.4484686621344
 30
0.0
 10
114.5053276623459
 20
-134.4484686621344
 30
0.0
 10
114.3213595634335
 20
-134.452775031491
 30
0.0
 10
114.1646077188547
 20
-134.4717230566598
 30
0.0
 10
114.1646077188547
 20
-134.4717230566598
 30
0.0
 10
114.1646077188547
 20
-134.2517537099266
 30
0.0
 10
114.1646077188547
 20
-134.2517537099266
 30
0.0
 10
114.251424125083
 20
-134.2729410471609
 30
0.0
 10
114.5032606050547
 20
-134.2729410471609
 30
0.0
 10
114.6024793550299
 20
-134.2729410471609
 30
0.0
 10
114.6024793550299
 20
-134.2729410471609
 30
0.0
 10
115.0341498193317
 20
-134.2729410471609
 30
0.0
 10
115.0341498193317
 20
-134.2729410471609
 30
0.0
 10
115.0765244938003
 20
-134.2729410471609
 30
0.0
 10
115.3111354963458
 20
-134.2707017350955
 30
0.0
 10
115.3493760562321
 20
-134.2645005632221
 30
0.0
 10
115.3917507307006
 20
-134.2581271365743
 30
0.0
 10
115.3938177879918
 20
-134.2560600792832
 30
0.0
 10
115.4551404876293
 20
-134.2157524621058
 30
0.0
 10
115.4551404876293
 20
-134.2157524621058
 30
0.0
 10
115.6432427011239
 20
-134.3702649946192
 30
0.0
 10
115.6432427011239
 20
-134.3702649946192
 30
0.0
 10
115.6139593894993
 20
-134.3998928157924
 30
0.0
 10
115.5991454789127
 20
-134.4315876942567
 30
0.0
 10
115.5819200014864
 20
-134.4908433366029
 30
0.0
  0
HATCH
  5
F3
330
DE
100
AcDbEntity
  8
レイヤー 1
 62
   250
420
  2299925
440
 33554687
100
AcDbHatch
 10
0.0
 20
0.0
 30
0.0
210
0.0
220
0.0
230
1.0
  2
SOLID
 70
     1
 71
     1
 91
        3
 92
        1
 93
        1
 72
     4
 94
        3
 73
     0
 74
     0
 95
       17
 96
       13
 40
0.0
 40
0.0
 40
0.0
 40
0.0
 40
1.0
 40
1.0
 40
1.0
 40
2.0
 40
2.0
 40
2.0
 40
3.0
 40
3.0
 40
3.0
 40
4.0
 40
4.0
 40
4.0
 40
4.0
 10
115.7893147496985
 20
-133.9618489248429
 10
115.734537731483
 20
-133.9618489248429
 10
115.6900959997233
 20
-134.0062906566026
 10
115.6900959997233
 20
-134.0614121843666
 10
115.6900959997233
 20
-134.1184285146475
 10
115.734537731483
 20
-134.1671766157637
 10
115.7934488642808
 20
-134.1671766157637
 10
115.8527045066271
 20
-134.1671766157637
 10
115.8930121238045
 20
-134.1163614573563
 10
115.8930121238045
 20
-134.0634792416577
 10
115.8930121238045
 20
-134.0062906566026
 10
115.8465033347536
 20
-133.9618489248429
 10
115.7893147496985
 20
-133.9618489248429
 97
        0
 97
        1
330
F0
 92
        1
 93
        1
 72
     4
 94
        3
 73
     0
 74
     0
 95
       17
 96
       13
 40
0.0
 40
0.0
 40
0.0
 40
0.0
 40
1.0
 40
1.0
 40
1.0
 40
2.0
 40
2.0
 40
2.0
 40
3.0
 40
3.0
 40
3.0
 40
4.0
 40
4.0
 40
4.0
 40
4.0
 10
115.7913818069896
 20
-134.2918890723298
 10
115.6646022931324
 20
-134.2918890723298
 10
115.5629719763176
 20
-134.1904310102892
 10
115.5629719763176
 20
-134.0634792416577
 10
115.5629719763176
 20
-133.9365274730263
 10
115.6646022931324
 20
-133.8328300989203
 10
115.7913818069896
 20
-133.8328300989203
 10
115.9185058303954
 20
-133.8328300989203
 10
116.0222032045014
 20
-133.9365274730263
 10
116.0222032045014
 20
-134.0634792416577
 10
116.0222032045014
 20
-134.1904310102892
 10
115.9185058303954
 20
-134.2918890723298
 10
115.7913818069896
 20
-134.2918890723298
 97
        0
 97
        1
330
F1
 92
        1
 93
        1
 72
     4
 94
        3
 73
     0
 74
     0
 95
       44
 96
       40
 40
0.0
 40
0.0
 40
0.0
 40
0.0
 40
1.0
 40
1.0
 40
1.0
 40
2.0
 40
2.0
 40
2.0
 40
3.0
 40
3.0
 40
3.0
 40
4.0
 40
4.0
 40
4.0
 40
5.0
 40
5.0
 40
5.0
 40
6.0
 40
6.0
 40
6.0
 40
7.0
 40
7.0
 40
7.0
 40
8.0
 40
8.0
 40
8.0
 40
9.0
 40
9.0
 40
9.0
 40
10.0
 40
10.0
 40
10.0
 40
11.0
 40
11.0
 40
11.0
 40
12.0
 40
12.0
 40
12.0
 40
13.0
 40
13.0
 40
13.0
 40
13.0
 10
115.5819200014864
 20
-134.4908433366029
 10
115.4699543982158
 20
-134.8589517892019
 10
115.4193114945826
 20
-135.0175984362977
 10
115.2225965423749
 20
-135.267195604204
 10
115.038283933914
 20
-135.4978447469415
 10
114.8016058740774
 20
-135.683879903145
 10
114.5222086302236
 20
-135.777069736021
 10
114.5222086302236
 20
-135.777069736021
 10
114.3296277925981
 20
-135.597235751691
 10
114.3296277925981
 20
-135.597235751691
 10
114.9707600624031
 20
-135.4449625312429
 10
115.3008002098901
 20
-134.8885796103751
 10
115.3641899668187
 20
-134.4484686621344
 10
115.3641899668187
 20
-134.4484686621344
 10
114.5983452404476
 20
-134.4484686621344
 10
114.5983452404476
 20
-134.4484686621344
 10
114.5053276623459
 20
-134.4484686621344
 10
114.3213595634335
 20
-134.452775031491
 10
114.1646077188547
 20
-134.4717230566598
 10
114.1646077188547
 20
-134.4717230566598
 10
114.1646077188547
 20
-134.2517537099266
 10
114.1646077188547
 20
-134.2517537099266
 10
114.251424125083
 20
-134.2729410471609
 10
114.5032606050547
 20
-134.2729410471609
 10
114.6024793550299
 20
-134.2729410471609
 10
114.6024793550299
 20
-134.2729410471609
 10
115.0341498193317
 20
-134.2729410471609
 10
115.0341498193317
 20
-134.2729410471609
 10
115.0765244938003
 20
-134.2729410471609
 10
115.3111354963458
 20
-134.2707017350955
 10
115.3493760562321
 20
-134.2645005632221
 10
115.3917507307006
 20
-134.2581271365743
 10
115.3938177879918
 20
-134.2560600792832
 10
115.4551404876293
 20
-134.2157524621058
 10
115.4551404876293
 20
-134.2157524621058
 10
115.6432427011239
 20
-134.3702649946192
 10
115.6432427011239
 20
-134.3702649946192
 10
115.6139593894993
 20
-134.3998928157924
 10
115.5991454789127
 20
-134.4315876942567
 10
115.5819200014864
 20
-134.4908433366029
 97
        0
 97
        1
330
F2
 75
     2
 76
     1
 98
        1
 10
0.0
 20
0.0
450
        0
451
        0
460
0.0
461
0.0
452
        0
462
0.0
453
        0
470

  0
ENDBLK
  5
E1
330
DE
100
AcDbEntity
  8
0
100
AcDbBlockEnd
  0
ENDSEC
  0
SECTION
  2
ENTITIES
  0
LWPOLYLINE
  5
79
330
70
100
AcDbEntity
  8
レイヤー 1
 62
   250
420
  2299925
370
    25
100
AcDbPolyline
 90
        4
 70
     0
 43
0.0
 10
93.4312567792382
 20
-155.8099286134605
 10
101.4259771308314
 20
-155.810634168998
 10
101.4259771308314
 20
-158.8099154813689
 10
91.42620905261377
 20
-158.8099154813689
  0
LWPOLYLINE
  5
7A
330
70
100
AcDbEntity
  8
レイヤー 1
 62
   250
420
  2299925
370
    25
100
AcDbPolyline
 90
        7
 70
     1
 43
0.0
 10
92.42943847146337
 20
-155.8089006725254
 10
92.92897179205255
 20
-156.8090256722757
 10
93.42921066817927
 20
-155.8089006725254
 10
93.42921066817927
 20
-143.0088228289328
 10
113.4293465468215
 20
-143.0088228289328
 10
113.4293465468215
 20
-142.0088742433325
 10
92.42943847146337
 20
-142.0088742433325
  0
LINE
  5
7B
330
70
100
AcDbEntity
  8
レイヤー 1
 62
   250
420
  2299925
370
    25
100
AcDbLine
 10
92.42943847146337
 20
-155.8089006725254
 30
0.0
 11
91.42620905261377
 21
-158.8099154813689
 31
0.0
  0
SPLINE
  5
7C
330
70
100
AcDbEntity
  8
レイヤー 1
 62
   250
420
  2299925
370
     9
100
AcDbSpline
210
0.0
220
0.0
230
1.0
 70
     9
 71
     3
 72
    17
 73
    13
 74
     0
 42
0.0000000001
 43
0.0000000001
 40
0.0
 40
0.0
 40
0.0
 40
0.0
 40
1.0
 40
1.0
 40
1.0
 40
2.0
 40
2.0
 40
2.0
 40
3.0
 40
3.0
 40
3.0
 40
4.0
 40
4.0
 40
4.0
 40
4.0
 10
101.5258837949493
 20
-162.8096745459932
 30
0.0
 10
101.5258837949493
 20
-162.7545706585101
 30
0.0
 10
101.4810810183145
 20
-162.7097678818754
 30
0.0
 10
101.4259771308314
 20
-162.7097678818754
 30
0.0
 10
101.371543521109
 20
-162.7097678818754
 30
0.0
 10
101.3260351889367
 20
-162.7545706585101
 30
0.0
 10
101.3260351889367
 20
-162.8096745459932
 30
0.0
 10
101.3260351889367
 20
-162.8648090040949
 30
0.0
 10
101.371543521109
 20
-162.909581210111
 30
0.0
 10
101.4259771308314
 20
-162.909581210111
 30
0.0
 10
101.4810810183145
 20
-162.909581210111
 30
0.0
 10
101.5258837949493
 20
-162.8648090040949
 30
0.0
 10
101.5258837949493
 20
-162.8096745459932
 30
0.0
  0
SPLINE
  5
7D
330
70
100
AcDbEntity
  8
レイヤー 1
 62
   250
420
  2299925
370
     9
100
AcDbSpline
210
0.0
220
0.0
230
1.0
 70
     9
 71
     3
 72
    17
 73
    13
 74
     0
 42
0.0000000001
 43
0.0000000001
 40
0.0
 40
0.0
 40
0.0
 40
0.0
 40
1.0
 40
1.0
 40
1.0
 40
2.0
 40
2.0
 40
2.0
 40
3.0
 40
3.0
 40
3.0
 40
4.0
 40
4.0
 40
4.0
 40
4.0
 10
91.52682323158938
 20
-162.8096745459932
 30
0.0
 10
91.52682323158938
 20
-162.7545706585101
 30
0.0
 10
91.48205377341126
 20
-162.7097678818754
 30
0.0
 10
91.42620905261377
 20
-162.7097678818754
 30
0.0
 10
91.37110516513038
 20
-162.7097678818754
 30
0.0
 10
91.32630238849561
 20
-162.7545706585101
 30
0.0
 10
91.32630238849561
 20
-162.8096745459932
 30
0.0
 10
91.32630238849561
 20
-162.8648090040949
 30
0.0
 10
91.37110516513038
 20
-162.909581210111
 30
0.0
 10
91.42620905261377
 20
-162.909581210111
 30
0.0
 10
91.48205377341126
 20
-162.909581210111
 30
0.0
 10
91.52682323158938
 20
-162.8648090040949
 30
0.0
 10
91.52682323158938
 20
-162.8096745459932
 30
0.0
  0
LINE
  5
7E
330
70
100
AcDbEntity
  8
レイヤー 1
 62
   250
420
  2299925
370
     9
100
AcDbLine
 10
91.42620905261377
 20
-162.8096745459932
 30
0.0
 11
101.4259771308314
 21
-162.8096745459932
 31
0.0
  0
LINE
  5
7F
330
70
100
AcDbEntity
  8
レイヤー 1
 62
   250
420
  2299925
370
     9
100
AcDbLine
 10
91.42620905261377
 20
-160.3488732198846
 30
0.0
 11
91.42620905261377
 21
-163.8094467427091
 31
0.0
  0
LINE
  5
80
330
70
100
AcDbEntity
  8
レイヤー 1
 62
   250
420
  2299925
370
     9
100
AcDbLine
 10
101.4259771308314
 20
-160.3488732198846
 30
0.0
 11
101.4259771308314
 21
-163.8094467427091
 31
0.0
  0
INSERT
  5
82
330
70
100
AcDbEntity
  8
レイヤー 1
100
AcDbBlockReference
  2
Block_0
 10
0.0
 20
0.0
 30
0.0
  0
INSERT
  5
8F
330
70
100
AcDbEntity
  8
レイヤー 1
100
AcDbBlockReference
  2
Block_2
 10
0.0
 20
0.0
 30
0.0
  0
INSERT
  5
96
330
70
100
AcDbEntity
  8
レイヤー 1
100
AcDbBlockReference
  2
Block_3
 10
0.0
 20
0.0
 30
0.0
  0
INSERT
  5
A8
330
70
100
AcDbEntity
  8
レイヤー 1
100
AcDbBlockReference
  2
Block_5
 10
0.0
 20
0.0
 30
0.0
  0
INSERT
  5
AE
330
70
100
AcDbEntity
  8
レイヤー 1
100
AcDbBlockReference
  2
Block_6
 10
0.0
 20
0.0
 30
0.0
  0
CIRCLE
  5
B3
330
70
100
AcDbEntity
  8
レイヤー 1
 62
   250
420
  2299925
370
     9
100
AcDbCircle
 10
117.6778492162116
 20
-155.7999450026041
 30
0.0
 40
0.0999066641178353
  0
HATCH
  5
B4
330
70
100
AcDbEntity
  8
レイヤー 1
 62
   250
420
  2299925
440
 33554687
100
AcDbHatch
 10
0.0
 20
0.0
 30
0.0
210
0.0
220
0.0
230
1.0
  2
SOLID
 70
     1
 71
     1
 91
        1
 92
        1
 93
        1
 72
     2
 10
117.6778492162116
 20
-155.7999450026041
 40
0.0999066641178353
 50
0.0
 51
360.0
 73
     1
 97
        1
330
B3
 75
     2
 76
     1
 98
        1
 10
0.0
 20
0.0
450
        0
451
        0
460
0.0
461
0.0
452
        0
462
0.0
453
        0
470

  0
INSERT
  5
B6
330
70
100
AcDbEntity
  8
レイヤー 1
100
AcDbBlockReference
  2
Block_7
 10
0.0
 20
0.0
 30
0.0
  0
CIRCLE
  5
BB
330
70
100
AcDbEntity
  8
レイヤー 1
 62
   250
420
  2299925
370
     9
100
AcDbCircle
 10
117.6778492162116
 20
-158.8002846482812
 30
0.0
 40
0.0999066641178353
  0
HATCH
  5
BC
330
70
100
AcDbEntity
  8
レイヤー 1
 62
   250
420
  2299925
440
 33554687
100
AcDbHatch
 10
0.0
 20
0.0
 30
0.0
210
0.0
220
0.0
230
1.0
  2
SOLID
 70
     1
 71
     1
 91
        1
 92
        1
 93
        1
 72
     2
 10
117.6778492162116
 20
-158.8002846482812
 40
0.0999066641178353
 50
0.0
 51
360.0
 73
     1
 97
        1
330
BB
 75
     2
 76
     1
 98
        1
 10
0.0
 20
0.0
450
        0
451
        0
460
0.0
461
0.0
452
        0
462
0.0
453
        0
470

  0
CIRCLE
  5
BD
330
70
100
AcDbEntity
  8
レイヤー 1
 62
   250
420
  2299925
370
     9
100
AcDbCircle
 10
117.6778492162116
 20
-143.0088228289328
 30
0.0
 40
0.0999066641178353
  0
HATCH
  5
BE
330
70
100
AcDbEntity
  8
レイヤー 1
 62
   250
420
  2299925
440
 33554687
100
AcDbHatch
 10
0.0
 20
0.0
 30
0.0
210
0.0
220
0.0
230
1.0
  2
SOLID
 70
     1
 71
     1
 91
        1
 92
        1
 93
        1
 72
     2
 10
117.6778492162116
 20
-143.0088228289328
 40
0.0999066641178353
 50
0.0
 51
360.0
 73
     1
 97
        1
330
BD
 75
     2
 76
     1
 98
        1
 10
0.0
 20
0.0
450
        0
451
        0
460
0.0
461
0.0
452
        0
462
0.0
453
        0
470

  0
SPLINE
  5
BF
330
70
100
AcDbEntity
  8
レイヤー 1
 62
   250
420
  2299925
370
     9
100
AcDbSpline
210
0.0
220
0.0
230
1.0
 70
     9
 71
     3
 72
    17
 73
    13
 74
     0
 42
0.0000000001
 43
0.0000000001
 40
0.0
 40
0.0
 40
0.0
 40
0.0
 40
1.0
 40
1.0
 40
1.0
 40
2.0
 40
2.0
 40
2.0
 40
3.0
 40
3.0
 40
3.0
 40
4.0
 40
4.0
 40
4.0
 40
4.0
 10
117.7777558803295
 20
-142.0676470196108
 30
0.0
 10
117.7777558803295
 20
-142.1227509070939
 30
0.0
 10
117.7329883814716
 20
-142.1675536837287
 30
0.0
 10
117.6778492162116
 20
-142.1675536837287
 30
0.0
 10
117.6227453287285
 20
-142.1675536837287
 30
0.0
 10
117.5779425520938
 20
-142.1227509070939
 30
0.0
 10
117.5779425520938
 20
-142.0676470196108
 30
0.0
 10
117.5779425520938
 20
-142.0125078543509
 30
0.0
 10
117.6227453287285
 20
-141.9677050777161
 30
0.0
 10
117.6778492162116
 20
-141.9677050777161
 30
0.0
 10
117.7329883814716
 20
-141.9677050777161
 30
0.0
 10
117.7777558803295
 20
-142.0125078543509
 30
0.0
 10
117.7777558803295
 20
-142.0676470196108
 30
0.0
  0
HATCH
  5
C0
330
70
100
AcDbEntity
  8
レイヤー 1
 62
   250
420
  2299925
440
 33554687
100
AcDbHatch
 10
0.0
 20
0.0
 30
0.0
210
0.0
220
0.0
230
1.0
  2
SOLID
 70
     1
 71
     1
 91
        1
 92
        1
 93
        1
 72
     4
 94
        3
 73
     0
 74
     0
 95
       17
 96
       13
 40
0.0
 40
0.0
 40
0.0
 40
0.0
 40
1.0
 40
1.0
 40
1.0
 40
2.0
 40
2.0
 40
2.0
 40
3.0
 40
3.0
 40
3.0
 40
4.0
 40
4.0
 40
4.0
 40
4.0
 10
117.7777558803295
 20
-142.0676470196108
 10
117.7777558803295
 20
-142.1227509070939
 10
117.7329883814716
 20
-142.1675536837287
 10
117.6778492162116
 20
-142.1675536837287
 10
117.6227453287285
 20
-142.1675536837287
 10
117.5779425520938
 20
-142.1227509070939
 10
117.5779425520938
 20
-142.0676470196108
 10
117.5779425520938
 20
-142.0125078543509
 10
117.6227453287285
 20
-141.9677050777161
 10
117.6778492162116
 20
-141.9677050777161
 10
117.7329883814716
 20
-141.9677050777161
 10
117.7777558803295
 20
-142.0125078543509
 10
117.7777558803295
 20
-142.0676470196108
 97
        0
 97
        1
330
BF
 75
     2
 76
     1
 98
        1
 10
0.0
 20
0.0
450
        0
451
        0
460
0.0
461
0.0
452
        0
462
0.0
453
        0
470

  0
CIRCLE
  5
C1
330
70
100
AcDbEntity
  8
レイヤー 1
 62
   250
420
  2299925
370
     9
100
AcDbCircle
 10
92.42943847146337
 20
-138.8332040465728
 30
0.0
 40
0.0999066641178353
  0
LINE
  5
C2
330
70
100
AcDbEntity
  8
レイヤー 1
 62
   250
420
  2299925
370
     9
100
AcDbLine
 10
92.42943847146337
 20
-140.2932453982129
 30
0.0
 11
92.42943847146337
 21
-137.8334318498569
 31
0.0
  0
CIRCLE
  5
C3
330
70
100
AcDbEntity
  8
レイヤー 1
 62
   250
420
  2299925
370
     9
100
AcDbCircle
 10
113.4293465468219
 20
-138.8332040465728
 30
0.0
 40
0.0999066641176749
  0
LINE
  5
C4
330
70
100
AcDbEntity
  8
レイヤー 1
 62
   250
420
  2299925
370
     9
100
AcDbLine
 10
113.4293465468215
 20
-140.2932453982129
 30
0.0
 11
113.4293465468215
 21
-137.8334318498569
 31
0.0
  0
LINE
  5
C5
330
70
100
AcDbEntity
  8
レイヤー 1
 62
   250
420
  2299925
370
     9
100
AcDbLine
 10
92.43014402700094
 20
-138.8332040465728
 30
0.0
 11
113.4293465468215
 21
-138.8332040465728
 31
0.0
  0
INSERT
  5
C7
330
70
100
AcDbEntity
  8
レイヤー 1
100
AcDbBlockReference
  2
Block_8
 10
0.0
 20
0.0
 30
0.0
  0
INSERT
  5
D3
330
70
100
AcDbEntity
  8
レイヤー 1
100
AcDbBlockReference
  2
Block_10
 10
0.0
 20
0.0
 30
0.0
  0
ENDSEC
  0
SECTION
  2
OBJECTS
  0
DICTIONARY
  5
C
330
0
100
AcDbDictionary
281
     1
  3
ACAD_COLOR
350
63
  3
ACAD_DETAILVIEWSTYLE
350
6A
  3
ACAD_GROUP
350
D
  3
ACAD_LAYOUT
350
62
  3
ACAD_MATERIAL
350
10
  3
ACAD_MLEADERSTYLE
350
66
  3
ACAD_MLINESTYLE
350
5F
  3
ACAD_PLOTSETTINGS
350
61
  3
ACAD_PLOTSTYLENAME
350
E
  3
ACAD_SCALELIST
350
42
  3
ACAD_SECTIONVIEWSTYLE
350
68
  3
ACAD_TABLESTYLE
350
64
  3
ACAD_VISUALSTYLE
350
29
  3
ACDB_RECOMPOSE_DATA
350
FC
  3
AcDbVariableDictionary
350
F4
  0
DICTIONARY
  5
63
102
{ACAD_REACTORS
330
C
102
}
330
C
100
AcDbDictionary
281
     1
  0
DICTIONARY
  5
6A
102
{ACAD_REACTORS
330
C
102
}
330
C
100
AcDbDictionary
281
     1
  3
Imperial24
350
6B
  0
DICTIONARY
  5
D
102
{ACAD_REACTORS
330
C
102
}
330
C
100
AcDbDictionary
281
     1
  0
DICTIONARY
  5
62
102
{ACAD_REACTORS
330
C
102
}
330
C
100
AcDbDictionary
281
     1
  3
Layout1
350
6F
  3
Layout2
350
77
  3
Model
350
73
  0
DICTIONARY
  5
10
102
{ACAD_REACTORS
330
C
102
}
330
C
100
AcDbDictionary
281
     1
  3
ByBlock
350
19
  3
ByLayer
350
11
  3
Global
350
21
  0
DICTIONARY
  5
66
102
{ACAD_REACTORS
330
C
102
}
330
C
100
AcDbDictionary
281
     1
  3
Standard
350
67
  0
DICTIONARY
  5
5F
102
{ACAD_REACTORS
330
C
102
}
330
C
100
AcDbDictionary
281
     1
  3
Standard
350
60
  0
DICTIONARY
  5
61
102
{ACAD_REACTORS
330
C
102
}
330
C
100
AcDbDictionary
281
     1
  0
ACDBDICTIONARYWDFLT
  5
E
102
{ACAD_REACTORS
330
C
102
}
330
C
100
AcDbDictionary
281
     1
  3
Normal
350
F
100
AcDbDictionaryWithDefault
340
F
  0
DICTIONARY
  5
42
102
{ACAD_REACTORS
330
C
102
}
330
C
100
AcDbDictionary
281
     1
  3
A0
350
43
  3
A1
350
44
  3
A2
350
45
  3
A3
350
46
  3
A4
350
47
  3
A5
350
48
  3
A6
350
49
  3
A7
350
4A
  3
A8
350
4B
  3
A9
350
4C
  3
B0
350
4D
  3
B1
350
4E
  3
B2
350
4F
  3
B3
350
50
  3
B4
350
51
  3
B5
350
52
  3
B6
350
53
  0
DICTIONARY
  5
68
102
{ACAD_REACTORS
330
C
102
}
330
C
100
AcDbDictionary
281
     1
  3
Imperial24
350
69
  0
DICTIONARY
  5
64
102
{ACAD_REACTORS
330
C
102
}
330
C
100
AcDbDictionary
281
     1
  3
Standard
350
65
  0
DICTIONARY
  5
29
102
{ACAD_REACTORS
330
C
102
}
330
C
100
AcDbDictionary
281
     1
  3
2dWireframe
350
2F
  3
Basic
350
2E
  3
Brighten
350
35
  3
ColorChange
350
39
  3
Conceptual
350
32
  3
Dim
350
34
  3
EdgeColorOff
350
41
  3
Facepattern
350
38
  3
Flat
350
2A
  3
FlatWithEdges
350
2B
  3
Gouraud
350
2C
  3
GouraudWithEdges
350
2D
  3
Hidden
350
31
  3
JitterOff
350
3F
  3
Linepattern
350
37
  3
OverhangOff
350
40
  3
Realistic
350
33
  3
Shaded
350
3E
  3
Shaded with edges
350
3D
  3
Shades of Gray
350
3A
  3
Sketchy
350
3B
  3
Thicken
350
36
  3
Wireframe
350
30
  3
X-Ray
350
3C
  0
XRECORD
  5
FC
102
{ACAD_REACTORS
330
C
102
}
330
C
100
AcDbXrecord
280
     1
 90
        1
330
65
  0
DICTIONARY
  5
F4
102
{ACAD_REACTORS
330
C
102
}
330
C
100
AcDbDictionary
281
     1
  3
CANNOSCALE
350
F9
  3
CMLEADERSTYLE
350
F6
  3
CTABLESTYLE
350
F5
  3
CVIEWDETAILSTYLE
350
F7
  3
CVIEWSECTIONSTYLE
350
F8
  0
ACDBDETAILVIEWSTYLE
  5
6B
102
{ACAD_XDICTIONARY
360
131
102
}
102
{ACAD_REACTORS
330
6A
102
}
330
6A
100
AcDbModelDocViewStyle
 70
     0
  3
Imperial24
290
     0
100
AcDbDetailViewStyle
 70
     0
 71
     0
 90
        3
 71
     1
340
55
 62
   256
 40
0.24
340
0
 62
   256
 40
0.24
300

 40
0.36
280
     3
 71
     2
340
5D
 90
       25
 62
   256
 71
     3
340
55
 62
   256
 40
0.24
 90
        1
 40
0.75
 90
        1
300
%<\AcVar ViewType \f "%tc1">% %<\AcVar ViewDetailId>%\PSCALE %<\AcVar ViewScale \f "%sn">%
 71
     4
340
5D
 90
       25
 62
   256
340
5D
 90
       25
 62
   256
280
     0
  0
LAYOUT
  5
6F
102
{ACAD_REACTORS
330
62
102
}
330
62
100
AcDbPlotSettings
  1

  2

  4

  6

 40
0.0
 41
0.0
 42
0.0
 43
0.0
 44
0.0
 45
0.0
 46
0.0
 47
0.0
 48
0.0
 49
0.0
140
0.0
141
0.0
142
1.0
143
1.0
 70
   688
 72
     0
 73
     0
 74
     5
  7

 75
    16
147
1.0
 76
     0
 77
     2
 78
   300
148
0.0
149
0.0
100
AcDbLayout
  1
Layout1
 70
     1
 71
     1
 10
0.0
 20
0.0
 11
12.0
 21
9.0
 12
0.0
 22
0.0
 32
0.0
 14
0.0
 24
0.0
 34
0.0
 15
0.0
 25
0.0
 35
0.0
146
0.0
 13
0.0
 23
0.0
 33
0.0
 16
1.0
 26
0.0
 36
0.0
 17
0.0
 27
1.0
 37
0.0
 76
     0
330
6C
  0
LAYOUT
  5
77
102
{ACAD_REACTORS
330
62
102
}
330
62
100
AcDbPlotSettings
  1

  2

  4

  6

 40
0.0
 41
0.0
 42
0.0
 43
0.0
 44
0.0
 45
0.0
 46
0.0
 47
0.0
 48
0.0
 49
0.0
140
0.0
141
0.0
142
1.0
143
1.0
 70
   688
 72
     0
 73
     0
 74
     5
  7

 75
    16
147
1.0
 76
     0
 77
     2
 78
   300
148
0.0
149
0.0
100
AcDbLayout
  1
Layout2
 70
     1
 71
     2
 10
0.0
 20
0.0
 11
12.0
 21
9.0
 12
0.0
 22
0.0
 32
0.0
 14
0.0
 24
0.0
 34
0.0
 15
0.0
 25
0.0
 35
0.0
146
0.0
 13
0.0
 23
0.0
 33
0.0
 16
1.0
 26
0.0
 36
0.0
 17
0.0
 27
1.0
 37
0.0
 76
     0
330
74
  0
LAYOUT
  5
73
102
{ACAD_REACTORS
330
62
102
}
330
62
100
AcDbPlotSettings
  1

  2

  4

  6

 40
0.0
 41
0.0
 42
0.0
 43
0.0
 44
0.0
 45
0.0
 46
0.0
 47
0.0
 48
0.0
 49
0.0
140
0.0
141
0.0
142
1.0
143
1.0
 70
  1712
 72
     0
 73
     0
 74
     0
  7

 75
     0
147
1.0
 76
     0
 77
     2
 78
   300
148
0.0
149
0.0
100
AcDbLayout
  1
Model
 70
     1
 71
     0
 10
0.0
 20
0.0
 11
12.0
 21
9.0
 12
0.0
 22
0.0
 32
0.0
 14
0.0
 24
0.0
 34
0.0
 15
0.0
 25
0.0
 35
0.0
146
0.0
 13
0.0
 23
0.0
 33
0.0
 16
1.0
 26
0.0
 36
0.0
 17
0.0
 27
1.0
 37
0.0
 76
     0
330
70
  0
MATERIAL
  5
19
102
{ACAD_XDICTIONARY
360
1A
102
}
102
{ACAD_REACTORS
330
10
102
}
330
10
100
AcDbMaterial
  1
ByBlock
 72
     0
 43
0.0208333333333333
 43
0.0
 43
0.0
 43
0.0
 43
0.0
 43
0.0208333333333333
 43
0.0
 43
0.0
 43
0.0
 43
0.0
 43
1.0
 43
0.0
 43
0.0
 43
0.0
 43
0.0
 43
1.0
 77
     0
 47
0.0208333333333333
 47
0.0
 47
0.0
 47
0.0
 47
0.0
 47
0.0208333333333333
 47
0.0
 47
0.0
 47
0.0
 47
0.0
 47
1.0
 47
0.0
 47
0.0
 47
0.0
 47
0.0
 47
1.0
171
     0
 49
0.0208333333333333
 49
0.0
 49
0.0
 49
0.0
 49
0.0
 49
0.0208333333333333
 49
0.0
 49
0.0
 49
0.0
 49
0.0
 49
1.0
 49
0.0
 49
0.0
 49
0.0
 49
0.0
 49
1.0
175
     0
142
0.0208333333333333
142
0.0
142
0.0
142
0.0
142
0.0
142
0.0208333333333333
142
0.0
142
0.0
142
0.0
142
0.0
142
1.0
142
0.0
142
0.0
142
0.0
142
0.0
142
1.0
179
     0
144
0.0208333333333333
144
0.0
144
0.0
144
0.0
144
0.0
144
0.0208333333333333
144
0.0
144
0.0
144
0.0
144
0.0
144
1.0
144
0.0
144
0.0
144
0.0
144
0.0
144
1.0
147
0.0208333333333333
147
0.0
147
0.0
147
0.0
147
0.0
147
0.0208333333333333
147
0.0
147
0.0
147
0.0
147
0.0
147
1.0
147
0.0
147
0.0
147
0.0
147
0.0
147
1.0
  0
MATERIAL
  5
11
102
{ACAD_XDICTIONARY
360
12
102
}
102
{ACAD_REACTORS
330
10
102
}
330
10
100
AcDbMaterial
  1
ByLayer
 72
     0
 43
0.0208333333333333
 43
0.0
 43
0.0
 43
0.0
 43
0.0
 43
0.0208333333333333
 43
0.0
 43
0.0
 43
0.0
 43
0.0
 43
1.0
 43
0.0
 43
0.0
 43
0.0
 43
0.0
 43
1.0
 77
     0
 47
0.0208333333333333
 47
0.0
 47
0.0
 47
0.0
 47
0.0
 47
0.0208333333333333
 47
0.0
 47
0.0
 47
0.0
 47
0.0
 47
1.0
 47
0.0
 47
0.0
 47
0.0
 47
0.0
 47
1.0
171
     0
 49
0.0208333333333333
 49
0.0
 49
0.0
 49
0.0
 49
0.0
 49
0.0208333333333333
 49
0.0
 49
0.0
 49
0.0
 49
0.0
 49
1.0
 49
0.0
 49
0.0
 49
0.0
 49
0.0
 49
1.0
175
     0
142
0.0208333333333333
142
0.0
142
0.0
142
0.0
142
0.0
142
0.0208333333333333
142
0.0
142
0.0
142
0.0
142
0.0
142
1.0
142
0.0
142
0.0
142
0.0
142
0.0
142
1.0
179
     0
144
0.0208333333333333
144
0.0
144
0.0
144
0.0
144
0.0
144
0.0208333333333333
144
0.0
144
0.0
144
0.0
144
0.0
144
1.0
144
0.0
144
0.0
144
0.0
144
0.0
144
1.0
147
0.0208333333333333
147
0.0
147
0.0
147
0.0
147
0.0
147
0.0208333333333333
147
0.0
147
0.0
147
0.0
147
0.0
147
1.0
147
0.0
147
0.0
147
0.0
147
0.0
147
1.0
  0
MATERIAL
  5
21
102
{ACAD_XDICTIONARY
360
22
102
}
102
{ACAD_REACTORS
330
10
102
}
330
10
100
AcDbMaterial
  1
Global
 72
     0
 43
0.0208333333333333
 43
0.0
 43
0.0
 43
0.0
 43
0.0
 43
0.0208333333333333
 43
0.0
 43
0.0
 43
0.0
 43
0.0
 43
1.0
 43
0.0
 43
0.0
 43
0.0
 43
0.0
 43
1.0
 77
     0
 47
0.0208333333333333
 47
0.0
 47
0.0
 47
0.0
 47
0.0
 47
0.0208333333333333
 47
0.0
 47
0.0
 47
0.0
 47
0.0
 47
1.0
 47
0.0
 47
0.0
 47
0.0
 47
0.0
 47
1.0
171
     0
 49
0.0208333333333333
 49
0.0
 49
0.0
 49
0.0
 49
0.0
 49
0.0208333333333333
 49
0.0
 49
0.0
 49
0.0
 49
0.0
 49
1.0
 49
0.0
 49
0.0
 49
0.0
 49
0.0
 49
1.0
175
     0
142
0.0208333333333333
142
0.0
142
0.0
142
0.0
142
0.0
142
0.0208333333333333
142
0.0
142
0.0
142
0.0
142
0.0
142
1.0
142
0.0
142
0.0
142
0.0
142
0.0
142
1.0
179
     0
144
0.0208333333333333
144
0.0
144
0.0
144
0.0
144
0.0
144
0.0208333333333333
144
0.0
144
0.0
144
0.0
144
0.0
144
1.0
144
0.0
144
0.0
144
0.0
144
0.0
144
1.0
147
0.0208333333333333
147
0.0
147
0.0
147
0.0
147
0.0
147
0.0208333333333333
147
0.0
147
0.0
147
0.0
147
0.0
147
1.0
147
0.0
147
0.0
147
0.0
147
0.0
147
1.0
  0
MLEADERSTYLE
  5
67
102
{ACAD_XDICTIONARY
360
12D
102
}
102
{ACAD_REACTORS
330
66
102
}
330
66
100
AcDbMLeaderStyle
179
     2
170
     2
171
     1
172
     0
 90
        2
 40
0.0
 41
0.0
173
     1
 91
-1056964608
340
5B
 92
       -2
290
     1
 42
0.09
291
     1
 43
0.36
  3
Standard
 44
0.18
300

342
55
174
     1
178
     6
175
     1
176
     0
 93
-1056964608
 45
0.18
292
     0
297
     0
 46
0.18
 94
-1056964608
 47
1.0
 49
1.0
140
1.0
293
     1
141
0.0
294
     1
177
     0
142
1.0
295
     0
296
     0
143
0.125
271
     0
272
     9
273
     9
  0
MLINESTYLE
  5
60
102
{ACAD_REACTORS
330
5F
102
}
330
5F
100
AcDbMlineStyle
  2
STANDARD
 70
     0
  3

 62
   256
 51
90.0
 52
90.0
 71
     2
 49
0.5
 62
   256
  6
BYLAYER
 49
-0.5
 62
   256
  6
BYLAYER
  0
ACDBPLACEHOLDER
  5
F
102
{ACAD_REACTORS
330
E
102
}
330
E
  0
SCALE
  5
43
102
{ACAD_REACTORS
330
42
102
}
330
42
100
AcDbScale
 70
     0
300
1:1
140
1.0
141
1.0
290
     1
  0
SCALE
  5
44
102
{ACAD_REACTORS
330
42
102
}
330
42
100
AcDbScale
 70
     0
300
1/128" = 1'-0"
140
0.0078125
141
12.0
290
     0
  0
SCALE
  5
45
102
{ACAD_REACTORS
330
42
102
}
330
42
100
AcDbScale
 70
     0
300
1/64" = 1'-0"
140
0.015625
141
12.0
290
     0
  0
SCALE
  5
46
102
{ACAD_REACTORS
330
42
102
}
330
42
100
AcDbScale
 70
     0
300
1/32" = 1'-0"
140
0.03125
141
12.0
290
     0
  0
SCALE
  5
47
102
{ACAD_REACTORS
330
42
102
}
330
42
100
AcDbScale
 70
     0
300
1/16" = 1'-0"
140
0.0625
141
12.0
290
     0
  0
SCALE
  5
48
102
{ACAD_REACTORS
330
42
102
}
330
42
100
AcDbScale
 70
     0
300
3/32" = 1'-0"
140
0.09375
141
12.0
290
     0
  0
SCALE
  5
49
102
{ACAD_REACTORS
330
42
102
}
330
42
100
AcDbScale
 70
     0
300
1/8" = 1'-0"
140
0.125
141
12.0
290
     0
  0
SCALE
  5
4A
102
{ACAD_REACTORS
330
42
102
}
330
42
100
AcDbScale
 70
     0
300
3/16" = 1'-0"
140
0.1875
141
12.0
290
     0
  0
SCALE
  5
4B
102
{ACAD_REACTORS
330
42
102
}
330
42
100
AcDbScale
 70
     0
300
1/4" = 1'-0"
140
0.25
141
12.0
290
     0
  0
SCALE
  5
4C
102
{ACAD_REACTORS
330
42
102
}
330
42
100
AcDbScale
 70
     0
300
3/8" = 1'-0"
140
0.375
141
12.0
290
     0
  0
SCALE
  5
4D
102
{ACAD_REACTORS
330
42
102
}
330
42
100
AcDbScale
 70
     0
300
1/2" = 1'-0"
140
0.5
141
12.0
290
     0
  0
SCALE
  5
4E
102
{ACAD_REACTORS
330
42
102
}
330
42
100
AcDbScale
 70
     0
300
3/4" = 1'-0"
140
0.75
141
12.0
290
     0
  0
SCALE
  5
4F
102
{ACAD_REACTORS
330
42
102
}
330
42
100
AcDbScale
 70
     0
300
1" = 1'-0"
140
1.0
141
12.0
290
     0
  0
SCALE
  5
50
102
{ACAD_REACTORS
330
42
102
}
330
42
100
AcDbScale
 70
     0
300
1-1/2" = 1'-0"
140
1.5
141
12.0
290
     0
  0
SCALE
  5
51
102
{ACAD_REACTORS
330
42
102
}
330
42
100
AcDbScale
 70
     0
300
3" = 1'-0"
140
3.0
141
12.0
290
     0
  0
SCALE
  5
52
102
{ACAD_REACTORS
330
42
102
}
330
42
100
AcDbScale
 70
     0
300
6" = 1'-0"
140
6.0
141
12.0
290
     0
  0
SCALE
  5
53
102
{ACAD_REACTORS
330
42
102
}
330
42
100
AcDbScale
 70
     0
300
1'-0" = 1'-0"
140
12.0
141
12.0
290
     0
  0
ACDBSECTIONVIEWSTYLE
  5
69
102
{ACAD_XDICTIONARY
360
12F
102
}
102
{ACAD_REACTORS
330
68
102
}
330
68
100
AcDbModelDocViewStyle
 70
     0
  3
Imperial24
290
     0
100
AcDbSectionViewStyle
 70
     0
 71
     0
 90
       78
 71
     1
340
55
 62
   256
 40
0.24
340
0
340
0
 62
   256
 40
0.24
300
I, O, Q, S, X, Z
 40
0.48
 90
        3
 40
0.18
 90
        1
 71
     2
340
5D
 90
       25
 62
   256
340
5D
 90
       50
 62
   256
 40
0.24
 40
0.0
 40
0.24
 71
     3
340
55
 62
   256
 40
0.24
 90
        1
 40
0.75
 90
        1
300
%<\AcVar ViewType \f "%tc1">% %<\AcVar ViewSectionStartId>%-%<\AcVar ViewSectionEndId>%\PSCALE %<\AcVar ViewScale \f "%sn">%
 71
     4
 62
   256
 62
   257
300
ANSI31
 40
1.0
 90
        0
290
     0
290
     0
 90
        6
 40
0.0
 40
1.570796326794896
 40
0.2617993877991494
 40
1.308996938995747
 40
-0.2617993877991494
 40
1.832595714594046
  0
TABLESTYLE
  5
65
102
{ACAD_XDICTIONARY
360
FA
102
}
102
{ACAD_REACTORS
330
64
102
}
330
64
100
AcDbTableStyle
280
     0
  3
Standard
 70
     0
 71
     0
 40
0.06
 41
0.06
280
     0
281
     0
  7
Standard
140
0.18
170
     2
 62
     0
 63
     7
283
     0
 90
      512
 91
        0
  1

274
    -2
284
     1
 64
     0
275
    -2
285
     1
 65
     0
276
    -2
286
     1
 66
     0
277
    -2
287
     1
 67
     0
278
    -2
288
     1
 68
     0
279
    -2
289
     1
 69
     0
  7
Standard
140
0.25
170
     5
 62
     0
 63
     7
283
     0
 90
      512
 91
        0
  1

274
    -2
284
     1
 64
     0
275
    -2
285
     1
 65
     0
276
    -2
286
     1
 66
     0
277
    -2
287
     1
 67
     0
278
    -2
288
     1
 68
     0
279
    -2
289
     1
 69
     0
  7
Standard
140
0.18
170
     5
 62
     0
 63
     7
283
     0
 90
      512
 91
        0
  1

274
    -2
284
     1
 64
     0
275
    -2
285
     1
 65
     0
276
    -2
286
     1
 66
     0
277
    -2
287
     1
 67
     0
278
    -2
288
     1
 68
     0
279
    -2
289
     1
 69
     0
  0
VISUALSTYLE
  5
2F
102
{ACAD_XDICTIONARY
360
107
102
}
102
{ACAD_REACTORS
330
29
102
}
330
29
100
AcDbVisualStyle
  2
2dWireframe
 70
     4
177
     2
291
     0
 71
     0
176
     1
 72
     2
176
     1
 73
     0
176
     1
 90
        0
176
     1
 40
0.6
176
     1
 41
30.0
176
     1
 63
     7
421
 16777215
176
     1
 74
     1
176
     1
 91
        4
176
     1
 64
     7
176
     1
 65
   257
176
     1
 75
     1
176
     1
175
     1
176
     1
 42
1.0
176
     1
 92
        0
176
     1
 66
   257
176
     1
 43
1.0
176
     1
 76
     1
176
     1
 77
     6
176
     1
 78
     2
176
     1
 67
     7
176
     1
 79
     5
176
     1
170
     0
176
     1
171
     0
176
     1
290
     0
176
     1
 93
        1
176
     1
 44
0.0
176
     1
173
     0
176
     1
1001
ACAD
1000
AcDbSavedByObjectVersion
1070
     0
  0
VISUALSTYLE
  5
2E
102
{ACAD_XDICTIONARY
360
105
102
}
102
{ACAD_REACTORS
330
29
102
}
330
29
100
AcDbVisualStyle
  2
Basic
 70
     7
177
     2
291
     1
 71
     1
176
     1
 72
     0
176
     1
 73
     1
176
     1
 90
        0
176
     1
 40
0.6
176
     1
 41
30.0
176
     1
 63
     7
421
 16777215
176
     1
 74
     0
176
     1
 91
        4
176
     1
 64
     7
176
     1
 65
   257
176
     1
 75
     1
176
     1
175
     1
176
     1
 42
1.0
176
     1
 92
        8
176
     1
 66
     7
176
     1
 43
1.0
176
     1
 76
     1
176
     1
 77
     6
176
     1
 78
     2
176
     1
 67
     7
176
     1
 79
     5
176
     1
170
     0
176
     1
171
     0
176
     1
290
     0
176
     1
 93
        1
176
     1
 44
0.0
176
     1
173
     0
176
     1
1001
ACAD
1000
AcDbSavedByObjectVersion
1070
     0
  0
VISUALSTYLE
  5
35
102
{ACAD_XDICTIONARY
360
113
102
}
102
{ACAD_REACTORS
330
29
102
}
330
29
100
AcDbVisualStyle
  2
Brighten
 70
    12
177
     2
291
     1
 71
     2
176
     1
 72
     2
176
     1
 73
     0
176
     1
 90
        0
176
     1
 40
0.6
176
     1
 41
30.0
176
     1
 63
     7
421
 16777215
176
     1
 74
     1
176
     1
 91
        4
176
     1
 64
     7
176
     1
 65
   257
176
     1
 75
     1
176
     1
175
     1
176
     1
 42
1.0
176
     1
 92
        8
176
     1
 66
     7
176
     1
 43
1.0
176
     1
 76
     1
176
     1
 77
     6
176
     1
 78
     2
176
     1
 67
     7
176
     1
 79
     5
176
     1
170
     0
176
     1
171
     0
176
     1
290
     0
176
     1
 93
        1
176
     1
 44
50.0
176
     1
173
     0
176
     1
1001
ACAD
1000
AcDbSavedByObjectVersion
1070
     0
  0
VISUALSTYLE
  5
39
102
{ACAD_XDICTIONARY
360
11B
102
}
102
{ACAD_REACTORS
330
29
102
}
330
29
100
AcDbVisualStyle
  2
ColorChange
 70
    16
177
     2
291
     1
 71
     2
176
     1
 72
     2
176
     1
 73
     3
176
     1
 90
        0
176
     1
 40
0.6
176
     1
 41
30.0
176
     1
 63
     8
421
  8421504
176
     1
 74
     1
176
     1
 91
        4
176
     1
 64
     7
176
     1
 65
   257
176
     1
 75
     1
176
     1
175
     1
176
     1
 42
1.0
176
     1
 92
        8
176
     1
 66
     8
424
  8421504
176
     1
 43
1.0
176
     1
 76
     1
176
     1
 77
     6
176
     1
 78
     2
176
     1
 67
     7
176
     1
 79
     5
176
     1
170
     0
176
     1
171
     0
176
     1
290
     0
176
     1
 93
        1
176
     1
 44
0.0
176
     1
173
     0
176
     1
1001
ACAD
1000
AcDbSavedByObjectVersion
1070
     0
  0
VISUALSTYLE
  5
32
102
{ACAD_XDICTIONARY
360
10D
102
}
102
{ACAD_REACTORS
330
29
102
}
330
29
100
AcDbVisualStyle
  2
Conceptual
 70
     9
177
     2
291
     0
 71
     3
176
     1
 72
     2
176
     1
 73
     0
176
     1
 90
        0
176
     1
 40
0.6
176
     1
 41
30.0
176
     1
 63
     7
421
 16777215
176
     1
 74
     2
176
     1
 91
        2
176
     1
 64
     7
176
     1
 65
   257
176
     1
 75
     1
176
     1
175
     1
176
     1
 42
179.0
176
     1
 92
        8
176
     1
 66
     7
176
     1
 43
1.0
176
     1
 76
     1
176
     1
 77
     6
176
     1
 78
     2
176
     1
 67
     7
176
     1
 79
     3
176
     1
170
     0
176
     1
171
     0
176
     1
290
     0
176
     1
 93
        1
176
     1
 44
0.0
176
     1
173
     0
176
     1
1001
ACAD
1000
AcDbSavedByObjectVersion
1070
     0
  0
VISUALSTYLE
  5
34
102
{ACAD_XDICTIONARY
360
111
102
}
102
{ACAD_REACTORS
330
29
102
}
330
29
100
AcDbVisualStyle
  2
Dim
 70
    11
177
     2
291
     1
 71
     2
176
     1
 72
     2
176
     1
 73
     0
176
     1
 90
        0
176
     1
 40
0.6
176
     1
 41
30.0
176
     1
 63
     7
421
 16777215
176
     1
 74
     1
176
     1
 91
        4
176
     1
 64
     7
176
     1
 65
   257
176
     1
 75
     1
176
     1
175
     1
176
     1
 42
1.0
176
     1
 92
        8
176
     1
 66
     7
176
     1
 43
1.0
176
     1
 76
     1
176
     1
 77
     6
176
     1
 78
     2
176
     1
 67
     7
176
     1
 79
     5
176
     1
170
     0
176
     1
171
     0
176
     1
290
     0
176
     1
 93
        1
176
     1
 44
-50.0
176
     1
173
     0
176
     1
1001
ACAD
1000
AcDbSavedByObjectVersion
1070
     0
  0
VISUALSTYLE
  5
41
102
{ACAD_XDICTIONARY
360
12B
102
}
102
{ACAD_REACTORS
330
29
102
}
330
29
100
AcDbVisualStyle
  2
EdgeColorOff
 70
    22
177
     2
291
     1
 71
     2
176
     0
 72
     2
176
     0
 73
     0
176
     0
 90
        0
176
     0
 40
0.6
176
     0
 41
30.0
176
     0
 63
     7
421
 16777215
176
     0
 74
     1
176
     0
 91
        4
176
     0
 64
     7
176
     0
 65
   257
176
     0
 75
     1
176
     0
175
     1
176
     0
 42
1.0
176
     0
 92
        8
176
     2
 66
     7
176
     0
 43
1.0
176
     0
 76
     1
176
     0
 77
     6
176
     0
 78
     2
176
     0
 67
     7
176
     0
 79
     5
176
     0
170
     0
176
     0
171
     0
176
     0
290
     0
176
     0
 93
        1
176
     0
 44
0.0
176
     0
173
     0
176
     0
1001
ACAD
1000
AcDbSavedByObjectVersion
1070
     0
  0
VISUALSTYLE
  5
38
102
{ACAD_XDICTIONARY
360
119
102
}
102
{ACAD_REACTORS
330
29
102
}
330
29
100
AcDbVisualStyle
  2
Facepattern
 70
    15
177
     2
291
     1
 71
     2
176
     1
 72
     2
176
     1
 73
     0
176
     1
 90
        0
176
     1
 40
0.6
176
     1
 41
30.0
176
     1
 63
     7
421
 16777215
176
     1
 74
     1
176
     1
 91
        4
176
     1
 64
     7
176
     1
 65
   257
176
     1
 75
     1
176
     1
175
     1
176
     1
 42
1.0
176
     1
 92
        8
176
     1
 66
     7
176
     1
 43
1.0
176
     1
 76
     1
176
     1
 77
     6
176
     1
 78
     2
176
     1
 67
     7
176
     1
 79
     5
176
     1
170
     0
176
     1
171
     0
176
     1
290
     0
176
     1
 93
        1
176
     1
 44
0.0
176
     1
173
     0
176
     1
1001
ACAD
1000
AcDbSavedByObjectVersion
1070
     0
  0
VISUALSTYLE
  5
2A
102
{ACAD_XDICTIONARY
360
FD
102
}
102
{ACAD_REACTORS
330
29
102
}
330
29
100
AcDbVisualStyle
  2
Flat
 70
     0
177
     2
291
     1
 71
     2
176
     1
 72
     1
176
     1
 73
     1
176
     1
 90
        2
176
     1
 40
0.6
176
     1
 41
30.0
176
     1
 63
     7
421
 16777215
176
     1
 74
     0
176
     1
 91
        0
176
     1
 64
     7
176
     1
 65
   257
176
     1
 75
     1
176
     1
175
     1
176
     1
 42
1.0
176
     1
 92
        8
176
     1
 66
     7
176
     1
 43
1.0
176
     1
 76
     1
176
     1
 77
     6
176
     1
 78
     2
176
     1
 67
     7
176
     1
 79
     5
176
     1
170
     0
176
     1
171
     0
176
     1
290
     0
176
     1
 93
       13
176
     1
 44
0.0
176
     1
173
     0
176
     1
1001
ACAD
1000
AcDbSavedByObjectVersion
1070
     0
  0
VISUALSTYLE
  5
2B
102
{ACAD_XDICTIONARY
360
FF
102
}
102
{ACAD_REACTORS
330
29
102
}
330
29
100
AcDbVisualStyle
  2
FlatWithEdges
 70
     1
177
     2
291
     1
 71
     2
176
     1
 72
     1
176
     1
 73
     1
176
     1
 90
        2
176
     1
 40
0.6
176
     1
 41
30.0
176
     1
 63
     7
421
 16777215
176
     1
 74
     1
176
     1
 91
        0
176
     1
 64
     7
176
     1
 65
   257
176
     1
 75
     1
176
     1
175
     1
176
     1
 42
1.0
176
     1
 92
        0
176
     1
 66
   257
176
     1
 43
1.0
176
     1
 76
     1
176
     1
 77
     6
176
     1
 78
     2
176
     1
 67
     7
176
     1
 79
     5
176
     1
170
     0
176
     1
171
     0
176
     1
290
     0
176
     1
 93
       13
176
     1
 44
0.0
176
     1
173
     0
176
     1
1001
ACAD
1000
AcDbSavedByObjectVersion
1070
     0
  0
VISUALSTYLE
  5
2C
102
{ACAD_XDICTIONARY
360
101
102
}
102
{ACAD_REACTORS
330
29
102
}
330
29
100
AcDbVisualStyle
  2
Gouraud
 70
     2
177
     2
291
     1
 71
     2
176
     1
 72
     2
176
     1
 73
     1
176
     1
 90
        2
176
     1
 40
0.6
176
     1
 41
30.0
176
     1
 63
     7
421
 16777215
176
     1
 74
     0
176
     1
 91
        0
176
     1
 64
     7
176
     1
 65
   257
176
     1
 75
     1
176
     1
175
     1
176
     1
 42
1.0
176
     1
 92
        0
176
     1
 66
     7
176
     1
 43
1.0
176
     1
 76
     1
176
     1
 77
     6
176
     1
 78
     2
176
     1
 67
     7
176
     1
 79
     5
176
     1
170
     0
176
     1
171
     0
176
     1
290
     0
176
     1
 93
       13
176
     1
 44
0.0
176
     1
173
     0
176
     1
1001
ACAD
1000
AcDbSavedByObjectVersion
1070
     0
  0
VISUALSTYLE
  5
2D
102
{ACAD_XDICTIONARY
360
103
102
}
102
{ACAD_REACTORS
330
29
102
}
330
29
100
AcDbVisualStyle
  2
GouraudWithEdges
 70
     3
177
     2
291
     1
 71
     2
176
     1
 72
     2
176
     1
 73
     1
176
     1
 90
        2
176
     1
 40
0.6
176
     1
 41
30.0
176
     1
 63
     7
421
 16777215
176
     1
 74
     1
176
     1
 91
        0
176
     1
 64
     7
176
     1
 65
   257
176
     1
 75
     1
176
     1
175
     1
176
     1
 42
1.0
176
     1
 92
        0
176
     1
 66
   257
176
     1
 43
1.0
176
     1
 76
     1
176
     1
 77
     6
176
     1
 78
     2
176
     1
 67
     7
176
     1
 79
     5
176
     1
170
     0
176
     1
171
     0
176
     1
290
     0
176
     1
 93
       13
176
     1
 44
0.0
176
     1
173
     0
176
     1
1001
ACAD
1000
AcDbSavedByObjectVersion
1070
     0
  0
VISUALSTYLE
  5
31
102
{ACAD_XDICTIONARY
360
10B
102
}
102
{ACAD_REACTORS
330
29
102
}
330
29
100
AcDbVisualStyle
  2
Hidden
 70
     6
177
     2
291
     0
 71
     1
176
     1
 72
     2
176
     1
 73
     2
176
     1
 90
        0
176
     1
 40
0.6
176
     1
 41
30.0
176
     1
 63
     7
421
 16777215
176
     1
 74
     2
176
     1
 91
        2
176
     1
 64
     7
176
     1
 65
   257
176
     1
 75
     2
176
     1
175
     1
176
     1
 42
40.0
176
     1
 92
        0
176
     1
 66
   257
176
     1
 43
1.0
176
     1
 76
     1
176
     1
 77
     6
176
     1
 78
     2
176
     1
 67
     7
176
     1
 79
     3
176
     1
170
     0
176
     1
171
     0
176
     1
290
     0
176
     1
 93
        1
176
     1
 44
0.0
176
     1
173
     0
176
     1
1001
ACAD
1000
AcDbSavedByObjectVersion
1070
     0
  0
VISUALSTYLE
  5
3F
102
{ACAD_XDICTIONARY
360
127
102
}
102
{ACAD_REACTORS
330
29
102
}
330
29
100
AcDbVisualStyle
  2
JitterOff
 70
    20
177
     2
291
     1
 71
     2
176
     0
 72
     2
176
     0
 73
     0
176
     0
 90
        0
176
     0
 40
0.6
176
     0
 41
30.0
176
     0
 63
     7
421
 16777215
176
     0
 74
     1
176
     0
 91
        4
176
     0
 64
     7
176
     0
 65
   257
176
     0
 75
     1
176
     0
175
     1
176
     0
 42
1.0
176
     0
 92
       10
176
     2
 66
     7
176
     0
 43
1.0
176
     0
 76
     1
176
     0
 77
     6
176
     0
 78
     2
176
     0
 67
     7
176
     0
 79
     5
176
     0
170
     0
176
     0
171
     0
176
     0
290
     0
176
     0
 93
        1
176
     0
 44
0.0
176
     0
173
     0
176
     0
1001
ACAD
1000
AcDbSavedByObjectVersion
1070
     0
  0
VISUALSTYLE
  5
37
102
{ACAD_XDICTIONARY
360
117
102
}
102
{ACAD_REACTORS
330
29
102
}
330
29
100
AcDbVisualStyle
  2
Linepattern
 70
    14
177
     2
291
     1
 71
     2
176
     1
 72
     2
176
     1
 73
     0
176
     1
 90
        0
176
     1
 40
0.6
176
     1
 41
30.0
176
     1
 63
     7
421
 16777215
176
     1
 74
     1
176
     1
 91
        4
176
     1
 64
     7
176
     1
 65
   257
176
     1
 75
     7
176
     1
175
     7
176
     1
 42
1.0
176
     1
 92
        8
176
     1
 66
     7
176
     1
 43
1.0
176
     1
 76
     1
176
     1
 77
     6
176
     1
 78
     2
176
     1
 67
     7
176
     1
 79
     5
176
     1
170
     0
176
     1
171
     0
176
     1
290
     0
176
     1
 93
        1
176
     1
 44
0.0
176
     1
173
     0
176
     1
1001
ACAD
1000
AcDbSavedByObjectVersion
1070
     0
  0
VISUALSTYLE
  5
40
102
{ACAD_XDICTIONARY
360
129
102
}
102
{ACAD_REACTORS
330
29
102
}
330
29
100
AcDbVisualStyle
  2
OverhangOff
 70
    21
177
     2
291
     1
 71
     2
176
     0
 72
     2
176
     0
 73
     0
176
     0
 90
        0
176
     0
 40
0.6
176
     0
 41
30.0
176
     0
 63
     7
421
 16777215
176
     0
 74
     1
176
     0
 91
        4
176
     0
 64
     7
176
     0
 65
   257
176
     0
 75
     1
176
     0
175
     1
176
     0
 42
1.0
176
     0
 92
        9
176
     2
 66
     7
176
     0
 43
1.0
176
     0
 76
     1
176
     0
 77
     6
176
     0
 78
     2
176
     0
 67
     7
176
     0
 79
     5
176
     0
170
     0
176
     0
171
     0
176
     0
290
     0
176
     0
 93
        1
176
     0
 44
0.0
176
     0
173
     0
176
     0
1001
ACAD
1000
AcDbSavedByObjectVersion
1070
     0
  0
VISUALSTYLE
  5
33
102
{ACAD_XDICTIONARY
360
10F
102
}
102
{ACAD_REACTORS
330
29
102
}
330
29
100
AcDbVisualStyle
  2
Realistic
 70
     8
177
     2
291
     0
 71
     2
176
     1
 72
     3
176
     1
 73
     0
176
     1
 90
        2
176
     1
 40
0.6
176
     1
 41
30.0
176
     1
 63
     7
421
 16777215
176
     1
 74
     0
176
     1
 91
        0
176
     1
 64
     7
176
     1
 65
   257
176
     1
 75
     1
176
     1
175
     1
176
     1
 42
1.0
176
     1
 92
        8
176
     1
 66
   257
176
     1
 43
1.0
176
     1
 76
     1
176
     1
 77
     6
176
     1
 78
     2
176
     1
 67
     7
176
     1
 79
     3
176
     1
170
     0
176
     1
171
     0
176
     1
290
     0
176
     1
 93
       13
176
     1
 44
0.0
176
     1
173
     0
176
     1
1001
ACAD
1000
AcDbSavedByObjectVersion
1070
     0
  0
VISUALSTYLE
  5
3E
102
{ACAD_XDICTIONARY
360
125
102
}
102
{ACAD_REACTORS
330
29
102
}
330
29
100
AcDbVisualStyle
  2
Shaded
 70
    27
177
     2
291
     0
 71
     2
176
     1
 72
     2
176
     1
 73
     1
176
     1
 90
        2
176
     1
 40
0.6
176
     1
 41
30.0
176
     1
 63
     7
421
 16777215
176
     1
 74
     0
176
     1
 91
        4
176
     1
 64
     7
176
     1
 65
   257
176
     1
 75
     1
176
     1
175
     1
176
     1
 42
1.0
176
     1
 92
        8
176
     1
 66
   257
176
     1
 43
1.0
176
     1
 76
     1
176
     1
 77
     6
176
     1
 78
     2
176
     1
 67
     8
425
  7895160
176
     1
 79
     3
176
     1
170
     0
176
     1
171
     0
176
     1
290
     0
176
     1
 93
        5
176
     1
 44
0.0
176
     1
173
     0
176
     1
1001
ACAD
1000
AcDbSavedByObjectVersion
1070
     0
  0
VISUALSTYLE
  5
3D
102
{ACAD_XDICTIONARY
360
123
102
}
102
{ACAD_REACTORS
330
29
102
}
330
29
100
AcDbVisualStyle
  2
Shaded with edges
 70
    26
177
     2
291
     0
 71
     2
176
     1
 72
     2
176
     1
 73
     1
176
     1
 90
        2
176
     1
 40
0.6
176
     1
 41
30.0
176
     1
 63
     7
421
 16777215
176
     1
 74
     1
176
     1
 91
        2
176
     1
 64
     7
176
     1
 65
   257
176
     1
 75
     2
176
     1
175
     1
176
     1
 42
1.0
176
     1
 92
        8
176
     1
 66
   257
176
     1
 43
1.0
176
     1
 76
     1
176
     1
 77
     6
176
     1
 78
     2
176
     1
 67
     7
176
     1
 79
     3
176
     1
170
     0
176
     1
171
     0
176
     1
290
     0
176
     1
 93
        5
176
     1
 44
0.0
176
     1
173
     0
176
     1
1001
ACAD
1000
AcDbSavedByObjectVersion
1070
     0
  0
VISUALSTYLE
  5
3A
102
{ACAD_XDICTIONARY
360
11D
102
}
102
{ACAD_REACTORS
330
29
102
}
330
29
100
AcDbVisualStyle
  2
Shades of Gray
 70
    23
177
     2
291
     0
 71
     2
176
     1
 72
     2
176
     1
 73
     3
176
     1
 90
        0
176
     1
 40
0.6
176
     1
 41
30.0
176
     1
 63
     7
421
 16777215
176
     1
 74
     2
176
     1
 91
        2
176
     1
 64
     7
176
     1
 65
     7
176
     1
 75
     1
176
     1
175
     1
176
     1
 42
40.0
176
     1
 92
        8
176
     1
 66
     7
176
     1
 43
1.0
176
     1
 76
     1
176
     1
 77
     6
176
     1
 78
     2
176
     1
 67
     7
176
     1
 79
     3
176
     1
170
     0
176
     1
171
     0
176
     1
290
     0
176
     1
 93
        1
176
     1
 44
0.0
176
     1
173
     0
176
     1
1001
ACAD
1000
AcDbSavedByObjectVersion
1070
     0
  0
VISUALSTYLE
  5
3B
102
{ACAD_XDICTIONARY
360
11F
102
}
102
{ACAD_REACTORS
330
29
102
}
330
29
100
AcDbVisualStyle
  2
Sketchy
 70
    24
177
     2
291
     0
 71
     1
176
     1
 72
     2
176
     1
 73
     2
176
     1
 90
        0
176
     1
 40
0.6
176
     1
 41
30.0
176
     1
 63
     7
421
 16777215
176
     1
 74
     2
176
     1
 91
        2
176
     1
 64
     7
176
     1
 65
     7
176
     1
 75
     1
176
     1
175
     1
176
     1
 42
40.0
176
     1
 92
       11
176
     1
 66
     7
176
     1
 43
1.0
176
     1
 76
     1
176
     1
 77
     6
176
     1
 78
     2
176
     1
 67
     7
176
     1
 79
     6
176
     1
170
     0
176
     1
171
     0
176
     1
290
     0
176
     1
 93
        1
176
     1
 44
0.0
176
     1
173
     0
176
     1
1001
ACAD
1000
AcDbSavedByObjectVersion
1070
     0
  0
VISUALSTYLE
  5
36
102
{ACAD_XDICTIONARY
360
115
102
}
102
{ACAD_REACTORS
330
29
102
}
330
29
100
AcDbVisualStyle
  2
Thicken
 70
    13
177
     2
291
     1
 71
     2
176
     1
 72
     2
176
     1
 73
     0
176
     1
 90
        0
176
     1
 40
0.6
176
     1
 41
30.0
176
     1
 63
     7
421
 16777215
176
     1
 74
     1
176
     1
 91
        4
176
     1
 64
     7
176
     1
 65
   257
176
     1
 75
     1
176
     1
175
     1
176
     1
 42
1.0
176
     1
 92
       12
176
     1
 66
     7
176
     1
 43
1.0
176
     1
 76
     1
176
     1
 77
     6
176
     1
 78
     2
176
     1
 67
     7
176
     1
 79
     5
176
     1
170
     0
176
     1
171
     0
176
     1
290
     0
176
     1
 93
        1
176
     1
 44
0.0
176
     1
173
     0
176
     1
1001
ACAD
1000
AcDbSavedByObjectVersion
1070
     0
  0
VISUALSTYLE
  5
30
102
{ACAD_XDICTIONARY
360
109
102
}
102
{ACAD_REACTORS
330
29
102
}
330
29
100
AcDbVisualStyle
  2
Wireframe
 70
     5
177
     2
291
     0
 71
     0
176
     1
 72
     2
176
     1
 73
     0
176
     1
 90
        0
176
     1
 40
0.6
176
     1
 41
30.0
176
     1
 63
     7
421
 16777215
176
     1
 74
     1
176
     1
 91
        4
176
     1
 64
     7
176
     1
 65
   257
176
     1
 75
     1
176
     1
175
     1
176
     1
 42
1.0
176
     1
 92
        0
176
     1
 66
   257
176
     1
 43
1.0
176
     1
 76
     1
176
     1
 77
     6
176
     1
 78
     2
176
     1
 67
     7
176
     1
 79
     3
176
     1
170
     0
176
     1
171
     0
176
     1
290
     0
176
     1
 93
        1
176
     1
 44
0.0
176
     1
173
     0
176
     1
1001
ACAD
1000
AcDbSavedByObjectVersion
1070
     0
  0
VISUALSTYLE
  5
3C
102
{ACAD_XDICTIONARY
360
121
102
}
102
{ACAD_REACTORS
330
29
102
}
330
29
100
AcDbVisualStyle
  2
X-Ray
 70
    25
177
     2
291
     0
 71
     2
176
     1
 72
     2
176
     1
 73
     1
176
     1
 90
        1
176
     1
 40
0.5
176
     1
 41
30.0
176
     1
 63
     7
421
 16777215
176
     1
 74
     1
176
     1
 91
        0
176
     1
 64
     7
176
     1
 65
   257
176
     1
 75
     1
176
     1
175
     1
176
     1
 42
1.0
176
     1
 92
        8
176
     1
 66
     7
176
     1
 43
1.0
176
     1
 76
     1
176
     1
 77
     6
176
     1
 78
     2
176
     1
 67
     7
176
     1
 79
     3
176
     1
170
     0
176
     1
171
     0
176
     1
290
     0
176
     1
 93
       13
176
     1
 44
0.0
176
     1
173
     0
176
     1
1001
ACAD
1000
AcDbSavedByObjectVersion
1070
     0
  0
DICTIONARYVAR
  5
F9
102
{ACAD_REACTORS
330
F4
102
}
330
F4
100
DictionaryVariables
280
     0
  1
1:1
  0
DICTIONARYVAR
  5
F6
102
{ACAD_REACTORS
330
F4
102
}
330
F4
100
DictionaryVariables
280
     0
  1
STANDARD
  0
DICTIONARYVAR
  5
F5
102
{ACAD_REACTORS
330
F4
102
}
330
F4
100
DictionaryVariables
280
     0
  1
STANDARD
  0
DICTIONARYVAR
  5
F7
102
{ACAD_REACTORS
330
F4
102
}
330
F4
100
DictionaryVariables
280
     0
  1
Imperial24
  0
DICTIONARYVAR
  5
F8
102
{ACAD_REACTORS
330
F4
102
}
330
F4
100
DictionaryVariables
280
     0
  1
Imperial24
  0
DICTIONARY
  5
131
330
6B
100
AcDbDictionary
280
     1
281
     1
  3
ACAD_XREC_ROUNDTRIP
360
132
  0
DICTIONARY
  5
1A
330
19
100
AcDbDictionary
280
     1
281
     1
  3
BUMPTILE
360
1C
  3
DIFFUSETILE
360
1B
  3
OPACITYTILE
360
1F
  3
REFLECTIONTILE
360
1E
  3
REFRACTIONTILE
360
20
  3
SPECULARTILE
360
1D
  0
DICTIONARY
  5
12
330
11
100
AcDbDictionary
280
     1
281
     1
  3
BUMPTILE
360
14
  3
DIFFUSETILE
360
13
  3
OPACITYTILE
360
17
  3
REFLECTIONTILE
360
16
  3
REFRACTIONTILE
360
18
  3
SPECULARTILE
360
15
  0
DICTIONARY
  5
22
330
21
100
AcDbDictionary
280
     1
281
     1
  3
BUMPTILE
360
24
  3
DIFFUSETILE
360
23
  3
OPACITYTILE
360
27
  3
REFLECTIONTILE
360
26
  3
REFRACTIONTILE
360
28
  3
SPECULARTILE
360
25
  0
DICTIONARY
  5
12D
330
67
100
AcDbDictionary
280
     1
281
     1
  3
ACAD_XREC_ROUNDTRIP
360
12E
  0
DICTIONARY
  5
12F
330
69
100
AcDbDictionary
280
     1
281
     1
  3
ACAD_XREC_ROUNDTRIP
360
130
  0
DICTIONARY
  5
FA
330
65
100
AcDbDictionary
280
     1
281
     1
  3
ACAD_ROUNDTRIP_2008_TABLESTYLE_CELLSTYLEMAP
360
FB
  0
DICTIONARY
  5
107
330
2F
100
AcDbDictionary
280
     1
281
     1
  3
ACAD_XREC_ROUNDTRIP
360
108
  0
DICTIONARY
  5
105
330
2E
100
AcDbDictionary
280
     1
281
     1
  3
ACAD_XREC_ROUNDTRIP
360
106
  0
DICTIONARY
  5
113
330
35
100
AcDbDictionary
280
     1
281
     1
  3
ACAD_XREC_ROUNDTRIP
360
114
  0
DICTIONARY
  5
11B
330
39
100
AcDbDictionary
280
     1
281
     1
  3
ACAD_XREC_ROUNDTRIP
360
11C
  0
DICTIONARY
  5
10D
330
32
100
AcDbDictionary
280
     1
281
     1
  3
ACAD_XREC_ROUNDTRIP
360
10E
  0
DICTIONARY
  5
111
330
34
100
AcDbDictionary
280
     1
281
     1
  3
ACAD_XREC_ROUNDTRIP
360
112
  0
DICTIONARY
  5
12B
330
41
100
AcDbDictionary
280
     1
281
     1
  3
ACAD_XREC_ROUNDTRIP
360
12C
  0
DICTIONARY
  5
119
330
38
100
AcDbDictionary
280
     1
281
     1
  3
ACAD_XREC_ROUNDTRIP
360
11A
  0
DICTIONARY
  5
FD
330
2A
100
AcDbDictionary
280
     1
281
     1
  3
ACAD_XREC_ROUNDTRIP
360
FE
  0
DICTIONARY
  5
FF
330
2B
100
AcDbDictionary
280
     1
281
     1
  3
ACAD_XREC_ROUNDTRIP
360
100
  0
DICTIONARY
  5
101
330
2C
100
AcDbDictionary
280
     1
281
     1
  3
ACAD_XREC_ROUNDTRIP
360
102
  0
DICTIONARY
  5
103
330
2D
100
AcDbDictionary
280
     1
281
     1
  3
ACAD_XREC_ROUNDTRIP
360
104
  0
DICTIONARY
  5
10B
330
31
100
AcDbDictionary
280
     1
281
     1
  3
ACAD_XREC_ROUNDTRIP
360
10C
  0
DICTIONARY
  5
127
330
3F
100
AcDbDictionary
280
     1
281
     1
  3
ACAD_XREC_ROUNDTRIP
360
128
  0
DICTIONARY
  5
117
330
37
100
AcDbDictionary
280
     1
281
     1
  3
ACAD_XREC_ROUNDTRIP
360
118
  0
DICTIONARY
  5
129
330
40
100
AcDbDictionary
280
     1
281
     1
  3
ACAD_XREC_ROUNDTRIP
360
12A
  0
DICTIONARY
  5
10F
330
33
100
AcDbDictionary
280
     1
281
     1
  3
ACAD_XREC_ROUNDTRIP
360
110
  0
DICTIONARY
  5
125
330
3E
100
AcDbDictionary
280
     1
281
     1
  3
ACAD_XREC_ROUNDTRIP
360
126
  0
DICTIONARY
  5
123
330
3D
100
AcDbDictionary
280
     1
281
     1
  3
ACAD_XREC_ROUNDTRIP
360
124
  0
DICTIONARY
  5
11D
330
3A
100
AcDbDictionary
280
     1
281
     1
  3
ACAD_XREC_ROUNDTRIP
360
11E
  0
DICTIONARY
  5
11F
330
3B
100
AcDbDictionary
280
     1
281
     1
  3
ACAD_XREC_ROUNDTRIP
360
120
  0
DICTIONARY
  5
115
330
36
100
AcDbDictionary
280
     1
281
     1
  3
ACAD_XREC_ROUNDTRIP
360
116
  0
DICTIONARY
  5
109
330
30
100
AcDbDictionary
280
     1
281
     1
  3
ACAD_XREC_ROUNDTRIP
360
10A
  0
DICTIONARY
  5
121
330
3C
100
AcDbDictionary
280
     1
281
     1
  3
ACAD_XREC_ROUNDTRIP
360
122
  0
XRECORD
  5
132
102
{ACAD_REACTORS
330
131
102
}
330
131
100
AcDbXrecord
280
     1
102
DISPLAYNAME
  1
Imperial24
102
FLAGS
 90
        0
  0
XRECORD
  5
1C
102
{ACAD_REACTORS
330
1A
102
}
330
1A
100
AcDbXrecord
280
     1
270
     1
271
     1
  0
XRECORD
  5
1B
102
{ACAD_REACTORS
330
1A
102
}
330
1A
100
AcDbXrecord
280
     1
270
     1
271
     1
  0
XRECORD
  5
1F
102
{ACAD_REACTORS
330
1A
102
}
330
1A
100
AcDbXrecord
280
     1
270
     1
271
     1
  0
XRECORD
  5
1E
102
{ACAD_REACTORS
330
1A
102
}
330
1A
100
AcDbXrecord
280
     1
270
     1
271
     1
  0
XRECORD
  5
20
102
{ACAD_REACTORS
330
1A
102
}
330
1A
100
AcDbXrecord
280
     1
270
     1
271
     1
  0
XRECORD
  5
1D
102
{ACAD_REACTORS
330
1A
102
}
330
1A
100
AcDbXrecord
280
     1
270
     1
271
     1
  0
XRECORD
  5
14
102
{ACAD_REACTORS
330
12
102
}
330
12
100
AcDbXrecord
280
     1
270
     1
271
     1
  0
XRECORD
  5
13
102
{ACAD_REACTORS
330
12
102
}
330
12
100
AcDbXrecord
280
     1
270
     1
271
     1
  0
XRECORD
  5
17
102
{ACAD_REACTORS
330
12
102
}
330
12
100
AcDbXrecord
280
     1
270
     1
271
     1
  0
XRECORD
  5
16
102
{ACAD_REACTORS
330
12
102
}
330
12
100
AcDbXrecord
280
     1
270
     1
271
     1
  0
XRECORD
  5
18
102
{ACAD_REACTORS
330
12
102
}
330
12
100
AcDbXrecord
280
     1
270
     1
271
     1
  0
XRECORD
  5
15
102
{ACAD_REACTORS
330
12
102
}
330
12
100
AcDbXrecord
280
     1
270
     1
271
     1
  0
XRECORD
  5
24
102
{ACAD_REACTORS
330
22
102
}
330
22
100
AcDbXrecord
280
     1
270
     1
271
     1
  0
XRECORD
  5
23
102
{ACAD_REACTORS
330
22
102
}
330
22
100
AcDbXrecord
280
     1
270
     1
271
     1
  0
XRECORD
  5
27
102
{ACAD_REACTORS
330
22
102
}
330
22
100
AcDbXrecord
280
     1
270
     1
271
     1
  0
XRECORD
  5
26
102
{ACAD_REACTORS
330
22
102
}
330
22
100
AcDbXrecord
280
     1
270
     1
271
     1
  0
XRECORD
  5
28
102
{ACAD_REACTORS
330
22
102
}
330
22
100
AcDbXrecord
280
     1
270
     1
271
     1
  0
XRECORD
  5
25
102
{ACAD_REACTORS
330
22
102
}
330
22
100
AcDbXrecord
280
     1
270
     1
271
     1
  0
XRECORD
  5
12E
102
{ACAD_REACTORS
330
12D
102
}
330
12D
100
AcDbXrecord
280
     1
102
ACAD_ROUNDTRIP_2012_MLEADER_STYLE
298
     1
  0
XRECORD
  5
130
102
{ACAD_REACTORS
330
12F
102
}
330
12F
100
AcDbXrecord
280
     1
102
DISPLAYNAME
  1
Imperial24
102
FLAGS
 90
        0
  0
CELLSTYLEMAP
  5
FB
102
{ACAD_REACTORS
330
FA
102
}
330
FA
100
AcDbCellStyleMap
 90
        3
300
CELLSTYLE
  1
TABLEFORMAT_BEGIN
 90
        5
170
     1
 91
        0
 92
    32768
 62
   257
 93
        1
300
CONTENTFORMAT
  1
CONTENTFORMAT_BEGIN
 90
        0
 91
        0
 92
      512
 93
        0
300

 40
0.0
140
1.0
 94
        5
 62
     0
340
55
144
0.25
309
CONTENTFORMAT_END
171
     0
 94
        0
309
TABLEFORMAT_END
  1
CELLSTYLE_BEGIN
 90
        1
 91
        1
300
_TITLE
309
CELLSTYLE_END
300
CELLSTYLE
  1
TABLEFORMAT_BEGIN
 90
        5
170
     1
 91
        0
 92
        0
 62
   257
 93
        1
300
CONTENTFORMAT
  1
CONTENTFORMAT_BEGIN
 90
        0
 91
        0
 92
      512
 93
        0
300

 40
0.0
140
1.0
 94
        5
 62
     0
340
55
144
0.18
309
CONTENTFORMAT_END
171
     0
 94
        0
309
TABLEFORMAT_END
  1
CELLSTYLE_BEGIN
 90
        2
 91
        1
300
_HEADER
309
CELLSTYLE_END
300
CELLSTYLE
  1
TABLEFORMAT_BEGIN
 90
        5
170
     1
 91
        0
 92
        0
 62
   257
 93
        1
300
CONTENTFORMAT
  1
CONTENTFORMAT_BEGIN
 90
        0
 91
        0
 92
      512
 93
        0
300

 40
0.0
140
1.0
 94
        2
 62
     0
340
55
144
0.18
309
CONTENTFORMAT_END
171
     0
 94
        0
309
TABLEFORMAT_END
  1
CELLSTYLE_BEGIN
 90
        3
 91
        2
300
_DATA
309
CELLSTYLE_END
  0
XRECORD
  5
108
102
{ACAD_REACTORS
330
107
102
}
330
107
100
AcDbXrecord
280
     1
102
RTVSPost2010Prop28
280
     1
102
RTVSPost2010PropOp28
 70
     1
102
RTVSPost2010Prop29
280
     1
102
RTVSPost2010PropOp29
 70
     1
102
RTVSPost2010Prop30
280
     0
102
RTVSPost2010PropOp30
 70
     1
102
RTVSPost2010Prop31
280
     0
102
RTVSPost2010PropOp31
 70
     1
102
RTVSPost2010Prop32
280
     0
102
RTVSPost2010PropOp32
 70
     1
102
RTVSPost2010Prop33
280
     0
102
RTVSPost2010PropOp33
 70
     1
102
RTVSPost2010Prop34
280
     0
102
RTVSPost2010PropOp34
 70
     1
102
RTVSPost2010Prop35
280
     0
102
RTVSPost2010PropOp35
 70
     1
102
RTVSPost2010Prop36
280
     0
102
RTVSPost2010PropOp36
 70
     1
102
RTVSPost2010Prop37
 90
       50
102
RTVSPost2010PropOp37
 70
     1
102
RTVSPost2010Prop38
140
0.0
102
RTVSPost2010PropOp38
 70
     1
102
RTVSPost2010Prop39
140
1.0
102
RTVSPost2010PropOp39
 70
     1
102
RTVSPost2010Prop40
 90
        0
102
RTVSPost2010PropOp40
 70
     1
102
RTVSPost2010Prop41ColorIndex
 90
       18
102
RTVSPost2010Prop41ColorRGB
 90
        0
102
RTVSPost2010PropOp41
 70
     1
102
RTVSPost2010Prop42
 90
       50
102
RTVSPost2010PropOp42
 70
     1
102
RTVSPost2010Prop43
 90
        3
102
RTVSPost2010PropOp43
 70
     1
102
RTVSPost2010Prop44ColorIndex
 90
        5
102
RTVSPost2010Prop44ColorRGB
 90
      255
102
RTVSPost2010PropOp44
 70
     1
102
RTVSPost2010Prop45
280
     0
102
RTVSPost2010PropOp45
 70
     1
102
RTVSPost2010Prop46
 90
       50
102
RTVSPost2010PropOp46
 70
     1
102
RTVSPost2010Prop47
 90
       50
102
RTVSPost2010PropOp47
 70
     1
102
RTVSPost2010Prop48
 90
       50
102
RTVSPost2010PropOp48
 70
     1
102
RTVSPost2010Prop49
280
     0
102
RTVSPost2010PropOp49
 70
     1
102
RTVSPost2010Prop50
 90
       50
102
RTVSPost2010PropOp50
 70
     1
102
RTVSPost2010Prop51ColorIndex
 90
      256
102
RTVSPost2010Prop51ColorRGB
 90
-16777216
102
RTVSPost2010PropOp51
 70
     0
102
RTVSPost2010Prop52
140
1.0
102
RTVSPost2010PropOp52
 70
     0
102
RTVSPost2010Prop53
 90
        2
102
RTVSPost2010PropOp53
 70
     1
102
RTVSPost2010Prop54
  1
strokes_ogs.tif
102
RTVSPost2010PropOp54
 70
     1
102
RTVSPost2010Prop55
280
     0
102
RTVSPost2010PropOp55
 70
     1
102
RTVSPost2010Prop56
140
1.0
102
RTVSPost2010PropOp56
 70
     1
102
RTVSPost2010Prop57
140
1.0
102
RTVSPost2010PropOp57
 70
     1
  0
XRECORD
  5
106
102
{ACAD_REACTORS
330
105
102
}
330
105
100
AcDbXrecord
280
     1
102
RTVSPost2010Prop28
280
     0
102
RTVSPost2010PropOp28
 70
     1
102
RTVSPost2010Prop29
280
     1
102
RTVSPost2010PropOp29
 70
     1
102
RTVSPost2010Prop30
280
     1
102
RTVSPost2010PropOp30
 70
     1
102
RTVSPost2010Prop31
280
     0
102
RTVSPost2010PropOp31
 70
     1
102
RTVSPost2010Prop32
280
     0
102
RTVSPost2010PropOp32
 70
     1
102
RTVSPost2010Prop33
280
     0
102
RTVSPost2010PropOp33
 70
     1
102
RTVSPost2010Prop34
280
     0
102
RTVSPost2010PropOp34
 70
     1
102
RTVSPost2010Prop35
280
     0
102
RTVSPost2010PropOp35
 70
     1
102
RTVSPost2010Prop36
280
     0
102
RTVSPost2010PropOp36
 70
     1
102
RTVSPost2010Prop37
 90
       50
102
RTVSPost2010PropOp37
 70
     1
102
RTVSPost2010Prop38
140
0.0
102
RTVSPost2010PropOp38
 70
     1
102
RTVSPost2010Prop39
140
1.0
102
RTVSPost2010PropOp39
 70
     1
102
RTVSPost2010Prop40
 90
        0
102
RTVSPost2010PropOp40
 70
     1
102
RTVSPost2010Prop41ColorIndex
 90
       18
102
RTVSPost2010Prop41ColorRGB
 90
        0
102
RTVSPost2010PropOp41
 70
     1
102
RTVSPost2010Prop42
 90
       50
102
RTVSPost2010PropOp42
 70
     1
102
RTVSPost2010Prop43
 90
        3
102
RTVSPost2010PropOp43
 70
     1
102
RTVSPost2010Prop44ColorIndex
 90
        5
102
RTVSPost2010Prop44ColorRGB
 90
      255
102
RTVSPost2010PropOp44
 70
     1
102
RTVSPost2010Prop45
280
     0
102
RTVSPost2010PropOp45
 70
     1
102
RTVSPost2010Prop46
 90
       50
102
RTVSPost2010PropOp46
 70
     1
102
RTVSPost2010Prop47
 90
       50
102
RTVSPost2010PropOp47
 70
     1
102
RTVSPost2010Prop48
 90
       50
102
RTVSPost2010PropOp48
 70
     1
102
RTVSPost2010Prop49
280
     0
102
RTVSPost2010PropOp49
 70
     1
102
RTVSPost2010Prop50
 90
       50
102
RTVSPost2010PropOp50
 70
     1
102
RTVSPost2010Prop51ColorIndex
 90
      256
102
RTVSPost2010Prop51ColorRGB
 90
-16777216
102
RTVSPost2010PropOp51
 70
     0
102
RTVSPost2010Prop52
140
1.0
102
RTVSPost2010PropOp52
 70
     0
102
RTVSPost2010Prop53
 90
        2
102
RTVSPost2010PropOp53
 70
     1
102
RTVSPost2010Prop54
  1
strokes_ogs.tif
102
RTVSPost2010PropOp54
 70
     1
102
RTVSPost2010Prop55
280
     0
102
RTVSPost2010PropOp55
 70
     1
102
RTVSPost2010Prop56
140
1.0
102
RTVSPost2010PropOp56
 70
     1
102
RTVSPost2010Prop57
140
1.0
102
RTVSPost2010PropOp57
 70
     1
  0
XRECORD
  5
114
102
{ACAD_REACTORS
330
113
102
}
330
113
100
AcDbXrecord
280
     1
102
RTVSPost2010Prop28
280
     0
102
RTVSPost2010PropOp28
 70
     1
102
RTVSPost2010Prop29
280
     1
102
RTVSPost2010PropOp29
 70
     1
102
RTVSPost2010Prop30
280
     1
102
RTVSPost2010PropOp30
 70
     1
102
RTVSPost2010Prop31
280
     0
102
RTVSPost2010PropOp31
 70
     1
102
RTVSPost2010Prop32
280
     0
102
RTVSPost2010PropOp32
 70
     1
102
RTVSPost2010Prop33
280
     0
102
RTVSPost2010PropOp33
 70
     1
102
RTVSPost2010Prop34
280
     0
102
RTVSPost2010PropOp34
 70
     1
102
RTVSPost2010Prop35
280
     0
102
RTVSPost2010PropOp35
 70
     1
102
RTVSPost2010Prop36
280
     0
102
RTVSPost2010PropOp36
 70
     1
102
RTVSPost2010Prop37
 90
       50
102
RTVSPost2010PropOp37
 70
     1
102
RTVSPost2010Prop38
140
0.0
102
RTVSPost2010PropOp38
 70
     1
102
RTVSPost2010Prop39
140
1.0
102
RTVSPost2010PropOp39
 70
     1
102
RTVSPost2010Prop40
 90
        0
102
RTVSPost2010PropOp40
 70
     1
102
RTVSPost2010Prop41ColorIndex
 90
       18
102
RTVSPost2010Prop41ColorRGB
 90
        0
102
RTVSPost2010PropOp41
 70
     1
102
RTVSPost2010Prop42
 90
       50
102
RTVSPost2010PropOp42
 70
     1
102
RTVSPost2010Prop43
 90
        3
102
RTVSPost2010PropOp43
 70
     1
102
RTVSPost2010Prop44ColorIndex
 90
        5
102
RTVSPost2010Prop44ColorRGB
 90
      255
102
RTVSPost2010PropOp44
 70
     1
102
RTVSPost2010Prop45
280
     0
102
RTVSPost2010PropOp45
 70
     1
102
RTVSPost2010Prop46
 90
       50
102
RTVSPost2010PropOp46
 70
     1
102
RTVSPost2010Prop47
 90
       50
102
RTVSPost2010PropOp47
 70
     1
102
RTVSPost2010Prop48
 90
       50
102
RTVSPost2010PropOp48
 70
     1
102
RTVSPost2010Prop49
280
     0
102
RTVSPost2010PropOp49
 70
     1
102
RTVSPost2010Prop50
 90
       50
102
RTVSPost2010PropOp50
 70
     1
102
RTVSPost2010Prop51ColorIndex
 90
      256
102
RTVSPost2010Prop51ColorRGB
 90
-16777216
102
RTVSPost2010PropOp51
 70
     0
102
RTVSPost2010Prop52
140
1.0
102
RTVSPost2010PropOp52
 70
     0
102
RTVSPost2010Prop53
 90
        2
102
RTVSPost2010PropOp53
 70
     1
102
RTVSPost2010Prop54
  1
strokes_ogs.tif
102
RTVSPost2010PropOp54
 70
     1
102
RTVSPost2010Prop55
280
     0
102
RTVSPost2010PropOp55
 70
     1
102
RTVSPost2010Prop56
140
1.0
102
RTVSPost2010PropOp56
 70
     1
102
RTVSPost2010Prop57
140
1.0
102
RTVSPost2010PropOp57
 70
     1
  0
XRECORD
  5
11C
102
{ACAD_REACTORS
330
11B
102
}
330
11B
100
AcDbXrecord
280
     1
102
RTVSPost2010Prop28
280
     0
102
RTVSPost2010PropOp28
 70
     1
102
RTVSPost2010Prop29
280
     1
102
RTVSPost2010PropOp29
 70
     1
102
RTVSPost2010Prop30
280
     1
102
RTVSPost2010PropOp30
 70
     1
102
RTVSPost2010Prop31
280
     0
102
RTVSPost2010PropOp31
 70
     1
102
RTVSPost2010Prop32
280
     0
102
RTVSPost2010PropOp32
 70
     1
102
RTVSPost2010Prop33
280
     0
102
RTVSPost2010PropOp33
 70
     1
102
RTVSPost2010Prop34
280
     0
102
RTVSPost2010PropOp34
 70
     1
102
RTVSPost2010Prop35
280
     0
102
RTVSPost2010PropOp35
 70
     1
102
RTVSPost2010Prop36
280
     0
102
RTVSPost2010PropOp36
 70
     1
102
RTVSPost2010Prop37
 90
       50
102
RTVSPost2010PropOp37
 70
     1
102
RTVSPost2010Prop38
140
0.0
102
RTVSPost2010PropOp38
 70
     1
102
RTVSPost2010Prop39
140
1.0
102
RTVSPost2010PropOp39
 70
     1
102
RTVSPost2010Prop40
 90
        0
102
RTVSPost2010PropOp40
 70
     1
102
RTVSPost2010Prop41ColorIndex
 90
       18
102
RTVSPost2010Prop41ColorRGB
 90
        0
102
RTVSPost2010PropOp41
 70
     1
102
RTVSPost2010Prop42
 90
       50
102
RTVSPost2010PropOp42
 70
     1
102
RTVSPost2010Prop43
 90
        3
102
RTVSPost2010PropOp43
 70
     1
102
RTVSPost2010Prop44ColorIndex
 90
        5
102
RTVSPost2010Prop44ColorRGB
 90
      255
102
RTVSPost2010PropOp44
 70
     1
102
RTVSPost2010Prop45
280
     0
102
RTVSPost2010PropOp45
 70
     1
102
RTVSPost2010Prop46
 90
       50
102
RTVSPost2010PropOp46
 70
     1
102
RTVSPost2010Prop47
 90
       50
102
RTVSPost2010PropOp47
 70
     1
102
RTVSPost2010Prop48
 90
       50
102
RTVSPost2010PropOp48
 70
     1
102
RTVSPost2010Prop49
280
     0
102
RTVSPost2010PropOp49
 70
     1
102
RTVSPost2010Prop50
 90
       50
102
RTVSPost2010PropOp50
 70
     1
102
RTVSPost2010Prop51ColorIndex
 90
      256
102
RTVSPost2010Prop51ColorRGB
 90
-16777216
102
RTVSPost2010PropOp51
 70
     0
102
RTVSPost2010Prop52
140
1.0
102
RTVSPost2010PropOp52
 70
     0
102
RTVSPost2010Prop53
 90
        2
102
RTVSPost2010PropOp53
 70
     1
102
RTVSPost2010Prop54
  1
strokes_ogs.tif
102
RTVSPost2010PropOp54
 70
     1
102
RTVSPost2010Prop55
280
     0
102
RTVSPost2010PropOp55
 70
     1
102
RTVSPost2010Prop56
140
1.0
102
RTVSPost2010PropOp56
 70
     1
102
RTVSPost2010Prop57
140
1.0
102
RTVSPost2010PropOp57
 70
     1
  0
XRECORD
  5
10E
102
{ACAD_REACTORS
330
10D
102
}
330
10D
100
AcDbXrecord
280
     1
102
RTVSPost2010Prop28
280
     0
102
RTVSPost2010PropOp28
 70
     1
102
RTVSPost2010Prop29
280
     1
102
RTVSPost2010PropOp29
 70
     1
102
RTVSPost2010Prop30
280
     1
102
RTVSPost2010PropOp30
 70
     1
102
RTVSPost2010Prop31
280
     0
102
RTVSPost2010PropOp31
 70
     1
102
RTVSPost2010Prop32
280
     0
102
RTVSPost2010PropOp32
 70
     1
102
RTVSPost2010Prop33
280
     0
102
RTVSPost2010PropOp33
 70
     1
102
RTVSPost2010Prop34
280
     0
102
RTVSPost2010PropOp34
 70
     1
102
RTVSPost2010Prop35
280
     0
102
RTVSPost2010PropOp35
 70
     1
102
RTVSPost2010Prop36
280
     0
102
RTVSPost2010PropOp36
 70
     1
102
RTVSPost2010Prop37
 90
       50
102
RTVSPost2010PropOp37
 70
     1
102
RTVSPost2010Prop38
140
0.0
102
RTVSPost2010PropOp38
 70
     1
102
RTVSPost2010Prop39
140
1.0
102
RTVSPost2010PropOp39
 70
     1
102
RTVSPost2010Prop40
 90
        0
102
RTVSPost2010PropOp40
 70
     1
102
RTVSPost2010Prop41ColorIndex
 90
       18
102
RTVSPost2010Prop41ColorRGB
 90
        0
102
RTVSPost2010PropOp41
 70
     1
102
RTVSPost2010Prop42
 90
       50
102
RTVSPost2010PropOp42
 70
     1
102
RTVSPost2010Prop43
 90
        3
102
RTVSPost2010PropOp43
 70
     1
102
RTVSPost2010Prop44ColorIndex
 90
        5
102
RTVSPost2010Prop44ColorRGB
 90
      255
102
RTVSPost2010PropOp44
 70
     1
102
RTVSPost2010Prop45
280
     0
102
RTVSPost2010PropOp45
 70
     1
102
RTVSPost2010Prop46
 90
       50
102
RTVSPost2010PropOp46
 70
     1
102
RTVSPost2010Prop47
 90
       50
102
RTVSPost2010PropOp47
 70
     1
102
RTVSPost2010Prop48
 90
       50
102
RTVSPost2010PropOp48
 70
     1
102
RTVSPost2010Prop49
280
     0
102
RTVSPost2010PropOp49
 70
     1
102
RTVSPost2010Prop50
 90
       50
102
RTVSPost2010PropOp50
 70
     1
102
RTVSPost2010Prop51ColorIndex
 90
      256
102
RTVSPost2010Prop51ColorRGB
 90
-16777216
102
RTVSPost2010PropOp51
 70
     0
102
RTVSPost2010Prop52
140
1.0
102
RTVSPost2010PropOp52
 70
     0
102
RTVSPost2010Prop53
 90
        2
102
RTVSPost2010PropOp53
 70
     1
102
RTVSPost2010Prop54
  1
strokes_ogs.tif
102
RTVSPost2010PropOp54
 70
     1
102
RTVSPost2010Prop55
280
     0
102
RTVSPost2010PropOp55
 70
     1
102
RTVSPost2010Prop56
140
1.0
102
RTVSPost2010PropOp56
 70
     1
102
RTVSPost2010Prop57
140
1.0
102
RTVSPost2010PropOp57
 70
     1
  0
XRECORD
  5
112
102
{ACAD_REACTORS
330
111
102
}
330
111
100
AcDbXrecord
280
     1
102
RTVSPost2010Prop28
280
     0
102
RTVSPost2010PropOp28
 70
     1
102
RTVSPost2010Prop29
280
     1
102
RTVSPost2010PropOp29
 70
     1
102
RTVSPost2010Prop30
280
     1
102
RTVSPost2010PropOp30
 70
     1
102
RTVSPost2010Prop31
280
     0
102
RTVSPost2010PropOp31
 70
     1
102
RTVSPost2010Prop32
280
     0
102
RTVSPost2010PropOp32
 70
     1
102
RTVSPost2010Prop33
280
     0
102
RTVSPost2010PropOp33
 70
     1
102
RTVSPost2010Prop34
280
     0
102
RTVSPost2010PropOp34
 70
     1
102
RTVSPost2010Prop35
280
     0
102
RTVSPost2010PropOp35
 70
     1
102
RTVSPost2010Prop36
280
     0
102
RTVSPost2010PropOp36
 70
     1
102
RTVSPost2010Prop37
 90
       50
102
RTVSPost2010PropOp37
 70
     1
102
RTVSPost2010Prop38
140
0.0
102
RTVSPost2010PropOp38
 70
     1
102
RTVSPost2010Prop39
140
1.0
102
RTVSPost2010PropOp39
 70
     1
102
RTVSPost2010Prop40
 90
        0
102
RTVSPost2010PropOp40
 70
     1
102
RTVSPost2010Prop41ColorIndex
 90
       18
102
RTVSPost2010Prop41ColorRGB
 90
        0
102
RTVSPost2010PropOp41
 70
     1
102
RTVSPost2010Prop42
 90
       50
102
RTVSPost2010PropOp42
 70
     1
102
RTVSPost2010Prop43
 90
        3
102
RTVSPost2010PropOp43
 70
     1
102
RTVSPost2010Prop44ColorIndex
 90
        5
102
RTVSPost2010Prop44ColorRGB
 90
      255
102
RTVSPost2010PropOp44
 70
     1
102
RTVSPost2010Prop45
280
     0
102
RTVSPost2010PropOp45
 70
     1
102
RTVSPost2010Prop46
 90
       50
102
RTVSPost2010PropOp46
 70
     1
102
RTVSPost2010Prop47
 90
       50
102
RTVSPost2010PropOp47
 70
     1
102
RTVSPost2010Prop48
 90
       50
102
RTVSPost2010PropOp48
 70
     1
102
RTVSPost2010Prop49
280
     0
102
RTVSPost2010PropOp49
 70
     1
102
RTVSPost2010Prop50
 90
       50
102
RTVSPost2010PropOp50
 70
     1
102
RTVSPost2010Prop51ColorIndex
 90
      256
102
RTVSPost2010Prop51ColorRGB
 90
-16777216
102
RTVSPost2010PropOp51
 70
     0
102
RTVSPost2010Prop52
140
1.0
102
RTVSPost2010PropOp52
 70
     0
102
RTVSPost2010Prop53
 90
        2
102
RTVSPost2010PropOp53
 70
     1
102
RTVSPost2010Prop54
  1
strokes_ogs.tif
102
RTVSPost2010PropOp54
 70
     1
102
RTVSPost2010Prop55
280
     0
102
RTVSPost2010PropOp55
 70
     1
102
RTVSPost2010Prop56
140
1.0
102
RTVSPost2010PropOp56
 70
     1
102
RTVSPost2010Prop57
140
1.0
102
RTVSPost2010PropOp57
 70
     1
  0
XRECORD
  5
12C
102
{ACAD_REACTORS
330
12B
102
}
330
12B
100
AcDbXrecord
280
     1
102
RTVSPost2010Prop28
280
     0
102
RTVSPost2010PropOp28
 70
     0
102
RTVSPost2010Prop29
280
     1
102
RTVSPost2010PropOp29
 70
     0
102
RTVSPost2010Prop30
280
     1
102
RTVSPost2010PropOp30
 70
     0
102
RTVSPost2010Prop31
280
     0
102
RTVSPost2010PropOp31
 70
     0
102
RTVSPost2010Prop32
280
     0
102
RTVSPost2010PropOp32
 70
     0
102
RTVSPost2010Prop33
280
     0
102
RTVSPost2010PropOp33
 70
     0
102
RTVSPost2010Prop34
280
     0
102
RTVSPost2010PropOp34
 70
     0
102
RTVSPost2010Prop35
280
     0
102
RTVSPost2010PropOp35
 70
     0
102
RTVSPost2010Prop36
280
     0
102
RTVSPost2010PropOp36
 70
     0
102
RTVSPost2010Prop37
 90
       50
102
RTVSPost2010PropOp37
 70
     0
102
RTVSPost2010Prop38
140
0.0
102
RTVSPost2010PropOp38
 70
     0
102
RTVSPost2010Prop39
140
1.0
102
RTVSPost2010PropOp39
 70
     0
102
RTVSPost2010Prop40
 90
        0
102
RTVSPost2010PropOp40
 70
     0
102
RTVSPost2010Prop41ColorIndex
 90
       18
102
RTVSPost2010Prop41ColorRGB
 90
        0
102
RTVSPost2010PropOp41
 70
     0
102
RTVSPost2010Prop42
 90
       50
102
RTVSPost2010PropOp42
 70
     0
102
RTVSPost2010Prop43
 90
        3
102
RTVSPost2010PropOp43
 70
     0
102
RTVSPost2010Prop44ColorIndex
 90
        5
102
RTVSPost2010Prop44ColorRGB
 90
      255
102
RTVSPost2010PropOp44
 70
     0
102
RTVSPost2010Prop45
280
     0
102
RTVSPost2010PropOp45
 70
     0
102
RTVSPost2010Prop46
 90
       50
102
RTVSPost2010PropOp46
 70
     0
102
RTVSPost2010Prop47
 90
       50
102
RTVSPost2010PropOp47
 70
     0
102
RTVSPost2010Prop48
 90
       50
102
RTVSPost2010PropOp48
 70
     0
102
RTVSPost2010Prop49
280
     0
102
RTVSPost2010PropOp49
 70
     0
102
RTVSPost2010Prop50
 90
       50
102
RTVSPost2010PropOp50
 70
     0
102
RTVSPost2010Prop51ColorIndex
 90
      256
102
RTVSPost2010Prop51ColorRGB
 90
-16777216
102
RTVSPost2010PropOp51
 70
     0
102
RTVSPost2010Prop52
140
1.0
102
RTVSPost2010PropOp52
 70
     0
102
RTVSPost2010Prop53
 90
        2
102
RTVSPost2010PropOp53
 70
     0
102
RTVSPost2010Prop54
  1
strokes_ogs.tif
102
RTVSPost2010PropOp54
 70
     0
102
RTVSPost2010Prop55
280
     0
102
RTVSPost2010PropOp55
 70
     0
102
RTVSPost2010Prop56
140
1.0
102
RTVSPost2010PropOp56
 70
     0
102
RTVSPost2010Prop57
140
1.0
102
RTVSPost2010PropOp57
 70
     0
  0
XRECORD
  5
11A
102
{ACAD_REACTORS
330
119
102
}
330
119
100
AcDbXrecord
280
     1
102
RTVSPost2010Prop28
280
     0
102
RTVSPost2010PropOp28
 70
     1
102
RTVSPost2010Prop29
280
     1
102
RTVSPost2010PropOp29
 70
     1
102
RTVSPost2010Prop30
280
     1
102
RTVSPost2010PropOp30
 70
     1
102
RTVSPost2010Prop31
280
     0
102
RTVSPost2010PropOp31
 70
     1
102
RTVSPost2010Prop32
280
     0
102
RTVSPost2010PropOp32
 70
     1
102
RTVSPost2010Prop33
280
     0
102
RTVSPost2010PropOp33
 70
     1
102
RTVSPost2010Prop34
280
     0
102
RTVSPost2010PropOp34
 70
     1
102
RTVSPost2010Prop35
280
     0
102
RTVSPost2010PropOp35
 70
     1
102
RTVSPost2010Prop36
280
     0
102
RTVSPost2010PropOp36
 70
     1
102
RTVSPost2010Prop37
 90
       50
102
RTVSPost2010PropOp37
 70
     1
102
RTVSPost2010Prop38
140
0.0
102
RTVSPost2010PropOp38
 70
     1
102
RTVSPost2010Prop39
140
1.0
102
RTVSPost2010PropOp39
 70
     1
102
RTVSPost2010Prop40
 90
        0
102
RTVSPost2010PropOp40
 70
     1
102
RTVSPost2010Prop41ColorIndex
 90
       18
102
RTVSPost2010Prop41ColorRGB
 90
        0
102
RTVSPost2010PropOp41
 70
     1
102
RTVSPost2010Prop42
 90
       50
102
RTVSPost2010PropOp42
 70
     1
102
RTVSPost2010Prop43
 90
        3
102
RTVSPost2010PropOp43
 70
     1
102
RTVSPost2010Prop44ColorIndex
 90
        5
102
RTVSPost2010Prop44ColorRGB
 90
      255
102
RTVSPost2010PropOp44
 70
     1
102
RTVSPost2010Prop45
280
     0
102
RTVSPost2010PropOp45
 70
     1
102
RTVSPost2010Prop46
 90
       50
102
RTVSPost2010PropOp46
 70
     1
102
RTVSPost2010Prop47
 90
       50
102
RTVSPost2010PropOp47
 70
     1
102
RTVSPost2010Prop48
 90
       50
102
RTVSPost2010PropOp48
 70
     1
102
RTVSPost2010Prop49
280
     0
102
RTVSPost2010PropOp49
 70
     1
102
RTVSPost2010Prop50
 90
       50
102
RTVSPost2010PropOp50
 70
     1
102
RTVSPost2010Prop51ColorIndex
 90
      256
102
RTVSPost2010Prop51ColorRGB
 90
-16777216
102
RTVSPost2010PropOp51
 70
     0
102
RTVSPost2010Prop52
140
1.0
102
RTVSPost2010PropOp52
 70
     0
102
RTVSPost2010Prop53
 90
        2
102
RTVSPost2010PropOp53
 70
     1
102
RTVSPost2010Prop54
  1
strokes_ogs.tif
102
RTVSPost2010PropOp54
 70
     1
102
RTVSPost2010Prop55
280
     0
102
RTVSPost2010PropOp55
 70
     1
102
RTVSPost2010Prop56
140
1.0
102
RTVSPost2010PropOp56
 70
     1
102
RTVSPost2010Prop57
140
1.0
102
RTVSPost2010PropOp57
 70
     1
  0
XRECORD
  5
FE
102
{ACAD_REACTORS
330
FD
102
}
330
FD
100
AcDbXrecord
280
     1
102
RTVSPost2010Prop28
280
     0
102
RTVSPost2010PropOp28
 70
     1
102
RTVSPost2010Prop29
280
     1
102
RTVSPost2010PropOp29
 70
     1
102
RTVSPost2010Prop30
280
     1
102
RTVSPost2010PropOp30
 70
     1
102
RTVSPost2010Prop31
280
     0
102
RTVSPost2010PropOp31
 70
     1
102
RTVSPost2010Prop32
280
     0
102
RTVSPost2010PropOp32
 70
     1
102
RTVSPost2010Prop33
280
     0
102
RTVSPost2010PropOp33
 70
     1
102
RTVSPost2010Prop34
280
     0
102
RTVSPost2010PropOp34
 70
     1
102
RTVSPost2010Prop35
280
     0
102
RTVSPost2010PropOp35
 70
     1
102
RTVSPost2010Prop36
280
     0
102
RTVSPost2010PropOp36
 70
     1
102
RTVSPost2010Prop37
 90
       50
102
RTVSPost2010PropOp37
 70
     1
102
RTVSPost2010Prop38
140
0.0
102
RTVSPost2010PropOp38
 70
     1
102
RTVSPost2010Prop39
140
1.0
102
RTVSPost2010PropOp39
 70
     1
102
RTVSPost2010Prop40
 90
        0
102
RTVSPost2010PropOp40
 70
     1
102
RTVSPost2010Prop41ColorIndex
 90
       18
102
RTVSPost2010Prop41ColorRGB
 90
        0
102
RTVSPost2010PropOp41
 70
     1
102
RTVSPost2010Prop42
 90
       50
102
RTVSPost2010PropOp42
 70
     1
102
RTVSPost2010Prop43
 90
        3
102
RTVSPost2010PropOp43
 70
     1
102
RTVSPost2010Prop44ColorIndex
 90
        5
102
RTVSPost2010Prop44ColorRGB
 90
      255
102
RTVSPost2010PropOp44
 70
     1
102
RTVSPost2010Prop45
280
     0
102
RTVSPost2010PropOp45
 70
     1
102
RTVSPost2010Prop46
 90
       50
102
RTVSPost2010PropOp46
 70
     1
102
RTVSPost2010Prop47
 90
       50
102
RTVSPost2010PropOp47
 70
     1
102
RTVSPost2010Prop48
 90
       50
102
RTVSPost2010PropOp48
 70
     1
102
RTVSPost2010Prop49
280
     0
102
RTVSPost2010PropOp49
 70
     1
102
RTVSPost2010Prop50
 90
       50
102
RTVSPost2010PropOp50
 70
     1
102
RTVSPost2010Prop51ColorIndex
 90
      256
102
RTVSPost2010Prop51ColorRGB
 90
-16777216
102
RTVSPost2010PropOp51
 70
     0
102
RTVSPost2010Prop52
140
1.0
102
RTVSPost2010PropOp52
 70
     0
102
RTVSPost2010Prop53
 90
        2
102
RTVSPost2010PropOp53
 70
     1
102
RTVSPost2010Prop54
  1
strokes_ogs.tif
102
RTVSPost2010PropOp54
 70
     1
102
RTVSPost2010Prop55
280
     0
102
RTVSPost2010PropOp55
 70
     1
102
RTVSPost2010Prop56
140
1.0
102
RTVSPost2010PropOp56
 70
     1
102
RTVSPost2010Prop57
140
1.0
102
RTVSPost2010PropOp57
 70
     1
  0
XRECORD
  5
100
102
{ACAD_REACTORS
330
FF
102
}
330
FF
100
AcDbXrecord
280
     1
102
RTVSPost2010Prop28
280
     0
102
RTVSPost2010PropOp28
 70
     1
102
RTVSPost2010Prop29
280
     1
102
RTVSPost2010PropOp29
 70
     1
102
RTVSPost2010Prop30
280
     1
102
RTVSPost2010PropOp30
 70
     1
102
RTVSPost2010Prop31
280
     0
102
RTVSPost2010PropOp31
 70
     1
102
RTVSPost2010Prop32
280
     0
102
RTVSPost2010PropOp32
 70
     1
102
RTVSPost2010Prop33
280
     0
102
RTVSPost2010PropOp33
 70
     1
102
RTVSPost2010Prop34
280
     0
102
RTVSPost2010PropOp34
 70
     1
102
RTVSPost2010Prop35
280
     0
102
RTVSPost2010PropOp35
 70
     1
102
RTVSPost2010Prop36
280
     0
102
RTVSPost2010PropOp36
 70
     1
102
RTVSPost2010Prop37
 90
       50
102
RTVSPost2010PropOp37
 70
     1
102
RTVSPost2010Prop38
140
0.0
102
RTVSPost2010PropOp38
 70
     1
102
RTVSPost2010Prop39
140
1.0
102
RTVSPost2010PropOp39
 70
     1
102
RTVSPost2010Prop40
 90
        0
102
RTVSPost2010PropOp40
 70
     1
102
RTVSPost2010Prop41ColorIndex
 90
       18
102
RTVSPost2010Prop41ColorRGB
 90
        0
102
RTVSPost2010PropOp41
 70
     1
102
RTVSPost2010Prop42
 90
       50
102
RTVSPost2010PropOp42
 70
     1
102
RTVSPost2010Prop43
 90
        3
102
RTVSPost2010PropOp43
 70
     1
102
RTVSPost2010Prop44ColorIndex
 90
        5
102
RTVSPost2010Prop44ColorRGB
 90
      255
102
RTVSPost2010PropOp44
 70
     1
102
RTVSPost2010Prop45
280
     0
102
RTVSPost2010PropOp45
 70
     1
102
RTVSPost2010Prop46
 90
       50
102
RTVSPost2010PropOp46
 70
     1
102
RTVSPost2010Prop47
 90
       50
102
RTVSPost2010PropOp47
 70
     1
102
RTVSPost2010Prop48
 90
       50
102
RTVSPost2010PropOp48
 70
     1
102
RTVSPost2010Prop49
280
     0
102
RTVSPost2010PropOp49
 70
     1
102
RTVSPost2010Prop50
 90
       50
102
RTVSPost2010PropOp50
 70
     1
102
RTVSPost2010Prop51ColorIndex
 90
      256
102
RTVSPost2010Prop51ColorRGB
 90
-16777216
102
RTVSPost2010PropOp51
 70
     0
102
RTVSPost2010Prop52
140
1.0
102
RTVSPost2010PropOp52
 70
     0
102
RTVSPost2010Prop53
 90
        2
102
RTVSPost2010PropOp53
 70
     1
102
RTVSPost2010Prop54
  1
strokes_ogs.tif
102
RTVSPost2010PropOp54
 70
     1
102
RTVSPost2010Prop55
280
     0
102
RTVSPost2010PropOp55
 70
     1
102
RTVSPost2010Prop56
140
1.0
102
RTVSPost2010PropOp56
 70
     1
102
RTVSPost2010Prop57
140
1.0
102
RTVSPost2010PropOp57
 70
     1
  0
XRECORD
  5
102
102
{ACAD_REACTORS
330
101
102
}
330
101
100
AcDbXrecord
280
     1
102
RTVSPost2010Prop28
280
     0
102
RTVSPost2010PropOp28
 70
     1
102
RTVSPost2010Prop29
280
     1
102
RTVSPost2010PropOp29
 70
     1
102
RTVSPost2010Prop30
280
     1
102
RTVSPost2010PropOp30
 70
     1
102
RTVSPost2010Prop31
280
     0
102
RTVSPost2010PropOp31
 70
     1
102
RTVSPost2010Prop32
280
     0
102
RTVSPost2010PropOp32
 70
     1
102
RTVSPost2010Prop33
280
     0
102
RTVSPost2010PropOp33
 70
     1
102
RTVSPost2010Prop34
280
     0
102
RTVSPost2010PropOp34
 70
     1
102
RTVSPost2010Prop35
280
     0
102
RTVSPost2010PropOp35
 70
     1
102
RTVSPost2010Prop36
280
     0
102
RTVSPost2010PropOp36
 70
     1
102
RTVSPost2010Prop37
 90
       50
102
RTVSPost2010PropOp37
 70
     1
102
RTVSPost2010Prop38
140
0.0
102
RTVSPost2010PropOp38
 70
     1
102
RTVSPost2010Prop39
140
1.0
102
RTVSPost2010PropOp39
 70
     1
102
RTVSPost2010Prop40
 90
        0
102
RTVSPost2010PropOp40
 70
     1
102
RTVSPost2010Prop41ColorIndex
 90
       18
102
RTVSPost2010Prop41ColorRGB
 90
        0
102
RTVSPost2010PropOp41
 70
     1
102
RTVSPost2010Prop42
 90
       50
102
RTVSPost2010PropOp42
 70
     1
102
RTVSPost2010Prop43
 90
        3
102
RTVSPost2010PropOp43
 70
     1
102
RTVSPost2010Prop44ColorIndex
 90
        5
102
RTVSPost2010Prop44ColorRGB
 90
      255
102
RTVSPost2010PropOp44
 70
     1
102
RTVSPost2010Prop45
280
     0
102
RTVSPost2010PropOp45
 70
     1
102
RTVSPost2010Prop46
 90
       50
102
RTVSPost2010PropOp46
 70
     1
102
RTVSPost2010Prop47
 90
       50
102
RTVSPost2010PropOp47
 70
     1
102
RTVSPost2010Prop48
 90
       50
102
RTVSPost2010PropOp48
 70
     1
102
RTVSPost2010Prop49
280
     0
102
RTVSPost2010PropOp49
 70
     1
102
RTVSPost2010Prop50
 90
       50
102
RTVSPost2010PropOp50
 70
     1
102
RTVSPost2010Prop51ColorIndex
 90
      256
102
RTVSPost2010Prop51ColorRGB
 90
-16777216
102
RTVSPost2010PropOp51
 70
     0
102
RTVSPost2010Prop52
140
1.0
102
RTVSPost2010PropOp52
 70
     0
102
RTVSPost2010Prop53
 90
        2
102
RTVSPost2010PropOp53
 70
     1
102
RTVSPost2010Prop54
  1
strokes_ogs.tif
102
RTVSPost2010PropOp54
 70
     1
102
RTVSPost2010Prop55
280
     0
102
RTVSPost2010PropOp55
 70
     1
102
RTVSPost2010Prop56
140
1.0
102
RTVSPost2010PropOp56
 70
     1
102
RTVSPost2010Prop57
140
1.0
102
RTVSPost2010PropOp57
 70
     1
  0
XRECORD
  5
104
102
{ACAD_REACTORS
330
103
102
}
330
103
100
AcDbXrecord
280
     1
102
RTVSPost2010Prop28
280
     0
102
RTVSPost2010PropOp28
 70
     1
102
RTVSPost2010Prop29
280
     1
102
RTVSPost2010PropOp29
 70
     1
102
RTVSPost2010Prop30
280
     1
102
RTVSPost2010PropOp30
 70
     1
102
RTVSPost2010Prop31
280
     0
102
RTVSPost2010PropOp31
 70
     1
102
RTVSPost2010Prop32
280
     0
102
RTVSPost2010PropOp32
 70
     1
102
RTVSPost2010Prop33
280
     0
102
RTVSPost2010PropOp33
 70
     1
102
RTVSPost2010Prop34
280
     0
102
RTVSPost2010PropOp34
 70
     1
102
RTVSPost2010Prop35
280
     0
102
RTVSPost2010PropOp35
 70
     1
102
RTVSPost2010Prop36
280
     0
102
RTVSPost2010PropOp36
 70
     1
102
RTVSPost2010Prop37
 90
       50
102
RTVSPost2010PropOp37
 70
     1
102
RTVSPost2010Prop38
140
0.0
102
RTVSPost2010PropOp38
 70
     1
102
RTVSPost2010Prop39
140
1.0
102
RTVSPost2010PropOp39
 70
     1
102
RTVSPost2010Prop40
 90
        0
102
RTVSPost2010PropOp40
 70
     1
102
RTVSPost2010Prop41ColorIndex
 90
       18
102
RTVSPost2010Prop41ColorRGB
 90
        0
102
RTVSPost2010PropOp41
 70
     1
102
RTVSPost2010Prop42
 90
       50
102
RTVSPost2010PropOp42
 70
     1
102
RTVSPost2010Prop43
 90
        3
102
RTVSPost2010PropOp43
 70
     1
102
RTVSPost2010Prop44ColorIndex
 90
        5
102
RTVSPost2010Prop44ColorRGB
 90
      255
102
RTVSPost2010PropOp44
 70
     1
102
RTVSPost2010Prop45
280
     0
102
RTVSPost2010PropOp45
 70
     1
102
RTVSPost2010Prop46
 90
       50
102
RTVSPost2010PropOp46
 70
     1
102
RTVSPost2010Prop47
 90
       50
102
RTVSPost2010PropOp47
 70
     1
102
RTVSPost2010Prop48
 90
       50
102
RTVSPost2010PropOp48
 70
     1
102
RTVSPost2010Prop49
280
     0
102
RTVSPost2010PropOp49
 70
     1
102
RTVSPost2010Prop50
 90
       50
102
RTVSPost2010PropOp50
 70
     1
102
RTVSPost2010Prop51ColorIndex
 90
      256
102
RTVSPost2010Prop51ColorRGB
 90
-16777216
102
RTVSPost2010PropOp51
 70
     0
102
RTVSPost2010Prop52
140
1.0
102
RTVSPost2010PropOp52
 70
     0
102
RTVSPost2010Prop53
 90
        2
102
RTVSPost2010PropOp53
 70
     1
102
RTVSPost2010Prop54
  1
strokes_ogs.tif
102
RTVSPost2010PropOp54
 70
     1
102
RTVSPost2010Prop55
280
     0
102
RTVSPost2010PropOp55
 70
     1
102
RTVSPost2010Prop56
140
1.0
102
RTVSPost2010PropOp56
 70
     1
102
RTVSPost2010Prop57
140
1.0
102
RTVSPost2010PropOp57
 70
     1
  0
XRECORD
  5
10C
102
{ACAD_REACTORS
330
10B
102
}
330
10B
100
AcDbXrecord
280
     1
102
RTVSPost2010Prop28
280
     0
102
RTVSPost2010PropOp28
 70
     1
102
RTVSPost2010Prop29
280
     1
102
RTVSPost2010PropOp29
 70
     1
102
RTVSPost2010Prop30
280
     1
102
RTVSPost2010PropOp30
 70
     1
102
RTVSPost2010Prop31
280
     0
102
RTVSPost2010PropOp31
 70
     1
102
RTVSPost2010Prop32
280
     0
102
RTVSPost2010PropOp32
 70
     1
102
RTVSPost2010Prop33
280
     0
102
RTVSPost2010PropOp33
 70
     1
102
RTVSPost2010Prop34
280
     0
102
RTVSPost2010PropOp34
 70
     1
102
RTVSPost2010Prop35
280
     0
102
RTVSPost2010PropOp35
 70
     1
102
RTVSPost2010Prop36
280
     0
102
RTVSPost2010PropOp36
 70
     1
102
RTVSPost2010Prop37
 90
       50
102
RTVSPost2010PropOp37
 70
     1
102
RTVSPost2010Prop38
140
0.0
102
RTVSPost2010PropOp38
 70
     1
102
RTVSPost2010Prop39
140
1.0
102
RTVSPost2010PropOp39
 70
     1
102
RTVSPost2010Prop40
 90
        0
102
RTVSPost2010PropOp40
 70
     1
102
RTVSPost2010Prop41ColorIndex
 90
       18
102
RTVSPost2010Prop41ColorRGB
 90
        0
102
RTVSPost2010PropOp41
 70
     1
102
RTVSPost2010Prop42
 90
       50
102
RTVSPost2010PropOp42
 70
     1
102
RTVSPost2010Prop43
 90
        3
102
RTVSPost2010PropOp43
 70
     1
102
RTVSPost2010Prop44ColorIndex
 90
        5
102
RTVSPost2010Prop44ColorRGB
 90
      255
102
RTVSPost2010PropOp44
 70
     1
102
RTVSPost2010Prop45
280
     0
102
RTVSPost2010PropOp45
 70
     1
102
RTVSPost2010Prop46
 90
       50
102
RTVSPost2010PropOp46
 70
     1
102
RTVSPost2010Prop47
 90
       50
102
RTVSPost2010PropOp47
 70
     1
102
RTVSPost2010Prop48
 90
       50
102
RTVSPost2010PropOp48
 70
     1
102
RTVSPost2010Prop49
280
     0
102
RTVSPost2010PropOp49
 70
     1
102
RTVSPost2010Prop50
 90
       50
102
RTVSPost2010PropOp50
 70
     1
102
RTVSPost2010Prop51ColorIndex
 90
      256
102
RTVSPost2010Prop51ColorRGB
 90
-16777216
102
RTVSPost2010PropOp51
 70
     0
102
RTVSPost2010Prop52
140
1.0
102
RTVSPost2010PropOp52
 70
     0
102
RTVSPost2010Prop53
 90
        2
102
RTVSPost2010PropOp53
 70
     1
102
RTVSPost2010Prop54
  1
strokes_ogs.tif
102
RTVSPost2010PropOp54
 70
     1
102
RTVSPost2010Prop55
280
     0
102
RTVSPost2010PropOp55
 70
     1
102
RTVSPost2010Prop56
140
1.0
102
RTVSPost2010PropOp56
 70
     1
102
RTVSPost2010Prop57
140
1.0
102
RTVSPost2010PropOp57
 70
     1
  0
XRECORD
  5
128
102
{ACAD_REACTORS
330
127
102
}
330
127
100
AcDbXrecord
280
     1
102
RTVSPost2010Prop28
280
     0
102
RTVSPost2010PropOp28
 70
     0
102
RTVSPost2010Prop29
280
     1
102
RTVSPost2010PropOp29
 70
     0
102
RTVSPost2010Prop30
280
     1
102
RTVSPost2010PropOp30
 70
     0
102
RTVSPost2010Prop31
280
     0
102
RTVSPost2010PropOp31
 70
     0
102
RTVSPost2010Prop32
280
     0
102
RTVSPost2010PropOp32
 70
     0
102
RTVSPost2010Prop33
280
     0
102
RTVSPost2010PropOp33
 70
     0
102
RTVSPost2010Prop34
280
     0
102
RTVSPost2010PropOp34
 70
     0
102
RTVSPost2010Prop35
280
     0
102
RTVSPost2010PropOp35
 70
     0
102
RTVSPost2010Prop36
280
     0
102
RTVSPost2010PropOp36
 70
     0
102
RTVSPost2010Prop37
 90
       50
102
RTVSPost2010PropOp37
 70
     0
102
RTVSPost2010Prop38
140
0.0
102
RTVSPost2010PropOp38
 70
     0
102
RTVSPost2010Prop39
140
1.0
102
RTVSPost2010PropOp39
 70
     0
102
RTVSPost2010Prop40
 90
        0
102
RTVSPost2010PropOp40
 70
     0
102
RTVSPost2010Prop41ColorIndex
 90
       18
102
RTVSPost2010Prop41ColorRGB
 90
        0
102
RTVSPost2010PropOp41
 70
     0
102
RTVSPost2010Prop42
 90
       50
102
RTVSPost2010PropOp42
 70
     0
102
RTVSPost2010Prop43
 90
        3
102
RTVSPost2010PropOp43
 70
     0
102
RTVSPost2010Prop44ColorIndex
 90
        5
102
RTVSPost2010Prop44ColorRGB
 90
      255
102
RTVSPost2010PropOp44
 70
     0
102
RTVSPost2010Prop45
280
     0
102
RTVSPost2010PropOp45
 70
     0
102
RTVSPost2010Prop46
 90
       50
102
RTVSPost2010PropOp46
 70
     0
102
RTVSPost2010Prop47
 90
       50
102
RTVSPost2010PropOp47
 70
     0
102
RTVSPost2010Prop48
 90
       50
102
RTVSPost2010PropOp48
 70
     0
102
RTVSPost2010Prop49
280
     0
102
RTVSPost2010PropOp49
 70
     0
102
RTVSPost2010Prop50
 90
       50
102
RTVSPost2010PropOp50
 70
     0
102
RTVSPost2010Prop51ColorIndex
 90
      256
102
RTVSPost2010Prop51ColorRGB
 90
-16777216
102
RTVSPost2010PropOp51
 70
     0
102
RTVSPost2010Prop52
140
1.0
102
RTVSPost2010PropOp52
 70
     0
102
RTVSPost2010Prop53
 90
        2
102
RTVSPost2010PropOp53
 70
     0
102
RTVSPost2010Prop54
  1
strokes_ogs.tif
102
RTVSPost2010PropOp54
 70
     0
102
RTVSPost2010Prop55
280
     0
102
RTVSPost2010PropOp55
 70
     0
102
RTVSPost2010Prop56
140
1.0
102
RTVSPost2010PropOp56
 70
     0
102
RTVSPost2010Prop57
140
1.0
102
RTVSPost2010PropOp57
 70
     0
  0
XRECORD
  5
118
102
{ACAD_REACTORS
330
117
102
}
330
117
100
AcDbXrecord
280
     1
102
RTVSPost2010Prop28
280
     0
102
RTVSPost2010PropOp28
 70
     1
102
RTVSPost2010Prop29
280
     1
102
RTVSPost2010PropOp29
 70
     1
102
RTVSPost2010Prop30
280
     1
102
RTVSPost2010PropOp30
 70
     1
102
RTVSPost2010Prop31
280
     0
102
RTVSPost2010PropOp31
 70
     1
102
RTVSPost2010Prop32
280
     0
102
RTVSPost2010PropOp32
 70
     1
102
RTVSPost2010Prop33
280
     0
102
RTVSPost2010PropOp33
 70
     1
102
RTVSPost2010Prop34
280
     0
102
RTVSPost2010PropOp34
 70
     1
102
RTVSPost2010Prop35
280
     0
102
RTVSPost2010PropOp35
 70
     1
102
RTVSPost2010Prop36
280
     0
102
RTVSPost2010PropOp36
 70
     1
102
RTVSPost2010Prop37
 90
       50
102
RTVSPost2010PropOp37
 70
     1
102
RTVSPost2010Prop38
140
0.0
102
RTVSPost2010PropOp38
 70
     1
102
RTVSPost2010Prop39
140
1.0
102
RTVSPost2010PropOp39
 70
     1
102
RTVSPost2010Prop40
 90
        0
102
RTVSPost2010PropOp40
 70
     1
102
RTVSPost2010Prop41ColorIndex
 90
       18
102
RTVSPost2010Prop41ColorRGB
 90
        0
102
RTVSPost2010PropOp41
 70
     1
102
RTVSPost2010Prop42
 90
       50
102
RTVSPost2010PropOp42
 70
     1
102
RTVSPost2010Prop43
 90
        3
102
RTVSPost2010PropOp43
 70
     1
102
RTVSPost2010Prop44ColorIndex
 90
        5
102
RTVSPost2010Prop44ColorRGB
 90
      255
102
RTVSPost2010PropOp44
 70
     1
102
RTVSPost2010Prop45
280
     0
102
RTVSPost2010PropOp45
 70
     1
102
RTVSPost2010Prop46
 90
       50
102
RTVSPost2010PropOp46
 70
     1
102
RTVSPost2010Prop47
 90
       50
102
RTVSPost2010PropOp47
 70
     1
102
RTVSPost2010Prop48
 90
       50
102
RTVSPost2010PropOp48
 70
     1
102
RTVSPost2010Prop49
280
     0
102
RTVSPost2010PropOp49
 70
     1
102
RTVSPost2010Prop50
 90
       50
102
RTVSPost2010PropOp50
 70
     1
102
RTVSPost2010Prop51ColorIndex
 90
      256
102
RTVSPost2010Prop51ColorRGB
 90
-16777216
102
RTVSPost2010PropOp51
 70
     0
102
RTVSPost2010Prop52
140
1.0
102
RTVSPost2010PropOp52
 70
     0
102
RTVSPost2010Prop53
 90
        2
102
RTVSPost2010PropOp53
 70
     1
102
RTVSPost2010Prop54
  1
strokes_ogs.tif
102
RTVSPost2010PropOp54
 70
     1
102
RTVSPost2010Prop55
280
     0
102
RTVSPost2010PropOp55
 70
     1
102
RTVSPost2010Prop56
140
1.0
102
RTVSPost2010PropOp56
 70
     1
102
RTVSPost2010Prop57
140
1.0
102
RTVSPost2010PropOp57
 70
     1
  0
XRECORD
  5
12A
102
{ACAD_REACTORS
330
129
102
}
330
129
100
AcDbXrecord
280
     1
102
RTVSPost2010Prop28
280
     0
102
RTVSPost2010PropOp28
 70
     0
102
RTVSPost2010Prop29
280
     1
102
RTVSPost2010PropOp29
 70
     0
102
RTVSPost2010Prop30
280
     1
102
RTVSPost2010PropOp30
 70
     0
102
RTVSPost2010Prop31
280
     0
102
RTVSPost2010PropOp31
 70
     0
102
RTVSPost2010Prop32
280
     0
102
RTVSPost2010PropOp32
 70
     0
102
RTVSPost2010Prop33
280
     0
102
RTVSPost2010PropOp33
 70
     0
102
RTVSPost2010Prop34
280
     0
102
RTVSPost2010PropOp34
 70
     0
102
RTVSPost2010Prop35
280
     0
102
RTVSPost2010PropOp35
 70
     0
102
RTVSPost2010Prop36
280
     0
102
RTVSPost2010PropOp36
 70
     0
102
RTVSPost2010Prop37
 90
       50
102
RTVSPost2010PropOp37
 70
     0
102
RTVSPost2010Prop38
140
0.0
102
RTVSPost2010PropOp38
 70
     0
102
RTVSPost2010Prop39
140
1.0
102
RTVSPost2010PropOp39
 70
     0
102
RTVSPost2010Prop40
 90
        0
102
RTVSPost2010PropOp40
 70
     0
102
RTVSPost2010Prop41ColorIndex
 90
       18
102
RTVSPost2010Prop41ColorRGB
 90
        0
102
RTVSPost2010PropOp41
 70
     0
102
RTVSPost2010Prop42
 90
       50
102
RTVSPost2010PropOp42
 70
     0
102
RTVSPost2010Prop43
 90
        3
102
RTVSPost2010PropOp43
 70
     0
102
RTVSPost2010Prop44ColorIndex
 90
        5
102
RTVSPost2010Prop44ColorRGB
 90
      255
102
RTVSPost2010PropOp44
 70
     0
102
RTVSPost2010Prop45
280
     0
102
RTVSPost2010PropOp45
 70
     0
102
RTVSPost2010Prop46
 90
       50
102
RTVSPost2010PropOp46
 70
     0
102
RTVSPost2010Prop47
 90
       50
102
RTVSPost2010PropOp47
 70
     0
102
RTVSPost2010Prop48
 90
       50
102
RTVSPost2010PropOp48
 70
     0
102
RTVSPost2010Prop49
280
     0
102
RTVSPost2010PropOp49
 70
     0
102
RTVSPost2010Prop50
 90
       50
102
RTVSPost2010PropOp50
 70
     0
102
RTVSPost2010Prop51ColorIndex
 90
      256
102
RTVSPost2010Prop51ColorRGB
 90
-16777216
102
RTVSPost2010PropOp51
 70
     0
102
RTVSPost2010Prop52
140
1.0
102
RTVSPost2010PropOp52
 70
     0
102
RTVSPost2010Prop53
 90
        2
102
RTVSPost2010PropOp53
 70
     0
102
RTVSPost2010Prop54
  1
strokes_ogs.tif
102
RTVSPost2010PropOp54
 70
     0
102
RTVSPost2010Prop55
280
     0
102
RTVSPost2010PropOp55
 70
     0
102
RTVSPost2010Prop56
140
1.0
102
RTVSPost2010PropOp56
 70
     0
102
RTVSPost2010Prop57
140
1.0
102
RTVSPost2010PropOp57
 70
     0
  0
XRECORD
  5
110
102
{ACAD_REACTORS
330
10F
102
}
330
10F
100
AcDbXrecord
280
     1
102
RTVSPost2010Prop28
280
     0
102
RTVSPost2010PropOp28
 70
     1
102
RTVSPost2010Prop29
280
     1
102
RTVSPost2010PropOp29
 70
     1
102
RTVSPost2010Prop30
280
     1
102
RTVSPost2010PropOp30
 70
     1
102
RTVSPost2010Prop31
280
     0
102
RTVSPost2010PropOp31
 70
     1
102
RTVSPost2010Prop32
280
     0
102
RTVSPost2010PropOp32
 70
     1
102
RTVSPost2010Prop33
280
     0
102
RTVSPost2010PropOp33
 70
     1
102
RTVSPost2010Prop34
280
     0
102
RTVSPost2010PropOp34
 70
     1
102
RTVSPost2010Prop35
280
     0
102
RTVSPost2010PropOp35
 70
     1
102
RTVSPost2010Prop36
280
     0
102
RTVSPost2010PropOp36
 70
     1
102
RTVSPost2010Prop37
 90
       50
102
RTVSPost2010PropOp37
 70
     1
102
RTVSPost2010Prop38
140
0.0
102
RTVSPost2010PropOp38
 70
     1
102
RTVSPost2010Prop39
140
1.0
102
RTVSPost2010PropOp39
 70
     1
102
RTVSPost2010Prop40
 90
        0
102
RTVSPost2010PropOp40
 70
     1
102
RTVSPost2010Prop41ColorIndex
 90
       18
102
RTVSPost2010Prop41ColorRGB
 90
        0
102
RTVSPost2010PropOp41
 70
     1
102
RTVSPost2010Prop42
 90
       50
102
RTVSPost2010PropOp42
 70
     1
102
RTVSPost2010Prop43
 90
        3
102
RTVSPost2010PropOp43
 70
     1
102
RTVSPost2010Prop44ColorIndex
 90
        5
102
RTVSPost2010Prop44ColorRGB
 90
      255
102
RTVSPost2010PropOp44
 70
     1
102
RTVSPost2010Prop45
280
     0
102
RTVSPost2010PropOp45
 70
     1
102
RTVSPost2010Prop46
 90
       50
102
RTVSPost2010PropOp46
 70
     1
102
RTVSPost2010Prop47
 90
       50
102
RTVSPost2010PropOp47
 70
     1
102
RTVSPost2010Prop48
 90
       50
102
RTVSPost2010PropOp48
 70
     1
102
RTVSPost2010Prop49
280
     0
102
RTVSPost2010PropOp49
 70
     1
102
RTVSPost2010Prop50
 90
       50
102
RTVSPost2010PropOp50
 70
     1
102
RTVSPost2010Prop51ColorIndex
 90
      256
102
RTVSPost2010Prop51ColorRGB
 90
-16777216
102
RTVSPost2010PropOp51
 70
     0
102
RTVSPost2010Prop52
140
1.0
102
RTVSPost2010PropOp52
 70
     0
102
RTVSPost2010Prop53
 90
        2
102
RTVSPost2010PropOp53
 70
     1
102
RTVSPost2010Prop54
  1
strokes_ogs.tif
102
RTVSPost2010PropOp54
 70
     1
102
RTVSPost2010Prop55
280
     0
102
RTVSPost2010PropOp55
 70
     1
102
RTVSPost2010Prop56
140
1.0
102
RTVSPost2010PropOp56
 70
     1
102
RTVSPost2010Prop57
140
1.0
102
RTVSPost2010PropOp57
 70
     1
  0
XRECORD
  5
126
102
{ACAD_REACTORS
330
125
102
}
330
125
100
AcDbXrecord
280
     1
102
RTVSPost2010Prop28
280
     0
102
RTVSPost2010PropOp28
 70
     1
102
RTVSPost2010Prop29
280
     1
102
RTVSPost2010PropOp29
 70
     1
102
RTVSPost2010Prop30
280
     1
102
RTVSPost2010PropOp30
 70
     1
102
RTVSPost2010Prop31
280
     0
102
RTVSPost2010PropOp31
 70
     1
102
RTVSPost2010Prop32
280
     0
102
RTVSPost2010PropOp32
 70
     1
102
RTVSPost2010Prop33
280
     0
102
RTVSPost2010PropOp33
 70
     1
102
RTVSPost2010Prop34
280
     0
102
RTVSPost2010PropOp34
 70
     1
102
RTVSPost2010Prop35
280
     0
102
RTVSPost2010PropOp35
 70
     1
102
RTVSPost2010Prop36
280
     0
102
RTVSPost2010PropOp36
 70
     1
102
RTVSPost2010Prop37
 90
       50
102
RTVSPost2010PropOp37
 70
     1
102
RTVSPost2010Prop38
140
0.0
102
RTVSPost2010PropOp38
 70
     1
102
RTVSPost2010Prop39
140
1.0
102
RTVSPost2010PropOp39
 70
     1
102
RTVSPost2010Prop40
 90
        0
102
RTVSPost2010PropOp40
 70
     1
102
RTVSPost2010Prop41ColorIndex
 90
       18
102
RTVSPost2010Prop41ColorRGB
 90
        0
102
RTVSPost2010PropOp41
 70
     1
102
RTVSPost2010Prop42
 90
       50
102
RTVSPost2010PropOp42
 70
     1
102
RTVSPost2010Prop43
 90
        3
102
RTVSPost2010PropOp43
 70
     1
102
RTVSPost2010Prop44ColorIndex
 90
        5
102
RTVSPost2010Prop44ColorRGB
 90
      255
102
RTVSPost2010PropOp44
 70
     1
102
RTVSPost2010Prop45
280
     0
102
RTVSPost2010PropOp45
 70
     1
102
RTVSPost2010Prop46
 90
       50
102
RTVSPost2010PropOp46
 70
     1
102
RTVSPost2010Prop47
 90
       50
102
RTVSPost2010PropOp47
 70
     1
102
RTVSPost2010Prop48
 90
       50
102
RTVSPost2010PropOp48
 70
     1
102
RTVSPost2010Prop49
280
     0
102
RTVSPost2010PropOp49
 70
     1
102
RTVSPost2010Prop50
 90
       50
102
RTVSPost2010PropOp50
 70
     1
102
RTVSPost2010Prop51ColorIndex
 90
      256
102
RTVSPost2010Prop51ColorRGB
 90
-16777216
102
RTVSPost2010PropOp51
 70
     0
102
RTVSPost2010Prop52
140
1.0
102
RTVSPost2010PropOp52
 70
     0
102
RTVSPost2010Prop53
 90
        2
102
RTVSPost2010PropOp53
 70
     1
102
RTVSPost2010Prop54
  1
strokes_ogs.tif
102
RTVSPost2010PropOp54
 70
     1
102
RTVSPost2010Prop55
280
     0
102
RTVSPost2010PropOp55
 70
     1
102
RTVSPost2010Prop56
140
1.0
102
RTVSPost2010PropOp56
 70
     1
102
RTVSPost2010Prop57
140
1.0
102
RTVSPost2010PropOp57
 70
     1
  0
XRECORD
  5
124
102
{ACAD_REACTORS
330
123
102
}
330
123
100
AcDbXrecord
280
     1
102
RTVSPost2010Prop28
280
     0
102
RTVSPost2010PropOp28
 70
     1
102
RTVSPost2010Prop29
280
     1
102
RTVSPost2010PropOp29
 70
     1
102
RTVSPost2010Prop30
280
     1
102
RTVSPost2010PropOp30
 70
     1
102
RTVSPost2010Prop31
280
     0
102
RTVSPost2010PropOp31
 70
     1
102
RTVSPost2010Prop32
280
     0
102
RTVSPost2010PropOp32
 70
     1
102
RTVSPost2010Prop33
280
     0
102
RTVSPost2010PropOp33
 70
     1
102
RTVSPost2010Prop34
280
     0
102
RTVSPost2010PropOp34
 70
     1
102
RTVSPost2010Prop35
280
     0
102
RTVSPost2010PropOp35
 70
     1
102
RTVSPost2010Prop36
280
     0
102
RTVSPost2010PropOp36
 70
     1
102
RTVSPost2010Prop37
 90
       50
102
RTVSPost2010PropOp37
 70
     1
102
RTVSPost2010Prop38
140
0.0
102
RTVSPost2010PropOp38
 70
     1
102
RTVSPost2010Prop39
140
1.0
102
RTVSPost2010PropOp39
 70
     1
102
RTVSPost2010Prop40
 90
        0
102
RTVSPost2010PropOp40
 70
     1
102
RTVSPost2010Prop41ColorIndex
 90
       18
102
RTVSPost2010Prop41ColorRGB
 90
        0
102
RTVSPost2010PropOp41
 70
     1
102
RTVSPost2010Prop42
 90
       50
102
RTVSPost2010PropOp42
 70
     1
102
RTVSPost2010Prop43
 90
        3
102
RTVSPost2010PropOp43
 70
     1
102
RTVSPost2010Prop44ColorIndex
 90
        5
102
RTVSPost2010Prop44ColorRGB
 90
      255
102
RTVSPost2010PropOp44
 70
     1
102
RTVSPost2010Prop45
280
     0
102
RTVSPost2010PropOp45
 70
     1
102
RTVSPost2010Prop46
 90
       50
102
RTVSPost2010PropOp46
 70
     1
102
RTVSPost2010Prop47
 90
       50
102
RTVSPost2010PropOp47
 70
     1
102
RTVSPost2010Prop48
 90
       50
102
RTVSPost2010PropOp48
 70
     1
102
RTVSPost2010Prop49
280
     0
102
RTVSPost2010PropOp49
 70
     1
102
RTVSPost2010Prop50
 90
       50
102
RTVSPost2010PropOp50
 70
     1
102
RTVSPost2010Prop51ColorIndex
 90
      256
102
RTVSPost2010Prop51ColorRGB
 90
-16777216
102
RTVSPost2010PropOp51
 70
     0
102
RTVSPost2010Prop52
140
1.0
102
RTVSPost2010PropOp52
 70
     0
102
RTVSPost2010Prop53
 90
        2
102
RTVSPost2010PropOp53
 70
     1
102
RTVSPost2010Prop54
  1
strokes_ogs.tif
102
RTVSPost2010PropOp54
 70
     1
102
RTVSPost2010Prop55
280
     0
102
RTVSPost2010PropOp55
 70
     1
102
RTVSPost2010Prop56
140
1.0
102
RTVSPost2010PropOp56
 70
     1
102
RTVSPost2010Prop57
140
1.0
102
RTVSPost2010PropOp57
 70
     1
  0
XRECORD
  5
11E
102
{ACAD_REACTORS
330
11D
102
}
330
11D
100
AcDbXrecord
280
     1
102
RTVSPost2010Prop28
280
     0
102
RTVSPost2010PropOp28
 70
     1
102
RTVSPost2010Prop29
280
     1
102
RTVSPost2010PropOp29
 70
     1
102
RTVSPost2010Prop30
280
     1
102
RTVSPost2010PropOp30
 70
     1
102
RTVSPost2010Prop31
280
     0
102
RTVSPost2010PropOp31
 70
     1
102
RTVSPost2010Prop32
280
     0
102
RTVSPost2010PropOp32
 70
     1
102
RTVSPost2010Prop33
280
     0
102
RTVSPost2010PropOp33
 70
     1
102
RTVSPost2010Prop34
280
     0
102
RTVSPost2010PropOp34
 70
     1
102
RTVSPost2010Prop35
280
     0
102
RTVSPost2010PropOp35
 70
     1
102
RTVSPost2010Prop36
280
     0
102
RTVSPost2010PropOp36
 70
     1
102
RTVSPost2010Prop37
 90
       50
102
RTVSPost2010PropOp37
 70
     1
102
RTVSPost2010Prop38
140
0.0
102
RTVSPost2010PropOp38
 70
     1
102
RTVSPost2010Prop39
140
1.0
102
RTVSPost2010PropOp39
 70
     1
102
RTVSPost2010Prop40
 90
        0
102
RTVSPost2010PropOp40
 70
     1
102
RTVSPost2010Prop41ColorIndex
 90
       18
102
RTVSPost2010Prop41ColorRGB
 90
        0
102
RTVSPost2010PropOp41
 70
     1
102
RTVSPost2010Prop42
 90
       50
102
RTVSPost2010PropOp42
 70
     1
102
RTVSPost2010Prop43
 90
        3
102
RTVSPost2010PropOp43
 70
     1
102
RTVSPost2010Prop44ColorIndex
 90
        5
102
RTVSPost2010Prop44ColorRGB
 90
      255
102
RTVSPost2010PropOp44
 70
     1
102
RTVSPost2010Prop45
280
     0
102
RTVSPost2010PropOp45
 70
     1
102
RTVSPost2010Prop46
 90
       50
102
RTVSPost2010PropOp46
 70
     1
102
RTVSPost2010Prop47
 90
       50
102
RTVSPost2010PropOp47
 70
     1
102
RTVSPost2010Prop48
 90
       50
102
RTVSPost2010PropOp48
 70
     1
102
RTVSPost2010Prop49
280
     0
102
RTVSPost2010PropOp49
 70
     1
102
RTVSPost2010Prop50
 90
       50
102
RTVSPost2010PropOp50
 70
     1
102
RTVSPost2010Prop51ColorIndex
 90
      256
102
RTVSPost2010Prop51ColorRGB
 90
-16777216
102
RTVSPost2010PropOp51
 70
     0
102
RTVSPost2010Prop52
140
1.0
102
RTVSPost2010PropOp52
 70
     0
102
RTVSPost2010Prop53
 90
        2
102
RTVSPost2010PropOp53
 70
     1
102
RTVSPost2010Prop54
  1
strokes_ogs.tif
102
RTVSPost2010PropOp54
 70
     1
102
RTVSPost2010Prop55
280
     0
102
RTVSPost2010PropOp55
 70
     1
102
RTVSPost2010Prop56
140
1.0
102
RTVSPost2010PropOp56
 70
     1
102
RTVSPost2010Prop57
140
1.0
102
RTVSPost2010PropOp57
 70
     1
  0
XRECORD
  5
120
102
{ACAD_REACTORS
330
11F
102
}
330
11F
100
AcDbXrecord
280
     1
102
RTVSPost2010Prop28
280
     0
102
RTVSPost2010PropOp28
 70
     1
102
RTVSPost2010Prop29
280
     1
102
RTVSPost2010PropOp29
 70
     1
102
RTVSPost2010Prop30
280
     1
102
RTVSPost2010PropOp30
 70
     1
102
RTVSPost2010Prop31
280
     0
102
RTVSPost2010PropOp31
 70
     1
102
RTVSPost2010Prop32
280
     0
102
RTVSPost2010PropOp32
 70
     1
102
RTVSPost2010Prop33
280
     0
102
RTVSPost2010PropOp33
 70
     1
102
RTVSPost2010Prop34
280
     0
102
RTVSPost2010PropOp34
 70
     1
102
RTVSPost2010Prop35
280
     0
102
RTVSPost2010PropOp35
 70
     1
102
RTVSPost2010Prop36
280
     0
102
RTVSPost2010PropOp36
 70
     1
102
RTVSPost2010Prop37
 90
       50
102
RTVSPost2010PropOp37
 70
     1
102
RTVSPost2010Prop38
140
0.0
102
RTVSPost2010PropOp38
 70
     1
102
RTVSPost2010Prop39
140
1.0
102
RTVSPost2010PropOp39
 70
     1
102
RTVSPost2010Prop40
 90
        0
102
RTVSPost2010PropOp40
 70
     1
102
RTVSPost2010Prop41ColorIndex
 90
       18
102
RTVSPost2010Prop41ColorRGB
 90
        0
102
RTVSPost2010PropOp41
 70
     1
102
RTVSPost2010Prop42
 90
       50
102
RTVSPost2010PropOp42
 70
     1
102
RTVSPost2010Prop43
 90
        3
102
RTVSPost2010PropOp43
 70
     1
102
RTVSPost2010Prop44ColorIndex
 90
        5
102
RTVSPost2010Prop44ColorRGB
 90
      255
102
RTVSPost2010PropOp44
 70
     1
102
RTVSPost2010Prop45
280
     0
102
RTVSPost2010PropOp45
 70
     1
102
RTVSPost2010Prop46
 90
       50
102
RTVSPost2010PropOp46
 70
     1
102
RTVSPost2010Prop47
 90
       50
102
RTVSPost2010PropOp47
 70
     1
102
RTVSPost2010Prop48
 90
       50
102
RTVSPost2010PropOp48
 70
     1
102
RTVSPost2010Prop49
280
     0
102
RTVSPost2010PropOp49
 70
     1
102
RTVSPost2010Prop50
 90
       50
102
RTVSPost2010PropOp50
 70
     1
102
RTVSPost2010Prop51ColorIndex
 90
      256
102
RTVSPost2010Prop51ColorRGB
 90
-16777216
102
RTVSPost2010PropOp51
 70
     0
102
RTVSPost2010Prop52
140
1.0
102
RTVSPost2010PropOp52
 70
     0
102
RTVSPost2010Prop53
 90
        2
102
RTVSPost2010PropOp53
 70
     1
102
RTVSPost2010Prop54
  1
strokes_ogs.tif
102
RTVSPost2010PropOp54
 70
     1
102
RTVSPost2010Prop55
280
     0
102
RTVSPost2010PropOp55
 70
     1
102
RTVSPost2010Prop56
140
1.0
102
RTVSPost2010PropOp56
 70
     1
102
RTVSPost2010Prop57
140
1.0
102
RTVSPost2010PropOp57
 70
     1
  0
XRECORD
  5
116
102
{ACAD_REACTORS
330
115
102
}
330
115
100
AcDbXrecord
280
     1
102
RTVSPost2010Prop28
280
     0
102
RTVSPost2010PropOp28
 70
     1
102
RTVSPost2010Prop29
280
     1
102
RTVSPost2010PropOp29
 70
     1
102
RTVSPost2010Prop30
280
     1
102
RTVSPost2010PropOp30
 70
     1
102
RTVSPost2010Prop31
280
     0
102
RTVSPost2010PropOp31
 70
     1
102
RTVSPost2010Prop32
280
     0
102
RTVSPost2010PropOp32
 70
     1
102
RTVSPost2010Prop33
280
     0
102
RTVSPost2010PropOp33
 70
     1
102
RTVSPost2010Prop34
280
     0
102
RTVSPost2010PropOp34
 70
     1
102
RTVSPost2010Prop35
280
     0
102
RTVSPost2010PropOp35
 70
     1
102
RTVSPost2010Prop36
280
     0
102
RTVSPost2010PropOp36
 70
     1
102
RTVSPost2010Prop37
 90
       50
102
RTVSPost2010PropOp37
 70
     1
102
RTVSPost2010Prop38
140
0.0
102
RTVSPost2010PropOp38
 70
     1
102
RTVSPost2010Prop39
140
1.0
102
RTVSPost2010PropOp39
 70
     1
102
RTVSPost2010Prop40
 90
        0
102
RTVSPost2010PropOp40
 70
     1
102
RTVSPost2010Prop41ColorIndex
 90
       18
102
RTVSPost2010Prop41ColorRGB
 90
        0
102
RTVSPost2010PropOp41
 70
     1
102
RTVSPost2010Prop42
 90
       50
102
RTVSPost2010PropOp42
 70
     1
102
RTVSPost2010Prop43
 90
        3
102
RTVSPost2010PropOp43
 70
     1
102
RTVSPost2010Prop44ColorIndex
 90
        5
102
RTVSPost2010Prop44ColorRGB
 90
      255
102
RTVSPost2010PropOp44
 70
     1
102
RTVSPost2010Prop45
280
     0
102
RTVSPost2010PropOp45
 70
     1
102
RTVSPost2010Prop46
 90
       50
102
RTVSPost2010PropOp46
 70
     1
102
RTVSPost2010Prop47
 90
       50
102
RTVSPost2010PropOp47
 70
     1
102
RTVSPost2010Prop48
 90
       50
102
RTVSPost2010PropOp48
 70
     1
102
RTVSPost2010Prop49
280
     0
102
RTVSPost2010PropOp49
 70
     1
102
RTVSPost2010Prop50
 90
       50
102
RTVSPost2010PropOp50
 70
     1
102
RTVSPost2010Prop51ColorIndex
 90
      256
102
RTVSPost2010Prop51ColorRGB
 90
-16777216
102
RTVSPost2010PropOp51
 70
     0
102
RTVSPost2010Prop52
140
1.0
102
RTVSPost2010PropOp52
 70
     0
102
RTVSPost2010Prop53
 90
        2
102
RTVSPost2010PropOp53
 70
     1
102
RTVSPost2010Prop54
  1
strokes_ogs.tif
102
RTVSPost2010PropOp54
 70
     1
102
RTVSPost2010Prop55
280
     0
102
RTVSPost2010PropOp55
 70
     1
102
RTVSPost2010Prop56
140
1.0
102
RTVSPost2010PropOp56
 70
     1
102
RTVSPost2010Prop57
140
1.0
102
RTVSPost2010PropOp57
 70
     1
  0
XRECORD
  5
10A
102
{ACAD_REACTORS
330
109
102
}
330
109
100
AcDbXrecord
280
     1
102
RTVSPost2010Prop28
280
     0
102
RTVSPost2010PropOp28
 70
     1
102
RTVSPost2010Prop29
280
     1
102
RTVSPost2010PropOp29
 70
     1
102
RTVSPost2010Prop30
280
     1
102
RTVSPost2010PropOp30
 70
     1
102
RTVSPost2010Prop31
280
     0
102
RTVSPost2010PropOp31
 70
     1
102
RTVSPost2010Prop32
280
     0
102
RTVSPost2010PropOp32
 70
     1
102
RTVSPost2010Prop33
280
     0
102
RTVSPost2010PropOp33
 70
     1
102
RTVSPost2010Prop34
280
     0
102
RTVSPost2010PropOp34
 70
     1
102
RTVSPost2010Prop35
280
     0
102
RTVSPost2010PropOp35
 70
     1
102
RTVSPost2010Prop36
280
     0
102
RTVSPost2010PropOp36
 70
     1
102
RTVSPost2010Prop37
 90
       50
102
RTVSPost2010PropOp37
 70
     1
102
RTVSPost2010Prop38
140
0.0
102
RTVSPost2010PropOp38
 70
     1
102
RTVSPost2010Prop39
140
1.0
102
RTVSPost2010PropOp39
 70
     1
102
RTVSPost2010Prop40
 90
        0
102
RTVSPost2010PropOp40
 70
     1
102
RTVSPost2010Prop41ColorIndex
 90
       18
102
RTVSPost2010Prop41ColorRGB
 90
        0
102
RTVSPost2010PropOp41
 70
     1
102
RTVSPost2010Prop42
 90
       50
102
RTVSPost2010PropOp42
 70
     1
102
RTVSPost2010Prop43
 90
        3
102
RTVSPost2010PropOp43
 70
     1
102
RTVSPost2010Prop44ColorIndex
 90
        5
102
RTVSPost2010Prop44ColorRGB
 90
      255
102
RTVSPost2010PropOp44
 70
     1
102
RTVSPost2010Prop45
280
     0
102
RTVSPost2010PropOp45
 70
     1
102
RTVSPost2010Prop46
 90
       50
102
RTVSPost2010PropOp46
 70
     1
102
RTVSPost2010Prop47
 90
       50
102
RTVSPost2010PropOp47
 70
     1
102
RTVSPost2010Prop48
 90
       50
102
RTVSPost2010PropOp48
 70
     1
102
RTVSPost2010Prop49
280
     0
102
RTVSPost2010PropOp49
 70
     1
102
RTVSPost2010Prop50
 90
       50
102
RTVSPost2010PropOp50
 70
     1
102
RTVSPost2010Prop51ColorIndex
 90
      256
102
RTVSPost2010Prop51ColorRGB
 90
-16777216
102
RTVSPost2010PropOp51
 70
     0
102
RTVSPost2010Prop52
140
1.0
102
RTVSPost2010PropOp52
 70
     0
102
RTVSPost2010Prop53
 90
        2
102
RTVSPost2010PropOp53
 70
     1
102
RTVSPost2010Prop54
  1
strokes_ogs.tif
102
RTVSPost2010PropOp54
 70
     1
102
RTVSPost2010Prop55
280
     0
102
RTVSPost2010PropOp55
 70
     1
102
RTVSPost2010Prop56
140
1.0
102
RTVSPost2010PropOp56
 70
     1
102
RTVSPost2010Prop57
140
1.0
102
RTVSPost2010PropOp57
 70
     1
  0
XRECORD
  5
122
102
{ACAD_REACTORS
330
121
102
}
330
121
100
AcDbXrecord
280
     1
102
RTVSPost2010Prop28
280
     0
102
RTVSPost2010PropOp28
 70
     1
102
RTVSPost2010Prop29
280
     1
102
RTVSPost2010PropOp29
 70
     1
102
RTVSPost2010Prop30
280
     1
102
RTVSPost2010PropOp30
 70
     1
102
RTVSPost2010Prop31
280
     0
102
RTVSPost2010PropOp31
 70
     1
102
RTVSPost2010Prop32
280
     0
102
RTVSPost2010PropOp32
 70
     1
102
RTVSPost2010Prop33
280
     0
102
RTVSPost2010PropOp33
 70
     1
102
RTVSPost2010Prop34
280
     0
102
RTVSPost2010PropOp34
 70
     1
102
RTVSPost2010Prop35
280
     0
102
RTVSPost2010PropOp35
 70
     1
102
RTVSPost2010Prop36
280
     0
102
RTVSPost2010PropOp36
 70
     1
102
RTVSPost2010Prop37
 90
       50
102
RTVSPost2010PropOp37
 70
     1
102
RTVSPost2010Prop38
140
0.0
102
RTVSPost2010PropOp38
 70
     1
102
RTVSPost2010Prop39
140
1.0
102
RTVSPost2010PropOp39
 70
     1
102
RTVSPost2010Prop40
 90
        0
102
RTVSPost2010PropOp40
 70
     1
102
RTVSPost2010Prop41ColorIndex
 90
       18
102
RTVSPost2010Prop41ColorRGB
 90
        0
102
RTVSPost2010PropOp41
 70
     1
102
RTVSPost2010Prop42
 90
       50
102
RTVSPost2010PropOp42
 70
     1
102
RTVSPost2010Prop43
 90
        3
102
RTVSPost2010PropOp43
 70
     1
102
RTVSPost2010Prop44ColorIndex
 90
        5
102
RTVSPost2010Prop44ColorRGB
 90
      255
102
RTVSPost2010PropOp44
 70
     1
102
RTVSPost2010Prop45
280
     0
102
RTVSPost2010PropOp45
 70
     1
102
RTVSPost2010Prop46
 90
       50
102
RTVSPost2010PropOp46
 70
     1
102
RTVSPost2010Prop47
 90
       50
102
RTVSPost2010PropOp47
 70
     1
102
RTVSPost2010Prop48
 90
       50
102
RTVSPost2010PropOp48
 70
     1
102
RTVSPost2010Prop49
280
     0
102
RTVSPost2010PropOp49
 70
     1
102
RTVSPost2010Prop50
 90
       50
102
RTVSPost2010PropOp50
 70
     1
102
RTVSPost2010Prop51ColorIndex
 90
      256
102
RTVSPost2010Prop51ColorRGB
 90
-16777216
102
RTVSPost2010PropOp51
 70
     0
102
RTVSPost2010Prop52
140
1.0
102
RTVSPost2010PropOp52
 70
     0
102
RTVSPost2010Prop53
 90
        2
102
RTVSPost2010PropOp53
 70
     1
102
RTVSPost2010Prop54
  1
strokes_ogs.tif
102
RTVSPost2010PropOp54
 70
     1
102
RTVSPost2010Prop55
280
     0
102
RTVSPost2010PropOp55
 70
     1
102
RTVSPost2010Prop56
140
1.0
102
RTVSPost2010PropOp56
 70
     1
102
RTVSPost2010Prop57
140
1.0
102
RTVSPost2010PropOp57
 70
     1
  0
ENDSEC
  0
EOF
