  0
SECTION
  2
HEADER
  9
$ACADVER
  1
AC1024
  9
$ACADMAINTVER
 70
     6
  9
$DWGCODEPAGE
  3
UNDEFINED
  9
$INSBASE
 10
0.0
 20
0.0
 30
0.0
  9
$EXTMIN
 10
1.000000000000000E+20
 20
1.000000000000000E+20
 30
1.000000000000000E+20
  9
$EXTMAX
 10
-1.000000000000000E+20
 20
-1.000000000000000E+20
 30
-1.000000000000000E+20
  9
$LIMMIN
 10
0.0
 20
0.0
  9
$LIMMAX
 10
12.0
 20
9.0
  9
$ORTHOMODE
 70
     0
  9
$REGENMODE
 70
     1
  9
$FILLMODE
 70
     1
  9
$QTEXTMODE
 70
     0
  9
$MIRRTEXT
 70
     1
  9
$LTSCALE
 40
1.0
  9
$ATTMODE
 70
     1
  9
$TEXTSIZE
 40
0.2
  9
$TRACEWID
 40
0.05
  9
$TEXTSTYLE
  7
Standard
  9
$CLAYER
  8
0
  9
$CELTYPE
  6
ByLayer
  9
$CECOLOR
 62
   256
  9
$CELTSCALE
 40
1.0
  9
$DISPSILH
 70
     0
  9
$DIMSCALE
 40
1.0
  9
$DIMASZ
 40
0.18
  9
$DIMEXO
 40
0.0625
  9
$DIMDLI
 40
0.38
  9
$DIMRND
 40
0.0
  9
$DIMDLE
 40
0.0
  9
$DIMEXE
 40
0.18
  9
$DIMTP
 40
0.0
  9
$DIMTM
 40
0.0
  9
$DIMTXT
 40
0.18
  9
$DIMCEN
 40
0.09
  9
$DIMTSZ
 40
0.0
  9
$DIMTOL
 70
     0
  9
$DIMLIM
 70
     0
  9
$DIMTIH
 70
     1
  9
$DIMTOH
 70
     1
  9
$DIMSE1
 70
     0
  9
$DIMSE2
 70
     0
  9
$DIMTAD
 70
     0
  9
$DIMZIN
 70
     0
  9
$DIMBLK
  1

  9
$DIMASO
 70
     1
  9
$DIMSHO
 70
     1
  9
$DIMPOST
  1

  9
$DIMAPOST
  1

  9
$DIMALT
 70
     0
  9
$DIMALTD
 70
     2
  9
$DIMALTF
 40
25.4
  9
$DIMLFAC
 40
1.0
  9
$DIMTOFL
 70
     0
  9
$DIMTVP
 40
0.0
  9
$DIMTIX
 70
     0
  9
$DIMSOXD
 70
     0
  9
$DIMSAH
 70
     0
  9
$DIMBLK1
  1

  9
$DIMBLK2
  1

  9
$DIMSTYLE
  2
Standard
  9
$DIMCLRD
 70
     0
  9
$DIMCLRE
 70
     0
  9
$DIMCLRT
 70
     0
  9
$DIMTFAC
 40
1.0
  9
$DIMGAP
 40
0.09
  9
$DIMJUST
 70
     0
  9
$DIMSD1
 70
     0
  9
$DIMSD2
 70
     0
  9
$DIMTOLJ
 70
     1
  9
$DIMTZIN
 70
     0
  9
$DIMALTZ
 70
     0
  9
$DIMALTTZ
 70
     0
  9
$DIMUPT
 70
     0
  9
$DIMDEC
 70
     4
  9
$DIMTDEC
 70
     4
  9
$DIMALTU
 70
     2
  9
$DIMALTTD
 70
     2
  9
$DIMTXSTY
  7
Standard
  9
$DIMAUNIT
 70
     0
  9
$DIMADEC
 70
     0
  9
$DIMALTRND
 40
0.0
  9
$DIMAZIN
 70
     0
  9
$DIMDSEP
 70
    46
  9
$DIMATFIT
 70
     3
  9
$DIMFRAC
 70
     0
  9
$DIMLDRBLK
  1

  9
$DIMLUNIT
 70
     2
  9
$DIMLWD
 70
    -2
  9
$DIMLWE
 70
    -2
  9
$DIMTMOVE
 70
     0
  9
$DIMFXL
 40
1.0
  9
$DIMFXLON
 70
     0
  9
$DIMJOGANG
 40
0.7853981633974483
  9
$DIMTFILL
 70
     0
  9
$DIMTFILLCLR
 70
     0
  9
$DIMARCSYM
 70
     0
  9
$DIMLTYPE
  6

  9
$DIMLTEX1
  6

  9
$DIMLTEX2
  6

  9
$DIMTXTDIRECTION
 70
     0
  9
$LUNITS
 70
     2
  9
$LUPREC
 70
     4
  9
$SKETCHINC
 40
0.1
  9
$FILLETRAD
 40
0.5
  9
$AUNITS
 70
     0
  9
$AUPREC
 70
     0
  9
$MENU
  1
.
  9
$ELEVATION
 40
0.0
  9
$PELEVATION
 40
0.0
  9
$THICKNESS
 40
0.0
  9
$LIMCHECK
 70
     0
  9
$CHAMFERA
 40
0.5
  9
$CHAMFERB
 40
0.5
  9
$CHAMFERC
 40
1.0
  9
$CHAMFERD
 40
0.0
  9
$SKPOLY
 70
     0
  9
$TDCREATE
 40
2457917.591967581
  9
$TDUCREATE
 40
2457917.216967592
  9
$TDUPDATE
 40
2457917.591967581
  9
$TDUUPDATE
 40
2457917.216967592
  9
$TDINDWG
 40
0.0000000116
  9
$TDUSRTIMER
 40
0.0000000116
  9
$USRTIMER
 70
     1
  9
$ANGBASE
 50
0.0
  9
$ANGDIR
 70
     0
  9
$PDMODE
 70
     0
  9
$PDSIZE
 40
0.0
  9
$PLINEWID
 40
0.0
  9
$SPLFRAME
 70
     0
  9
$SPLINETYPE
 70
     6
  9
$SPLINESEGS
 70
     8
  9
$HANDSEED
  5
C0
  9
$SURFTAB1
 70
     6
  9
$SURFTAB2
 70
     6
  9
$SURFTYPE
 70
     6
  9
$SURFU
 70
     6
  9
$SURFV
 70
     6
  9
$UCSBASE
  2

  9
$UCSNAME
  2

  9
$UCSORG
 10
0.0
 20
0.0
 30
0.0
  9
$UCSXDIR
 10
1.0
 20
0.0
 30
0.0
  9
$UCSYDIR
 10
0.0
 20
1.0
 30
0.0
  9
$UCSORTHOREF
  2

  9
$UCSORTHOVIEW
 70
     0
  9
$UCSORGTOP
 10
0.0
 20
0.0
 30
0.0
  9
$UCSORGBOTTOM
 10
0.0
 20
0.0
 30
0.0
  9
$UCSORGLEFT
 10
0.0
 20
0.0
 30
0.0
  9
$UCSORGRIGHT
 10
0.0
 20
0.0
 30
0.0
  9
$UCSORGFRONT
 10
0.0
 20
0.0
 30
0.0
  9
$UCSORGBACK
 10
0.0
 20
0.0
 30
0.0
  9
$PUCSBASE
  2

  9
$PUCSNAME
  2

  9
$PUCSORG
 10
0.0
 20
0.0
 30
0.0
  9
$PUCSXDIR
 10
1.0
 20
0.0
 30
0.0
  9
$PUCSYDIR
 10
0.0
 20
1.0
 30
0.0
  9
$PUCSORTHOREF
  2

  9
$PUCSORTHOVIEW
 70
     0
  9
$PUCSORGTOP
 10
0.0
 20
0.0
 30
0.0
  9
$PUCSORGBOTTOM
 10
0.0
 20
0.0
 30
0.0
  9
$PUCSORGLEFT
 10
0.0
 20
0.0
 30
0.0
  9
$PUCSORGRIGHT
 10
0.0
 20
0.0
 30
0.0
  9
$PUCSORGFRONT
 10
0.0
 20
0.0
 30
0.0
  9
$PUCSORGBACK
 10
0.0
 20
0.0
 30
0.0
  9
$USERI1
 70
     0
  9
$USERI2
 70
     0
  9
$USERI3
 70
     0
  9
$USERI4
 70
     0
  9
$USERI5
 70
     0
  9
$USERR1
 40
0.0
  9
$USERR2
 40
0.0
  9
$USERR3
 40
0.0
  9
$USERR4
 40
0.0
  9
$USERR5
 40
0.0
  9
$WORLDVIEW
 70
     1
  9
$SHADEDGE
 70
     3
  9
$SHADEDIF
 70
    70
  9
$TILEMODE
 70
     1
  9
$MAXACTVP
 70
    64
  9
$PINSBASE
 10
0.0
 20
0.0
 30
0.0
  9
$PLIMCHECK
 70
     0
  9
$PEXTMIN
 10
1.000000000000000E+20
 20
1.000000000000000E+20
 30
1.000000000000000E+20
  9
$PEXTMAX
 10
-1.000000000000000E+20
 20
-1.000000000000000E+20
 30
-1.000000000000000E+20
  9
$PLIMMIN
 10
0.0
 20
0.0
  9
$PLIMMAX
 10
12.0
 20
9.0
  9
$UNITMODE
 70
     0
  9
$VISRETAIN
 70
     1
  9
$PLINEGEN
 70
     0
  9
$PSLTSCALE
 70
     1
  9
$TREEDEPTH
 70
  3020
  9
$CMLSTYLE
  2
Standard
  9
$CMLJUST
 70
     0
  9
$CMLSCALE
 40
1.0
  9
$PROXYGRAPHICS
 70
     1
  9
$MEASUREMENT
 70
     0
  9
$CELWEIGHT
370
    -1
  9
$ENDCAPS
280
     0
  9
$JOINSTYLE
280
     0
  9
$LWDISPLAY
290
     1
  9
$INSUNITS
 70
     1
  9
$HYPERLINKBASE
  1

  9
$STYLESHEET
  1

  9
$XEDIT
290
     1
  9
$CEPSNTYPE
380
     0
  9
$PSTYLEMODE
290
     1
  9
$FINGERPRINTGUID
  2
{CB5A6D8A-7647-B9CD-7E43-21594E3B0EEA}
  9
$VERSIONGUID
  2
{FAEB1C32-E019-11D5-929B-00C0DF256EC4}
  9
$EXTNAMES
290
     1
  9
$PSVPSCALE
 40
0.0
  9
$OLESTARTUP
290
     0
  9
$SORTENTS
280
   127
  9
$INDEXCTL
280
     0
  9
$HIDETEXT
280
     1
  9
$XCLIPFRAME
280
     2
  9
$HALOGAP
280
     0
  9
$OBSCOLOR
 70
   257
  9
$OBSLTYPE
280
     0
  9
$INTERSECTIONDISPLAY
280
     0
  9
$INTERSECTIONCOLOR
 70
   257
  9
$DIMASSOC
280
     2
  9
$PROJECTNAME
  1

  9
$CAMERADISPLAY
290
     0
  9
$LENSLENGTH
 40
50.0
  9
$CAMERAHEIGHT
 40
0.0
  9
$STEPSPERSEC
 40
2.0
  9
$STEPSIZE
 40
6.0
  9
$3DDWFPREC
 40
2.0
  9
$PSOLWIDTH
 40
0.25
  9
$PSOLHEIGHT
 40
4.0
  9
$LOFTANG1
 40
1.570796326794897
  9
$LOFTANG2
 40
1.570796326794897
  9
$LOFTMAG1
 40
0.0
  9
$LOFTMAG2
 40
0.0
  9
$LOFTPARAM
 70
     7
  9
$LOFTNORMALS
280
     1
  9
$LATITUDE
 40
37.795
  9
$LONGITUDE
 40
-122.394
  9
$NORTHDIRECTION
 40
0.0
  9
$TIMEZONE
 70
 -8000
  9
$LIGHTGLYPHDISPLAY
280
     1
  9
$TILEMODELIGHTSYNCH
280
     1
  9
$CMATERIAL
347
3C
  9
$SOLIDHIST
280
     1
  9
$SHOWHIST
280
     1
  9
$DWFFRAME
280
     2
  9
$DGNFRAME
280
     2
  9
$REALWORLDSCALE
290
     1
  9
$INTERFERECOLOR
 62
   256
  9
$CSHADOW
280
     0
  9
$SHADOWPLANELOCATION
 40
0.0
  0
ENDSEC
  0
SECTION
  2
CLASSES
  0
CLASS
  1
ACDBDICTIONARYWDFLT
  2
AcDbDictionaryWithDefault
  3
ObjectDBX Classes
 90
        0
 91
        4
280
     0
281
     0
  0
CLASS
  1
VISUALSTYLE
  2
AcDbVisualStyle
  3
ObjectDBX Classes
 90
     4095
 91
        4
280
     0
281
     0
  0
CLASS
  1
MATERIAL
  2
AcDbMaterial
  3
ObjectDBX Classes
 90
     1153
 91
        4
280
     0
281
     0
  0
CLASS
  1
SUN
  2
AcDbSun
  3
SCENEOE
 90
     1024
 91
        4
280
     0
281
     0
  0
ENDSEC
  0
SECTION
  2
TABLES
  0
TABLE
  2
VPORT
  5
8
330
0
100
AcDbSymbolTable
 70
     1
  0
VPORT
  5
29
330
8
100
AcDbSymbolTableRecord
100
AcDbViewportTableRecord
  2
*Active
 70
     0
 10
0.0
 20
0.0
 11
1.0
 21
1.0
 12
0.0
 22
0.0
 13
0.0
 23
0.0
 14
0.5
 24
0.5
 15
0.5
 25
0.5
 16
0.0
 26
0.0
 36
1.0
 17
91.00082462281999
 27
-128.4993055234307
 37
0.0
 40
256.9986110468615
 41
0.7081814508812795
 42
50.0
 43
0.0
 44
0.0
 50
0.0
 51
0.0
 71
     0
 72
   100
 73
     1
 74
     3
 75
     0
 76
     0
 77
     0
 78
     0
281
     0
 65
     1
110
0.0
120
0.0
130
0.0
111
1.0
121
0.0
131
0.0
112
0.0
122
1.0
132
0.0
 79
     0
146
0.0
 60
     3
 61
     5
292
     1
282
     1
141
0.0
142
0.0
 63
   250
361
3F
  0
ENDTAB
  0
TABLE
  2
LTYPE
  5
5
330
0
100
AcDbSymbolTable
 70
     1
  0
LTYPE
  5
14
330
5
100
AcDbSymbolTableRecord
100
AcDbLinetypeTableRecord
  2
ByBlock
 70
     0
  3

 72
    65
 73
     0
 40
0.0
  0
LTYPE
  5
15
330
5
100
AcDbSymbolTableRecord
100
AcDbLinetypeTableRecord
  2
ByLayer
 70
     0
  3

 72
    65
 73
     0
 40
0.0
  0
LTYPE
  5
16
330
5
100
AcDbSymbolTableRecord
100
AcDbLinetypeTableRecord
  2
Continuous
 70
     0
  3
Solid line
 72
    65
 73
     0
 40
0.0
  0
ENDTAB
  0
TABLE
  2
LAYER
  5
2
330
0
100
AcDbSymbolTable
 70
     2
  0
LAYER
  5
10
330
2
100
AcDbSymbolTableRecord
100
AcDbLayerTableRecord
  2
0
 70
     0
 62
     7
  6
Continuous
370
    -3
390
F
347
3E
  0
LAYER
  5
40
330
2
100
AcDbSymbolTableRecord
100
AcDbLayerTableRecord
  2
_U+30EC_U+30A4_U+30E4_U+30FC 1
 70
     0
 62
     7
  6
Continuous
370
    -3
390
F
347
3E
  0
ENDTAB
  0
TABLE
  2
STYLE
  5
3
330
0
100
AcDbSymbolTable
 70
     1
  0
STYLE
  5
11
330
3
100
AcDbSymbolTableRecord
100
AcDbTextStyleTableRecord
  2
Standard
 70
     0
 40
0.0
 41
1.0
 50
0.0
 71
     0
 42
0.2
  3
txt
  4

  0
ENDTAB
  0
TABLE
  2
VIEW
  5
6
330
0
100
AcDbSymbolTable
 70
     0
  0
ENDTAB
  0
TABLE
  2
UCS
  5
7
330
0
100
AcDbSymbolTable
 70
     0
  0
ENDTAB
  0
TABLE
  2
APPID
  5
9
330
0
100
AcDbSymbolTable
 70
     1
  0
APPID
  5
12
330
9
100
AcDbSymbolTableRecord
100
AcDbRegAppTableRecord
  2
ACAD
 70
     0
  0
ENDTAB
  0
TABLE
  2
DIMSTYLE
  5
A
330
0
100
AcDbSymbolTable
 70
     1
100
AcDbDimStyleTable
  0
DIMSTYLE
105
27
330
A
100
AcDbSymbolTableRecord
100
AcDbDimStyleTableRecord
  2
Standard
 70
     0
178
     0
340
11
  0
ENDTAB
  0
TABLE
  2
BLOCK_RECORD
  5
1
330
0
100
AcDbSymbolTable
 70
     6
  0
BLOCK_RECORD
  5
1F
330
1
100
AcDbSymbolTableRecord
100
AcDbBlockTableRecord
  2
*Model_Space
340
22
 70
     0
280
     1
281
     0
  0
BLOCK_RECORD
  5
1B
330
1
100
AcDbSymbolTableRecord
100
AcDbBlockTableRecord
  2
*Paper_Space
340
1E
 70
     0
280
     1
281
     0
  0
BLOCK_RECORD
  5
23
330
1
100
AcDbSymbolTableRecord
100
AcDbBlockTableRecord
  2
*Paper_Space0
340
26
 70
     0
280
     1
281
     0
  0
BLOCK_RECORD
  5
63
330
1
100
AcDbSymbolTableRecord
100
AcDbBlockTableRecord
  2
block 2
340
0
102
{BLKREFS
331
64
102
}
 70
     0
280
     1
281
     0
  0
BLOCK_RECORD
  5
78
330
1
100
AcDbSymbolTableRecord
100
AcDbBlockTableRecord
  2
block 3
340
0
102
{BLKREFS
331
79
102
}
 70
     0
280
     1
281
     0
  0
BLOCK_RECORD
  5
8C
330
1
100
AcDbSymbolTableRecord
100
AcDbBlockTableRecord
  2
block 4
340
0
102
{BLKREFS
331
8D
102
}
 70
     0
280
     1
281
     0
  0
BLOCK_RECORD
  5
92
330
1
100
AcDbSymbolTableRecord
100
AcDbBlockTableRecord
  2
block 5
340
0
102
{BLKREFS
331
93
102
}
 70
     0
280
     1
281
     0
  0
BLOCK_RECORD
  5
B6
330
1
100
AcDbSymbolTableRecord
100
AcDbBlockTableRecord
  2
block 6
340
0
102
{BLKREFS
331
B7
102
}
 70
     0
280
     1
281
     0
  0
ENDTAB
  0
ENDSEC
  0
SECTION
  2
BLOCKS
  0
BLOCK
  5
20
330
1F
100
AcDbEntity
  8
0
100
AcDbBlockBegin
  2
*Model_Space
 70
     0
 10
0.0
 20
0.0
 30
0.0
  3
*Model_Space
  1

  0
ENDBLK
  5
21
330
1F
100
AcDbEntity
  8
0
100
AcDbBlockEnd
  0
BLOCK
  5
1C
330
1B
100
AcDbEntity
 67
     1
  8
0
100
AcDbBlockBegin
  2
*Paper_Space
 70
     0
 10
0.0
 20
0.0
 30
0.0
  3
*Paper_Space
  1

  0
ENDBLK
  5
1D
330
1B
100
AcDbEntity
 67
     1
  8
0
100
AcDbBlockEnd
  0
BLOCK
  5
24
330
23
100
AcDbEntity
  8
0
100
AcDbBlockBegin
  2
*Paper_Space0
 70
     0
 10
0.0
 20
0.0
 30
0.0
  3
*Paper_Space0
  1

  0
ENDBLK
  5
25
330
23
100
AcDbEntity
  8
0
100
AcDbBlockEnd
  0
BLOCK
  5
65
330
63
100
AcDbEntity
  8
0
100
AcDbBlockBegin
  2
block 2
 70
     0
 10
0.0
 20
0.0
 30
0.0
  3
block 2
  1

  0
SPLINE
  5
67
330
63
100
AcDbEntity
  8
_U+30EC_U+30A4_U+30E4_U+30FC 1
370
     0
100
AcDbSpline
210
0.0
220
0.0
230
1.0
 70
    11
 71
     3
 72
    26
 73
    22
 74
     0
 42
0.0000000001
 43
0.0000000001
 12
1.0
 22
0.0
 32
0.0
 13
1.0
 23
0.0
 33
0.0
 40
0.0
 40
0.0
 40
0.0
 40
0.0
 40
1.0
 40
1.0
 40
1.0
 40
2.0
 40
2.0
 40
2.0
 40
3.0
 40
3.0
 40
3.0
 40
4.0
 40
4.0
 40
4.0
 40
5.0
 40
5.0
 40
5.0
 40
6.0
 40
6.0
 40
6.0
 40
7.0
 40
7.0
 40
7.0
 40
7.0
 10
81.79672985151262
 20
-140.7070013754135
 30
0.0
 10
81.79672985151262
 20
-140.7070013754135
 30
0.0
 10
81.79672985151262
 20
-139.602848272391
 30
0.0
 10
81.79672985151262
 20
-139.602848272391
 30
0.0
 10
81.79672985151262
 20
-139.602848272391
 30
0.0
 10
81.4666897040257
 20
-139.602848272391
 30
0.0
 10
81.4666897040257
 20
-139.602848272391
 30
0.0
 10
81.4666897040257
 20
-139.602848272391
 30
0.0
 10
81.4666897040257
 20
-139.4547091665252
 30
0.0
 10
81.4666897040257
 20
-139.4547091665252
 30
0.0
 10
81.79879690880378
 20
-139.4398952559386
 30
0.0
 10
81.84530569785466
 20
-139.2769422394863
 30
0.0
 10
81.87493351902779
 20
-139.162565069376
 30
0.0
 10
81.87493351902779
 20
-139.162565069376
 30
0.0
 10
82.02100556760239
 20
-139.162565069376
 30
0.0
 10
82.02100556760239
 20
-139.162565069376
 30
0.0
 10
82.02100556760239
 20
-139.162565069376
 30
0.0
 10
82.02100556760239
 20
-140.7070013754135
 30
0.0
 10
82.02100556760239
 20
-140.7070013754135
 30
0.0
 10
82.02100556760239
 20
-140.7070013754135
 30
0.0
 10
81.79672985151262
 20
-140.7070013754135
 30
0.0
 10
81.79672985151262
 20
-140.7070013754135
 30
0.0
  0
HATCH
  5
68
330
63
100
AcDbEntity
  8
_U+30EC_U+30A4_U+30E4_U+30FC 1
 62
   179
420
  2234388
100
AcDbHatch
 10
0.0
 20
0.0
 30
0.0
210
0.0
220
0.0
230
1.0
  2
SOLID
 70
     1
 71
     0
 91
        1
 92
        1
 93
        1
 72
     4
 94
        3
 73
     0
 74
     1
 95
       26
 96
       22
 40
0.0
 40
0.0
 40
0.0
 40
0.0
 40
1.0
 40
1.0
 40
1.0
 40
2.0
 40
2.0
 40
2.0
 40
3.0
 40
3.0
 40
3.0
 40
4.0
 40
4.0
 40
4.0
 40
5.0
 40
5.0
 40
5.0
 40
6.0
 40
6.0
 40
6.0
 40
7.0
 40
7.0
 40
7.0
 40
7.0
 10
81.79672985151262
 20
-140.7070013754135
 10
81.79672985151262
 20
-140.7070013754135
 10
81.79672985151262
 20
-139.602848272391
 10
81.79672985151262
 20
-139.602848272391
 10
81.79672985151262
 20
-139.602848272391
 10
81.4666897040257
 20
-139.602848272391
 10
81.4666897040257
 20
-139.602848272391
 10
81.4666897040257
 20
-139.602848272391
 10
81.4666897040257
 20
-139.4547091665252
 10
81.4666897040257
 20
-139.4547091665252
 10
81.79879690880378
 20
-139.4398952559386
 10
81.84530569785466
 20
-139.2769422394863
 10
81.87493351902779
 20
-139.162565069376
 10
81.87493351902779
 20
-139.162565069376
 10
82.02100556760239
 20
-139.162565069376
 10
82.02100556760239
 20
-139.162565069376
 10
82.02100556760239
 20
-139.162565069376
 10
82.02100556760239
 20
-140.7070013754135
 10
82.02100556760239
 20
-140.7070013754135
 10
82.02100556760239
 20
-140.7070013754135
 10
81.79672985151262
 20
-140.7070013754135
 10
81.79672985151262
 20
-140.7070013754135
 97
        0
 97
        0
 75
     2
 76
     1
 98
        0
  0
SPLINE
  5
69
330
63
100
AcDbEntity
  8
_U+30EC_U+30A4_U+30E4_U+30FC 1
370
     0
100
AcDbSpline
210
0.0
220
0.0
230
1.0
 70
    11
 71
     3
 72
    29
 73
    25
 74
     0
 42
0.0000000001
 43
0.0000000001
 12
1.0
 22
0.0
 32
0.0
 13
1.0
 23
0.0
 33
0.0
 40
0.0
 40
0.0
 40
0.0
 40
0.0
 40
1.0
 40
1.0
 40
1.0
 40
2.0
 40
2.0
 40
2.0
 40
3.0
 40
3.0
 40
3.0
 40
4.0
 40
4.0
 40
4.0
 40
5.0
 40
5.0
 40
5.0
 40
6.0
 40
6.0
 40
6.0
 40
7.0
 40
7.0
 40
7.0
 40
8.0
 40
8.0
 40
8.0
 40
8.0
 10
83.42005884416236
 20
-140.5292344483746
 30
0.0
 10
83.31188284592551
 20
-140.7386962538778
 30
0.0
 10
83.13859454301743
 20
-140.7576442790467
 30
0.0
 10
83.02215031561599
 20
-140.7576442790467
 30
0.0
 10
82.86126435645483
 20
-140.7576442790467
 30
0.0
 10
82.71967093201106
 20
-140.7111354899958
 30
0.0
 10
82.62458629661816
 20
-140.5292344483746
 30
0.0
 10
82.52088892251214
 20
-140.334586553458
 30
0.0
 10
82.50194089734327
 20
-140.0979084936214
 30
0.0
 10
82.50194089734327
 20
-139.934955477169
 30
0.0
 10
82.50194089734327
 20
-139.7909504858856
 30
0.0
 10
82.518821865221
 20
-139.5391140059138
 30
0.0
 10
82.62458629661816
 20
-139.3403319964149
 30
0.0
 10
82.73241778530648
 20
-139.1374158723337
 30
0.0
 10
82.89330374446764
 20
-139.113989223034
 30
0.0
 10
83.02215031561599
 20
-139.113989223034
 30
0.0
 10
83.18096921748601
 20
-139.113989223034
 30
0.0
 10
83.32462969922094
 20
-139.1584309547937
 30
0.0
 10
83.42005884416236
 20
-139.3403319964149
 30
0.0
 10
83.51927759413755
 20
-139.5329128340404
 30
0.0
 10
83.54270424343724
 20
-139.7613226647125
 30
0.0
 10
83.54270424343724
 20
-139.934955477169
 30
0.0
 10
83.54270424343724
 20
-140.106176722786
 30
0.0
 10
83.52134465142869
 20
-140.3366536107492
 30
0.0
 10
83.42005884416236
 20
-140.5292344483746
 30
0.0
  0
SPLINE
  5
6A
330
63
100
AcDbEntity
  8
_U+30EC_U+30A4_U+30E4_U+30FC 1
370
     0
100
AcDbSpline
210
0.0
220
0.0
230
1.0
 70
    11
 71
     3
 72
    17
 73
    13
 74
     0
 42
0.0000000001
 43
0.0000000001
 12
1.0
 22
0.0
 32
0.0
 13
1.0
 23
0.0
 33
0.0
 40
0.0
 40
0.0
 40
0.0
 40
0.0
 40
1.0
 40
1.0
 40
1.0
 40
2.0
 40
2.0
 40
2.0
 40
3.0
 40
3.0
 40
3.0
 40
4.0
 40
4.0
 40
4.0
 40
4.0
 10
83.02215031561599
 20
-139.3065700606595
 30
0.0
 10
82.7727254024839
 20
-139.3065700606595
 30
0.0
 10
82.72587210388451
 20
-139.5901014190955
 30
0.0
 10
82.72587210388451
 20
-139.934955477169
 30
0.0
 10
82.72587210388451
 20
-140.2543158286517
 30
0.0
 10
82.76204560647963
 20
-140.5629963841301
 30
0.0
 10
83.02215031561599
 20
-140.5629963841301
 30
0.0
 10
83.26985268100546
 20
-140.5629963841301
 30
0.0
 10
83.31842852734748
 20
-140.2818765925337
 30
0.0
 10
83.31842852734748
 20
-139.934955477169
 30
0.0
 10
83.31842852734748
 20
-139.6152506161379
 30
0.0
 10
83.2801879674612
 20
-139.3065700606595
 30
0.0
 10
83.02215031561599
 20
-139.3065700606595
 30
0.0
  0
HATCH
  5
6B
330
63
100
AcDbEntity
  8
_U+30EC_U+30A4_U+30E4_U+30FC 1
 62
   179
420
  2234388
100
AcDbHatch
 10
0.0
 20
0.0
 30
0.0
210
0.0
220
0.0
230
1.0
  2
SOLID
 70
     1
 71
     0
 91
        2
 92
        1
 93
        1
 72
     4
 94
        3
 73
     0
 74
     1
 95
       29
 96
       25
 40
0.0
 40
0.0
 40
0.0
 40
0.0
 40
1.0
 40
1.0
 40
1.0
 40
2.0
 40
2.0
 40
2.0
 40
3.0
 40
3.0
 40
3.0
 40
4.0
 40
4.0
 40
4.0
 40
5.0
 40
5.0
 40
5.0
 40
6.0
 40
6.0
 40
6.0
 40
7.0
 40
7.0
 40
7.0
 40
8.0
 40
8.0
 40
8.0
 40
8.0
 10
83.42005884416236
 20
-140.5292344483746
 10
83.31188284592551
 20
-140.7386962538778
 10
83.13859454301743
 20
-140.7576442790467
 10
83.02215031561599
 20
-140.7576442790467
 10
82.86126435645483
 20
-140.7576442790467
 10
82.71967093201106
 20
-140.7111354899958
 10
82.62458629661816
 20
-140.5292344483746
 10
82.52088892251214
 20
-140.334586553458
 10
82.50194089734327
 20
-140.0979084936214
 10
82.50194089734327
 20
-139.934955477169
 10
82.50194089734327
 20
-139.7909504858856
 10
82.518821865221
 20
-139.5391140059138
 10
82.62458629661816
 20
-139.3403319964149
 10
82.73241778530648
 20
-139.1374158723337
 10
82.89330374446764
 20
-139.113989223034
 10
83.02215031561599
 20
-139.113989223034
 10
83.18096921748601
 20
-139.113989223034
 10
83.32462969922094
 20
-139.1584309547937
 10
83.42005884416236
 20
-139.3403319964149
 10
83.51927759413755
 20
-139.5329128340404
 10
83.54270424343724
 20
-139.7613226647125
 10
83.54270424343724
 20
-139.934955477169
 10
83.54270424343724
 20
-140.106176722786
 10
83.52134465142869
 20
-140.3366536107492
 10
83.42005884416236
 20
-140.5292344483746
 97
        0
 97
        0
 92
        1
 93
        1
 72
     4
 94
        3
 73
     0
 74
     1
 95
       17
 96
       13
 40
0.0
 40
0.0
 40
0.0
 40
0.0
 40
1.0
 40
1.0
 40
1.0
 40
2.0
 40
2.0
 40
2.0
 40
3.0
 40
3.0
 40
3.0
 40
4.0
 40
4.0
 40
4.0
 40
4.0
 10
83.02215031561599
 20
-139.3065700606595
 10
82.7727254024839
 20
-139.3065700606595
 10
82.72587210388451
 20
-139.5901014190955
 10
82.72587210388451
 20
-139.934955477169
 10
82.72587210388451
 20
-140.2543158286517
 10
82.76204560647963
 20
-140.5629963841301
 10
83.02215031561599
 20
-140.5629963841301
 10
83.26985268100546
 20
-140.5629963841301
 10
83.31842852734748
 20
-140.2818765925337
 10
83.31842852734748
 20
-139.934955477169
 10
83.31842852734748
 20
-139.6152506161379
 10
83.2801879674612
 20
-139.3065700606595
 10
83.02215031561599
 20
-139.3065700606595
 97
        0
 97
        0
 75
     2
 76
     1
 98
        0
  0
ENDBLK
  5
66
330
63
100
AcDbEntity
  8
0
100
AcDbBlockEnd
  0
BLOCK
  5
7A
330
78
100
AcDbEntity
  8
0
100
AcDbBlockBegin
  2
block 3
 70
     0
 10
0.0
 20
0.0
 30
0.0
  3
block 3
  1

  0
SPLINE
  5
7C
330
78
100
AcDbEntity
  8
_U+30EC_U+30A4_U+30E4_U+30FC 1
370
     0
100
AcDbSpline
210
0.0
220
0.0
230
1.0
 70
    11
 71
     3
 72
    26
 73
    22
 74
     0
 42
0.0000000001
 43
0.0000000001
 12
1.0
 22
0.0
 32
0.0
 13
1.0
 23
0.0
 33
0.0
 40
0.0
 40
0.0
 40
0.0
 40
0.0
 40
1.0
 40
1.0
 40
1.0
 40
2.0
 40
2.0
 40
2.0
 40
3.0
 40
3.0
 40
3.0
 40
4.0
 40
4.0
 40
4.0
 40
5.0
 40
5.0
 40
5.0
 40
6.0
 40
6.0
 40
6.0
 40
7.0
 40
7.0
 40
7.0
 40
7.0
 10
102.9677028822442
 20
-129.3395643122832
 30
0.0
 10
102.9677028822442
 20
-129.3395643122832
 30
0.0
 10
101.8632052696731
 20
-129.3395643122832
 30
0.0
 10
101.8632052696731
 20
-129.3395643122832
 30
0.0
 10
101.8632052696731
 20
-129.3395643122832
 30
0.0
 10
101.8632052696731
 20
-129.6696044597701
 30
0.0
 10
101.8632052696731
 20
-129.6696044597701
 30
0.0
 10
101.8632052696731
 20
-129.6696044597701
 30
0.0
 10
101.7150661638074
 20
-129.6696044597701
 30
0.0
 10
101.7150661638074
 20
-129.6696044597701
 30
0.0
 10
101.7005967627693
 20
-129.337497254992
 30
0.0
 10
101.537643746317
 20
-129.2909884659412
 30
0.0
 10
101.4236110857552
 20
-129.261360644768
 30
0.0
 10
101.4236110857552
 20
-129.261360644768
 30
0.0
 10
101.4236110857552
 20
-129.1152885961934
 30
0.0
 10
101.4236110857552
 20
-129.1152885961934
 30
0.0
 10
101.4236110857552
 20
-129.1152885961934
 30
0.0
 10
102.9677028822442
 20
-129.1152885961934
 30
0.0
 10
102.9677028822442
 20
-129.1152885961934
 30
0.0
 10
102.9677028822442
 20
-129.1152885961934
 30
0.0
 10
102.9677028822442
 20
-129.3395643122832
 30
0.0
 10
102.9677028822442
 20
-129.3395643122832
 30
0.0
  0
HATCH
  5
7D
330
78
100
AcDbEntity
  8
_U+30EC_U+30A4_U+30E4_U+30FC 1
 62
   179
420
  2234388
100
AcDbHatch
 10
0.0
 20
0.0
 30
0.0
210
0.0
220
0.0
230
1.0
  2
SOLID
 70
     1
 71
     0
 91
        1
 92
        1
 93
        1
 72
     4
 94
        3
 73
     0
 74
     1
 95
       26
 96
       22
 40
0.0
 40
0.0
 40
0.0
 40
0.0
 40
1.0
 40
1.0
 40
1.0
 40
2.0
 40
2.0
 40
2.0
 40
3.0
 40
3.0
 40
3.0
 40
4.0
 40
4.0
 40
4.0
 40
5.0
 40
5.0
 40
5.0
 40
6.0
 40
6.0
 40
6.0
 40
7.0
 40
7.0
 40
7.0
 40
7.0
 10
102.9677028822442
 20
-129.3395643122832
 10
102.9677028822442
 20
-129.3395643122832
 10
101.8632052696731
 20
-129.3395643122832
 10
101.8632052696731
 20
-129.3395643122832
 10
101.8632052696731
 20
-129.3395643122832
 10
101.8632052696731
 20
-129.6696044597701
 10
101.8632052696731
 20
-129.6696044597701
 10
101.8632052696731
 20
-129.6696044597701
 10
101.7150661638074
 20
-129.6696044597701
 10
101.7150661638074
 20
-129.6696044597701
 10
101.7005967627693
 20
-129.337497254992
 10
101.537643746317
 20
-129.2909884659412
 10
101.4236110857552
 20
-129.261360644768
 10
101.4236110857552
 20
-129.261360644768
 10
101.4236110857552
 20
-129.1152885961934
 10
101.4236110857552
 20
-129.1152885961934
 10
101.4236110857552
 20
-129.1152885961934
 10
102.9677028822442
 20
-129.1152885961934
 10
102.9677028822442
 20
-129.1152885961934
 10
102.9677028822442
 20
-129.1152885961934
 10
102.9677028822442
 20
-129.3395643122832
 10
102.9677028822442
 20
-129.3395643122832
 97
        0
 97
        0
 75
     2
 76
     1
 98
        0
  0
SPLINE
  5
7E
330
78
100
AcDbEntity
  8
_U+30EC_U+30A4_U+30E4_U+30FC 1
370
     0
100
AcDbSpline
210
0.0
220
0.0
230
1.0
 70
    11
 71
     3
 72
    44
 73
    40
 74
     0
 42
0.0000000001
 43
0.0000000001
 12
1.0
 22
0.0
 32
0.0
 13
1.0
 23
0.0
 33
0.0
 40
0.0
 40
0.0
 40
0.0
 40
0.0
 40
1.0
 40
1.0
 40
1.0
 40
2.0
 40
2.0
 40
2.0
 40
3.0
 40
3.0
 40
3.0
 40
4.0
 40
4.0
 40
4.0
 40
5.0
 40
5.0
 40
5.0
 40
6.0
 40
6.0
 40
6.0
 40
7.0
 40
7.0
 40
7.0
 40
8.0
 40
8.0
 40
8.0
 40
9.0
 40
9.0
 40
9.0
 40
10.0
 40
10.0
 40
10.0
 40
11.0
 40
11.0
 40
11.0
 40
12.0
 40
12.0
 40
12.0
 40
13.0
 40
13.0
 40
13.0
 40
13.0
 10
102.386170764334
 20
-128.0209540153038
 30
0.0
 10
102.5446451566555
 20
-128.2388563047458
 30
0.0
 10
102.6187147095884
 20
-128.3320461376219
 30
0.0
 10
102.7623751913233
 20
-128.3806219839639
 30
0.0
 10
102.7623751913233
 20
-128.3806219839639
 30
0.0
 10
102.7623751913233
 20
-127.6022026590717
 30
0.0
 10
102.7623751913233
 20
-127.6022026590717
 30
0.0
 10
102.7623751913233
 20
-127.6022026590717
 30
0.0
 10
102.9677028822442
 20
-127.6022026590717
 30
0.0
 10
102.9677028822442
 20
-127.6022026590717
 30
0.0
 10
102.9677028822442
 20
-127.6022026590717
 30
0.0
 10
102.9677028822442
 20
-128.6302191518702
 30
0.0
 10
102.9677028822442
 20
-128.6302191518702
 30
0.0
 10
102.6101019708753
 20
-128.5985242734059
 30
0.0
 10
102.5318983033601
 20
-128.5330674591862
 30
0.0
 10
102.2335530343374
 20
-128.1479057839352
 30
0.0
 10
102.0347710248385
 20
-127.8919351893812
 30
0.0
 10
101.9672471533276
 20
-127.8264783751614
 30
0.0
 10
101.8294433339176
 20
-127.8264783751614
 30
0.0
 10
101.7109320492251
 20
-127.8264783751614
 30
0.0
 10
101.5800184207855
 20
-127.8983086160289
 30
0.0
 10
101.5800184207855
 20
-128.0950235682367
 30
0.0
 10
101.5800184207855
 20
-128.3553005321473
 30
0.0
 10
101.8104953087488
 20
-128.3637410160862
 30
0.0
 10
101.9269395361502
 20
-128.3680473854427
 30
0.0
 10
101.9269395361502
 20
-128.3680473854427
 30
0.0
 10
101.9269395361502
 20
-128.5921508467582
 30
0.0
 10
101.9269395361502
 20
-128.5921508467582
 30
0.0
 10
101.7998155127445
 20
-128.5837103628193
 30
0.0
 10
101.6878499094739
 20
-128.5732028215893
 30
0.0
 10
101.5693386247813
 20
-128.4927598420088
 30
0.0
 10
101.4084526656201
 20
-128.3828612960293
 30
0.0
 10
101.3746907298647
 20
-128.1966538850515
 30
0.0
 10
101.3746907298647
 20
-128.0802096576501
 30
0.0
 10
101.3746907298647
 20
-127.8030517258617
 30
0.0
 10
101.558658828777
 20
-127.595829232424
 30
0.0
 10
101.8315103912088
 20
-127.595829232424
 30
0.0
 10
102.0602647314294
 20
-127.595829232424
 30
0.0
 10
102.1594834814046
 20
-127.7121012050511
 30
0.0
 10
102.386170764334
 20
-128.0209540153038
 30
0.0
  0
HATCH
  5
7F
330
78
100
AcDbEntity
  8
_U+30EC_U+30A4_U+30E4_U+30FC 1
 62
   179
420
  2234388
100
AcDbHatch
 10
0.0
 20
0.0
 30
0.0
210
0.0
220
0.0
230
1.0
  2
SOLID
 70
     1
 71
     0
 91
        1
 92
        1
 93
        1
 72
     4
 94
        3
 73
     0
 74
     1
 95
       44
 96
       40
 40
0.0
 40
0.0
 40
0.0
 40
0.0
 40
1.0
 40
1.0
 40
1.0
 40
2.0
 40
2.0
 40
2.0
 40
3.0
 40
3.0
 40
3.0
 40
4.0
 40
4.0
 40
4.0
 40
5.0
 40
5.0
 40
5.0
 40
6.0
 40
6.0
 40
6.0
 40
7.0
 40
7.0
 40
7.0
 40
8.0
 40
8.0
 40
8.0
 40
9.0
 40
9.0
 40
9.0
 40
10.0
 40
10.0
 40
10.0
 40
11.0
 40
11.0
 40
11.0
 40
12.0
 40
12.0
 40
12.0
 40
13.0
 40
13.0
 40
13.0
 40
13.0
 10
102.386170764334
 20
-128.0209540153038
 10
102.5446451566555
 20
-128.2388563047458
 10
102.6187147095884
 20
-128.3320461376219
 10
102.7623751913233
 20
-128.3806219839639
 10
102.7623751913233
 20
-128.3806219839639
 10
102.7623751913233
 20
-127.6022026590717
 10
102.7623751913233
 20
-127.6022026590717
 10
102.7623751913233
 20
-127.6022026590717
 10
102.9677028822442
 20
-127.6022026590717
 10
102.9677028822442
 20
-127.6022026590717
 10
102.9677028822442
 20
-127.6022026590717
 10
102.9677028822442
 20
-128.6302191518702
 10
102.9677028822442
 20
-128.6302191518702
 10
102.6101019708753
 20
-128.5985242734059
 10
102.5318983033601
 20
-128.5330674591862
 10
102.2335530343374
 20
-128.1479057839352
 10
102.0347710248385
 20
-127.8919351893812
 10
101.9672471533276
 20
-127.8264783751614
 10
101.8294433339176
 20
-127.8264783751614
 10
101.7109320492251
 20
-127.8264783751614
 10
101.5800184207855
 20
-127.8983086160289
 10
101.5800184207855
 20
-128.0950235682367
 10
101.5800184207855
 20
-128.3553005321473
 10
101.8104953087488
 20
-128.3637410160862
 10
101.9269395361502
 20
-128.3680473854427
 10
101.9269395361502
 20
-128.3680473854427
 10
101.9269395361502
 20
-128.5921508467582
 10
101.9269395361502
 20
-128.5921508467582
 10
101.7998155127445
 20
-128.5837103628193
 10
101.6878499094739
 20
-128.5732028215893
 10
101.5693386247813
 20
-128.4927598420088
 10
101.4084526656201
 20
-128.3828612960293
 10
101.3746907298647
 20
-128.1966538850515
 10
101.3746907298647
 20
-128.0802096576501
 10
101.3746907298647
 20
-127.8030517258617
 10
101.558658828777
 20
-127.595829232424
 10
101.8315103912088
 20
-127.595829232424
 10
102.0602647314294
 20
-127.595829232424
 10
102.1594834814046
 20
-127.7121012050511
 10
102.386170764334
 20
-128.0209540153038
 97
        0
 97
        0
 75
     2
 76
     1
 98
        0
  0
POLYLINE
  5
80
330
78
100
AcDbEntity
  8
_U+30EC_U+30A4_U+30E4_U+30FC 1
370
     0
100
AcDb2dPolyline
 66
     1
 10
0.0
 20
0.0
 30
0.0
  0
VERTEX
  5
81
330
80
100
AcDbEntity
  8
_U+30EC_U+30A4_U+30E4_U+30FC 1
370
     0
100
AcDbVertex
100
AcDb2dVertex
 10
102.9677028822442
 20
-127.3772379238849
 30
0.0
  0
VERTEX
  5
82
330
80
100
AcDbEntity
  8
_U+30EC_U+30A4_U+30E4_U+30FC 1
370
     0
100
AcDbVertex
100
AcDb2dVertex
 10
102.716210911821
 20
-127.3772379238849
 30
0.0
  0
VERTEX
  5
83
330
80
100
AcDbEntity
  8
_U+30EC_U+30A4_U+30E4_U+30FC 1
370
     0
100
AcDbVertex
100
AcDb2dVertex
 10
102.716210911821
 20
-127.1255736986874
 30
0.0
  0
VERTEX
  5
84
330
80
100
AcDbEntity
  8
_U+30EC_U+30A4_U+30E4_U+30FC 1
370
     0
100
AcDbVertex
100
AcDb2dVertex
 10
102.9677028822442
 20
-127.1255736986874
 30
0.0
  0
VERTEX
  5
85
330
80
100
AcDbEntity
  8
_U+30EC_U+30A4_U+30E4_U+30FC 1
370
     0
100
AcDbVertex
100
AcDb2dVertex
 10
102.9677028822442
 20
-127.3772379238849
 30
0.0
  0
SEQEND
  5
86
330
80
100
AcDbEntity
  8
_U+30EC_U+30A4_U+30E4_U+30FC 1
370
     0
  0
HATCH
  5
87
330
78
100
AcDbEntity
  8
_U+30EC_U+30A4_U+30E4_U+30FC 1
 62
   179
420
  2234388
100
AcDbHatch
 10
0.0
 20
0.0
 30
0.0
210
0.0
220
0.0
230
1.0
  2
SOLID
 70
     1
 71
     0
 91
        1
 92
        1
 93
        4
 72
     1
 10
102.9677028822442
 20
-127.3772379238849
 11
102.716210911821
 21
-127.3772379238849
 72
     1
 10
102.716210911821
 20
-127.3772379238849
 11
102.716210911821
 21
-127.1255736986874
 72
     1
 10
102.716210911821
 20
-127.1255736986874
 11
102.9677028822442
 21
-127.1255736986874
 72
     1
 10
102.9677028822442
 20
-127.1255736986874
 11
102.9677028822442
 21
-127.3772379238849
 97
        0
 75
     2
 76
     1
 98
        0
  0
SPLINE
  5
88
330
78
100
AcDbEntity
  8
_U+30EC_U+30A4_U+30E4_U+30FC 1
370
     0
100
AcDbSpline
210
0.0
220
0.0
230
1.0
 70
    11
 71
     3
 72
    29
 73
    25
 74
     0
 42
0.0000000001
 43
0.0000000001
 12
1.0
 22
0.0
 32
0.0
 13
1.0
 23
0.0
 33
0.0
 40
0.0
 40
0.0
 40
0.0
 40
0.0
 40
1.0
 40
1.0
 40
1.0
 40
2.0
 40
2.0
 40
2.0
 40
3.0
 40
3.0
 40
3.0
 40
4.0
 40
4.0
 40
4.0
 40
5.0
 40
5.0
 40
5.0
 40
6.0
 40
6.0
 40
6.0
 40
7.0
 40
7.0
 40
7.0
 40
8.0
 40
8.0
 40
8.0
 40
8.0
 10
103.0186902954259
 20
-126.3890122839409
 30
0.0
 10
103.0186902954259
 20
-126.655490419725
 30
0.0
 10
102.8808864760159
 20
-126.9093939569879
 30
0.0
 10
102.5318983033601
 20
-126.9093939569879
 30
0.0
 10
102.275927708806
 20
-126.9093939569879
 30
0.0
 10
102.1808430734131
 20
-126.7676282777699
 30
0.0
 10
102.1195203737757
 20
-126.6618638463727
 30
0.0
 10
102.0602647314294
 20
-126.786748557713
 30
0.0
 10
101.9458875613191
 20
-126.8628851679371
 30
0.0
 10
101.7853461117064
 20
-126.8628851679371
 30
0.0
 10
101.510082982435
 20
-126.8628851679371
 30
0.0
 10
101.3746907298647
 20
-126.6639309036639
 30
0.0
 10
101.3746907298647
 20
-126.3890122839409
 30
0.0
 10
101.3746907298647
 20
-126.1054809255049
 30
0.0
 10
101.5186957211481
 20
-125.9151393999448
 30
0.0
 10
101.7853461117064
 20
-125.9151393999448
 30
0.0
 10
101.9458875613191
 20
-125.9151393999448
 30
0.0
 10
102.0602647314294
 20
-125.99334306746
 30
0.0
 10
102.1195203737757
 20
-126.1182277788003
 30
0.0
 10
102.1701632774088
 20
-126.0293443152809
 30
0.0
 10
102.2655924223503
 20
-125.8706976681851
 30
0.0
 10
102.5274196792293
 20
-125.8706976681851
 30
0.0
 10
102.9022460680244
 20
-125.8706976681851
 30
0.0
 10
103.0186902954259
 20
-126.1499226572646
 30
0.0
 10
103.0186902954259
 20
-126.3890122839409
 30
0.0
  0
SPLINE
  5
89
330
78
100
AcDbEntity
  8
_U+30EC_U+30A4_U+30E4_U+30FC 1
370
     0
100
AcDbSpline
210
0.0
220
0.0
230
1.0
 70
    11
 71
     3
 72
    17
 73
    13
 74
     0
 42
0.0000000001
 43
0.0000000001
 12
1.0
 22
0.0
 32
0.0
 13
1.0
 23
0.0
 33
0.0
 40
0.0
 40
0.0
 40
0.0
 40
0.0
 40
1.0
 40
1.0
 40
1.0
 40
2.0
 40
2.0
 40
2.0
 40
3.0
 40
3.0
 40
3.0
 40
4.0
 40
4.0
 40
4.0
 40
4.0
 10
101.5672715674901
 20
-126.3890122839409
 30
0.0
 10
101.5672715674901
 20
-126.5540323576844
 30
0.0
 10
101.662356202883
 20
-126.6386094518473
 30
0.0
 10
101.7977484554533
 20
-126.6386094518473
 30
0.0
 10
101.9203938547282
 20
-126.6386094518473
 30
0.0
 10
102.0389051394208
 20
-126.5666069562056
 30
0.0
 10
102.0389051394208
 20
-126.3890122839409
 30
0.0
 10
102.0389051394208
 20
-126.2112453569021
 30
0.0
 10
101.9203938547282
 20
-126.1394151160346
 30
0.0
 10
101.7977484554533
 20
-126.1394151160346
 30
0.0
 10
101.662356202883
 20
-126.1394151160346
 30
0.0
 10
101.5672715674901
 20
-126.2260592674886
 30
0.0
 10
101.5672715674901
 20
-126.3890122839409
 30
0.0
  0
SPLINE
  5
8A
330
78
100
AcDbEntity
  8
_U+30EC_U+30A4_U+30E4_U+30FC 1
370
     0
100
AcDbSpline
210
0.0
220
0.0
230
1.0
 70
    11
 71
     3
 72
    17
 73
    13
 74
     0
 42
0.0000000001
 43
0.0000000001
 12
1.0
 22
0.0
 32
0.0
 13
1.0
 23
0.0
 33
0.0
 40
0.0
 40
0.0
 40
0.0
 40
0.0
 40
1.0
 40
1.0
 40
1.0
 40
2.0
 40
2.0
 40
2.0
 40
3.0
 40
3.0
 40
3.0
 40
4.0
 40
4.0
 40
4.0
 40
4.0
 10
102.227351862464
 20
-126.3890122839409
 30
0.0
 10
102.227351862464
 20
-126.5328450204501
 30
0.0
 10
102.3138237591438
 20
-126.6851182408982
 30
0.0
 10
102.5170843927735
 20
-126.6851182408982
 30
0.0
 10
102.7224120836944
 20
-126.6851182408982
 30
0.0
 10
102.8236978909607
 20
-126.5581664722667
 30
0.0
 10
102.8236978909607
 20
-126.3890122839409
 30
0.0
 10
102.8236978909607
 20
-126.2028048729632
 30
0.0
 10
102.7010524916859
 20
-126.0927340722095
 30
0.0
 10
102.523285564647
 20
-126.0927340722095
 30
0.0
 10
102.3014214153969
 20
-126.0927340722095
 30
0.0
 10
102.227351862464
 20
-126.2556870886618
 30
0.0
 10
102.227351862464
 20
-126.3890122839409
 30
0.0
  0
HATCH
  5
8B
330
78
100
AcDbEntity
  8
_U+30EC_U+30A4_U+30E4_U+30FC 1
 62
   179
420
  2234388
100
AcDbHatch
 10
0.0
 20
0.0
 30
0.0
210
0.0
220
0.0
230
1.0
  2
SOLID
 70
     1
 71
     0
 91
        3
 92
        1
 93
        1
 72
     4
 94
        3
 73
     0
 74
     1
 95
       29
 96
       25
 40
0.0
 40
0.0
 40
0.0
 40
0.0
 40
1.0
 40
1.0
 40
1.0
 40
2.0
 40
2.0
 40
2.0
 40
3.0
 40
3.0
 40
3.0
 40
4.0
 40
4.0
 40
4.0
 40
5.0
 40
5.0
 40
5.0
 40
6.0
 40
6.0
 40
6.0
 40
7.0
 40
7.0
 40
7.0
 40
8.0
 40
8.0
 40
8.0
 40
8.0
 10
103.0186902954259
 20
-126.3890122839409
 10
103.0186902954259
 20
-126.655490419725
 10
102.8808864760159
 20
-126.9093939569879
 10
102.5318983033601
 20
-126.9093939569879
 10
102.275927708806
 20
-126.9093939569879
 10
102.1808430734131
 20
-126.7676282777699
 10
102.1195203737757
 20
-126.6618638463727
 10
102.0602647314294
 20
-126.786748557713
 10
101.9458875613191
 20
-126.8628851679371
 10
101.7853461117064
 20
-126.8628851679371
 10
101.510082982435
 20
-126.8628851679371
 10
101.3746907298647
 20
-126.6639309036639
 10
101.3746907298647
 20
-126.3890122839409
 10
101.3746907298647
 20
-126.1054809255049
 10
101.5186957211481
 20
-125.9151393999448
 10
101.7853461117064
 20
-125.9151393999448
 10
101.9458875613191
 20
-125.9151393999448
 10
102.0602647314294
 20
-125.99334306746
 10
102.1195203737757
 20
-126.1182277788003
 10
102.1701632774088
 20
-126.0293443152809
 10
102.2655924223503
 20
-125.8706976681851
 10
102.5274196792293
 20
-125.8706976681851
 10
102.9022460680244
 20
-125.8706976681851
 10
103.0186902954259
 20
-126.1499226572646
 10
103.0186902954259
 20
-126.3890122839409
 97
        0
 97
        0
 92
        1
 93
        1
 72
     4
 94
        3
 73
     0
 74
     1
 95
       17
 96
       13
 40
0.0
 40
0.0
 40
0.0
 40
0.0
 40
1.0
 40
1.0
 40
1.0
 40
2.0
 40
2.0
 40
2.0
 40
3.0
 40
3.0
 40
3.0
 40
4.0
 40
4.0
 40
4.0
 40
4.0
 10
101.5672715674901
 20
-126.3890122839409
 10
101.5672715674901
 20
-126.5540323576844
 10
101.662356202883
 20
-126.6386094518473
 10
101.7977484554533
 20
-126.6386094518473
 10
101.9203938547282
 20
-126.6386094518473
 10
102.0389051394208
 20
-126.5666069562056
 10
102.0389051394208
 20
-126.3890122839409
 10
102.0389051394208
 20
-126.2112453569021
 10
101.9203938547282
 20
-126.1394151160346
 10
101.7977484554533
 20
-126.1394151160346
 10
101.662356202883
 20
-126.1394151160346
 10
101.5672715674901
 20
-126.2260592674886
 10
101.5672715674901
 20
-126.3890122839409
 97
        0
 97
        0
 92
        1
 93
        1
 72
     4
 94
        3
 73
     0
 74
     1
 95
       17
 96
       13
 40
0.0
 40
0.0
 40
0.0
 40
0.0
 40
1.0
 40
1.0
 40
1.0
 40
2.0
 40
2.0
 40
2.0
 40
3.0
 40
3.0
 40
3.0
 40
4.0
 40
4.0
 40
4.0
 40
4.0
 10
102.227351862464
 20
-126.3890122839409
 10
102.227351862464
 20
-126.5328450204501
 10
102.3138237591438
 20
-126.6851182408982
 10
102.5170843927735
 20
-126.6851182408982
 10
102.7224120836944
 20
-126.6851182408982
 10
102.8236978909607
 20
-126.5581664722667
 10
102.8236978909607
 20
-126.3890122839409
 10
102.8236978909607
 20
-126.2028048729632
 10
102.7010524916859
 20
-126.0927340722095
 10
102.523285564647
 20
-126.0927340722095
 10
102.3014214153969
 20
-126.0927340722095
 10
102.227351862464
 20
-126.2556870886618
 10
102.227351862464
 20
-126.3890122839409
 97
        0
 97
        0
 75
     2
 76
     1
 98
        0
  0
ENDBLK
  5
7B
330
78
100
AcDbEntity
  8
0
100
AcDbBlockEnd
  0
BLOCK
  5
8E
330
8C
100
AcDbEntity
  8
0
100
AcDbBlockBegin
  2
block 4
 70
     0
 10
0.0
 20
0.0
 30
0.0
  3
block 4
  1

  0
SPLINE
  5
90
330
8C
100
AcDbEntity
  8
_U+30EC_U+30A4_U+30E4_U+30FC 1
370
     0
100
AcDbSpline
210
0.0
220
0.0
230
1.0
 70
    11
 71
     3
 72
    62
 73
    58
 74
     0
 42
0.0000000001
 43
0.0000000001
 12
1.0
 22
0.0
 32
0.0
 13
1.0
 23
0.0
 33
0.0
 40
0.0
 40
0.0
 40
0.0
 40
0.0
 40
1.0
 40
1.0
 40
1.0
 40
2.0
 40
2.0
 40
2.0
 40
3.0
 40
3.0
 40
3.0
 40
4.0
 40
4.0
 40
4.0
 40
5.0
 40
5.0
 40
5.0
 40
6.0
 40
6.0
 40
6.0
 40
7.0
 40
7.0
 40
7.0
 40
8.0
 40
8.0
 40
8.0
 40
9.0
 40
9.0
 40
9.0
 40
10.0
 40
10.0
 40
10.0
 40
11.0
 40
11.0
 40
11.0
 40
12.0
 40
12.0
 40
12.0
 40
13.0
 40
13.0
 40
13.0
 40
14.0
 40
14.0
 40
14.0
 40
15.0
 40
15.0
 40
15.0
 40
16.0
 40
16.0
 40
16.0
 40
17.0
 40
17.0
 40
17.0
 40
18.0
 40
18.0
 40
18.0
 40
19.0
 40
19.0
 40
19.0
 40
19.0
 10
103.0186902954259
 20
-135.8094536335824
 30
0.0
 10
103.0186902954259
 20
-135.9048827785238
 30
0.0
 10
102.9973307034173
 20
-136.1226128131916
 30
0.0
 10
102.8112955472138
 20
-136.2473252697576
 30
0.0
 10
102.6989854343947
 20
-136.3213948226905
 30
0.0
 10
102.5997666844195
 20
-136.3258734468213
 30
0.0
 10
102.5150173354824
 20
-136.3300075614036
 30
0.0
 10
102.5150173354824
 20
-136.3300075614036
 30
0.0
 10
102.5150173354824
 20
-136.1098659598962
 30
0.0
 10
102.5150173354824
 20
-136.1098659598962
 30
0.0
 10
102.5890868884152
 20
-136.107798902605
 30
0.0
 10
102.8236978909607
 20
-136.0971191066007
 30
0.0
 10
102.8236978909607
 20
-135.8135877481647
 30
0.0
 10
102.8236978909607
 20
-135.6761284383032
 30
0.0
 10
102.7541069621587
 20
-135.5238552178552
 30
0.0
 10
102.5253526219381
 20
-135.5238552178552
 30
0.0
 10
102.4092529040852
 20
-135.5238552178552
 30
0.0
 10
102.3606770577432
 20
-135.5617512681929
 30
0.0
 10
102.3289821792789
 20
-135.5934461466572
 30
0.0
 10
102.2545681167975
 20
-135.6678602091386
 30
0.0
 10
102.2421657730506
 20
-135.7843044365401
 30
0.0
 10
102.2421657730506
 20
-135.8390814547555
 30
0.0
 10
102.2421657730506
 20
-135.8580294799244
 30
0.0
 10
102.2442328303417
 20
-135.893858472971
 30
0.0
 10
102.248366944924
 20
-135.921419236853
 30
0.0
 10
102.248366944924
 20
-135.921419236853
 30
0.0
 10
102.0540635595559
 20
-135.921419236853
 30
0.0
 10
102.0540635595559
 20
-135.921419236853
 30
0.0
 10
102.0602647314294
 20
-135.8835231865152
 30
0.0
 10
102.0623317887205
 20
-135.8411485120467
 30
0.0
 10
102.0623317887205
 20
-135.8346028306247
 30
0.0
 10
102.0623317887205
 20
-135.7691460164049
 30
0.0
 10
102.040972196712
 20
-135.570364006906
 30
0.0
 10
101.8039496273268
 20
-135.570364006906
 30
0.0
 10
101.6265272098364
 20
-135.570364006906
 30
0.0
 10
101.5714056820724
 20
-135.701622144894
 30
0.0
 10
101.5714056820724
 20
-135.8115206908735
 30
0.0
 10
101.5714056820724
 20
-136.0757595145922
 30
0.0
 10
101.8039496273268
 20
-136.0843722533053
 30
0.0
 10
101.876296632517
 20
-136.0888508774361
 30
0.0
 10
101.876296632517
 20
-136.0888508774361
 30
0.0
 10
101.876296632517
 20
-136.2917670015173
 30
0.0
 10
101.876296632517
 20
-136.2917670015173
 30
0.0
 10
101.7512396664025
 20
-136.2831542628042
 30
0.0
 10
101.3746907298647
 20
-136.2555934989222
 30
0.0
 10
101.3746907298647
 20
-135.7987738375781
 30
0.0
 10
101.3746907298647
 20
-135.5748426310369
 30
0.0
 10
101.5014702437219
 20
-135.3336859470694
 30
0.0
 10
101.7977484554533
 20
-135.3336859470694
 30
0.0
 10
101.9837836116568
 20
-135.3336859470694
 30
0.0
 10
102.0664659033028
 20
-135.4287705824622
 30
0.0
 10
102.1277886029403
 20
-135.5279893324374
 30
0.0
 10
102.1553493668223
 20
-135.4666666328
 30
0.0
 10
102.2359646011771
 20
-135.2847655911788
 30
0.0
 10
102.5129502781912
 20
-135.2847655911788
 30
0.0
 10
102.8512586548428
 20
-135.2847655911788
 30
0.0
 10
103.0186902954259
 20
-135.5321234470198
 30
0.0
 10
103.0186902954259
 20
-135.8094536335824
 30
0.0
  0
HATCH
  5
91
330
8C
100
AcDbEntity
  8
_U+30EC_U+30A4_U+30E4_U+30FC 1
 62
   179
420
  2234388
100
AcDbHatch
 10
0.0
 20
0.0
 30
0.0
210
0.0
220
0.0
230
1.0
  2
SOLID
 70
     1
 71
     0
 91
        1
 92
        1
 93
        1
 72
     4
 94
        3
 73
     0
 74
     1
 95
       62
 96
       58
 40
0.0
 40
0.0
 40
0.0
 40
0.0
 40
1.0
 40
1.0
 40
1.0
 40
2.0
 40
2.0
 40
2.0
 40
3.0
 40
3.0
 40
3.0
 40
4.0
 40
4.0
 40
4.0
 40
5.0
 40
5.0
 40
5.0
 40
6.0
 40
6.0
 40
6.0
 40
7.0
 40
7.0
 40
7.0
 40
8.0
 40
8.0
 40
8.0
 40
9.0
 40
9.0
 40
9.0
 40
10.0
 40
10.0
 40
10.0
 40
11.0
 40
11.0
 40
11.0
 40
12.0
 40
12.0
 40
12.0
 40
13.0
 40
13.0
 40
13.0
 40
14.0
 40
14.0
 40
14.0
 40
15.0
 40
15.0
 40
15.0
 40
16.0
 40
16.0
 40
16.0
 40
17.0
 40
17.0
 40
17.0
 40
18.0
 40
18.0
 40
18.0
 40
19.0
 40
19.0
 40
19.0
 40
19.0
 10
103.0186902954259
 20
-135.8094536335824
 10
103.0186902954259
 20
-135.9048827785238
 10
102.9973307034173
 20
-136.1226128131916
 10
102.8112955472138
 20
-136.2473252697576
 10
102.6989854343947
 20
-136.3213948226905
 10
102.5997666844195
 20
-136.3258734468213
 10
102.5150173354824
 20
-136.3300075614036
 10
102.5150173354824
 20
-136.3300075614036
 10
102.5150173354824
 20
-136.1098659598962
 10
102.5150173354824
 20
-136.1098659598962
 10
102.5890868884152
 20
-136.107798902605
 10
102.8236978909607
 20
-136.0971191066007
 10
102.8236978909607
 20
-135.8135877481647
 10
102.8236978909607
 20
-135.6761284383032
 10
102.7541069621587
 20
-135.5238552178552
 10
102.5253526219381
 20
-135.5238552178552
 10
102.4092529040852
 20
-135.5238552178552
 10
102.3606770577432
 20
-135.5617512681929
 10
102.3289821792789
 20
-135.5934461466572
 10
102.2545681167975
 20
-135.6678602091386
 10
102.2421657730506
 20
-135.7843044365401
 10
102.2421657730506
 20
-135.8390814547555
 10
102.2421657730506
 20
-135.8580294799244
 10
102.2442328303417
 20
-135.893858472971
 10
102.248366944924
 20
-135.921419236853
 10
102.248366944924
 20
-135.921419236853
 10
102.0540635595559
 20
-135.921419236853
 10
102.0540635595559
 20
-135.921419236853
 10
102.0602647314294
 20
-135.8835231865152
 10
102.0623317887205
 20
-135.8411485120467
 10
102.0623317887205
 20
-135.8346028306247
 10
102.0623317887205
 20
-135.7691460164049
 10
102.040972196712
 20
-135.570364006906
 10
101.8039496273268
 20
-135.570364006906
 10
101.6265272098364
 20
-135.570364006906
 10
101.5714056820724
 20
-135.701622144894
 10
101.5714056820724
 20
-135.8115206908735
 10
101.5714056820724
 20
-136.0757595145922
 10
101.8039496273268
 20
-136.0843722533053
 10
101.876296632517
 20
-136.0888508774361
 10
101.876296632517
 20
-136.0888508774361
 10
101.876296632517
 20
-136.2917670015173
 10
101.876296632517
 20
-136.2917670015173
 10
101.7512396664025
 20
-136.2831542628042
 10
101.3746907298647
 20
-136.2555934989222
 10
101.3746907298647
 20
-135.7987738375781
 10
101.3746907298647
 20
-135.5748426310369
 10
101.5014702437219
 20
-135.3336859470694
 10
101.7977484554533
 20
-135.3336859470694
 10
101.9837836116568
 20
-135.3336859470694
 10
102.0664659033028
 20
-135.4287705824622
 10
102.1277886029403
 20
-135.5279893324374
 10
102.1553493668223
 20
-135.4666666328
 10
102.2359646011771
 20
-135.2847655911788
 10
102.5129502781912
 20
-135.2847655911788
 10
102.8512586548428
 20
-135.2847655911788
 10
103.0186902954259
 20
-135.5321234470198
 10
103.0186902954259
 20
-135.8094536335824
 97
        0
 97
        0
 75
     2
 76
     1
 98
        0
  0
ENDBLK
  5
8F
330
8C
100
AcDbEntity
  8
0
100
AcDbBlockEnd
  0
BLOCK
  5
94
330
92
100
AcDbEntity
  8
0
100
AcDbBlockBegin
  2
block 5
 70
     0
 10
0.0
 20
0.0
 30
0.0
  3
block 5
  1

  0
SPLINE
  5
96
330
92
100
AcDbEntity
  8
_U+30EC_U+30A4_U+30E4_U+30FC 1
370
     0
100
AcDbSpline
210
0.0
220
0.0
230
1.0
 70
    11
 71
     3
 72
    26
 73
    22
 74
     0
 42
0.0000000001
 43
0.0000000001
 12
1.0
 22
0.0
 32
0.0
 13
1.0
 23
0.0
 33
0.0
 40
0.0
 40
0.0
 40
0.0
 40
0.0
 40
1.0
 40
1.0
 40
1.0
 40
2.0
 40
2.0
 40
2.0
 40
3.0
 40
3.0
 40
3.0
 40
4.0
 40
4.0
 40
4.0
 40
5.0
 40
5.0
 40
5.0
 40
6.0
 40
6.0
 40
6.0
 40
7.0
 40
7.0
 40
7.0
 40
7.0
 10
102.9677028822442
 20
-117.6870455977484
 30
0.0
 10
102.9677028822442
 20
-117.6870455977484
 30
0.0
 10
101.8632052696731
 20
-117.6870455977484
 30
0.0
 10
101.8632052696731
 20
-117.6870455977484
 30
0.0
 10
101.8632052696731
 20
-117.6870455977484
 30
0.0
 10
101.8632052696731
 20
-118.0170857452353
 30
0.0
 10
101.8632052696731
 20
-118.0170857452353
 30
0.0
 10
101.8632052696731
 20
-118.0170857452353
 30
0.0
 10
101.7150661638074
 20
-118.0170857452353
 30
0.0
 10
101.7150661638074
 20
-118.0170857452353
 30
0.0
 10
101.7005967627693
 20
-117.6849785404572
 30
0.0
 10
101.537643746317
 20
-117.6384697514064
 30
0.0
 10
101.4236110857552
 20
-117.6088419302332
 30
0.0
 10
101.4236110857552
 20
-117.6088419302332
 30
0.0
 10
101.4236110857552
 20
-117.4627698816586
 30
0.0
 10
101.4236110857552
 20
-117.4627698816586
 30
0.0
 10
101.4236110857552
 20
-117.4627698816586
 30
0.0
 10
102.9677028822442
 20
-117.4627698816586
 30
0.0
 10
102.9677028822442
 20
-117.4627698816586
 30
0.0
 10
102.9677028822442
 20
-117.4627698816586
 30
0.0
 10
102.9677028822442
 20
-117.6870455977484
 30
0.0
 10
102.9677028822442
 20
-117.6870455977484
 30
0.0
  0
HATCH
  5
97
330
92
100
AcDbEntity
  8
_U+30EC_U+30A4_U+30E4_U+30FC 1
 62
   179
420
  2234388
100
AcDbHatch
 10
0.0
 20
0.0
 30
0.0
210
0.0
220
0.0
230
1.0
  2
SOLID
 70
     1
 71
     0
 91
        1
 92
        1
 93
        1
 72
     4
 94
        3
 73
     0
 74
     1
 95
       26
 96
       22
 40
0.0
 40
0.0
 40
0.0
 40
0.0
 40
1.0
 40
1.0
 40
1.0
 40
2.0
 40
2.0
 40
2.0
 40
3.0
 40
3.0
 40
3.0
 40
4.0
 40
4.0
 40
4.0
 40
5.0
 40
5.0
 40
5.0
 40
6.0
 40
6.0
 40
6.0
 40
7.0
 40
7.0
 40
7.0
 40
7.0
 10
102.9677028822442
 20
-117.6870455977484
 10
102.9677028822442
 20
-117.6870455977484
 10
101.8632052696731
 20
-117.6870455977484
 10
101.8632052696731
 20
-117.6870455977484
 10
101.8632052696731
 20
-117.6870455977484
 10
101.8632052696731
 20
-118.0170857452353
 10
101.8632052696731
 20
-118.0170857452353
 10
101.8632052696731
 20
-118.0170857452353
 10
101.7150661638074
 20
-118.0170857452353
 10
101.7150661638074
 20
-118.0170857452353
 10
101.7005967627693
 20
-117.6849785404572
 10
101.537643746317
 20
-117.6384697514064
 10
101.4236110857552
 20
-117.6088419302332
 10
101.4236110857552
 20
-117.6088419302332
 10
101.4236110857552
 20
-117.4627698816586
 10
101.4236110857552
 20
-117.4627698816586
 10
101.4236110857552
 20
-117.4627698816586
 10
102.9677028822442
 20
-117.4627698816586
 10
102.9677028822442
 20
-117.4627698816586
 10
102.9677028822442
 20
-117.4627698816586
 10
102.9677028822442
 20
-117.6870455977484
 10
102.9677028822442
 20
-117.6870455977484
 97
        0
 97
        0
 75
     2
 76
     1
 98
        0
  0
ENDBLK
  5
95
330
92
100
AcDbEntity
  8
0
100
AcDbBlockEnd
  0
BLOCK
  5
B8
330
B6
100
AcDbEntity
  8
0
100
AcDbBlockBegin
  2
block 6
 70
     0
 10
0.0
 20
0.0
 30
0.0
  3
block 6
  1

  0
SPLINE
  5
BA
330
B6
100
AcDbEntity
  8
_U+30EC_U+30A4_U+30E4_U+30FC 1
370
     0
100
AcDbSpline
210
0.0
220
0.0
230
1.0
 70
    11
 71
     3
 72
    44
 73
    40
 74
     0
 42
0.0000000001
 43
0.0000000001
 12
1.0
 22
0.0
 32
0.0
 13
1.0
 23
0.0
 33
0.0
 40
0.0
 40
0.0
 40
0.0
 40
0.0
 40
1.0
 40
1.0
 40
1.0
 40
2.0
 40
2.0
 40
2.0
 40
3.0
 40
3.0
 40
3.0
 40
4.0
 40
4.0
 40
4.0
 40
5.0
 40
5.0
 40
5.0
 40
6.0
 40
6.0
 40
6.0
 40
7.0
 40
7.0
 40
7.0
 40
8.0
 40
8.0
 40
8.0
 40
9.0
 40
9.0
 40
9.0
 40
10.0
 40
10.0
 40
10.0
 40
11.0
 40
11.0
 40
11.0
 40
12.0
 40
12.0
 40
12.0
 40
13.0
 40
13.0
 40
13.0
 40
13.0
 10
88.48434920747961
 20
-116.1493272279071
 30
0.0
 10
88.26644691803756
 20
-116.3081461297771
 30
0.0
 10
88.17325708516155
 20
-116.38221568271
 30
0.0
 10
88.12468123881953
 20
-116.5258761644449
 30
0.0
 10
88.12468123881953
 20
-116.5258761644449
 30
0.0
 10
88.90310056371173
 20
-116.5258761644449
 30
0.0
 10
88.90310056371173
 20
-116.5258761644449
 30
0.0
 10
88.90310056371173
 20
-116.5258761644449
 30
0.0
 10
88.90310056371173
 20
-116.7312038553658
 30
0.0
 10
88.90310056371173
 20
-116.7312038553658
 30
0.0
 10
88.90310056371173
 20
-116.7312038553658
 30
0.0
 10
87.87508407091318
 20
-116.7312038553658
 30
0.0
 10
87.87508407091318
 20
-116.7312038553658
 30
0.0
 10
87.90677894937748
 20
-116.3736029439969
 30
0.0
 10
87.97240801837148
 20
-116.2953992764817
 30
0.0
 10
88.35739743884815
 20
-115.9970540074591
 30
0.0
 10
88.61336803340222
 20
-115.7982719979602
 30
0.0
 10
88.67882484762197
 20
-115.7304036169007
 30
0.0
 10
88.67882484762197
 20
-115.5929443070393
 30
0.0
 10
88.67882484762197
 20
-115.4744330223467
 30
0.0
 10
88.60699460675451
 20
-115.3435193939072
 30
0.0
 10
88.41027965454674
 20
-115.3435193939072
 30
0.0
 10
88.15000269063611
 20
-115.3435193939072
 30
0.0
 10
88.14156220669726
 20
-115.5739962818704
 30
0.0
 10
88.13725583734069
 20
-115.6904405092718
 30
0.0
 10
88.13725583734069
 20
-115.6904405092718
 30
0.0
 10
87.9131523760252
 20
-115.6904405092718
 30
0.0
 10
87.9131523760252
 20
-115.6904405092718
 30
0.0
 10
87.92159285996405
 20
-115.5633164858661
 30
0.0
 10
87.93210040119406
 20
-115.4513508825955
 30
0.0
 10
88.01254338077464
 20
-115.3328395979029
 30
0.0
 10
88.12244192675412
 20
-115.1719536387417
 30
0.0
 10
88.30864933773186
 20
-115.1381917029863
 30
0.0
 10
88.42509356513331
 20
-115.1381917029863
 30
0.0
 10
88.70225149692166
 20
-115.1381917029863
 30
0.0
 10
88.90947399035944
 20
-115.3221598018986
 30
0.0
 10
88.90947399035944
 20
-115.5950113643304
 30
0.0
 10
88.90947399035944
 20
-115.823765704551
 30
0.0
 10
88.79320201773226
 20
-115.9229844545262
 30
0.0
 10
88.48434920747961
 20
-116.1493272279071
 30
0.0
  0
HATCH
  5
BB
330
B6
100
AcDbEntity
  8
_U+30EC_U+30A4_U+30E4_U+30FC 1
 62
   179
420
  2234388
100
AcDbHatch
 10
0.0
 20
0.0
 30
0.0
210
0.0
220
0.0
230
1.0
  2
SOLID
 70
     1
 71
     0
 91
        1
 92
        1
 93
        1
 72
     4
 94
        3
 73
     0
 74
     1
 95
       44
 96
       40
 40
0.0
 40
0.0
 40
0.0
 40
0.0
 40
1.0
 40
1.0
 40
1.0
 40
2.0
 40
2.0
 40
2.0
 40
3.0
 40
3.0
 40
3.0
 40
4.0
 40
4.0
 40
4.0
 40
5.0
 40
5.0
 40
5.0
 40
6.0
 40
6.0
 40
6.0
 40
7.0
 40
7.0
 40
7.0
 40
8.0
 40
8.0
 40
8.0
 40
9.0
 40
9.0
 40
9.0
 40
10.0
 40
10.0
 40
10.0
 40
11.0
 40
11.0
 40
11.0
 40
12.0
 40
12.0
 40
12.0
 40
13.0
 40
13.0
 40
13.0
 40
13.0
 10
88.48434920747961
 20
-116.1493272279071
 10
88.26644691803756
 20
-116.3081461297771
 10
88.17325708516155
 20
-116.38221568271
 10
88.12468123881953
 20
-116.5258761644449
 10
88.12468123881953
 20
-116.5258761644449
 10
88.90310056371173
 20
-116.5258761644449
 10
88.90310056371173
 20
-116.5258761644449
 10
88.90310056371173
 20
-116.5258761644449
 10
88.90310056371173
 20
-116.7312038553658
 10
88.90310056371173
 20
-116.7312038553658
 10
88.90310056371173
 20
-116.7312038553658
 10
87.87508407091318
 20
-116.7312038553658
 10
87.87508407091318
 20
-116.7312038553658
 10
87.90677894937748
 20
-116.3736029439969
 10
87.97240801837148
 20
-116.2953992764817
 10
88.35739743884815
 20
-115.9970540074591
 10
88.61336803340222
 20
-115.7982719979602
 10
88.67882484762197
 20
-115.7304036169007
 10
88.67882484762197
 20
-115.5929443070393
 10
88.67882484762197
 20
-115.4744330223467
 10
88.60699460675451
 20
-115.3435193939072
 10
88.41027965454674
 20
-115.3435193939072
 10
88.15000269063611
 20
-115.3435193939072
 10
88.14156220669726
 20
-115.5739962818704
 10
88.13725583734069
 20
-115.6904405092718
 10
88.13725583734069
 20
-115.6904405092718
 10
87.9131523760252
 20
-115.6904405092718
 10
87.9131523760252
 20
-115.6904405092718
 10
87.92159285996405
 20
-115.5633164858661
 10
87.93210040119406
 20
-115.4513508825955
 10
88.01254338077464
 20
-115.3328395979029
 10
88.12244192675412
 20
-115.1719536387417
 10
88.30864933773186
 20
-115.1381917029863
 10
88.42509356513331
 20
-115.1381917029863
 10
88.70225149692166
 20
-115.1381917029863
 10
88.90947399035944
 20
-115.3221598018986
 10
88.90947399035944
 20
-115.5950113643304
 10
88.90947399035944
 20
-115.823765704551
 10
88.79320201773226
 20
-115.9229844545262
 10
88.48434920747961
 20
-116.1493272279071
 97
        0
 97
        0
 75
     2
 76
     1
 98
        0
  0
SPLINE
  5
BC
330
B6
100
AcDbEntity
  8
_U+30EC_U+30A4_U+30E4_U+30FC 1
370
     0
100
AcDbSpline
210
0.0
220
0.0
230
1.0
 70
    11
 71
     3
 72
    26
 73
    22
 74
     0
 42
0.0000000001
 43
0.0000000001
 12
1.0
 22
0.0
 32
0.0
 13
1.0
 23
0.0
 33
0.0
 40
0.0
 40
0.0
 40
0.0
 40
0.0
 40
1.0
 40
1.0
 40
1.0
 40
2.0
 40
2.0
 40
2.0
 40
3.0
 40
3.0
 40
3.0
 40
4.0
 40
4.0
 40
4.0
 40
5.0
 40
5.0
 40
5.0
 40
6.0
 40
6.0
 40
6.0
 40
7.0
 40
7.0
 40
7.0
 40
7.0
 10
89.51942814602292
 20
-116.7312038553658
 30
0.0
 10
89.51942814602292
 20
-116.7312038553658
 30
0.0
 10
89.51942814602292
 20
-115.6270507523432
 30
0.0
 10
89.51942814602292
 20
-115.6270507523432
 30
0.0
 10
89.51942814602292
 20
-115.6270507523432
 30
0.0
 10
89.18938799853599
 20
-115.6270507523432
 30
0.0
 10
89.18938799853599
 20
-115.6270507523432
 30
0.0
 10
89.18938799853599
 20
-115.6270507523432
 30
0.0
 10
89.18938799853599
 20
-115.4789116464775
 30
0.0
 10
89.18938799853599
 20
-115.4789116464775
 30
0.0
 10
89.52149520331407
 20
-115.4640977358909
 30
0.0
 10
89.56800399236495
 20
-115.3011447194386
 30
0.0
 10
89.5976318135381
 20
-115.1867675493283
 30
0.0
 10
89.5976318135381
 20
-115.1867675493283
 30
0.0
 10
89.7437038621127
 20
-115.1867675493283
 30
0.0
 10
89.7437038621127
 20
-115.1867675493283
 30
0.0
 10
89.7437038621127
 20
-115.1867675493283
 30
0.0
 10
89.7437038621127
 20
-116.7312038553658
 30
0.0
 10
89.7437038621127
 20
-116.7312038553658
 30
0.0
 10
89.7437038621127
 20
-116.7312038553658
 30
0.0
 10
89.51942814602292
 20
-116.7312038553658
 30
0.0
 10
89.51942814602292
 20
-116.7312038553658
 30
0.0
  0
HATCH
  5
BD
330
B6
100
AcDbEntity
  8
_U+30EC_U+30A4_U+30E4_U+30FC 1
 62
   179
420
  2234388
100
AcDbHatch
 10
0.0
 20
0.0
 30
0.0
210
0.0
220
0.0
230
1.0
  2
SOLID
 70
     1
 71
     0
 91
        1
 92
        1
 93
        1
 72
     4
 94
        3
 73
     0
 74
     1
 95
       26
 96
       22
 40
0.0
 40
0.0
 40
0.0
 40
0.0
 40
1.0
 40
1.0
 40
1.0
 40
2.0
 40
2.0
 40
2.0
 40
3.0
 40
3.0
 40
3.0
 40
4.0
 40
4.0
 40
4.0
 40
5.0
 40
5.0
 40
5.0
 40
6.0
 40
6.0
 40
6.0
 40
7.0
 40
7.0
 40
7.0
 40
7.0
 10
89.51942814602292
 20
-116.7312038553658
 10
89.51942814602292
 20
-116.7312038553658
 10
89.51942814602292
 20
-115.6270507523432
 10
89.51942814602292
 20
-115.6270507523432
 10
89.51942814602292
 20
-115.6270507523432
 10
89.18938799853599
 20
-115.6270507523432
 10
89.18938799853599
 20
-115.6270507523432
 10
89.18938799853599
 20
-115.6270507523432
 10
89.18938799853599
 20
-115.4789116464775
 10
89.18938799853599
 20
-115.4789116464775
 10
89.52149520331407
 20
-115.4640977358909
 10
89.56800399236495
 20
-115.3011447194386
 10
89.5976318135381
 20
-115.1867675493283
 10
89.5976318135381
 20
-115.1867675493283
 10
89.7437038621127
 20
-115.1867675493283
 10
89.7437038621127
 20
-115.1867675493283
 10
89.7437038621127
 20
-115.1867675493283
 10
89.7437038621127
 20
-116.7312038553658
 10
89.7437038621127
 20
-116.7312038553658
 10
89.7437038621127
 20
-116.7312038553658
 10
89.51942814602292
 20
-116.7312038553658
 10
89.51942814602292
 20
-116.7312038553658
 97
        0
 97
        0
 75
     2
 76
     1
 98
        0
  0
ENDBLK
  5
B9
330
B6
100
AcDbEntity
  8
0
100
AcDbBlockEnd
  0
ENDSEC
  0
SECTION
  2
ENTITIES
  0
POLYLINE
  5
41
330
1F
100
AcDbEntity
  8
_U+30EC_U+30A4_U+30E4_U+30FC 1
 62
   179
420
  2234388
370
    25
100
AcDb2dPolyline
 66
     1
 10
0.0
 20
0.0
 30
0.0
  0
VERTEX
  5
42
330
41
100
AcDbEntity
  8
_U+30EC_U+30A4_U+30E4_U+30FC 1
 62
   179
420
  2234388
370
    25
100
AcDbVertex
100
AcDb2dVertex
 10
79.46403908381458
 20
-134.3042991330903
 30
0.0
  0
VERTEX
  5
43
330
41
100
AcDbEntity
  8
_U+30EC_U+30A4_U+30E4_U+30FC 1
 62
   179
420
  2234388
370
    25
100
AcDbVertex
100
AcDb2dVertex
 10
87.45875943540783
 20
-134.3049694108683
 30
0.0
  0
VERTEX
  5
44
330
41
100
AcDbEntity
  8
_U+30EC_U+30A4_U+30E4_U+30FC 1
 62
   179
420
  2234388
370
    25
100
AcDbVertex
100
AcDb2dVertex
 10
87.45875943540783
 20
-137.3042860767853
 30
0.0
  0
VERTEX
  5
45
330
41
100
AcDbEntity
  8
_U+30EC_U+30A4_U+30E4_U+30FC 1
 62
   179
420
  2234388
370
    25
100
AcDbVertex
100
AcDb2dVertex
 10
77.45899135718983
 20
-137.3042860767853
 30
0.0
  0
SEQEND
  5
46
330
41
100
AcDbEntity
  8
_U+30EC_U+30A4_U+30E4_U+30FC 1
 62
   179
420
  2234388
370
    25
  0
POLYLINE
  5
47
330
1F
100
AcDbEntity
  8
_U+30EC_U+30A4_U+30E4_U+30FC 1
 62
   179
420
  2234388
370
    25
100
AcDb2dPolyline
 66
     1
 10
0.0
 20
0.0
 30
0.0
  0
VERTEX
  5
48
330
47
100
AcDbEntity
  8
_U+30EC_U+30A4_U+30E4_U+30FC 1
 62
   179
420
  2234388
370
    25
100
AcDbVertex
100
AcDb2dVertex
 10
78.46222077603976
 20
-134.3029232997574
 30
0.0
  0
VERTEX
  5
49
330
47
100
AcDbEntity
  8
_U+30EC_U+30A4_U+30E4_U+30FC 1
 62
   179
420
  2234388
370
    25
100
AcDbVertex
100
AcDb2dVertex
 10
78.96175409662894
 20
-135.3033657995073
 30
0.0
  0
VERTEX
  5
4A
330
47
100
AcDbEntity
  8
_U+30EC_U+30A4_U+30E4_U+30FC 1
 62
   179
420
  2234388
370
    25
100
AcDbVertex
100
AcDb2dVertex
 10
79.46199297275567
 20
-134.3029232997574
 30
0.0
  0
VERTEX
  5
4B
330
47
100
AcDbEntity
  8
_U+30EC_U+30A4_U+30E4_U+30FC 1
 62
   179
420
  2234388
370
    25
100
AcDbVertex
100
AcDb2dVertex
 10
79.46199297275567
 20
-121.5030166362908
 30
0.0
  0
VERTEX
  5
4C
330
47
100
AcDbEntity
  8
_U+30EC_U+30A4_U+30E4_U+30FC 1
 62
   179
420
  2234388
370
    25
100
AcDbVertex
100
AcDb2dVertex
 10
99.46198774029106
 20
-121.5030166362908
 30
0.0
  0
VERTEX
  5
4D
330
47
100
AcDbEntity
  8
_U+30EC_U+30A4_U+30E4_U+30FC 1
 62
   179
420
  2234388
370
    25
100
AcDbVertex
100
AcDb2dVertex
 10
99.46198774029106
 20
-120.5030680254297
 30
0.0
  0
VERTEX
  5
4E
330
47
100
AcDbEntity
  8
_U+30EC_U+30A4_U+30E4_U+30FC 1
 62
   179
420
  2234388
370
    25
100
AcDbVertex
100
AcDb2dVertex
 10
78.46222077603976
 20
-120.5030680254297
 30
0.0
  0
VERTEX
  5
4F
330
47
100
AcDbEntity
  8
_U+30EC_U+30A4_U+30E4_U+30FC 1
 62
   179
420
  2234388
370
    25
100
AcDbVertex
100
AcDb2dVertex
 10
78.46222077603976
 20
-134.3029232997574
 30
0.0
  0
SEQEND
  5
50
330
47
100
AcDbEntity
  8
_U+30EC_U+30A4_U+30E4_U+30FC 1
 62
   179
420
  2234388
370
    25
  0
POLYLINE
  5
51
330
1F
100
AcDbEntity
  8
_U+30EC_U+30A4_U+30E4_U+30FC 1
 62
   179
420
  2234388
370
    25
100
AcDb2dPolyline
 66
     1
 10
0.0
 20
0.0
 30
0.0
  0
VERTEX
  5
52
330
51
100
AcDbEntity
  8
_U+30EC_U+30A4_U+30E4_U+30FC 1
 62
   179
420
  2234388
370
    25
100
AcDbVertex
100
AcDb2dVertex
 10
78.46222077603976
 20
-134.3029232997574
 30
0.0
  0
VERTEX
  5
53
330
51
100
AcDbEntity
  8
_U+30EC_U+30A4_U+30E4_U+30FC 1
 62
   179
420
  2234388
370
    25
100
AcDbVertex
100
AcDb2dVertex
 10
77.45899135718983
 20
-137.3042860767853
 30
0.0
  0
SEQEND
  5
54
330
51
100
AcDbEntity
  8
_U+30EC_U+30A4_U+30E4_U+30FC 1
 62
   179
420
  2234388
370
    25
  0
SPLINE
  5
55
330
1F
100
AcDbEntity
  8
_U+30EC_U+30A4_U+30E4_U+30FC 1
 62
   179
420
  2234388
370
     9
100
AcDbSpline
210
0.0
220
0.0
230
1.0
 70
    11
 71
     3
 72
    17
 73
    13
 74
     0
 42
0.0000000001
 43
0.0000000001
 12
1.0
 22
0.0
 32
0.0
 13
1.0
 23
0.0
 33
0.0
 40
0.0
 40
0.0
 40
0.0
 40
0.0
 40
1.0
 40
1.0
 40
1.0
 40
2.0
 40
2.0
 40
2.0
 40
3.0
 40
3.0
 40
3.0
 40
4.0
 40
4.0
 40
4.0
 40
4.0
 10
87.55866609952567
 20
-141.3040452424515
 30
0.0
 10
87.55866609952567
 20
-141.2489060757991
 30
0.0
 10
87.5138633228909
 20
-141.2041385758099
 30
0.0
 10
87.45875943540783
 20
-141.2041385758099
 30
0.0
 10
87.40432582568543
 20
-141.2041385758099
 30
0.0
 10
87.35881749351311
 20
-141.2489060757991
 30
0.0
 10
87.35881749351311
 20
-141.3040452424515
 30
0.0
 10
87.35881749351311
 20
-141.3591491313271
 30
0.0
 10
87.40432582568543
 20
-141.4039519090932
 30
0.0
 10
87.45875943540783
 20
-141.4039519090932
 30
0.0
 10
87.5138633228909
 20
-141.4039519090932
 30
0.0
 10
87.55866609952567
 20
-141.3591491313271
 30
0.0
 10
87.55866609952567
 20
-141.3040452424515
 30
0.0
  0
SPLINE
  5
56
330
1F
100
AcDbEntity
  8
_U+30EC_U+30A4_U+30E4_U+30FC 1
 62
   179
420
  2234388
370
     9
100
AcDbSpline
210
0.0
220
0.0
230
1.0
 70
    11
 71
     3
 72
    17
 73
    13
 74
     0
 42
0.0000000001
 43
0.0000000001
 12
1.0
 22
0.0
 32
0.0
 13
1.0
 23
0.0
 33
0.0
 40
0.0
 40
0.0
 40
0.0
 40
0.0
 40
1.0
 40
1.0
 40
1.0
 40
2.0
 40
2.0
 40
2.0
 40
3.0
 40
3.0
 40
3.0
 40
4.0
 40
4.0
 40
4.0
 40
4.0
 10
77.55960553616575
 20
-141.3040452424515
 30
0.0
 10
77.55960553616575
 20
-141.2489060757991
 30
0.0
 10
77.51483607798734
 20
-141.2041385758099
 30
0.0
 10
77.45899135718983
 20
-141.2041385758099
 30
0.0
 10
77.40388746970676
 20
-141.2041385758099
 30
0.0
 10
77.35908469307199
 20
-141.2489060757991
 30
0.0
 10
77.35908469307199
 20
-141.3040452424515
 30
0.0
 10
77.35908469307199
 20
-141.3591491313271
 30
0.0
 10
77.40388746970676
 20
-141.4039519090932
 30
0.0
 10
77.45899135718983
 20
-141.4039519090932
 30
0.0
 10
77.51483607798734
 20
-141.4039519090932
 30
0.0
 10
77.55960553616575
 20
-141.3591491313271
 30
0.0
 10
77.55960553616575
 20
-141.3040452424515
 30
0.0
  0
POLYLINE
  5
57
330
1F
100
AcDbEntity
  8
_U+30EC_U+30A4_U+30E4_U+30FC 1
 62
   179
420
  2234388
370
     9
100
AcDb2dPolyline
 66
     1
 10
0.0
 20
0.0
 30
0.0
  0
VERTEX
  5
58
330
57
100
AcDbEntity
  8
_U+30EC_U+30A4_U+30E4_U+30FC 1
 62
   179
420
  2234388
370
     9
100
AcDbVertex
100
AcDb2dVertex
 10
77.45899135718983
 20
-141.3040452424515
 30
0.0
  0
VERTEX
  5
59
330
57
100
AcDbEntity
  8
_U+30EC_U+30A4_U+30E4_U+30FC 1
 62
   179
420
  2234388
370
     9
100
AcDbVertex
100
AcDb2dVertex
 10
87.45875943540783
 20
-141.3040452424515
 30
0.0
  0
SEQEND
  5
5A
330
57
100
AcDbEntity
  8
_U+30EC_U+30A4_U+30E4_U+30FC 1
 62
   179
420
  2234388
370
     9
  0
POLYLINE
  5
5B
330
1F
100
AcDbEntity
  8
_U+30EC_U+30A4_U+30E4_U+30FC 1
 62
   179
420
  2234388
370
     9
100
AcDb2dPolyline
 66
     1
 10
0.0
 20
0.0
 30
0.0
  0
VERTEX
  5
5C
330
5B
100
AcDbEntity
  8
_U+30EC_U+30A4_U+30E4_U+30FC 1
 62
   179
420
  2234388
370
     9
100
AcDbVertex
100
AcDb2dVertex
 10
77.45899135718983
 20
-138.8428557986224
 30
0.0
  0
VERTEX
  5
5D
330
5B
100
AcDbEntity
  8
_U+30EC_U+30A4_U+30E4_U+30FC 1
 62
   179
420
  2234388
370
     9
100
AcDbVertex
100
AcDb2dVertex
 10
77.45899135718983
 20
-142.3038174644241
 30
0.0
  0
SEQEND
  5
5E
330
5B
100
AcDbEntity
  8
_U+30EC_U+30A4_U+30E4_U+30FC 1
 62
   179
420
  2234388
370
     9
  0
POLYLINE
  5
5F
330
1F
100
AcDbEntity
  8
_U+30EC_U+30A4_U+30E4_U+30FC 1
 62
   179
420
  2234388
370
     9
100
AcDb2dPolyline
 66
     1
 10
0.0
 20
0.0
 30
0.0
  0
VERTEX
  5
60
330
5F
100
AcDbEntity
  8
_U+30EC_U+30A4_U+30E4_U+30FC 1
 62
   179
420
  2234388
370
     9
100
AcDbVertex
100
AcDb2dVertex
 10
87.45875943540783
 20
-138.8428557986224
 30
0.0
  0
VERTEX
  5
61
330
5F
100
AcDbEntity
  8
_U+30EC_U+30A4_U+30E4_U+30FC 1
 62
   179
420
  2234388
370
     9
100
AcDbVertex
100
AcDb2dVertex
 10
87.45875943540783
 20
-142.3038174644241
 30
0.0
  0
SEQEND
  5
62
330
5F
100
AcDbEntity
  8
_U+30EC_U+30A4_U+30E4_U+30FC 1
 62
   179
420
  2234388
370
     9
  0
INSERT
  5
64
330
1F
100
AcDbEntity
  8
_U+30EC_U+30A4_U+30E4_U+30FC 1
100
AcDbBlockReference
  2
block 2
 10
0.0
 20
0.0
 30
0.0
  0
POLYLINE
  5
6C
330
1F
100
AcDbEntity
  8
_U+30EC_U+30A4_U+30E4_U+30FC 1
 62
   179
420
  2234388
370
     9
100
AcDb2dPolyline
 66
     1
 10
0.0
 20
0.0
 30
0.0
  0
VERTEX
  5
6D
330
6C
100
AcDbEntity
  8
_U+30EC_U+30A4_U+30E4_U+30FC 1
 62
   179
420
  2234388
370
     9
100
AcDbVertex
100
AcDb2dVertex
 10
104.7102273286196
 20
-134.3029232997574
 30
0.0
  0
VERTEX
  5
6E
330
6C
100
AcDbEntity
  8
_U+30EC_U+30A4_U+30E4_U+30FC 1
 62
   179
420
  2234388
370
     9
100
AcDbVertex
100
AcDb2dVertex
 10
88.60870912829239
 20
-134.3029232997574
 30
0.0
  0
SEQEND
  5
6F
330
6C
100
AcDbEntity
  8
_U+30EC_U+30A4_U+30E4_U+30FC 1
 62
   179
420
  2234388
370
     9
  0
POLYLINE
  5
70
330
1F
100
AcDbEntity
  8
_U+30EC_U+30A4_U+30E4_U+30FC 1
 62
   179
420
  2234388
370
     9
100
AcDb2dPolyline
 66
     1
 10
0.0
 20
0.0
 30
0.0
  0
VERTEX
  5
71
330
70
100
AcDbEntity
  8
_U+30EC_U+30A4_U+30E4_U+30FC 1
 62
   179
420
  2234388
370
     9
100
AcDbVertex
100
AcDb2dVertex
 10
104.7102273286196
 20
-121.5030166362908
 30
0.0
  0
VERTEX
  5
72
330
70
100
AcDbEntity
  8
_U+30EC_U+30A4_U+30E4_U+30FC 1
 62
   179
420
  2234388
370
     9
100
AcDbVertex
100
AcDb2dVertex
 10
100.6443249748387
 20
-121.5030166362908
 30
0.0
  0
SEQEND
  5
73
330
70
100
AcDbEntity
  8
_U+30EC_U+30A4_U+30E4_U+30FC 1
 62
   179
420
  2234388
370
     9
  0
POLYLINE
  5
74
330
1F
100
AcDbEntity
  8
_U+30EC_U+30A4_U+30E4_U+30FC 1
 62
   179
420
  2234388
370
     9
100
AcDb2dPolyline
 66
     1
 10
0.0
 20
0.0
 30
0.0
  0
VERTEX
  5
75
330
74
100
AcDbEntity
  8
_U+30EC_U+30A4_U+30E4_U+30FC 1
 62
   179
420
  2234388
370
     9
100
AcDbVertex
100
AcDb2dVertex
 10
104.7102273286196
 20
-120.5618055254151
 30
0.0
  0
VERTEX
  5
76
330
74
100
AcDbEntity
  8
_U+30EC_U+30A4_U+30E4_U+30FC 1
 62
   179
420
  2234388
370
     9
100
AcDbVertex
100
AcDb2dVertex
 10
100.6443249748387
 20
-120.5618055254151
 30
0.0
  0
SEQEND
  5
77
330
74
100
AcDbEntity
  8
_U+30EC_U+30A4_U+30E4_U+30FC 1
 62
   179
420
  2234388
370
     9
  0
INSERT
  5
79
330
1F
100
AcDbEntity
  8
_U+30EC_U+30A4_U+30E4_U+30FC 1
100
AcDbBlockReference
  2
block 3
 10
0.0
 20
0.0
 30
0.0
  0
INSERT
  5
8D
330
1F
100
AcDbEntity
  8
_U+30EC_U+30A4_U+30E4_U+30FC 1
100
AcDbBlockReference
  2
block 4
 10
0.0
 20
0.0
 30
0.0
  0
INSERT
  5
93
330
1F
100
AcDbEntity
  8
_U+30EC_U+30A4_U+30E4_U+30FC 1
100
AcDbBlockReference
  2
block 5
 10
0.0
 20
0.0
 30
0.0
  0
SPLINE
  5
98
330
1F
100
AcDbEntity
  8
_U+30EC_U+30A4_U+30E4_U+30FC 1
 62
   179
420
  2234388
370
     9
100
AcDbSpline
210
0.0
220
0.0
230
1.0
 70
    11
 71
     3
 72
    17
 73
    13
 74
     0
 42
0.0000000001
 43
0.0000000001
 12
1.0
 22
0.0
 32
0.0
 13
1.0
 23
0.0
 33
0.0
 40
0.0
 40
0.0
 40
0.0
 40
0.0
 40
1.0
 40
1.0
 40
1.0
 40
2.0
 40
2.0
 40
2.0
 40
3.0
 40
3.0
 40
3.0
 40
4.0
 40
4.0
 40
4.0
 40
4.0
 10
103.8103617960215
 20
-134.2939627442046
 30
0.0
 10
103.8103617960215
 20
-134.3490666330795
 30
0.0
 10
103.7655942971636
 20
-134.3938694108462
 30
0.0
 10
103.7104551319036
 20
-134.3938694108462
 30
0.0
 10
103.6553512444206
 20
-134.3938694108462
 30
0.0
 10
103.6105484677858
 20
-134.3490666330795
 30
0.0
 10
103.6105484677858
 20
-134.2939627442046
 30
0.0
 10
103.6105484677858
 20
-134.2388235775515
 30
0.0
 10
103.6553512444206
 20
-134.1940560775623
 30
0.0
 10
103.7104551319036
 20
-134.1940560775623
 30
0.0
 10
103.7655942971636
 20
-134.1940560775623
 30
0.0
 10
103.8103617960215
 20
-134.2388235775515
 30
0.0
 10
103.8103617960215
 20
-134.2939627442046
 30
0.0
  0
HATCH
  5
99
330
1F
100
AcDbEntity
  8
_U+30EC_U+30A4_U+30E4_U+30FC 1
 62
   179
420
  2234388
100
AcDbHatch
 10
0.0
 20
0.0
 30
0.0
210
0.0
220
0.0
230
1.0
  2
SOLID
 70
     1
 71
     0
 91
        1
 92
        1
 93
        1
 72
     4
 94
        3
 73
     0
 74
     1
 95
       17
 96
       13
 40
0.0
 40
0.0
 40
0.0
 40
0.0
 40
1.0
 40
1.0
 40
1.0
 40
2.0
 40
2.0
 40
2.0
 40
3.0
 40
3.0
 40
3.0
 40
4.0
 40
4.0
 40
4.0
 40
4.0
 10
103.8103617960215
 20
-134.2939627442046
 10
103.8103617960215
 20
-134.3490666330795
 10
103.7655942971636
 20
-134.3938694108462
 10
103.7104551319036
 20
-134.3938694108462
 10
103.6553512444206
 20
-134.3938694108462
 10
103.6105484677858
 20
-134.3490666330795
 10
103.6105484677858
 20
-134.2939627442046
 10
103.6105484677858
 20
-134.2388235775515
 10
103.6553512444206
 20
-134.1940560775623
 10
103.7104551319036
 20
-134.1940560775623
 10
103.7655942971636
 20
-134.1940560775623
 10
103.8103617960215
 20
-134.2388235775515
 10
103.8103617960215
 20
-134.2939627442046
 97
        0
 97
        0
 75
     2
 76
     1
 98
        0
  0
POLYLINE
  5
9A
330
1F
100
AcDbEntity
  8
_U+30EC_U+30A4_U+30E4_U+30FC 1
 62
   179
420
  2234388
370
     9
100
AcDb2dPolyline
 66
     1
 10
0.0
 20
0.0
 30
0.0
  0
VERTEX
  5
9B
330
9A
100
AcDbEntity
  8
_U+30EC_U+30A4_U+30E4_U+30FC 1
 62
   179
420
  2234388
370
     9
100
AcDbVertex
100
AcDb2dVertex
 10
103.7104551319036
 20
-137.2946199656763
 30
0.0
  0
VERTEX
  5
9C
330
9A
100
AcDbEntity
  8
_U+30EC_U+30A4_U+30E4_U+30FC 1
 62
   179
420
  2234388
370
     9
100
AcDbVertex
100
AcDb2dVertex
 10
103.7104551319036
 20
-116.7914930263577
 30
0.0
  0
SEQEND
  5
9D
330
9A
100
AcDbEntity
  8
_U+30EC_U+30A4_U+30E4_U+30FC 1
 62
   179
420
  2234388
370
     9
  0
POLYLINE
  5
9E
330
1F
100
AcDbEntity
  8
_U+30EC_U+30A4_U+30E4_U+30FC 1
 62
   179
420
  2234388
370
     9
100
AcDb2dPolyline
 66
     1
 10
0.0
 20
0.0
 30
0.0
  0
VERTEX
  5
9F
330
9E
100
AcDbEntity
  8
_U+30EC_U+30A4_U+30E4_U+30FC 1
 62
   179
420
  2234388
370
     9
100
AcDbVertex
100
AcDb2dVertex
 10
104.7102273286196
 20
-137.3035805212298
 30
0.0
  0
VERTEX
  5
A0
330
9E
100
AcDbEntity
  8
_U+30EC_U+30A4_U+30E4_U+30FC 1
 62
   179
420
  2234388
370
     9
100
AcDbVertex
100
AcDb2dVertex
 10
88.60870912829239
 20
-137.3035805212298
 30
0.0
  0
SEQEND
  5
A1
330
9E
100
AcDbEntity
  8
_U+30EC_U+30A4_U+30E4_U+30FC 1
 62
   179
420
  2234388
370
     9
  0
SPLINE
  5
A2
330
1F
100
AcDbEntity
  8
_U+30EC_U+30A4_U+30E4_U+30FC 1
 62
   179
420
  2234388
370
     9
100
AcDbSpline
210
0.0
220
0.0
230
1.0
 70
    11
 71
     3
 72
    17
 73
    13
 74
     0
 42
0.0000000001
 43
0.0000000001
 12
1.0
 22
0.0
 32
0.0
 13
1.0
 23
0.0
 33
0.0
 40
0.0
 40
0.0
 40
0.0
 40
0.0
 40
1.0
 40
1.0
 40
1.0
 40
2.0
 40
2.0
 40
2.0
 40
3.0
 40
3.0
 40
3.0
 40
4.0
 40
4.0
 40
4.0
 40
4.0
 10
103.8103617960215
 20
-137.2946199656763
 30
0.0
 10
103.8103617960215
 20
-137.3497591323294
 30
0.0
 10
103.7655942971636
 20
-137.394526632318
 30
0.0
 10
103.7104551319036
 20
-137.394526632318
 30
0.0
 10
103.6553512444206
 20
-137.394526632318
 30
0.0
 10
103.6105484677858
 20
-137.3497591323294
 30
0.0
 10
103.6105484677858
 20
-137.2946199656763
 30
0.0
 10
103.6105484677858
 20
-137.2395160768014
 30
0.0
 10
103.6553512444206
 20
-137.1947132990347
 30
0.0
 10
103.7104551319036
 20
-137.1947132990347
 30
0.0
 10
103.7655942971636
 20
-137.1947132990347
 30
0.0
 10
103.8103617960215
 20
-137.2395160768014
 30
0.0
 10
103.8103617960215
 20
-137.2946199656763
 30
0.0
  0
HATCH
  5
A3
330
1F
100
AcDbEntity
  8
_U+30EC_U+30A4_U+30E4_U+30FC 1
 62
   179
420
  2234388
100
AcDbHatch
 10
0.0
 20
0.0
 30
0.0
210
0.0
220
0.0
230
1.0
  2
SOLID
 70
     1
 71
     0
 91
        1
 92
        1
 93
        1
 72
     4
 94
        3
 73
     0
 74
     1
 95
       17
 96
       13
 40
0.0
 40
0.0
 40
0.0
 40
0.0
 40
1.0
 40
1.0
 40
1.0
 40
2.0
 40
2.0
 40
2.0
 40
3.0
 40
3.0
 40
3.0
 40
4.0
 40
4.0
 40
4.0
 40
4.0
 10
103.8103617960215
 20
-137.2946199656763
 10
103.8103617960215
 20
-137.3497591323294
 10
103.7655942971636
 20
-137.394526632318
 10
103.7104551319036
 20
-137.394526632318
 10
103.6553512444206
 20
-137.394526632318
 10
103.6105484677858
 20
-137.3497591323294
 10
103.6105484677858
 20
-137.2946199656763
 10
103.6105484677858
 20
-137.2395160768014
 10
103.6553512444206
 20
-137.1947132990347
 10
103.7104551319036
 20
-137.1947132990347
 10
103.7655942971636
 20
-137.1947132990347
 10
103.8103617960215
 20
-137.2395160768014
 10
103.8103617960215
 20
-137.2946199656763
 97
        0
 97
        0
 75
     2
 76
     1
 98
        0
  0
SPLINE
  5
A4
330
1F
100
AcDbEntity
  8
_U+30EC_U+30A4_U+30E4_U+30FC 1
 62
   179
420
  2234388
370
     9
100
AcDbSpline
210
0.0
220
0.0
230
1.0
 70
    11
 71
     3
 72
    17
 73
    13
 74
     0
 42
0.0000000001
 43
0.0000000001
 12
1.0
 22
0.0
 32
0.0
 13
1.0
 23
0.0
 33
0.0
 40
0.0
 40
0.0
 40
0.0
 40
0.0
 40
1.0
 40
1.0
 40
1.0
 40
2.0
 40
2.0
 40
2.0
 40
3.0
 40
3.0
 40
3.0
 40
4.0
 40
4.0
 40
4.0
 40
4.0
 10
103.8103617960215
 20
-121.5030166362908
 30
0.0
 10
103.8103617960215
 20
-121.558120525166
 30
0.0
 10
103.7655942971636
 20
-121.6029233029328
 30
0.0
 10
103.7104551319036
 20
-121.6029233029328
 30
0.0
 10
103.6553512444206
 20
-121.6029233029328
 30
0.0
 10
103.6105484677858
 20
-121.558120525166
 30
0.0
 10
103.6105484677858
 20
-121.5030166362908
 30
0.0
 10
103.6105484677858
 20
-121.447877469638
 30
0.0
 10
103.6553512444206
 20
-121.4031099696492
 30
0.0
 10
103.7104551319036
 20
-121.4031099696492
 30
0.0
 10
103.7655942971636
 20
-121.4031099696492
 30
0.0
 10
103.8103617960215
 20
-121.447877469638
 30
0.0
 10
103.8103617960215
 20
-121.5030166362908
 30
0.0
  0
HATCH
  5
A5
330
1F
100
AcDbEntity
  8
_U+30EC_U+30A4_U+30E4_U+30FC 1
 62
   179
420
  2234388
100
AcDbHatch
 10
0.0
 20
0.0
 30
0.0
210
0.0
220
0.0
230
1.0
  2
SOLID
 70
     1
 71
     0
 91
        1
 92
        1
 93
        1
 72
     4
 94
        3
 73
     0
 74
     1
 95
       17
 96
       13
 40
0.0
 40
0.0
 40
0.0
 40
0.0
 40
1.0
 40
1.0
 40
1.0
 40
2.0
 40
2.0
 40
2.0
 40
3.0
 40
3.0
 40
3.0
 40
4.0
 40
4.0
 40
4.0
 40
4.0
 10
103.8103617960215
 20
-121.5030166362908
 10
103.8103617960215
 20
-121.558120525166
 10
103.7655942971636
 20
-121.6029233029328
 10
103.7104551319036
 20
-121.6029233029328
 10
103.6553512444206
 20
-121.6029233029328
 10
103.6105484677858
 20
-121.558120525166
 10
103.6105484677858
 20
-121.5030166362908
 10
103.6105484677858
 20
-121.447877469638
 10
103.6553512444206
 20
-121.4031099696492
 10
103.7104551319036
 20
-121.4031099696492
 10
103.7655942971636
 20
-121.4031099696492
 10
103.8103617960215
 20
-121.447877469638
 10
103.8103617960215
 20
-121.5030166362908
 97
        0
 97
        0
 75
     2
 76
     1
 98
        0
  0
SPLINE
  5
A6
330
1F
100
AcDbEntity
  8
_U+30EC_U+30A4_U+30E4_U+30FC 1
 62
   179
420
  2234388
370
     9
100
AcDbSpline
210
0.0
220
0.0
230
1.0
 70
    11
 71
     3
 72
    17
 73
    13
 74
     0
 42
0.0000000001
 43
0.0000000001
 12
1.0
 22
0.0
 32
0.0
 13
1.0
 23
0.0
 33
0.0
 40
0.0
 40
0.0
 40
0.0
 40
0.0
 40
1.0
 40
1.0
 40
1.0
 40
2.0
 40
2.0
 40
2.0
 40
3.0
 40
3.0
 40
3.0
 40
4.0
 40
4.0
 40
4.0
 40
4.0
 10
103.8103617960215
 20
-120.5618055254151
 30
0.0
 10
103.8103617960215
 20
-120.6169446920679
 30
0.0
 10
103.7655942971636
 20
-120.6617121920568
 30
0.0
 10
103.7104551319036
 20
-120.6617121920568
 30
0.0
 10
103.6553512444206
 20
-120.6617121920568
 30
0.0
 10
103.6105484677858
 20
-120.6169446920679
 30
0.0
 10
103.6105484677858
 20
-120.5618055254151
 30
0.0
 10
103.6105484677858
 20
-120.5067016365399
 30
0.0
 10
103.6553512444206
 20
-120.4618988587735
 30
0.0
 10
103.7104551319036
 20
-120.4618988587735
 30
0.0
 10
103.7655942971636
 20
-120.4618988587735
 30
0.0
 10
103.8103617960215
 20
-120.5067016365399
 30
0.0
 10
103.8103617960215
 20
-120.5618055254151
 30
0.0
  0
HATCH
  5
A7
330
1F
100
AcDbEntity
  8
_U+30EC_U+30A4_U+30E4_U+30FC 1
 62
   179
420
  2234388
100
AcDbHatch
 10
0.0
 20
0.0
 30
0.0
210
0.0
220
0.0
230
1.0
  2
SOLID
 70
     1
 71
     0
 91
        1
 92
        1
 93
        1
 72
     4
 94
        3
 73
     0
 74
     1
 95
       17
 96
       13
 40
0.0
 40
0.0
 40
0.0
 40
0.0
 40
1.0
 40
1.0
 40
1.0
 40
2.0
 40
2.0
 40
2.0
 40
3.0
 40
3.0
 40
3.0
 40
4.0
 40
4.0
 40
4.0
 40
4.0
 10
103.8103617960215
 20
-120.5618055254151
 10
103.8103617960215
 20
-120.6169446920679
 10
103.7655942971636
 20
-120.6617121920568
 10
103.7104551319036
 20
-120.6617121920568
 10
103.6553512444206
 20
-120.6617121920568
 10
103.6105484677858
 20
-120.6169446920679
 10
103.6105484677858
 20
-120.5618055254151
 10
103.6105484677858
 20
-120.5067016365399
 10
103.6553512444206
 20
-120.4618988587735
 10
103.7104551319036
 20
-120.4618988587735
 10
103.7655942971636
 20
-120.4618988587735
 10
103.8103617960215
 20
-120.5067016365399
 10
103.8103617960215
 20
-120.5618055254151
 97
        0
 97
        0
 75
     2
 76
     1
 98
        0
  0
SPLINE
  5
A8
330
1F
100
AcDbEntity
  8
_U+30EC_U+30A4_U+30E4_U+30FC 1
 62
   179
420
  2234388
370
     9
100
AcDbSpline
210
0.0
220
0.0
230
1.0
 70
    11
 71
     3
 72
    17
 73
    13
 74
     0
 42
0.0000000001
 43
0.0000000001
 12
1.0
 22
0.0
 32
0.0
 13
1.0
 23
0.0
 33
0.0
 40
0.0
 40
0.0
 40
0.0
 40
0.0
 40
1.0
 40
1.0
 40
1.0
 40
2.0
 40
2.0
 40
2.0
 40
3.0
 40
3.0
 40
3.0
 40
4.0
 40
4.0
 40
4.0
 40
4.0
 10
78.5621274401576
 20
-117.3273624706682
 30
0.0
 10
78.5621274401576
 20
-117.272258581793
 30
0.0
 10
78.51732466352283
 20
-117.2274558040266
 30
0.0
 10
78.46222077603976
 20
-117.2274558040266
 30
0.0
 10
78.40708161077981
 20
-117.2274558040266
 30
0.0
 10
78.36231411192192
 20
-117.272258581793
 30
0.0
 10
78.36231411192192
 20
-117.3273624706682
 30
0.0
 10
78.36231411192192
 20
-117.382501637321
 30
0.0
 10
78.40708161077981
 20
-117.4272691373099
 30
0.0
 10
78.46222077603976
 20
-117.4272691373099
 30
0.0
 10
78.51732466352283
 20
-117.4272691373099
 30
0.0
 10
78.5621274401576
 20
-117.382501637321
 30
0.0
 10
78.5621274401576
 20
-117.3273624706682
 30
0.0
  0
POLYLINE
  5
A9
330
1F
100
AcDbEntity
  8
_U+30EC_U+30A4_U+30E4_U+30FC 1
 62
   179
420
  2234388
370
     9
100
AcDb2dPolyline
 66
     1
 10
0.0
 20
0.0
 30
0.0
  0
VERTEX
  5
AA
330
A9
100
AcDbEntity
  8
_U+30EC_U+30A4_U+30E4_U+30FC 1
 62
   179
420
  2234388
370
     9
100
AcDbVertex
100
AcDb2dVertex
 10
78.46222077603976
 20
-118.787403859192
 30
0.0
  0
VERTEX
  5
AB
330
A9
100
AcDbEntity
  8
_U+30EC_U+30A4_U+30E4_U+30FC 1
 62
   179
420
  2234388
370
     9
100
AcDbVertex
100
AcDb2dVertex
 10
78.46222077603976
 20
-116.3276255264735
 30
0.0
  0
SEQEND
  5
AC
330
A9
100
AcDbEntity
  8
_U+30EC_U+30A4_U+30E4_U+30FC 1
 62
   179
420
  2234388
370
     9
  0
SPLINE
  5
AD
330
1F
100
AcDbEntity
  8
_U+30EC_U+30A4_U+30E4_U+30FC 1
 62
   179
420
  2234388
370
     9
100
AcDbSpline
210
0.0
220
0.0
230
1.0
 70
    11
 71
     3
 72
    17
 73
    13
 74
     0
 42
0.0000000001
 43
0.0000000001
 12
1.0
 22
0.0
 32
0.0
 13
1.0
 23
0.0
 33
0.0
 40
0.0
 40
0.0
 40
0.0
 40
0.0
 40
1.0
 40
1.0
 40
1.0
 40
2.0
 40
2.0
 40
2.0
 40
3.0
 40
3.0
 40
3.0
 40
4.0
 40
4.0
 40
4.0
 40
4.0
 10
99.5618944044089
 20
-117.3273624706682
 30
0.0
 10
99.5618944044089
 20
-117.272258581793
 30
0.0
 10
99.51709162777414
 20
-117.2274558040266
 30
0.0
 10
99.46198774029106
 20
-117.2274558040266
 30
0.0
 10
99.40684857503112
 20
-117.2274558040266
 30
0.0
 10
99.36208107617324
 20
-117.272258581793
 30
0.0
 10
99.36208107617324
 20
-117.3273624706682
 30
0.0
 10
99.36208107617324
 20
-117.382501637321
 30
0.0
 10
99.40684857503112
 20
-117.4272691373099
 30
0.0
 10
99.46198774029106
 20
-117.4272691373099
 30
0.0
 10
99.51709162777414
 20
-117.4272691373099
 30
0.0
 10
99.5618944044089
 20
-117.382501637321
 30
0.0
 10
99.5618944044089
 20
-117.3273624706682
 30
0.0
  0
POLYLINE
  5
AE
330
1F
100
AcDbEntity
  8
_U+30EC_U+30A4_U+30E4_U+30FC 1
 62
   179
420
  2234388
370
     9
100
AcDb2dPolyline
 66
     1
 10
0.0
 20
0.0
 30
0.0
  0
VERTEX
  5
AF
330
AE
100
AcDbEntity
  8
_U+30EC_U+30A4_U+30E4_U+30FC 1
 62
   179
420
  2234388
370
     9
100
AcDbVertex
100
AcDb2dVertex
 10
99.46198774029106
 20
-118.787403859192
 30
0.0
  0
VERTEX
  5
B0
330
AE
100
AcDbEntity
  8
_U+30EC_U+30A4_U+30E4_U+30FC 1
 62
   179
420
  2234388
370
     9
100
AcDbVertex
100
AcDb2dVertex
 10
99.46198774029106
 20
-116.3276255264735
 30
0.0
  0
SEQEND
  5
B1
330
AE
100
AcDbEntity
  8
_U+30EC_U+30A4_U+30E4_U+30FC 1
 62
   179
420
  2234388
370
     9
  0
POLYLINE
  5
B2
330
1F
100
AcDbEntity
  8
_U+30EC_U+30A4_U+30E4_U+30FC 1
 62
   179
420
  2234388
370
     9
100
AcDb2dPolyline
 66
     1
 10
0.0
 20
0.0
 30
0.0
  0
VERTEX
  5
B3
330
B2
100
AcDbEntity
  8
_U+30EC_U+30A4_U+30E4_U+30FC 1
 62
   179
420
  2234388
370
     9
100
AcDbVertex
100
AcDb2dVertex
 10
78.46292633157732
 20
-117.3273624706682
 30
0.0
  0
VERTEX
  5
B4
330
B2
100
AcDbEntity
  8
_U+30EC_U+30A4_U+30E4_U+30FC 1
 62
   179
420
  2234388
370
     9
100
AcDbVertex
100
AcDb2dVertex
 10
99.46198774029106
 20
-117.3273624706682
 30
0.0
  0
SEQEND
  5
B5
330
B2
100
AcDbEntity
  8
_U+30EC_U+30A4_U+30E4_U+30FC 1
 62
   179
420
  2234388
370
     9
  0
INSERT
  5
B7
330
1F
100
AcDbEntity
  8
_U+30EC_U+30A4_U+30E4_U+30FC 1
100
AcDbBlockReference
  2
block 6
 10
0.0
 20
0.0
 30
0.0
  0
ENDSEC
  0
SECTION
  2
OBJECTS
  0
DICTIONARY
  5
C
330
0
100
AcDbDictionary
281
     1
  3
ACAD_GROUP
350
D
  3
ACAD_LAYOUT
350
1A
  3
ACAD_MATERIAL
350
3B
  3
ACAD_MLEADERSTYLE
350
BF
  3
ACAD_MLINESTYLE
350
17
  3
ACAD_PLOTSETTINGS
350
19
  3
ACAD_PLOTSTYLENAME
350
E
  3
ACAD_TABLESTYLE
350
BE
  3
ACAD_VISUALSTYLE
350
2A
  0
SUN
  5
3F
330
29
100
AcDbSun
 90
        1
290
     0
 63
     7
421
 16777215
 40
1.0
291
     1
 91
  2455826
 92
 54000000
292
     0
 70
     2
 71
   256
280
     1
  0
DICTIONARY
  5
D
102
{ACAD_REACTORS
330
C
102
}
330
C
100
AcDbDictionary
281
     1
  0
DICTIONARY
  5
1A
102
{ACAD_REACTORS
330
C
102
}
330
C
100
AcDbDictionary
281
     1
  3
Layout1
350
1E
  3
Layout2
350
26
  3
Model
350
22
  0
DICTIONARY
  5
3B
102
{ACAD_REACTORS
330
C
102
}
330
C
100
AcDbDictionary
281
     1
  3
ByBlock
350
3D
  3
ByLayer
350
3C
  3
Global
350
3E
  0
DICTIONARY
  5
BF
102
{ACAD_REACTORS
330
C
102
}
330
C
100
AcDbDictionary
281
     1
  0
DICTIONARY
  5
17
102
{ACAD_REACTORS
330
C
102
}
330
C
100
AcDbDictionary
281
     1
  3
Standard
350
18
  0
DICTIONARY
  5
19
102
{ACAD_REACTORS
330
C
102
}
330
C
100
AcDbDictionary
281
     1
  0
ACDBDICTIONARYWDFLT
  5
E
102
{ACAD_REACTORS
330
C
102
}
330
C
100
AcDbDictionary
281
     1
  3
Normal
350
F
100
AcDbDictionaryWithDefault
340
F
  0
DICTIONARY
  5
BE
102
{ACAD_REACTORS
330
C
102
}
330
C
100
AcDbDictionary
281
     1
  0
DICTIONARY
  5
2A
102
{ACAD_REACTORS
330
C
102
}
330
C
100
AcDbDictionary
281
     1
  3
2dWireframe
350
2F
  3
3D Hidden
350
31
  3
3dWireframe
350
30
  3
Basic
350
32
  3
Brighten
350
36
  3
ColorChange
350
3A
  3
Conceptual
350
34
  3
Dim
350
35
  3
Facepattern
350
39
  3
Flat
350
2B
  3
FlatWithEdges
350
2C
  3
Gouraud
350
2D
  3
GouraudWithEdges
350
2E
  3
Linepattern
350
38
  3
Realistic
350
33
  3
Thicken
350
37
  0
LAYOUT
  5
1E
102
{ACAD_REACTORS
330
1A
102
}
330
1A
100
AcDbPlotSettings
  1

  2
none_device
  4

  6

 40
0.0
 41
0.0
 42
0.0
 43
0.0
 44
0.0
 45
0.0
 46
0.0
 47
0.0
 48
0.0
 49
0.0
140
0.0
141
0.0
142
1.0
143
1.0
 70
   688
 72
     0
 73
     0
 74
     5
  7

 75
    16
 76
     0
 77
     2
 78
   300
147
1.0
148
0.0
149
0.0
100
AcDbLayout
  1
Layout1
 70
     1
 71
     1
 10
0.0
 20
0.0
 11
12.0
 21
9.0
 12
0.0
 22
0.0
 32
0.0
 14
1.000000000000000E+20
 24
1.000000000000000E+20
 34
1.000000000000000E+20
 15
-1.000000000000000E+20
 25
-1.000000000000000E+20
 35
-1.000000000000000E+20
146
0.0
 13
0.0
 23
0.0
 33
0.0
 16
1.0
 26
0.0
 36
0.0
 17
0.0
 27
1.0
 37
0.0
 76
     0
330
1B
  0
LAYOUT
  5
26
102
{ACAD_REACTORS
330
1A
102
}
330
1A
100
AcDbPlotSettings
  1

  2
none_device
  4

  6

 40
0.0
 41
0.0
 42
0.0
 43
0.0
 44
0.0
 45
0.0
 46
0.0
 47
0.0
 48
0.0
 49
0.0
140
0.0
141
0.0
142
1.0
143
1.0
 70
   688
 72
     0
 73
     0
 74
     5
  7

 75
    16
 76
     0
 77
     2
 78
   300
147
1.0
148
0.0
149
0.0
100
AcDbLayout
  1
Layout2
 70
     1
 71
     2
 10
0.0
 20
0.0
 11
0.0
 21
0.0
 12
0.0
 22
0.0
 32
0.0
 14
0.0
 24
0.0
 34
0.0
 15
0.0
 25
0.0
 35
0.0
146
0.0
 13
0.0
 23
0.0
 33
0.0
 16
1.0
 26
0.0
 36
0.0
 17
0.0
 27
1.0
 37
0.0
 76
     0
330
23
  0
LAYOUT
  5
22
102
{ACAD_REACTORS
330
1A
102
}
330
1A
100
AcDbPlotSettings
  1

  2
none_device
  4

  6

 40
0.0
 41
0.0
 42
0.0
 43
0.0
 44
0.0
 45
0.0
 46
0.0
 47
0.0
 48
0.0
 49
0.0
140
0.0
141
0.0
142
1.0
143
1.0
 70
  1712
 72
     0
 73
     0
 74
     0
  7

 75
     0
 76
     0
 77
     2
 78
   300
147
1.0
148
0.0
149
0.0
100
AcDbLayout
  1
Model
 70
     1
 71
     0
 10
0.0
 20
0.0
 11
12.0
 21
9.0
 12
0.0
 22
0.0
 32
0.0
 14
1.000000000000000E+20
 24
1.000000000000000E+20
 34
1.000000000000000E+20
 15
-1.000000000000000E+20
 25
-1.000000000000000E+20
 35
-1.000000000000000E+20
146
0.0
 13
0.0
 23
0.0
 33
0.0
 16
1.0
 26
0.0
 36
0.0
 17
0.0
 27
1.0
 37
0.0
 76
     0
330
1F
331
29
  0
MATERIAL
  5
3D
102
{ACAD_REACTORS
330
3B
102
}
330
3B
100
AcDbMaterial
  1
ByBlock
 72
     1
 94
      127
  0
MATERIAL
  5
3C
102
{ACAD_REACTORS
330
3B
102
}
330
3B
100
AcDbMaterial
  1
ByLayer
 72
     1
 94
      127
  0
MATERIAL
  5
3E
102
{ACAD_REACTORS
330
3B
102
}
330
3B
100
AcDbMaterial
  1
Global
 72
     1
 94
      127
  0
MLINESTYLE
  5
18
102
{ACAD_REACTORS
330
17
102
}
330
17
100
AcDbMlineStyle
  2
Standard
 70
     0
  3

 62
   256
 51
90.0
 52
90.0
 71
     2
 49
0.5
 62
   256
  6
BYLAYER
 49
-0.5
 62
   256
  6
BYLAYER
  0
ACDBPLACEHOLDER
  5
F
102
{ACAD_REACTORS
330
E
102
}
330
E
  0
VISUALSTYLE
  5
2F
102
{ACAD_REACTORS
330
2A
102
}
330
2A
100
AcDbVisualStyle
  2
2dWireframe
 70
     4
177
     2
291
     0
 71
     0
176
     1
 72
     2
176
     1
 73
     0
176
     1
 90
        0
176
     1
 40
-0.6
176
     1
 41
-30.0
176
     1
 62
     5
 63
     7
421
 16777215
176
     1
 74
     1
176
     1
 91
        4
176
     1
 64
     7
176
     1
 65
   257
176
     1
 75
     1
176
     1
175
     1
176
     1
 42
1.0
176
     1
 92
        0
176
     1
 66
   257
176
     1
 43
1.0
176
     1
 76
     1
176
     1
 77
     6
176
     1
 78
     2
176
     1
 67
     7
176
     1
 79
     5
176
     1
170
     0
176
     1
171
     0
176
     1
290
     0
176
     1
 93
        1
176
     1
 44
0.0
176
     1
173
     0
176
     1
  0
VISUALSTYLE
  5
31
102
{ACAD_REACTORS
330
2A
102
}
330
2A
100
AcDbVisualStyle
  2
3D Hidden
 70
     6
177
     2
291
     0
 71
     1
176
     1
 72
     2
176
     1
 73
     2
176
     1
 90
        0
176
     1
 40
-0.6
176
     1
 41
-30.0
176
     1
 62
     5
 63
     7
421
 16777215
176
     1
 74
     2
176
     1
 91
        2
176
     1
 64
     7
176
     1
 65
   257
176
     1
 75
     2
176
     1
175
     1
176
     1
 42
40.0
176
     1
 92
        0
176
     1
 66
   257
176
     1
 43
1.0
176
     1
 76
     1
176
     1
 77
     6
176
     1
 78
     2
176
     1
 67
     7
176
     1
 79
     3
176
     1
170
     0
176
     1
171
     0
176
     1
290
     0
176
     1
 93
        1
176
     1
 44
0.0
176
     1
173
     0
176
     1
  0
VISUALSTYLE
  5
30
102
{ACAD_REACTORS
330
2A
102
}
330
2A
100
AcDbVisualStyle
  2
3dWireframe
 70
     5
177
     2
291
     0
 71
     0
176
     1
 72
     2
176
     1
 73
     0
176
     1
 90
        0
176
     1
 40
-0.6
176
     1
 41
-30.0
176
     1
 62
     5
 63
     7
421
 16777215
176
     1
 74
     1
176
     1
 91
        4
176
     1
 64
     7
176
     1
 65
   257
176
     1
 75
     1
176
     1
175
     1
176
     1
 42
1.0
176
     1
 92
        0
176
     1
 66
   257
176
     1
 43
1.0
176
     1
 76
     1
176
     1
 77
     6
176
     1
 78
     2
176
     1
 67
     7
176
     1
 79
     5
176
     1
170
     0
176
     1
171
     0
176
     1
290
     0
176
     1
 93
        1
176
     1
 44
0.0
176
     1
173
     0
176
     1
  0
VISUALSTYLE
  5
32
102
{ACAD_REACTORS
330
2A
102
}
330
2A
100
AcDbVisualStyle
  2
Basic
 70
     7
177
     2
291
     1
 71
     1
176
     1
 72
     0
176
     1
 73
     1
176
     1
 90
        0
176
     1
 40
-0.6
176
     1
 41
-30.0
176
     1
 62
     5
 63
     7
421
 16777215
176
     1
 74
     0
176
     1
 91
        4
176
     1
 64
     7
176
     1
 65
   257
176
     1
 75
     1
176
     1
175
     1
176
     1
 42
1.0
176
     1
 92
        8
176
     1
 66
     7
176
     1
 43
1.0
176
     1
 76
     1
176
     1
 77
     6
176
     1
 78
     2
176
     1
 67
     7
176
     1
 79
     5
176
     1
170
     0
176
     1
171
     0
176
     1
290
     0
176
     1
 93
        1
176
     1
 44
0.0
176
     1
173
     0
176
     1
  0
VISUALSTYLE
  5
36
102
{ACAD_REACTORS
330
2A
102
}
330
2A
100
AcDbVisualStyle
  2
Brighten
 70
    12
177
     2
291
     1
 71
     2
176
     1
 72
     2
176
     1
 73
     0
176
     1
 90
        0
176
     1
 40
-0.6
176
     1
 41
-30.0
176
     1
 62
     5
 63
     7
421
 16777215
176
     1
 74
     1
176
     1
 91
        4
176
     1
 64
     7
176
     1
 65
   257
176
     1
 75
     1
176
     1
175
     1
176
     1
 42
1.0
176
     1
 92
        8
176
     1
 66
     7
176
     1
 43
1.0
176
     1
 76
     1
176
     1
 77
     6
176
     1
 78
     2
176
     1
 67
     7
176
     1
 79
     5
176
     1
170
     0
176
     1
171
     0
176
     1
290
     0
176
     1
 93
        1
176
     1
 44
50.0
176
     1
173
     0
176
     1
  0
VISUALSTYLE
  5
3A
102
{ACAD_REACTORS
330
2A
102
}
330
2A
100
AcDbVisualStyle
  2
ColorChange
 70
    16
177
     2
291
     1
 71
     2
176
     1
 72
     2
176
     1
 73
     3
176
     1
 90
        0
176
     1
 40
-0.6
176
     1
 41
-30.0
176
     1
 62
     5
 63
     8
421
  8421504
176
     1
 74
     1
176
     1
 91
        4
176
     1
 64
     7
176
     1
 65
   257
176
     1
 75
     1
176
     1
175
     1
176
     1
 42
1.0
176
     1
 92
        8
176
     1
 66
     8
424
  8421504
176
     1
 43
1.0
176
     1
 76
     1
176
     1
 77
     6
176
     1
 78
     2
176
     1
 67
     7
176
     1
 79
     5
176
     1
170
     0
176
     1
171
     0
176
     1
290
     0
176
     1
 93
        1
176
     1
 44
0.0
176
     1
173
     0
176
     1
  0
VISUALSTYLE
  5
34
102
{ACAD_REACTORS
330
2A
102
}
330
2A
100
AcDbVisualStyle
  2
Conceptual
 70
     9
177
     2
291
     0
 71
     3
176
     1
 72
     2
176
     1
 73
     0
176
     1
 90
        0
176
     1
 40
-0.6
176
     1
 41
-30.0
176
     1
 62
     5
 63
     7
421
 16777215
176
     1
 74
     2
176
     1
 91
        2
176
     1
 64
     7
176
     1
 65
   257
176
     1
 75
     1
176
     1
175
     1
176
     1
 42
40.0
176
     1
 92
        8
176
     1
 66
     7
176
     1
 43
1.0
176
     1
 76
     1
176
     1
 77
     6
176
     1
 78
     2
176
     1
 67
     7
176
     1
 79
     3
176
     1
170
     0
176
     1
171
     0
176
     1
290
     0
176
     1
 93
        1
176
     1
 44
0.0
176
     1
173
     0
176
     1
  0
VISUALSTYLE
  5
35
102
{ACAD_REACTORS
330
2A
102
}
330
2A
100
AcDbVisualStyle
  2
Dim
 70
    11
177
     2
291
     1
 71
     2
176
     1
 72
     2
176
     1
 73
     0
176
     1
 90
        0
176
     1
 40
-0.6
176
     1
 41
-30.0
176
     1
 62
     5
 63
     7
421
 16777215
176
     1
 74
     1
176
     1
 91
        4
176
     1
 64
     7
176
     1
 65
   257
176
     1
 75
     1
176
     1
175
     1
176
     1
 42
1.0
176
     1
 92
        8
176
     1
 66
     7
176
     1
 43
1.0
176
     1
 76
     1
176
     1
 77
     6
176
     1
 78
     2
176
     1
 67
     7
176
     1
 79
     5
176
     1
170
     0
176
     1
171
     0
176
     1
290
     0
176
     1
 93
        1
176
     1
 44
-50.0
176
     1
173
     0
176
     1
  0
VISUALSTYLE
  5
39
102
{ACAD_REACTORS
330
2A
102
}
330
2A
100
AcDbVisualStyle
  2
Facepattern
 70
    15
177
     2
291
     1
 71
     2
176
     1
 72
     2
176
     1
 73
     0
176
     1
 90
        0
176
     1
 40
-0.6
176
     1
 41
-30.0
176
     1
 62
     5
 63
     7
421
 16777215
176
     1
 74
     1
176
     1
 91
        4
176
     1
 64
     7
176
     1
 65
   257
176
     1
 75
     1
176
     1
175
     1
176
     1
 42
1.0
176
     1
 92
        8
176
     1
 66
     7
176
     1
 43
1.0
176
     1
 76
     1
176
     1
 77
     6
176
     1
 78
     2
176
     1
 67
     7
176
     1
 79
     5
176
     1
170
     0
176
     1
171
     0
176
     1
290
     0
176
     1
 93
        1
176
     1
 44
0.0
176
     1
173
     0
176
     1
  0
VISUALSTYLE
  5
2B
102
{ACAD_REACTORS
330
2A
102
}
330
2A
100
AcDbVisualStyle
  2
Flat
 70
     0
177
     2
291
     1
 71
     2
176
     1
 72
     1
176
     1
 73
     1
176
     1
 90
        2
176
     1
 40
-0.6
176
     1
 41
30.0
176
     1
 62
     5
 63
     7
421
 16777215
176
     1
 74
     0
176
     1
 91
        4
176
     1
 64
     7
176
     1
 65
   257
176
     1
 75
     1
176
     1
175
     1
176
     1
 42
1.0
176
     1
 92
        8
176
     1
 66
     7
176
     1
 43
1.0
176
     1
 76
     1
176
     1
 77
     6
176
     1
 78
     2
176
     1
 67
     7
176
     1
 79
     5
176
     1
170
     0
176
     1
171
     0
176
     1
290
     0
176
     1
 93
       13
176
     1
 44
0.0
176
     1
173
     0
176
     1
  0
VISUALSTYLE
  5
2C
102
{ACAD_REACTORS
330
2A
102
}
330
2A
100
AcDbVisualStyle
  2
FlatWithEdges
 70
     1
177
     2
291
     1
 71
     2
176
     1
 72
     1
176
     1
 73
     1
176
     1
 90
        2
176
     1
 40
-0.6
176
     1
 41
30.0
176
     1
 62
     5
 63
     7
421
 16777215
176
     1
 74
     1
176
     1
 91
        4
176
     1
 64
     7
176
     1
 65
   257
176
     1
 75
     1
176
     1
175
     1
176
     1
 42
1.0
176
     1
 92
        0
176
     1
 66
   257
176
     1
 43
1.0
176
     1
 76
     1
176
     1
 77
     6
176
     1
 78
     2
176
     1
 67
     7
176
     1
 79
     5
176
     1
170
     0
176
     1
171
     0
176
     1
290
     0
176
     1
 93
       13
176
     1
 44
0.0
176
     1
173
     0
176
     1
  0
VISUALSTYLE
  5
2D
102
{ACAD_REACTORS
330
2A
102
}
330
2A
100
AcDbVisualStyle
  2
Gouraud
 70
     2
177
     2
291
     1
 71
     2
176
     1
 72
     2
176
     1
 73
     1
176
     1
 90
        2
176
     1
 40
-0.6
176
     1
 41
30.0
176
     1
 62
     5
 63
     7
421
 16777215
176
     1
 74
     0
176
     1
 91
        4
176
     1
 64
     7
176
     1
 65
   257
176
     1
 75
     1
176
     1
175
     1
176
     1
 42
1.0
176
     1
 92
        0
176
     1
 66
     7
176
     1
 43
1.0
176
     1
 76
     1
176
     1
 77
     6
176
     1
 78
     2
176
     1
 67
     7
176
     1
 79
     5
176
     1
170
     0
176
     1
171
     0
176
     1
290
     0
176
     1
 93
       13
176
     1
 44
0.0
176
     1
173
     0
176
     1
  0
VISUALSTYLE
  5
2E
102
{ACAD_REACTORS
330
2A
102
}
330
2A
100
AcDbVisualStyle
  2
GouraudWithEdges
 70
     3
177
     2
291
     1
 71
     2
176
     1
 72
     2
176
     1
 73
     1
176
     1
 90
        2
176
     1
 40
-0.6
176
     1
 41
30.0
176
     1
 62
     5
 63
     7
421
 16777215
176
     1
 74
     1
176
     1
 91
        4
176
     1
 64
     7
176
     1
 65
   257
176
     1
 75
     1
176
     1
175
     1
176
     1
 42
1.0
176
     1
 92
        0
176
     1
 66
   257
176
     1
 43
1.0
176
     1
 76
     1
176
     1
 77
     6
176
     1
 78
     2
176
     1
 67
     7
176
     1
 79
     5
176
     1
170
     0
176
     1
171
     0
176
     1
290
     0
176
     1
 93
       13
176
     1
 44
0.0
176
     1
173
     0
176
     1
  0
VISUALSTYLE
  5
38
102
{ACAD_REACTORS
330
2A
102
}
330
2A
100
AcDbVisualStyle
  2
Linepattern
 70
    14
177
     2
291
     1
 71
     2
176
     1
 72
     2
176
     1
 73
     0
176
     1
 90
        0
176
     1
 40
-0.6
176
     1
 41
-30.0
176
     1
 62
     5
 63
     7
421
 16777215
176
     1
 74
     1
176
     1
 91
        4
176
     1
 64
     7
176
     1
 65
   257
176
     1
 75
     7
176
     1
175
     7
176
     1
 42
1.0
176
     1
 92
        8
176
     1
 66
     7
176
     1
 43
1.0
176
     1
 76
     1
176
     1
 77
     6
176
     1
 78
     2
176
     1
 67
     7
176
     1
 79
     5
176
     1
170
     0
176
     1
171
     0
176
     1
290
     0
176
     1
 93
        1
176
     1
 44
0.0
176
     1
173
     0
176
     1
  0
VISUALSTYLE
  5
33
102
{ACAD_REACTORS
330
2A
102
}
330
2A
100
AcDbVisualStyle
  2
Realistic
 70
     8
177
     2
291
     0
 71
     2
176
     1
 72
     2
176
     1
 73
     0
176
     1
 90
        0
176
     1
 40
-0.6
176
     1
 41
-30.0
176
     1
 62
     5
 63
     7
421
 16777215
176
     1
 74
     1
176
     1
 91
        0
176
     1
 64
     7
176
     1
 65
   257
176
     1
 75
     1
176
     1
175
     1
176
     1
 42
1.0
176
     1
 92
        8
176
     1
 66
     8
424
  7895160
176
     1
 43
1.0
176
     1
 76
     1
176
     1
 77
     6
176
     1
 78
     2
176
     1
 67
     7
176
     1
 79
     5
176
     1
170
     0
176
     1
171
     0
176
     1
290
     0
176
     1
 93
       13
176
     1
 44
0.0
176
     1
173
     0
176
     1
  0
VISUALSTYLE
  5
37
102
{ACAD_REACTORS
330
2A
102
}
330
2A
100
AcDbVisualStyle
  2
Thicken
 70
    13
177
     2
291
     1
 71
     2
176
     1
 72
     2
176
     1
 73
     0
176
     1
 90
        0
176
     1
 40
-0.6
176
     1
 41
-30.0
176
     1
 62
     5
 63
     7
421
 16777215
176
     1
 74
     1
176
     1
 91
        4
176
     1
 64
     7
176
     1
 65
   257
176
     1
 75
     1
176
     1
175
     1
176
     1
 42
1.0
176
     1
 92
       12
176
     1
 66
     7
176
     1
 43
1.0
176
     1
 76
     1
176
     1
 77
     6
176
     1
 78
     2
176
     1
 67
     7
176
     1
 79
     5
176
     1
170
     0
176
     1
171
     0
176
     1
290
     0
176
     1
 93
        1
176
     1
 44
0.0
176
     1
173
     0
176
     1
  0
ENDSEC
  0
EOF
