  0
SECTION
  2
HEADER
  9
$ACADVER
  1
AC1024
  9
$ACADMAINTVER
 70
   226
  9
$DWGCODEPAGE
  3
ANSI_932
  9
$INSBASE
 10
0.0
 20
0.0
 30
0.0
  9
$EXTMIN
 10
1.000000000000000E+20
 20
1.000000000000000E+20
 30
1.000000000000000E+20
  9
$EXTMAX
 10
-1.000000000000000E+20
 20
-1.000000000000000E+20
 30
-1.000000000000000E+20
  9
$LIMMIN
 10
0.0
 20
0.0
  9
$LIMMAX
 10
12.0
 20
9.0
  9
$ORTHOMODE
 70
     0
  9
$REGENMODE
 70
     1
  9
$FILLMODE
 70
     1
  9
$QTEXTMODE
 70
     0
  9
$MIRRTEXT
 70
     0
  9
$LTSCALE
 40
1.0
  9
$ATTMODE
 70
     1
  9
$TEXTSIZE
 40
0.2
  9
$TRACEWID
 40
0.05
  9
$TEXTSTYLE
  7
Standard
  9
$CLAYER
  8
0
  9
$CELTYPE
  6
ByLayer
  9
$CECOLOR
 62
   256
  9
$CELTSCALE
 40
1.0
  9
$DISPSILH
 70
     0
  9
$DIMSCALE
 40
1.0
  9
$DIMASZ
 40
0.18
  9
$DIMEXO
 40
0.0625
  9
$DIMDLI
 40
0.38
  9
$DIMRND
 40
0.0
  9
$DIMDLE
 40
0.0
  9
$DIMEXE
 40
0.18
  9
$DIMTP
 40
0.0
  9
$DIMTM
 40
0.0
  9
$DIMTXT
 40
0.18
  9
$DIMCEN
 40
0.09
  9
$DIMTSZ
 40
0.0
  9
$DIMTOL
 70
     0
  9
$DIMLIM
 70
     0
  9
$DIMTIH
 70
     1
  9
$DIMTOH
 70
     1
  9
$DIMSE1
 70
     0
  9
$DIMSE2
 70
     0
  9
$DIMTAD
 70
     0
  9
$DIMZIN
 70
     0
  9
$DIMBLK
  1

  9
$DIMASO
 70
     1
  9
$DIMSHO
 70
     1
  9
$DIMPOST
  1

  9
$DIMAPOST
  1

  9
$DIMALT
 70
     0
  9
$DIMALTD
 70
     2
  9
$DIMALTF
 40
25.4
  9
$DIMLFAC
 40
1.0
  9
$DIMTOFL
 70
     0
  9
$DIMTVP
 40
0.0
  9
$DIMTIX
 70
     0
  9
$DIMSOXD
 70
     0
  9
$DIMSAH
 70
     0
  9
$DIMBLK1
  1

  9
$DIMBLK2
  1

  9
$DIMSTYLE
  2
Standard
  9
$DIMCLRD
 70
     0
  9
$DIMCLRE
 70
     0
  9
$DIMCLRT
 70
     0
  9
$DIMTFAC
 40
1.0
  9
$DIMGAP
 40
0.09
  9
$DIMJUST
 70
     0
  9
$DIMSD1
 70
     0
  9
$DIMSD2
 70
     0
  9
$DIMTOLJ
 70
     1
  9
$DIMTZIN
 70
     0
  9
$DIMALTZ
 70
     0
  9
$DIMALTTZ
 70
     0
  9
$DIMUPT
 70
     0
  9
$DIMDEC
 70
     4
  9
$DIMTDEC
 70
     4
  9
$DIMALTU
 70
     2
  9
$DIMALTTD
 70
     2
  9
$DIMTXSTY
  7
Standard
  9
$DIMAUNIT
 70
     0
  9
$DIMADEC
 70
     0
  9
$DIMALTRND
 40
0.0
  9
$DIMAZIN
 70
     0
  9
$DIMDSEP
 70
    46
  9
$DIMATFIT
 70
     3
  9
$DIMFRAC
 70
     0
  9
$DIMLDRBLK
  1

  9
$DIMLUNIT
 70
     2
  9
$DIMLWD
 70
    -2
  9
$DIMLWE
 70
    -2
  9
$DIMTMOVE
 70
     0
  9
$DIMFXL
 40
1.0
  9
$DIMFXLON
 70
     0
  9
$DIMJOGANG
 40
0.7853981633974483
  9
$DIMTFILL
 70
     0
  9
$DIMTFILLCLR
 70
     0
  9
$DIMARCSYM
 70
     0
  9
$DIMLTYPE
  6

  9
$DIMLTEX1
  6

  9
$DIMLTEX2
  6

  9
$DIMTXTDIRECTION
 70
     0
  9
$LUNITS
 70
     2
  9
$LUPREC
 70
     4
  9
$SKETCHINC
 40
0.1
  9
$FILLETRAD
 40
0.0
  9
$AUNITS
 70
     0
  9
$AUPREC
 70
     0
  9
$MENU
  1
.
  9
$ELEVATION
 40
0.0
  9
$PELEVATION
 40
0.0
  9
$THICKNESS
 40
0.0
  9
$LIMCHECK
 70
     0
  9
$CHAMFERA
 40
0.0
  9
$CHAMFERB
 40
0.0
  9
$CHAMFERC
 40
0.0
  9
$CHAMFERD
 40
0.0
  9
$SKPOLY
 70
     0
  9
$TDCREATE
 40
2459569.488854167
  9
$TDUCREATE
 40
2459569.113854167
  9
$TDUPDATE
 40
2459569.488854167
  9
$TDUUPDATE
 40
2459569.113854167
  9
$TDINDWG
 40
0.0000000000
  9
$TDUSRTIMER
 40
0.0000000000
  9
$USRTIMER
 70
     1
  9
$ANGBASE
 50
0.0
  9
$ANGDIR
 70
     0
  9
$PDMODE
 70
     0
  9
$PDSIZE
 40
0.0
  9
$PLINEWID
 40
0.0
  9
$SPLFRAME
 70
     0
  9
$SPLINETYPE
 70
     6
  9
$SPLINESEGS
 70
     8
  9
$HANDSEED
  5
12A
  9
$SURFTAB1
 70
     6
  9
$SURFTAB2
 70
     6
  9
$SURFTYPE
 70
     6
  9
$SURFU
 70
     6
  9
$SURFV
 70
     6
  9
$UCSBASE
  2

  9
$UCSNAME
  2

  9
$UCSORG
 10
0.0
 20
0.0
 30
0.0
  9
$UCSXDIR
 10
1.0
 20
0.0
 30
0.0
  9
$UCSYDIR
 10
0.0
 20
1.0
 30
0.0
  9
$UCSORTHOREF
  2

  9
$UCSORTHOVIEW
 70
     0
  9
$UCSORGTOP
 10
0.0
 20
0.0
 30
0.0
  9
$UCSORGBOTTOM
 10
0.0
 20
0.0
 30
0.0
  9
$UCSORGLEFT
 10
0.0
 20
0.0
 30
0.0
  9
$UCSORGRIGHT
 10
0.0
 20
0.0
 30
0.0
  9
$UCSORGFRONT
 10
0.0
 20
0.0
 30
0.0
  9
$UCSORGBACK
 10
0.0
 20
0.0
 30
0.0
  9
$PUCSBASE
  2

  9
$PUCSNAME
  2

  9
$PUCSORG
 10
0.0
 20
0.0
 30
0.0
  9
$PUCSXDIR
 10
1.0
 20
0.0
 30
0.0
  9
$PUCSYDIR
 10
0.0
 20
1.0
 30
0.0
  9
$PUCSORTHOREF
  2

  9
$PUCSORTHOVIEW
 70
     0
  9
$PUCSORGTOP
 10
0.0
 20
0.0
 30
0.0
  9
$PUCSORGBOTTOM
 10
0.0
 20
0.0
 30
0.0
  9
$PUCSORGLEFT
 10
0.0
 20
0.0
 30
0.0
  9
$PUCSORGRIGHT
 10
0.0
 20
0.0
 30
0.0
  9
$PUCSORGFRONT
 10
0.0
 20
0.0
 30
0.0
  9
$PUCSORGBACK
 10
0.0
 20
0.0
 30
0.0
  9
$USERI1
 70
     0
  9
$USERI2
 70
     0
  9
$USERI3
 70
     0
  9
$USERI4
 70
     0
  9
$USERI5
 70
     0
  9
$USERR1
 40
0.0
  9
$USERR2
 40
0.0
  9
$USERR3
 40
0.0
  9
$USERR4
 40
0.0
  9
$USERR5
 40
0.0
  9
$WORLDVIEW
 70
     1
  9
$SHADEDGE
 70
     3
  9
$SHADEDIF
 70
    70
  9
$TILEMODE
 70
     1
  9
$MAXACTVP
 70
    64
  9
$PINSBASE
 10
0.0
 20
0.0
 30
0.0
  9
$PLIMCHECK
 70
     0
  9
$PEXTMIN
 10
1.000000000000000E+20
 20
1.000000000000000E+20
 30
1.000000000000000E+20
  9
$PEXTMAX
 10
-1.000000000000000E+20
 20
-1.000000000000000E+20
 30
-1.000000000000000E+20
  9
$PLIMMIN
 10
0.0
 20
0.0
  9
$PLIMMAX
 10
12.0
 20
9.0
  9
$UNITMODE
 70
     0
  9
$VISRETAIN
 70
     1
  9
$PLINEGEN
 70
     0
  9
$PSLTSCALE
 70
     1
  9
$TREEDEPTH
 70
  3020
  9
$CMLSTYLE
  2
Standard
  9
$CMLJUST
 70
     0
  9
$CMLSCALE
 40
1.0
  9
$PROXYGRAPHICS
 70
     1
  9
$MEASUREMENT
 70
     0
  9
$CELWEIGHT
370
    -1
  9
$ENDCAPS
280
     0
  9
$JOINSTYLE
280
     0
  9
$LWDISPLAY
290
     1
  9
$INSUNITS
 70
     4
  9
$HYPERLINKBASE
  1

  9
$STYLESHEET
  1

  9
$XEDIT
290
     1
  9
$CEPSNTYPE
380
     0
  9
$PSTYLEMODE
290
     1
  9
$FINGERPRINTGUID
  2
{0B327AB0-A1B2-C04B-AEEB-FB82510B86A4}
  9
$VERSIONGUID
  2
{FE55CB85-BA40-8E4B-BABC-B62C52D777A8}
  9
$EXTNAMES
290
     1
  9
$PSVPSCALE
 40
0.0
  9
$OLESTARTUP
290
     0
  9
$SORTENTS
280
   127
  9
$INDEXCTL
280
     0
  9
$HIDETEXT
280
     1
  9
$XCLIPFRAME
280
     2
  9
$HALOGAP
280
     0
  9
$OBSCOLOR
 70
   257
  9
$OBSLTYPE
280
     0
  9
$INTERSECTIONDISPLAY
280
     0
  9
$INTERSECTIONCOLOR
 70
   257
  9
$DIMASSOC
280
     2
  9
$PROJECTNAME
  1

  9
$CAMERADISPLAY
290
     0
  9
$LENSLENGTH
 40
50.0
  9
$CAMERAHEIGHT
 40
0.0
  9
$STEPSPERSEC
 40
2.0
  9
$STEPSIZE
 40
6.0
  9
$3DDWFPREC
 40
2.0
  9
$PSOLWIDTH
 40
0.25
  9
$PSOLHEIGHT
 40
4.0
  9
$LOFTANG1
 40
1.570796326794896
  9
$LOFTANG2
 40
1.570796326794896
  9
$LOFTMAG1
 40
0.0
  9
$LOFTMAG2
 40
0.0
  9
$LOFTPARAM
 70
     7
  9
$LOFTNORMALS
280
     1
  9
$LATITUDE
 40
37.795
  9
$LONGITUDE
 40
-122.394
  9
$NORTHDIRECTION
 40
0.0
  9
$TIMEZONE
 70
 -8000
  9
$LIGHTGLYPHDISPLAY
280
     1
  9
$TILEMODELIGHTSYNCH
280
     1
  9
$CMATERIAL
347
11
  9
$SOLIDHIST
280
     0
  9
$SHOWHIST
280
     1
  9
$DWFFRAME
280
     2
  9
$DGNFRAME
280
     0
  9
$REALWORLDSCALE
290
     1
  9
$INTERFERECOLOR
 62
     1
  9
$INTERFEREOBJVS
345
33
  9
$INTERFEREVPVS
346
30
  9
$CSHADOW
280
     0
  9
$SHADOWPLANELOCATION
 40
0.0
  0
ENDSEC
  0
SECTION
  2
CLASSES
  0
CLASS
  1
ACDBDICTIONARYWDFLT
  2
AcDbDictionaryWithDefault
  3
ObjectDBX Classes
 90
        0
 91
        1
280
     0
281
     0
  0
CLASS
  1
MATERIAL
  2
AcDbMaterial
  3
ObjectDBX Classes
 90
     1153
 91
        3
280
     0
281
     0
  0
CLASS
  1
VISUALSTYLE
  2
AcDbVisualStyle
  3
ObjectDBX Classes
 90
     4095
 91
       24
280
     0
281
     0
  0
CLASS
  1
SCALE
  2
AcDbScale
  3
ObjectDBX Classes
 90
     1153
 91
       17
280
     0
281
     0
  0
CLASS
  1
TABLESTYLE
  2
AcDbTableStyle
  3
ObjectDBX Classes
 90
     4095
 91
        1
280
     0
281
     0
  0
CLASS
  1
MLEADERSTYLE
  2
AcDbMLeaderStyle
  3
ACDB_MLEADERSTYLE_CLASS
 90
     4095
 91
        1
280
     0
281
     0
  0
CLASS
  1
ACDBSECTIONVIEWSTYLE
  2
AcDbSectionViewStyle
  3
ObjectDBX Classes
 90
     1025
 91
        1
280
     0
281
     0
  0
CLASS
  1
ACDBDETAILVIEWSTYLE
  2
AcDbDetailViewStyle
  3
ObjectDBX Classes
 90
     1025
 91
        1
280
     0
281
     0
  0
CLASS
  1
DICTIONARYVAR
  2
AcDbDictionaryVar
  3
ObjectDBX Classes
 90
        0
 91
        5
280
     0
281
     0
  0
CLASS
  1
CELLSTYLEMAP
  2
AcDbCellStyleMap
  3
ObjectDBX Classes
 90
     1152
 91
        1
280
     0
281
     0
  0
ENDSEC
  0
SECTION
  2
TABLES
  0
TABLE
  2
VPORT
  5
8
330
0
100
AcDbSymbolTable
 70
     1
  0
VPORT
  5
57
330
8
100
AcDbSymbolTableRecord
100
AcDbViewportTableRecord
  2
*Active
 70
     0
 10
0.0
 20
0.0
 11
1.0
 21
1.0
 12
0.0
 22
0.0
 13
0.0
 23
0.0
 14
1.0
 24
1.0
 15
0.0
 25
0.0
 16
0.0
 26
0.0
 36
1.0
 17
104.9999999737534
 27
-148.4999999628701
 37
0.0
 40
302.939999924255
 41
0.7070707070707534
 42
50.0
 43
0.0
 44
0.0
 50
0.0
 51
0.0
 71
     0
 72
   100
 73
     1
 74
     0
 75
     1
 76
     0
 77
     0
 78
     0
281
     0
 65
     1
110
0.0
120
0.0
130
0.0
111
1.0
121
0.0
131
0.0
112
0.0
122
1.0
132
0.0
 79
     0
146
0.0
 60
     3
 61
     5
292
     1
282
     1
141
0.0
142
0.0
 63
   250
421
  3355443
  0
ENDTAB
  0
TABLE
  2
LTYPE
  5
5
330
0
100
AcDbSymbolTable
 70
     2
  0
LTYPE
  5
5B
330
5
100
AcDbSymbolTableRecord
100
AcDbLinetypeTableRecord
  2
ByBlock
 70
     0
  3

 72
    65
 73
     0
 40
0.0
  0
LTYPE
  5
5C
330
5
100
AcDbSymbolTableRecord
100
AcDbLinetypeTableRecord
  2
ByLayer
 70
     0
  3

 72
    65
 73
     0
 40
0.0
  0
LTYPE
  5
5D
330
5
100
AcDbSymbolTableRecord
100
AcDbLinetypeTableRecord
  2
Continuous
 70
     0
  3
Solid line
 72
    65
 73
     0
 40
0.0
  0
LTYPE
  5
CE
330
5
100
AcDbSymbolTableRecord
100
AcDbLinetypeTableRecord
  2
AI-Linetype-0
 70
     0
  3
Adobe Illustrator Linetype No. 0
 72
    65
 73
     2
 40
1.411111110758333
 49
0.7055555553791667
 74
     0
 49
-0.7055555553791667
 74
     0
  0
ENDTAB
  0
TABLE
  2
LAYER
  5
2
330
0
100
AcDbSymbolTable
 70
     2
  0
LAYER
  5
54
330
2
100
AcDbSymbolTableRecord
100
AcDbLayerTableRecord
  2
0
 70
     0
 62
     7
  6
Continuous
370
    -3
390
F
347
21
  0
LAYER
  5
78
330
2
100
AcDbSymbolTableRecord
100
AcDbLayerTableRecord
  2
レイヤー 1
 70
     0
 62
     7
  6
Continuous
370
     0
390
F
347
21
  0
ENDTAB
  0
TABLE
  2
STYLE
  5
3
330
0
100
AcDbSymbolTable
 70
     2
  0
STYLE
  5
55
330
3
100
AcDbSymbolTableRecord
100
AcDbTextStyleTableRecord
  2
Standard
 70
     0
 40
0.0
 41
1.0
 50
0.0
 71
     0
 42
0.2
  3
txt
  4

  0
STYLE
  5
5A
330
3
100
AcDbSymbolTableRecord
100
AcDbTextStyleTableRecord
  2
Annotative
 70
     0
 40
0.0
 41
1.0
 50
0.0
 71
     0
 42
0.2
  3
txt
  4

1001
AcadAnnotative
1000
AnnotativeData
1002
{
1070
     1
1070
     1
1002
}
  0
ENDTAB
  0
TABLE
  2
VIEW
  5
6
330
0
100
AcDbSymbolTable
 70
     0
  0
ENDTAB
  0
TABLE
  2
UCS
  5
7
330
0
100
AcDbSymbolTable
 70
     0
  0
ENDTAB
  0
TABLE
  2
APPID
  5
9
330
0
100
AcDbSymbolTable
 70
     2
  0
APPID
  5
56
330
9
100
AcDbSymbolTableRecord
100
AcDbRegAppTableRecord
  2
ACAD
 70
     0
  0
APPID
  5
5E
330
9
100
AcDbSymbolTableRecord
100
AcDbRegAppTableRecord
  2
AcadAnnotative
 70
     0
  0
ENDTAB
  0
TABLE
  2
DIMSTYLE
  5
A
330
0
100
AcDbSymbolTable
 70
     2
100
AcDbDimStyleTable
 71
     0
  0
DIMSTYLE
105
58
330
A
100
AcDbSymbolTableRecord
100
AcDbDimStyleTableRecord
  2
Standard
 70
     0
340
55
  0
DIMSTYLE
105
59
330
A
100
AcDbSymbolTableRecord
100
AcDbDimStyleTableRecord
  2
Annotative
 70
     0
340
55
1001
AcadAnnotative
1000
AnnotativeData
1002
{
1070
     1
1070
     1
1002
}
  0
ENDTAB
  0
TABLE
  2
BLOCK_RECORD
  5
1
330
0
100
AcDbSymbolTable
 70
    12
  0
BLOCK_RECORD
  5
70
330
1
100
AcDbSymbolTableRecord
100
AcDbBlockTableRecord
  2
*Model_Space
340
73
 70
     0
280
     1
281
     0
  0
BLOCK_RECORD
  5
6C
330
1
100
AcDbSymbolTableRecord
100
AcDbBlockTableRecord
  2
*Paper_Space
340
6F
 70
     0
280
     1
281
     0
  0
BLOCK_RECORD
  5
74
330
1
100
AcDbSymbolTableRecord
100
AcDbBlockTableRecord
  2
*Paper_Space0
340
77
 70
     0
280
     1
281
     0
  0
BLOCK_RECORD
  5
81
330
1
100
AcDbSymbolTableRecord
100
AcDbBlockTableRecord
  2
Block_0
340
0
102
{BLKREFS
331
82
102
}
 70
     0
280
     1
281
     0
  0
BLOCK_RECORD
  5
85
330
1
100
AcDbSymbolTableRecord
100
AcDbBlockTableRecord
  2
Block_1
340
0
102
{BLKREFS
331
86
102
}
 70
     0
280
     1
281
     0
  0
BLOCK_RECORD
  5
91
330
1
100
AcDbSymbolTableRecord
100
AcDbBlockTableRecord
  2
Block_2
340
0
102
{BLKREFS
331
92
102
}
 70
     0
280
     1
281
     0
  0
BLOCK_RECORD
  5
95
330
1
100
AcDbSymbolTableRecord
100
AcDbBlockTableRecord
  2
Block_3
340
0
102
{BLKREFS
331
96
102
}
 70
     0
280
     1
281
     0
  0
BLOCK_RECORD
  5
A2
330
1
100
AcDbSymbolTableRecord
100
AcDbBlockTableRecord
  2
Block_4
340
0
102
{BLKREFS
331
A3
102
}
 70
     0
280
     1
281
     0
  0
BLOCK_RECORD
  5
A8
330
1
100
AcDbSymbolTableRecord
100
AcDbBlockTableRecord
  2
Block_5
340
0
102
{BLKREFS
331
A9
102
}
 70
     0
280
     1
281
     0
  0
BLOCK_RECORD
  5
BD
330
1
100
AcDbSymbolTableRecord
100
AcDbBlockTableRecord
  2
Block_6
340
0
102
{BLKREFS
331
BE
102
}
 70
     0
280
     1
281
     0
  0
BLOCK_RECORD
  5
C1
330
1
100
AcDbSymbolTableRecord
100
AcDbBlockTableRecord
  2
Block_7
340
0
102
{BLKREFS
331
C2
102
}
 70
     0
280
     1
281
     0
  0
BLOCK_RECORD
  5
C9
330
1
100
AcDbSymbolTableRecord
100
AcDbBlockTableRecord
  2
Block_8
340
0
102
{BLKREFS
331
CA
102
}
 70
     0
280
     1
281
     0
  0
BLOCK_RECORD
  5
D1
330
1
100
AcDbSymbolTableRecord
100
AcDbBlockTableRecord
  2
Block_9
340
0
102
{BLKREFS
331
D2
102
}
 70
     0
280
     1
281
     0
  0
BLOCK_RECORD
  5
D5
330
1
100
AcDbSymbolTableRecord
100
AcDbBlockTableRecord
  2
Block_10
340
0
102
{BLKREFS
331
D6
102
}
 70
     0
280
     1
281
     0
  0
ENDTAB
  0
ENDSEC
  0
SECTION
  2
BLOCKS
  0
BLOCK
  5
71
330
70
100
AcDbEntity
  8
0
100
AcDbBlockBegin
  2
*Model_Space
 70
     0
 10
0.0
 20
0.0
 30
0.0
  3
*Model_Space
  1

  0
ENDBLK
  5
72
330
70
100
AcDbEntity
  8
0
100
AcDbBlockEnd
  0
BLOCK
  5
6D
330
6C
100
AcDbEntity
 67
     1
  8
0
100
AcDbBlockBegin
  2
*Paper_Space
 70
     0
 10
0.0
 20
0.0
 30
0.0
  3
*Paper_Space
  1

  0
ENDBLK
  5
6E
330
6C
100
AcDbEntity
 67
     1
  8
0
100
AcDbBlockEnd
  0
BLOCK
  5
75
330
74
100
AcDbEntity
 67
     1
  8
0
100
AcDbBlockBegin
  2
*Paper_Space0
 70
     0
 10
0.0
 20
0.0
 30
0.0
  3
*Paper_Space0
  1

  0
ENDBLK
  5
76
330
74
100
AcDbEntity
 67
     1
  8
0
100
AcDbBlockEnd
  0
BLOCK
  5
83
330
81
100
AcDbEntity
  8
0
100
AcDbBlockBegin
  2
Block_0
 70
     0
 10
0.0
 20
0.0
 30
0.0
  3
Block_0
  1

  0
INSERT
  5
86
330
81
100
AcDbEntity
  8
レイヤー 1
100
AcDbBlockReference
  2
Block_1
 10
0.0
 20
0.0
 30
0.0
  0
ENDBLK
  5
84
330
81
100
AcDbEntity
  8
0
100
AcDbBlockEnd
  0
BLOCK
  5
87
330
85
100
AcDbEntity
  8
0
100
AcDbBlockBegin
  2
Block_1
 70
     0
 10
0.0
 20
0.0
 30
0.0
  3
Block_1
  1

  0
SPLINE
  5
89
330
85
100
AcDbEntity
  8
レイヤー 1
100
AcDbSpline
210
0.0
220
0.0
230
1.0
 70
    11
 71
     3
 72
    26
 73
    22
 74
     0
 42
0.0000000001
 43
0.0000000001
 40
0.0
 40
0.0
 40
0.0
 40
0.0
 40
1.0
 40
1.0
 40
1.0
 40
2.0
 40
2.0
 40
2.0
 40
3.0
 40
3.0
 40
3.0
 40
4.0
 40
4.0
 40
4.0
 40
5.0
 40
5.0
 40
5.0
 40
6.0
 40
6.0
 40
6.0
 40
7.0
 40
7.0
 40
7.0
 40
7.0
 10
95.76400822258678
 20
-160.7516004372427
 30
0.0
 10
95.76400822258678
 20
-160.7516004372427
 30
0.0
 10
95.76400822258678
 20
-159.6474473342201
 30
0.0
 10
95.76400822258678
 20
-159.6474473342201
 30
0.0
 10
95.76400822258678
 20
-159.6474473342201
 30
0.0
 10
95.43396807509983
 20
-159.6474473342201
 30
0.0
 10
95.43396807509983
 20
-159.6474473342201
 30
0.0
 10
95.43396807509983
 20
-159.6474473342201
 30
0.0
 10
95.43396807509983
 20
-159.4993082283543
 30
0.0
 10
95.43396807509983
 20
-159.4993082283543
 30
0.0
 10
95.76607527987793
 20
-159.4844943177677
 30
0.0
 10
95.8125840689288
 20
-159.3215413013154
 30
0.0
 10
95.84221189010195
 20
-159.2071641312051
 30
0.0
 10
95.84221189010195
 20
-159.2071641312051
 30
0.0
 10
95.98828393867654
 20
-159.2071641312051
 30
0.0
 10
95.98828393867654
 20
-159.2071641312051
 30
0.0
 10
95.98828393867654
 20
-159.2071641312051
 30
0.0
 10
95.98828393867654
 20
-160.7516004372427
 30
0.0
 10
95.98828393867654
 20
-160.7516004372427
 30
0.0
 10
95.98828393867654
 20
-160.7516004372427
 30
0.0
 10
95.76400822258678
 20
-160.7516004372427
 30
0.0
 10
95.76400822258678
 20
-160.7516004372427
 30
0.0
  0
HATCH
  5
8A
330
85
100
AcDbEntity
  8
レイヤー 1
 62
   250
420
  2299925
440
 33554687
100
AcDbHatch
 10
0.0
 20
0.0
 30
0.0
210
0.0
220
0.0
230
1.0
  2
SOLID
 70
     1
 71
     1
 91
        1
 92
        1
 93
        1
 72
     4
 94
        3
 73
     0
 74
     0
 95
       26
 96
       22
 40
0.0
 40
0.0
 40
0.0
 40
0.0
 40
1.0
 40
1.0
 40
1.0
 40
2.0
 40
2.0
 40
2.0
 40
3.0
 40
3.0
 40
3.0
 40
4.0
 40
4.0
 40
4.0
 40
5.0
 40
5.0
 40
5.0
 40
6.0
 40
6.0
 40
6.0
 40
7.0
 40
7.0
 40
7.0
 40
7.0
 10
95.76400822258678
 20
-160.7516004372427
 10
95.76400822258678
 20
-160.7516004372427
 10
95.76400822258678
 20
-159.6474473342201
 10
95.76400822258678
 20
-159.6474473342201
 10
95.76400822258678
 20
-159.6474473342201
 10
95.43396807509983
 20
-159.6474473342201
 10
95.43396807509983
 20
-159.6474473342201
 10
95.43396807509983
 20
-159.6474473342201
 10
95.43396807509983
 20
-159.4993082283543
 10
95.43396807509983
 20
-159.4993082283543
 10
95.76607527987793
 20
-159.4844943177677
 10
95.8125840689288
 20
-159.3215413013154
 10
95.84221189010195
 20
-159.2071641312051
 10
95.84221189010195
 20
-159.2071641312051
 10
95.98828393867654
 20
-159.2071641312051
 10
95.98828393867654
 20
-159.2071641312051
 10
95.98828393867654
 20
-159.2071641312051
 10
95.98828393867654
 20
-160.7516004372427
 10
95.98828393867654
 20
-160.7516004372427
 10
95.98828393867654
 20
-160.7516004372427
 10
95.76400822258678
 20
-160.7516004372427
 10
95.76400822258678
 20
-160.7516004372427
 97
        0
 97
        1
330
89
 75
     2
 76
     1
 98
        1
 10
0.0
 20
0.0
450
        0
451
        0
460
0.0
461
0.0
452
        0
462
0.0
453
        0
470

  0
SPLINE
  5
8B
330
85
100
AcDbEntity
  8
レイヤー 1
100
AcDbSpline
210
0.0
220
0.0
230
1.0
 70
     9
 71
     3
 72
    17
 73
    13
 74
     0
 42
0.0000000001
 43
0.0000000001
 40
0.0
 40
0.0
 40
0.0
 40
0.0
 40
1.0
 40
1.0
 40
1.0
 40
2.0
 40
2.0
 40
2.0
 40
3.0
 40
3.0
 40
3.0
 40
4.0
 40
4.0
 40
4.0
 40
4.0
 10
96.98942868669014
 20
-159.3511691224886
 30
0.0
 10
96.74000377355806
 20
-159.3511691224886
 30
0.0
 10
96.69315047495866
 20
-159.6347004809246
 30
0.0
 10
96.69315047495866
 20
-159.9795545389981
 30
0.0
 10
96.69315047495866
 20
-160.2989148904808
 30
0.0
 10
96.7293239775538
 20
-160.6075954459592
 30
0.0
 10
96.98942868669014
 20
-160.6075954459592
 30
0.0
 10
97.23713105207961
 20
-160.6075954459592
 30
0.0
 10
97.28570689842165
 20
-160.3264756543628
 30
0.0
 10
97.28570689842165
 20
-159.9795545389981
 30
0.0
 10
97.28570689842165
 20
-159.659849677967
 30
0.0
 10
97.24746633853536
 20
-159.3511691224886
 30
0.0
 10
96.98942868669014
 20
-159.3511691224886
 30
0.0
  0
SPLINE
  5
8C
330
85
100
AcDbEntity
  8
レイヤー 1
100
AcDbSpline
210
0.0
220
0.0
230
1.0
 70
     9
 71
     3
 72
    29
 73
    25
 74
     0
 42
0.0000000001
 43
0.0000000001
 40
0.0
 40
0.0
 40
0.0
 40
0.0
 40
1.0
 40
1.0
 40
1.0
 40
2.0
 40
2.0
 40
2.0
 40
3.0
 40
3.0
 40
3.0
 40
4.0
 40
4.0
 40
4.0
 40
5.0
 40
5.0
 40
5.0
 40
6.0
 40
6.0
 40
6.0
 40
7.0
 40
7.0
 40
7.0
 40
8.0
 40
8.0
 40
8.0
 40
8.0
 10
97.38733721523651
 20
-160.5738335102038
 30
0.0
 10
97.27916121699966
 20
-160.7832953157069
 30
0.0
 10
97.1058729140916
 20
-160.8022433408758
 30
0.0
 10
96.98942868669014
 20
-160.8022433408758
 30
0.0
 10
96.82854272752898
 20
-160.8022433408758
 30
0.0
 10
96.68694930308522
 20
-160.7557345518249
 30
0.0
 10
96.59186466769233
 20
-160.5738335102038
 30
0.0
 10
96.4881672935863
 20
-160.3791856152871
 30
0.0
 10
96.46921926841741
 20
-160.1425075554505
 30
0.0
 10
96.46921926841741
 20
-159.9795545389981
 30
0.0
 10
96.46921926841741
 20
-159.8355495477147
 30
0.0
 10
96.48610023629515
 20
-159.5837130677429
 30
0.0
 10
96.59186466769233
 20
-159.384931058244
 30
0.0
 10
96.69969615638065
 20
-159.1820149341628
 30
0.0
 10
96.86058211554181
 20
-159.1585882848631
 30
0.0
 10
96.98942868669014
 20
-159.1585882848631
 30
0.0
 10
97.14824758856018
 20
-159.1585882848631
 30
0.0
 10
97.29190807029509
 20
-159.2030300166228
 30
0.0
 10
97.38733721523651
 20
-159.384931058244
 30
0.0
 10
97.48655596521169
 20
-159.5775118958695
 30
0.0
 10
97.5099826145114
 20
-159.8059217265415
 30
0.0
 10
97.5099826145114
 20
-159.9795545389981
 30
0.0
 10
97.5099826145114
 20
-160.1507757846151
 30
0.0
 10
97.48862302250286
 20
-160.3812526725783
 30
0.0
 10
97.38733721523651
 20
-160.5738335102038
 30
0.0
  0
HATCH
  5
8D
330
85
100
AcDbEntity
  8
レイヤー 1
 62
   250
420
  2299925
440
 33554687
100
AcDbHatch
 10
0.0
 20
0.0
 30
0.0
210
0.0
220
0.0
230
1.0
  2
SOLID
 70
     1
 71
     1
 91
        2
 92
        1
 93
        1
 72
     4
 94
        3
 73
     0
 74
     0
 95
       17
 96
       13
 40
0.0
 40
0.0
 40
0.0
 40
0.0
 40
1.0
 40
1.0
 40
1.0
 40
2.0
 40
2.0
 40
2.0
 40
3.0
 40
3.0
 40
3.0
 40
4.0
 40
4.0
 40
4.0
 40
4.0
 10
96.98942868669014
 20
-159.3511691224886
 10
96.74000377355806
 20
-159.3511691224886
 10
96.69315047495866
 20
-159.6347004809246
 10
96.69315047495866
 20
-159.9795545389981
 10
96.69315047495866
 20
-160.2989148904808
 10
96.7293239775538
 20
-160.6075954459592
 10
96.98942868669014
 20
-160.6075954459592
 10
97.23713105207961
 20
-160.6075954459592
 10
97.28570689842165
 20
-160.3264756543628
 10
97.28570689842165
 20
-159.9795545389981
 10
97.28570689842165
 20
-159.659849677967
 10
97.24746633853536
 20
-159.3511691224886
 10
96.98942868669014
 20
-159.3511691224886
 97
        0
 97
        1
330
8B
 92
        1
 93
        1
 72
     4
 94
        3
 73
     0
 74
     0
 95
       29
 96
       25
 40
0.0
 40
0.0
 40
0.0
 40
0.0
 40
1.0
 40
1.0
 40
1.0
 40
2.0
 40
2.0
 40
2.0
 40
3.0
 40
3.0
 40
3.0
 40
4.0
 40
4.0
 40
4.0
 40
5.0
 40
5.0
 40
5.0
 40
6.0
 40
6.0
 40
6.0
 40
7.0
 40
7.0
 40
7.0
 40
8.0
 40
8.0
 40
8.0
 40
8.0
 10
97.38733721523651
 20
-160.5738335102038
 10
97.27916121699966
 20
-160.7832953157069
 10
97.1058729140916
 20
-160.8022433408758
 10
96.98942868669014
 20
-160.8022433408758
 10
96.82854272752898
 20
-160.8022433408758
 10
96.68694930308522
 20
-160.7557345518249
 10
96.59186466769233
 20
-160.5738335102038
 10
96.4881672935863
 20
-160.3791856152871
 10
96.46921926841741
 20
-160.1425075554505
 10
96.46921926841741
 20
-159.9795545389981
 10
96.46921926841741
 20
-159.8355495477147
 10
96.48610023629515
 20
-159.5837130677429
 10
96.59186466769233
 20
-159.384931058244
 10
96.69969615638065
 20
-159.1820149341628
 10
96.86058211554181
 20
-159.1585882848631
 10
96.98942868669014
 20
-159.1585882848631
 10
97.14824758856018
 20
-159.1585882848631
 10
97.29190807029509
 20
-159.2030300166228
 10
97.38733721523651
 20
-159.384931058244
 10
97.48655596521169
 20
-159.5775118958695
 10
97.5099826145114
 20
-159.8059217265415
 10
97.5099826145114
 20
-159.9795545389981
 10
97.5099826145114
 20
-160.1507757846151
 10
97.48862302250286
 20
-160.3812526725783
 10
97.38733721523651
 20
-160.5738335102038
 97
        0
 97
        1
330
8C
 75
     2
 76
     1
 98
        1
 10
0.0
 20
0.0
450
        0
451
        0
460
0.0
461
0.0
452
        0
462
0.0
453
        0
470

  0
ENDBLK
  5
88
330
85
100
AcDbEntity
  8
0
100
AcDbBlockEnd
  0
BLOCK
  5
93
330
91
100
AcDbEntity
  8
0
100
AcDbBlockBegin
  2
Block_2
 70
     0
 10
0.0
 20
0.0
 30
0.0
  3
Block_2
  1

  0
INSERT
  5
96
330
91
100
AcDbEntity
  8
レイヤー 1
100
AcDbBlockReference
  2
Block_3
 10
0.0
 20
0.0
 30
0.0
  0
ENDBLK
  5
94
330
91
100
AcDbEntity
  8
0
100
AcDbBlockEnd
  0
BLOCK
  5
97
330
95
100
AcDbEntity
  8
0
100
AcDbBlockBegin
  2
Block_3
 70
     0
 10
0.0
 20
0.0
 30
0.0
  3
Block_3
  1

  0
SPLINE
  5
99
330
95
100
AcDbEntity
  8
レイヤー 1
100
AcDbSpline
210
0.0
220
0.0
230
1.0
 70
     9
 71
     3
 72
    17
 73
    13
 74
     0
 42
0.0000000001
 43
0.0000000001
 40
0.0
 40
0.0
 40
0.0
 40
0.0
 40
1.0
 40
1.0
 40
1.0
 40
2.0
 40
2.0
 40
2.0
 40
3.0
 40
3.0
 40
3.0
 40
4.0
 40
4.0
 40
4.0
 40
4.0
 10
115.53437768379
 20
-150.497618234945
 30
0.0
 10
115.53437768379
 20
-150.6161295196376
 30
0.0
 10
115.5915662688451
 20
-150.7918293893854
 30
0.0
 10
115.8771646845724
 20
-150.7918293893854
 30
0.0
 10
116.1035074579533
 20
-150.7918293893854
 30
0.0
 10
116.1985920933462
 20
-150.6519585126842
 30
0.0
 10
116.1985920933462
 20
-150.5169107696624
 30
0.0
 10
116.1985920933462
 20
-150.2543944936864
 30
0.0
 10
115.989130287843
 20
-150.2164984433486
 30
0.0
 10
115.87303056999
 20
-150.2164984433486
 30
0.0
 10
115.6973307002423
 20
-150.2164984433486
 30
0.0
 10
115.53437768379
 20
-150.3115830787415
 30
0.0
 10
115.53437768379
 20
-150.497618234945
 30
0.0
  0
SPLINE
  5
9A
330
95
100
AcDbEntity
  8
レイヤー 1
100
AcDbSpline
210
0.0
220
0.0
230
1.0
 70
     9
 71
     3
 72
    32
 73
    28
 74
     0
 42
0.0000000001
 43
0.0000000001
 40
0.0
 40
0.0
 40
0.0
 40
0.0
 40
1.0
 40
1.0
 40
1.0
 40
2.0
 40
2.0
 40
2.0
 40
3.0
 40
3.0
 40
3.0
 40
4.0
 40
4.0
 40
4.0
 40
5.0
 40
5.0
 40
5.0
 40
6.0
 40
6.0
 40
6.0
 40
7.0
 40
7.0
 40
7.0
 40
8.0
 40
8.0
 40
8.0
 40
9.0
 40
9.0
 40
9.0
 40
9.0
 10
116.9857964117257
 20
-150.5375813425739
 30
0.0
 10
116.9857964117257
 20
-150.7112141550305
 30
0.0
 10
116.9158609733752
 20
-150.9565049535803
 30
0.0
 10
116.5837537685971
 20
-150.9947455134666
 30
0.0
 10
116.5837537685971
 20
-150.9947455134666
 30
0.0
 10
116.5837537685971
 20
-150.7811495933811
 30
0.0
 10
116.5837537685971
 20
-150.7811495933811
 30
0.0
 10
116.6430094109434
 20
-150.7704697973768
 30
0.0
 10
116.7911485168091
 20
-150.7387749189125
 30
0.0
 10
116.7911485168091
 20
-150.5355142852828
 30
0.0
 10
116.7911485168091
 20
-150.2437146976821
 30
0.0
 10
116.4611083693222
 20
-150.2054741377958
 30
0.0
 10
116.2557806784013
 20
-150.1930717940489
 30
0.0
 10
116.3360514032076
 20
-150.2840223148595
 30
0.0
 10
116.3932399882628
 20
-150.3515461863704
 30
0.0
 10
116.3932399882628
 20
-150.5334472279916
 30
0.0
 10
116.3932399882628
 20
-150.7132812123217
 30
0.0
 10
116.2874755568656
 20
-151.0157605959266
 30
0.0
 10
115.8812987991546
 20
-151.0157605959266
 30
0.0
 10
115.561938447672
 20
-151.0157605959266
 30
0.0
 10
115.3417968461645
 20
-150.8173230959762
 30
0.0
 10
115.3417968461645
 20
-150.4996852922362
 30
0.0
 10
115.3417968461645
 20
-149.9856770458369
 30
0.0
 10
115.8961127097412
 20
-149.9753417593811
 30
0.0
 10
116.1097086298267
 20
-149.9753417593811
 30
0.0
 10
116.3405300273385
 20
-149.9753417593811
 30
0.0
 10
116.9857964117257
 20
-149.9939452750015
 30
0.0
 10
116.9857964117257
 20
-150.5375813425739
 30
0.0
  0
HATCH
  5
9B
330
95
100
AcDbEntity
  8
レイヤー 1
 62
   250
420
  2299925
440
 33554687
100
AcDbHatch
 10
0.0
 20
0.0
 30
0.0
210
0.0
220
0.0
230
1.0
  2
SOLID
 70
     1
 71
     1
 91
        2
 92
        1
 93
        1
 72
     4
 94
        3
 73
     0
 74
     0
 95
       17
 96
       13
 40
0.0
 40
0.0
 40
0.0
 40
0.0
 40
1.0
 40
1.0
 40
1.0
 40
2.0
 40
2.0
 40
2.0
 40
3.0
 40
3.0
 40
3.0
 40
4.0
 40
4.0
 40
4.0
 40
4.0
 10
115.53437768379
 20
-150.497618234945
 10
115.53437768379
 20
-150.6161295196376
 10
115.5915662688451
 20
-150.7918293893854
 10
115.8771646845724
 20
-150.7918293893854
 10
116.1035074579533
 20
-150.7918293893854
 10
116.1985920933462
 20
-150.6519585126842
 10
116.1985920933462
 20
-150.5169107696624
 10
116.1985920933462
 20
-150.2543944936864
 10
115.989130287843
 20
-150.2164984433486
 10
115.87303056999
 20
-150.2164984433486
 10
115.6973307002423
 20
-150.2164984433486
 10
115.53437768379
 20
-150.3115830787415
 10
115.53437768379
 20
-150.497618234945
 97
        0
 97
        1
330
99
 92
        1
 93
        1
 72
     4
 94
        3
 73
     0
 74
     0
 95
       32
 96
       28
 40
0.0
 40
0.0
 40
0.0
 40
0.0
 40
1.0
 40
1.0
 40
1.0
 40
2.0
 40
2.0
 40
2.0
 40
3.0
 40
3.0
 40
3.0
 40
4.0
 40
4.0
 40
4.0
 40
5.0
 40
5.0
 40
5.0
 40
6.0
 40
6.0
 40
6.0
 40
7.0
 40
7.0
 40
7.0
 40
8.0
 40
8.0
 40
8.0
 40
9.0
 40
9.0
 40
9.0
 40
9.0
 10
116.9857964117257
 20
-150.5375813425739
 10
116.9857964117257
 20
-150.7112141550305
 10
116.9158609733752
 20
-150.9565049535803
 10
116.5837537685971
 20
-150.9947455134666
 10
116.5837537685971
 20
-150.9947455134666
 10
116.5837537685971
 20
-150.7811495933811
 10
116.5837537685971
 20
-150.7811495933811
 10
116.6430094109434
 20
-150.7704697973768
 10
116.7911485168091
 20
-150.7387749189125
 10
116.7911485168091
 20
-150.5355142852828
 10
116.7911485168091
 20
-150.2437146976821
 10
116.4611083693222
 20
-150.2054741377958
 10
116.2557806784013
 20
-150.1930717940489
 10
116.3360514032076
 20
-150.2840223148595
 10
116.3932399882628
 20
-150.3515461863704
 10
116.3932399882628
 20
-150.5334472279916
 10
116.3932399882628
 20
-150.7132812123217
 10
116.2874755568656
 20
-151.0157605959266
 10
115.8812987991546
 20
-151.0157605959266
 10
115.561938447672
 20
-151.0157605959266
 10
115.3417968461645
 20
-150.8173230959762
 10
115.3417968461645
 20
-150.4996852922362
 10
115.3417968461645
 20
-149.9856770458369
 10
115.8961127097412
 20
-149.9753417593811
 10
116.1097086298267
 20
-149.9753417593811
 10
116.3405300273385
 20
-149.9753417593811
 10
116.9857964117257
 20
-149.9939452750015
 10
116.9857964117257
 20
-150.5375813425739
 97
        0
 97
        1
330
9A
 75
     2
 76
     1
 98
        1
 10
0.0
 20
0.0
450
        0
451
        0
460
0.0
461
0.0
452
        0
462
0.0
453
        0
470

  0
SPLINE
  5
9C
330
95
100
AcDbEntity
  8
レイヤー 1
100
AcDbSpline
210
0.0
220
0.0
230
1.0
 70
    11
 71
     3
 72
    17
 73
    13
 74
     0
 42
0.0000000001
 43
0.0000000001
 40
0.0
 40
0.0
 40
0.0
 40
0.0
 40
1.0
 40
1.0
 40
1.0
 40
2.0
 40
2.0
 40
2.0
 40
3.0
 40
3.0
 40
3.0
 40
4.0
 40
4.0
 40
4.0
 40
4.0
 10
116.9348089985441
 20
-149.7586452533589
 30
0.0
 10
116.9348089985441
 20
-149.7586452533589
 30
0.0
 10
116.6833170281208
 20
-149.7586452533589
 30
0.0
 10
116.6833170281208
 20
-149.7586452533589
 30
0.0
 10
116.6833170281208
 20
-149.7586452533589
 30
0.0
 10
116.6833170281208
 20
-149.5068087733872
 30
0.0
 10
116.6833170281208
 20
-149.5068087733872
 30
0.0
 10
116.6833170281208
 20
-149.5068087733872
 30
0.0
 10
116.9348089985441
 20
-149.5068087733872
 30
0.0
 10
116.9348089985441
 20
-149.5068087733872
 30
0.0
 10
116.9348089985441
 20
-149.5068087733872
 30
0.0
 10
116.9348089985441
 20
-149.7586452533589
 30
0.0
 10
116.9348089985441
 20
-149.7586452533589
 30
0.0
  0
HATCH
  5
9D
330
95
100
AcDbEntity
  8
レイヤー 1
 62
   250
420
  2299925
440
 33554687
100
AcDbHatch
 10
0.0
 20
0.0
 30
0.0
210
0.0
220
0.0
230
1.0
  2
SOLID
 70
     1
 71
     1
 91
        1
 92
        1
 93
        1
 72
     4
 94
        3
 73
     0
 74
     0
 95
       17
 96
       13
 40
0.0
 40
0.0
 40
0.0
 40
0.0
 40
1.0
 40
1.0
 40
1.0
 40
2.0
 40
2.0
 40
2.0
 40
3.0
 40
3.0
 40
3.0
 40
4.0
 40
4.0
 40
4.0
 40
4.0
 10
116.9348089985441
 20
-149.7586452533589
 10
116.9348089985441
 20
-149.7586452533589
 10
116.6833170281208
 20
-149.7586452533589
 10
116.6833170281208
 20
-149.7586452533589
 10
116.6833170281208
 20
-149.7586452533589
 10
116.6833170281208
 20
-149.5068087733872
 10
116.6833170281208
 20
-149.5068087733872
 10
116.6833170281208
 20
-149.5068087733872
 10
116.9348089985441
 20
-149.5068087733872
 10
116.9348089985441
 20
-149.5068087733872
 10
116.9348089985441
 20
-149.5068087733872
 10
116.9348089985441
 20
-149.7586452533589
 10
116.9348089985441
 20
-149.7586452533589
 97
        0
 97
        1
330
9C
 75
     2
 76
     1
 98
        1
 10
0.0
 20
0.0
450
        0
451
        0
460
0.0
461
0.0
452
        0
462
0.0
453
        0
470

  0
SPLINE
  5
9E
330
95
100
AcDbEntity
  8
レイヤー 1
100
AcDbSpline
210
0.0
220
0.0
230
1.0
 70
     9
 71
     3
 72
    17
 73
    13
 74
     0
 42
0.0000000001
 43
0.0000000001
 40
0.0
 40
0.0
 40
0.0
 40
0.0
 40
1.0
 40
1.0
 40
1.0
 40
2.0
 40
2.0
 40
2.0
 40
3.0
 40
3.0
 40
3.0
 40
4.0
 40
4.0
 40
4.0
 40
4.0
 10
116.1944579787639
 20
-148.770419613415
 30
0.0
 10
116.1944579787639
 20
-148.9142523499242
 30
0.0
 10
116.2812743849922
 20
-149.0665255703722
 30
0.0
 10
116.4841905090734
 20
-149.0665255703722
 30
0.0
 10
116.6895181999943
 20
-149.0665255703722
 30
0.0
 10
116.7911485168091
 20
-148.939746056515
 30
0.0
 10
116.7911485168091
 20
-148.770419613415
 30
0.0
 10
116.7911485168091
 20
-148.5842122024373
 30
0.0
 10
116.6685031175342
 20
-148.4741414016836
 30
0.0
 10
116.4907361904954
 20
-148.4741414016836
 30
0.0
 10
116.2685275316967
 20
-148.4741414016836
 30
0.0
 10
116.1944579787639
 20
-148.6370944181358
 30
0.0
 10
116.1944579787639
 20
-148.770419613415
 30
0.0
  0
SPLINE
  5
9F
330
95
100
AcDbEntity
  8
レイヤー 1
100
AcDbSpline
210
0.0
220
0.0
230
1.0
 70
     9
 71
     3
 72
    17
 73
    13
 74
     0
 42
0.0000000001
 43
0.0000000001
 40
0.0
 40
0.0
 40
0.0
 40
0.0
 40
1.0
 40
1.0
 40
1.0
 40
2.0
 40
2.0
 40
2.0
 40
3.0
 40
3.0
 40
3.0
 40
4.0
 40
4.0
 40
4.0
 40
4.0
 10
115.53437768379
 20
-148.770419613415
 30
0.0
 10
115.53437768379
 20
-148.9356119419327
 30
0.0
 10
115.6294623191829
 20
-149.0200167813214
 30
0.0
 10
115.7648545717532
 20
-149.0200167813214
 30
0.0
 10
115.8878444805766
 20
-149.0200167813214
 30
0.0
 10
116.0063557652692
 20
-148.9480142856796
 30
0.0
 10
116.0063557652692
 20
-148.770419613415
 30
0.0
 10
116.0063557652692
 20
-148.5926526863761
 30
0.0
 10
115.8878444805766
 20
-148.5208224455087
 30
0.0
 10
115.7648545717532
 20
-148.5208224455087
 30
0.0
 10
115.6294623191829
 20
-148.5208224455087
 30
0.0
 10
115.53437768379
 20
-148.6074665969627
 30
0.0
 10
115.53437768379
 20
-148.770419613415
 30
0.0
  0
SPLINE
  5
A0
330
95
100
AcDbEntity
  8
レイヤー 1
100
AcDbSpline
210
0.0
220
0.0
230
1.0
 70
     9
 71
     3
 72
    29
 73
    25
 74
     0
 42
0.0000000001
 43
0.0000000001
 40
0.0
 40
0.0
 40
0.0
 40
0.0
 40
1.0
 40
1.0
 40
1.0
 40
2.0
 40
2.0
 40
2.0
 40
3.0
 40
3.0
 40
3.0
 40
4.0
 40
4.0
 40
4.0
 40
5.0
 40
5.0
 40
5.0
 40
6.0
 40
6.0
 40
6.0
 40
7.0
 40
7.0
 40
7.0
 40
8.0
 40
8.0
 40
8.0
 40
8.0
 10
116.9857964117257
 20
-148.770419613415
 30
0.0
 10
116.9857964117257
 20
-149.0368977491991
 30
0.0
 10
116.8479925923158
 20
-149.290801286462
 30
0.0
 10
116.49900441966
 20
-149.290801286462
 30
0.0
 10
116.2430338251059
 20
-149.290801286462
 30
0.0
 10
116.147949189713
 20
-149.1492078620183
 30
0.0
 10
116.0866264900755
 20
-149.0430989210725
 30
0.0
 10
116.0273708477292
 20
-149.1681558871871
 30
0.0
 10
115.912993677619
 20
-149.2442924974111
 30
0.0
 10
115.7524522280063
 20
-149.2442924974111
 30
0.0
 10
115.4771890987349
 20
-149.2442924974111
 30
0.0
 10
115.3417968461645
 20
-149.0451659783637
 30
0.0
 10
115.3417968461645
 20
-148.770419613415
 30
0.0
 10
115.3417968461645
 20
-148.486888254979
 30
0.0
 10
115.485801837448
 20
-148.2965467294189
 30
0.0
 10
115.7524522280063
 20
-148.2965467294189
 30
0.0
 10
115.912993677619
 20
-148.2965467294189
 30
0.0
 10
116.0273708477292
 20
-148.3747503969341
 30
0.0
 10
116.0866264900755
 20
-148.4996351082744
 30
0.0
 10
116.1372693937087
 20
-148.4107516447549
 30
0.0
 10
116.2326985386501
 20
-148.2521049976592
 30
0.0
 10
116.4948703050777
 20
-148.2521049976592
 30
0.0
 10
116.8693521843243
 20
-148.2521049976592
 30
0.0
 10
116.9857964117257
 20
-148.5313299867387
 30
0.0
 10
116.9857964117257
 20
-148.770419613415
 30
0.0
  0
HATCH
  5
A1
330
95
100
AcDbEntity
  8
レイヤー 1
 62
   250
420
  2299925
440
 33554687
100
AcDbHatch
 10
0.0
 20
0.0
 30
0.0
210
0.0
220
0.0
230
1.0
  2
SOLID
 70
     1
 71
     1
 91
        3
 92
        1
 93
        1
 72
     4
 94
        3
 73
     0
 74
     0
 95
       17
 96
       13
 40
0.0
 40
0.0
 40
0.0
 40
0.0
 40
1.0
 40
1.0
 40
1.0
 40
2.0
 40
2.0
 40
2.0
 40
3.0
 40
3.0
 40
3.0
 40
4.0
 40
4.0
 40
4.0
 40
4.0
 10
116.1944579787639
 20
-148.770419613415
 10
116.1944579787639
 20
-148.9142523499242
 10
116.2812743849922
 20
-149.0665255703722
 10
116.4841905090734
 20
-149.0665255703722
 10
116.6895181999943
 20
-149.0665255703722
 10
116.7911485168091
 20
-148.939746056515
 10
116.7911485168091
 20
-148.770419613415
 10
116.7911485168091
 20
-148.5842122024373
 10
116.6685031175342
 20
-148.4741414016836
 10
116.4907361904954
 20
-148.4741414016836
 10
116.2685275316967
 20
-148.4741414016836
 10
116.1944579787639
 20
-148.6370944181358
 10
116.1944579787639
 20
-148.770419613415
 97
        0
 97
        1
330
9E
 92
        1
 93
        1
 72
     4
 94
        3
 73
     0
 74
     0
 95
       17
 96
       13
 40
0.0
 40
0.0
 40
0.0
 40
0.0
 40
1.0
 40
1.0
 40
1.0
 40
2.0
 40
2.0
 40
2.0
 40
3.0
 40
3.0
 40
3.0
 40
4.0
 40
4.0
 40
4.0
 40
4.0
 10
115.53437768379
 20
-148.770419613415
 10
115.53437768379
 20
-148.9356119419327
 10
115.6294623191829
 20
-149.0200167813214
 10
115.7648545717532
 20
-149.0200167813214
 10
115.8878444805766
 20
-149.0200167813214
 10
116.0063557652692
 20
-148.9480142856796
 10
116.0063557652692
 20
-148.770419613415
 10
116.0063557652692
 20
-148.5926526863761
 10
115.8878444805766
 20
-148.5208224455087
 10
115.7648545717532
 20
-148.5208224455087
 10
115.6294623191829
 20
-148.5208224455087
 10
115.53437768379
 20
-148.6074665969627
 10
115.53437768379
 20
-148.770419613415
 97
        0
 97
        1
330
9F
 92
        1
 93
        1
 72
     4
 94
        3
 73
     0
 74
     0
 95
       29
 96
       25
 40
0.0
 40
0.0
 40
0.0
 40
0.0
 40
1.0
 40
1.0
 40
1.0
 40
2.0
 40
2.0
 40
2.0
 40
3.0
 40
3.0
 40
3.0
 40
4.0
 40
4.0
 40
4.0
 40
5.0
 40
5.0
 40
5.0
 40
6.0
 40
6.0
 40
6.0
 40
7.0
 40
7.0
 40
7.0
 40
8.0
 40
8.0
 40
8.0
 40
8.0
 10
116.9857964117257
 20
-148.770419613415
 10
116.9857964117257
 20
-149.0368977491991
 10
116.8479925923158
 20
-149.290801286462
 10
116.49900441966
 20
-149.290801286462
 10
116.2430338251059
 20
-149.290801286462
 10
116.147949189713
 20
-149.1492078620183
 10
116.0866264900755
 20
-149.0430989210725
 10
116.0273708477292
 20
-149.1681558871871
 10
115.912993677619
 20
-149.2442924974111
 10
115.7524522280063
 20
-149.2442924974111
 10
115.4771890987349
 20
-149.2442924974111
 10
115.3417968461645
 20
-149.0451659783637
 10
115.3417968461645
 20
-148.770419613415
 10
115.3417968461645
 20
-148.486888254979
 10
115.485801837448
 20
-148.2965467294189
 10
115.7524522280063
 20
-148.2965467294189
 10
115.912993677619
 20
-148.2965467294189
 10
116.0273708477292
 20
-148.3747503969341
 10
116.0866264900755
 20
-148.4996351082744
 10
116.1372693937087
 20
-148.4107516447549
 10
116.2326985386501
 20
-148.2521049976592
 10
116.4948703050777
 20
-148.2521049976592
 10
116.8693521843243
 20
-148.2521049976592
 10
116.9857964117257
 20
-148.5313299867387
 10
116.9857964117257
 20
-148.770419613415
 97
        0
 97
        1
330
A0
 75
     2
 76
     1
 98
        1
 10
0.0
 20
0.0
450
        0
451
        0
460
0.0
461
0.0
452
        0
462
0.0
453
        0
470

  0
ENDBLK
  5
98
330
95
100
AcDbEntity
  8
0
100
AcDbBlockEnd
  0
BLOCK
  5
A4
330
A2
100
AcDbEntity
  8
0
100
AcDbBlockBegin
  2
Block_4
 70
     0
 10
0.0
 20
0.0
 30
0.0
  3
Block_4
  1

  0
SPLINE
  5
A6
330
A2
100
AcDbEntity
  8
レイヤー 1
100
AcDbSpline
210
0.0
220
0.0
230
1.0
 70
     9
 71
     3
 72
    62
 73
    58
 74
     0
 42
0.0000000001
 43
0.0000000001
 40
0.0
 40
0.0
 40
0.0
 40
0.0
 40
1.0
 40
1.0
 40
1.0
 40
2.0
 40
2.0
 40
2.0
 40
3.0
 40
3.0
 40
3.0
 40
4.0
 40
4.0
 40
4.0
 40
5.0
 40
5.0
 40
5.0
 40
6.0
 40
6.0
 40
6.0
 40
7.0
 40
7.0
 40
7.0
 40
8.0
 40
8.0
 40
8.0
 40
9.0
 40
9.0
 40
9.0
 40
10.0
 40
10.0
 40
10.0
 40
11.0
 40
11.0
 40
11.0
 40
12.0
 40
12.0
 40
12.0
 40
13.0
 40
13.0
 40
13.0
 40
14.0
 40
14.0
 40
14.0
 40
15.0
 40
15.0
 40
15.0
 40
16.0
 40
16.0
 40
16.0
 40
17.0
 40
17.0
 40
17.0
 40
18.0
 40
18.0
 40
18.0
 40
19.0
 40
19.0
 40
19.0
 40
19.0
 10
116.9857964117257
 20
-155.8537081858629
 30
0.0
 10
116.9857964117257
 20
-155.9491373308043
 30
0.0
 10
116.9644368197172
 20
-156.1668673654722
 30
0.0
 10
116.7784016635137
 20
-156.2915798220382
 30
0.0
 10
116.6660915506946
 20
-156.3656493749711
 30
0.0
 10
116.5668728007194
 20
-156.3701279991019
 30
0.0
 10
116.4821234517822
 20
-156.3742621136842
 30
0.0
 10
116.4821234517822
 20
-156.3742621136842
 30
0.0
 10
116.4821234517822
 20
-156.1541205121767
 30
0.0
 10
116.4821234517822
 20
-156.1541205121767
 30
0.0
 10
116.5561930047151
 20
-156.1520534548856
 30
0.0
 10
116.7911485168091
 20
-156.1413736588813
 30
0.0
 10
116.7911485168091
 20
-155.8578423004453
 30
0.0
 10
116.7911485168091
 20
-155.7203829905838
 30
0.0
 10
116.7212130784586
 20
-155.5681097701357
 30
0.0
 10
116.4928032477865
 20
-155.5681097701357
 30
0.0
 10
116.3763590203851
 20
-155.5681097701357
 30
0.0
 10
116.327783174043
 20
-155.6060058204735
 30
0.0
 10
116.2960882955787
 20
-155.6377006989378
 30
0.0
 10
116.2220187426459
 20
-155.7121147614192
 30
0.0
 10
116.2092718893504
 20
-155.8285589888206
 30
0.0
 10
116.2092718893504
 20
-155.8833360070361
 30
0.0
 10
116.2092718893504
 20
-155.902284032205
 30
0.0
 10
116.2113389466416
 20
-155.9381130252516
 30
0.0
 10
116.2154730612239
 20
-155.9656737891335
 30
0.0
 10
116.2154730612239
 20
-155.9656737891335
 30
0.0
 10
116.0211696758558
 20
-155.9656737891335
 30
0.0
 10
116.0211696758558
 20
-155.9656737891335
 30
0.0
 10
116.0273708477292
 20
-155.9277777387958
 30
0.0
 10
116.0294379050204
 20
-155.8854030643272
 30
0.0
 10
116.0294379050204
 20
-155.8788573829053
 30
0.0
 10
116.0294379050204
 20
-155.8134005686855
 30
0.0
 10
116.0084228225604
 20
-155.6146185591866
 30
0.0
 10
115.7714002531752
 20
-155.6146185591866
 30
0.0
 10
115.5936333261363
 20
-155.6146185591866
 30
0.0
 10
115.5385117983723
 20
-155.7458766971746
 30
0.0
 10
115.5385117983723
 20
-155.8557752431541
 30
0.0
 10
115.5385117983723
 20
-156.1200140668728
 30
0.0
 10
115.7714002531752
 20
-156.1286268055859
 30
0.0
 10
115.8434027488169
 20
-156.1331054297167
 30
0.0
 10
115.8434027488169
 20
-156.1331054297167
 30
0.0
 10
115.8434027488169
 20
-156.3360215537979
 30
0.0
 10
115.8434027488169
 20
-156.3360215537979
 30
0.0
 10
115.7183457827023
 20
-156.3274088150848
 30
0.0
 10
115.3417968461645
 20
-156.2998480512028
 30
0.0
 10
115.3417968461645
 20
-155.8430283898587
 30
0.0
 10
115.3417968461645
 20
-155.6190971833174
 30
0.0
 10
115.4689208695703
 20
-155.3779404993499
 30
0.0
 10
115.7648545717532
 20
-155.3779404993499
 30
0.0
 10
115.9512342375052
 20
-155.3779404993499
 30
0.0
 10
116.0335720196027
 20
-155.4730251347429
 30
0.0
 10
116.0948947192401
 20
-155.572243884718
 30
0.0
 10
116.1224554831221
 20
-155.5109211850806
 30
0.0
 10
116.203070717477
 20
-155.3290201434594
 30
0.0
 10
116.4800563944911
 20
-155.3290201434594
 30
0.0
 10
116.8187092806912
 20
-155.3290201434594
 30
0.0
 10
116.9857964117257
 20
-155.5763779993003
 30
0.0
 10
116.9857964117257
 20
-155.8537081858629
 30
0.0
  0
HATCH
  5
A7
330
A2
100
AcDbEntity
  8
レイヤー 1
 62
   250
420
  2299925
440
 33554687
100
AcDbHatch
 10
0.0
 20
0.0
 30
0.0
210
0.0
220
0.0
230
1.0
  2
SOLID
 70
     1
 71
     1
 91
        1
 92
        1
 93
        1
 72
     4
 94
        3
 73
     0
 74
     0
 95
       62
 96
       58
 40
0.0
 40
0.0
 40
0.0
 40
0.0
 40
1.0
 40
1.0
 40
1.0
 40
2.0
 40
2.0
 40
2.0
 40
3.0
 40
3.0
 40
3.0
 40
4.0
 40
4.0
 40
4.0
 40
5.0
 40
5.0
 40
5.0
 40
6.0
 40
6.0
 40
6.0
 40
7.0
 40
7.0
 40
7.0
 40
8.0
 40
8.0
 40
8.0
 40
9.0
 40
9.0
 40
9.0
 40
10.0
 40
10.0
 40
10.0
 40
11.0
 40
11.0
 40
11.0
 40
12.0
 40
12.0
 40
12.0
 40
13.0
 40
13.0
 40
13.0
 40
14.0
 40
14.0
 40
14.0
 40
15.0
 40
15.0
 40
15.0
 40
16.0
 40
16.0
 40
16.0
 40
17.0
 40
17.0
 40
17.0
 40
18.0
 40
18.0
 40
18.0
 40
19.0
 40
19.0
 40
19.0
 40
19.0
 10
116.9857964117257
 20
-155.8537081858629
 10
116.9857964117257
 20
-155.9491373308043
 10
116.9644368197172
 20
-156.1668673654722
 10
116.7784016635137
 20
-156.2915798220382
 10
116.6660915506946
 20
-156.3656493749711
 10
116.5668728007194
 20
-156.3701279991019
 10
116.4821234517822
 20
-156.3742621136842
 10
116.4821234517822
 20
-156.3742621136842
 10
116.4821234517822
 20
-156.1541205121767
 10
116.4821234517822
 20
-156.1541205121767
 10
116.5561930047151
 20
-156.1520534548856
 10
116.7911485168091
 20
-156.1413736588813
 10
116.7911485168091
 20
-155.8578423004453
 10
116.7911485168091
 20
-155.7203829905838
 10
116.7212130784586
 20
-155.5681097701357
 10
116.4928032477865
 20
-155.5681097701357
 10
116.3763590203851
 20
-155.5681097701357
 10
116.327783174043
 20
-155.6060058204735
 10
116.2960882955787
 20
-155.6377006989378
 10
116.2220187426459
 20
-155.7121147614192
 10
116.2092718893504
 20
-155.8285589888206
 10
116.2092718893504
 20
-155.8833360070361
 10
116.2092718893504
 20
-155.902284032205
 10
116.2113389466416
 20
-155.9381130252516
 10
116.2154730612239
 20
-155.9656737891335
 10
116.2154730612239
 20
-155.9656737891335
 10
116.0211696758558
 20
-155.9656737891335
 10
116.0211696758558
 20
-155.9656737891335
 10
116.0273708477292
 20
-155.9277777387958
 10
116.0294379050204
 20
-155.8854030643272
 10
116.0294379050204
 20
-155.8788573829053
 10
116.0294379050204
 20
-155.8134005686855
 10
116.0084228225604
 20
-155.6146185591866
 10
115.7714002531752
 20
-155.6146185591866
 10
115.5936333261363
 20
-155.6146185591866
 10
115.5385117983723
 20
-155.7458766971746
 10
115.5385117983723
 20
-155.8557752431541
 10
115.5385117983723
 20
-156.1200140668728
 10
115.7714002531752
 20
-156.1286268055859
 10
115.8434027488169
 20
-156.1331054297167
 10
115.8434027488169
 20
-156.1331054297167
 10
115.8434027488169
 20
-156.3360215537979
 10
115.8434027488169
 20
-156.3360215537979
 10
115.7183457827023
 20
-156.3274088150848
 10
115.3417968461645
 20
-156.2998480512028
 10
115.3417968461645
 20
-155.8430283898587
 10
115.3417968461645
 20
-155.6190971833174
 10
115.4689208695703
 20
-155.3779404993499
 10
115.7648545717532
 20
-155.3779404993499
 10
115.9512342375052
 20
-155.3779404993499
 10
116.0335720196027
 20
-155.4730251347429
 10
116.0948947192401
 20
-155.572243884718
 10
116.1224554831221
 20
-155.5109211850806
 10
116.203070717477
 20
-155.3290201434594
 10
116.4800563944911
 20
-155.3290201434594
 10
116.8187092806912
 20
-155.3290201434594
 10
116.9857964117257
 20
-155.5763779993003
 10
116.9857964117257
 20
-155.8537081858629
 97
        0
 97
        1
330
A6
 75
     2
 76
     1
 98
        1
 10
0.0
 20
0.0
450
        0
451
        0
460
0.0
461
0.0
452
        0
462
0.0
453
        0
470

  0
ENDBLK
  5
A5
330
A2
100
AcDbEntity
  8
0
100
AcDbBlockEnd
  0
BLOCK
  5
AA
330
A8
100
AcDbEntity
  8
0
100
AcDbBlockBegin
  2
Block_5
 70
     0
 10
0.0
 20
0.0
 30
0.0
  3
Block_5
  1

  0
SPLINE
  5
AC
330
A8
100
AcDbEntity
  8
レイヤー 1
100
AcDbSpline
210
0.0
220
0.0
230
1.0
 70
    11
 71
     3
 72
    26
 73
    22
 74
     0
 42
0.0000000001
 43
0.0000000001
 40
0.0
 40
0.0
 40
0.0
 40
0.0
 40
1.0
 40
1.0
 40
1.0
 40
2.0
 40
2.0
 40
2.0
 40
3.0
 40
3.0
 40
3.0
 40
4.0
 40
4.0
 40
4.0
 40
5.0
 40
5.0
 40
5.0
 40
6.0
 40
6.0
 40
6.0
 40
7.0
 40
7.0
 40
7.0
 40
7.0
 10
116.9348089985441
 20
-140.7312892985845
 30
0.0
 10
116.9348089985441
 20
-140.7312892985845
 30
0.0
 10
115.8306558955215
 20
-140.7312892985845
 30
0.0
 10
115.8306558955215
 20
-140.7312892985845
 30
0.0
 10
115.8306558955215
 20
-140.7312892985845
 30
0.0
 10
115.8306558955215
 20
-141.0613294460715
 30
0.0
 10
115.8306558955215
 20
-141.0613294460715
 30
0.0
 10
115.8306558955215
 20
-141.0613294460715
 30
0.0
 10
115.6825167896557
 20
-141.0613294460715
 30
0.0
 10
115.6825167896557
 20
-141.0613294460715
 30
0.0
 10
115.6677028790692
 20
-140.7292222412934
 30
0.0
 10
115.5047498626168
 20
-140.6827134522425
 30
0.0
 10
115.3907172020551
 20
-140.6530856310694
 30
0.0
 10
115.3907172020551
 20
-140.6530856310694
 30
0.0
 10
115.3907172020551
 20
-140.5070135824947
 30
0.0
 10
115.3907172020551
 20
-140.5070135824947
 30
0.0
 10
115.3907172020551
 20
-140.5070135824947
 30
0.0
 10
116.9348089985441
 20
-140.5070135824947
 30
0.0
 10
116.9348089985441
 20
-140.5070135824947
 30
0.0
 10
116.9348089985441
 20
-140.5070135824947
 30
0.0
 10
116.9348089985441
 20
-140.7312892985845
 30
0.0
 10
116.9348089985441
 20
-140.7312892985845
 30
0.0
  0
HATCH
  5
AD
330
A8
100
AcDbEntity
  8
レイヤー 1
 62
   250
420
  2299925
440
 33554687
100
AcDbHatch
 10
0.0
 20
0.0
 30
0.0
210
0.0
220
0.0
230
1.0
  2
SOLID
 70
     1
 71
     1
 91
        1
 92
        1
 93
        1
 72
     4
 94
        3
 73
     0
 74
     0
 95
       26
 96
       22
 40
0.0
 40
0.0
 40
0.0
 40
0.0
 40
1.0
 40
1.0
 40
1.0
 40
2.0
 40
2.0
 40
2.0
 40
3.0
 40
3.0
 40
3.0
 40
4.0
 40
4.0
 40
4.0
 40
5.0
 40
5.0
 40
5.0
 40
6.0
 40
6.0
 40
6.0
 40
7.0
 40
7.0
 40
7.0
 40
7.0
 10
116.9348089985441
 20
-140.7312892985845
 10
116.9348089985441
 20
-140.7312892985845
 10
115.8306558955215
 20
-140.7312892985845
 10
115.8306558955215
 20
-140.7312892985845
 10
115.8306558955215
 20
-140.7312892985845
 10
115.8306558955215
 20
-141.0613294460715
 10
115.8306558955215
 20
-141.0613294460715
 10
115.8306558955215
 20
-141.0613294460715
 10
115.6825167896557
 20
-141.0613294460715
 10
115.6825167896557
 20
-141.0613294460715
 10
115.6677028790692
 20
-140.7292222412934
 10
115.5047498626168
 20
-140.6827134522425
 10
115.3907172020551
 20
-140.6530856310694
 10
115.3907172020551
 20
-140.6530856310694
 10
115.3907172020551
 20
-140.5070135824947
 10
115.3907172020551
 20
-140.5070135824947
 10
115.3907172020551
 20
-140.5070135824947
 10
116.9348089985441
 20
-140.5070135824947
 10
116.9348089985441
 20
-140.5070135824947
 10
116.9348089985441
 20
-140.5070135824947
 10
116.9348089985441
 20
-140.7312892985845
 10
116.9348089985441
 20
-140.7312892985845
 97
        0
 97
        1
330
AC
 75
     2
 76
     1
 98
        1
 10
0.0
 20
0.0
450
        0
451
        0
460
0.0
461
0.0
452
        0
462
0.0
453
        0
470

  0
ENDBLK
  5
AB
330
A8
100
AcDbEntity
  8
0
100
AcDbBlockEnd
  0
BLOCK
  5
BF
330
BD
100
AcDbEntity
  8
0
100
AcDbBlockBegin
  2
Block_6
 70
     0
 10
0.0
 20
0.0
 30
0.0
  3
Block_6
  1

  0
INSERT
  5
C2
330
BD
100
AcDbEntity
  8
レイヤー 1
100
AcDbBlockReference
  2
Block_7
 10
0.0
 20
0.0
 30
0.0
  0
ENDBLK
  5
C0
330
BD
100
AcDbEntity
  8
0
100
AcDbBlockEnd
  0
BLOCK
  5
C3
330
C1
100
AcDbEntity
  8
0
100
AcDbBlockBegin
  2
Block_7
 70
     0
 10
0.0
 20
0.0
 30
0.0
  3
Block_7
  1

  0
SPLINE
  5
C5
330
C1
100
AcDbEntity
  8
レイヤー 1
100
AcDbSpline
210
0.0
220
0.0
230
1.0
 70
     9
 71
     3
 72
    44
 73
    40
 74
     0
 42
0.0000000001
 43
0.0000000001
 40
0.0
 40
0.0
 40
0.0
 40
0.0
 40
1.0
 40
1.0
 40
1.0
 40
2.0
 40
2.0
 40
2.0
 40
3.0
 40
3.0
 40
3.0
 40
4.0
 40
4.0
 40
4.0
 40
5.0
 40
5.0
 40
5.0
 40
6.0
 40
6.0
 40
6.0
 40
7.0
 40
7.0
 40
7.0
 40
8.0
 40
8.0
 40
8.0
 40
9.0
 40
9.0
 40
9.0
 40
10.0
 40
10.0
 40
10.0
 40
11.0
 40
11.0
 40
11.0
 40
12.0
 40
12.0
 40
12.0
 40
13.0
 40
13.0
 40
13.0
 40
13.0
 10
102.4516275785537
 20
-139.1940876930661
 30
0.0
 10
102.2337252891117
 20
-139.3529065949361
 30
0.0
 10
102.1405354562357
 20
-139.4269761478689
 30
0.0
 10
102.0919596098937
 20
-139.5706366296039
 30
0.0
 10
102.0919596098937
 20
-139.5706366296039
 30
0.0
 10
102.8703789347858
 20
-139.5706366296039
 30
0.0
 10
102.8703789347858
 20
-139.5706366296039
 30
0.0
 10
102.8703789347858
 20
-139.5706366296039
 30
0.0
 10
102.8703789347858
 20
-139.7759643205247
 30
0.0
 10
102.8703789347858
 20
-139.7759643205247
 30
0.0
 10
102.8703789347858
 20
-139.7759643205247
 30
0.0
 10
101.8423624419873
 20
-139.7759643205247
 30
0.0
 10
101.8423624419873
 20
-139.7759643205247
 30
0.0
 10
101.8740573204516
 20
-139.4183634091558
 30
0.0
 10
101.9396863894456
 20
-139.3401597416406
 30
0.0
 10
102.3246758099223
 20
-139.041814472618
 30
0.0
 10
102.5806464044763
 20
-138.8430324631191
 30
0.0
 10
102.6461032186961
 20
-138.7751640820597
 30
0.0
 10
102.6461032186961
 20
-138.6377047721982
 30
0.0
 10
102.6461032186961
 20
-138.5191934875056
 30
0.0
 10
102.5742729778286
 20
-138.3882798590661
 30
0.0
 10
102.3775580256209
 20
-138.3882798590661
 30
0.0
 10
102.1172810617102
 20
-138.3882798590661
 30
0.0
 10
102.1088405777714
 20
-138.6187567470293
 30
0.0
 10
102.1045342084148
 20
-138.7352009744308
 30
0.0
 10
102.1045342084148
 20
-138.7352009744308
 30
0.0
 10
101.8804307470993
 20
-138.7352009744308
 30
0.0
 10
101.8804307470993
 20
-138.7352009744308
 30
0.0
 10
101.8888712310382
 20
-138.6080769510251
 30
0.0
 10
101.8993787722682
 20
-138.4961113477544
 30
0.0
 10
101.9798217518488
 20
-138.3776000630618
 30
0.0
 10
102.0897202978282
 20
-138.2167141039007
 30
0.0
 10
102.275927708806
 20
-138.1829521681452
 30
0.0
 10
102.3923719362074
 20
-138.1829521681452
 30
0.0
 10
102.6695298679958
 20
-138.1829521681452
 30
0.0
 10
102.8767523614336
 20
-138.3669202670576
 30
0.0
 10
102.8767523614336
 20
-138.6397718294894
 30
0.0
 10
102.8767523614336
 20
-138.8685261697099
 30
0.0
 10
102.7604803888064
 20
-138.9677449196851
 30
0.0
 10
102.4516275785537
 20
-139.1940876930661
 30
0.0
  0
HATCH
  5
C6
330
C1
100
AcDbEntity
  8
レイヤー 1
 62
   250
420
  2299925
440
 33554687
100
AcDbHatch
 10
0.0
 20
0.0
 30
0.0
210
0.0
220
0.0
230
1.0
  2
SOLID
 70
     1
 71
     1
 91
        1
 92
        1
 93
        1
 72
     4
 94
        3
 73
     0
 74
     0
 95
       44
 96
       40
 40
0.0
 40
0.0
 40
0.0
 40
0.0
 40
1.0
 40
1.0
 40
1.0
 40
2.0
 40
2.0
 40
2.0
 40
3.0
 40
3.0
 40
3.0
 40
4.0
 40
4.0
 40
4.0
 40
5.0
 40
5.0
 40
5.0
 40
6.0
 40
6.0
 40
6.0
 40
7.0
 40
7.0
 40
7.0
 40
8.0
 40
8.0
 40
8.0
 40
9.0
 40
9.0
 40
9.0
 40
10.0
 40
10.0
 40
10.0
 40
11.0
 40
11.0
 40
11.0
 40
12.0
 40
12.0
 40
12.0
 40
13.0
 40
13.0
 40
13.0
 40
13.0
 10
102.4516275785537
 20
-139.1940876930661
 10
102.2337252891117
 20
-139.3529065949361
 10
102.1405354562357
 20
-139.4269761478689
 10
102.0919596098937
 20
-139.5706366296039
 10
102.0919596098937
 20
-139.5706366296039
 10
102.8703789347858
 20
-139.5706366296039
 10
102.8703789347858
 20
-139.5706366296039
 10
102.8703789347858
 20
-139.5706366296039
 10
102.8703789347858
 20
-139.7759643205247
 10
102.8703789347858
 20
-139.7759643205247
 10
102.8703789347858
 20
-139.7759643205247
 10
101.8423624419873
 20
-139.7759643205247
 10
101.8423624419873
 20
-139.7759643205247
 10
101.8740573204516
 20
-139.4183634091558
 10
101.9396863894456
 20
-139.3401597416406
 10
102.3246758099223
 20
-139.041814472618
 10
102.5806464044763
 20
-138.8430324631191
 10
102.6461032186961
 20
-138.7751640820597
 10
102.6461032186961
 20
-138.6377047721982
 10
102.6461032186961
 20
-138.5191934875056
 10
102.5742729778286
 20
-138.3882798590661
 10
102.3775580256209
 20
-138.3882798590661
 10
102.1172810617102
 20
-138.3882798590661
 10
102.1088405777714
 20
-138.6187567470293
 10
102.1045342084148
 20
-138.7352009744308
 10
102.1045342084148
 20
-138.7352009744308
 10
101.8804307470993
 20
-138.7352009744308
 10
101.8804307470993
 20
-138.7352009744308
 10
101.8888712310382
 20
-138.6080769510251
 10
101.8993787722682
 20
-138.4961113477544
 10
101.9798217518488
 20
-138.3776000630618
 10
102.0897202978282
 20
-138.2167141039007
 10
102.275927708806
 20
-138.1829521681452
 10
102.3923719362074
 20
-138.1829521681452
 10
102.6695298679958
 20
-138.1829521681452
 10
102.8767523614336
 20
-138.3669202670576
 10
102.8767523614336
 20
-138.6397718294894
 10
102.8767523614336
 20
-138.8685261697099
 10
102.7604803888064
 20
-138.9677449196851
 10
102.4516275785537
 20
-139.1940876930661
 97
        0
 97
        1
330
C5
 75
     2
 76
     1
 98
        1
 10
0.0
 20
0.0
450
        0
451
        0
460
0.0
461
0.0
452
        0
462
0.0
453
        0
470

  0
SPLINE
  5
C7
330
C1
100
AcDbEntity
  8
レイヤー 1
100
AcDbSpline
210
0.0
220
0.0
230
1.0
 70
    11
 71
     3
 72
    26
 73
    22
 74
     0
 42
0.0000000001
 43
0.0000000001
 40
0.0
 40
0.0
 40
0.0
 40
0.0
 40
1.0
 40
1.0
 40
1.0
 40
2.0
 40
2.0
 40
2.0
 40
3.0
 40
3.0
 40
3.0
 40
4.0
 40
4.0
 40
4.0
 40
5.0
 40
5.0
 40
5.0
 40
6.0
 40
6.0
 40
6.0
 40
7.0
 40
7.0
 40
7.0
 40
7.0
 10
103.4867065170971
 20
-139.7759643205247
 30
0.0
 10
103.4867065170971
 20
-139.7759643205247
 30
0.0
 10
103.4867065170971
 20
-138.6718112175022
 30
0.0
 10
103.4867065170971
 20
-138.6718112175022
 30
0.0
 10
103.4867065170971
 20
-138.6718112175022
 30
0.0
 10
103.1566663696101
 20
-138.6718112175022
 30
0.0
 10
103.1566663696101
 20
-138.6718112175022
 30
0.0
 10
103.1566663696101
 20
-138.6718112175022
 30
0.0
 10
103.1566663696101
 20
-138.5236721116364
 30
0.0
 10
103.1566663696101
 20
-138.5236721116364
 30
0.0
 10
103.4887735743882
 20
-138.5088582010498
 30
0.0
 10
103.5352823634391
 20
-138.3459051845975
 30
0.0
 10
103.5649101846122
 20
-138.2315280144872
 30
0.0
 10
103.5649101846122
 20
-138.2315280144872
 30
0.0
 10
103.7109822331868
 20
-138.2315280144872
 30
0.0
 10
103.7109822331868
 20
-138.2315280144872
 30
0.0
 10
103.7109822331868
 20
-138.2315280144872
 30
0.0
 10
103.7109822331868
 20
-139.7759643205247
 30
0.0
 10
103.7109822331868
 20
-139.7759643205247
 30
0.0
 10
103.7109822331868
 20
-139.7759643205247
 30
0.0
 10
103.4867065170971
 20
-139.7759643205247
 30
0.0
 10
103.4867065170971
 20
-139.7759643205247
 30
0.0
  0
HATCH
  5
C8
330
C1
100
AcDbEntity
  8
レイヤー 1
 62
   250
420
  2299925
440
 33554687
100
AcDbHatch
 10
0.0
 20
0.0
 30
0.0
210
0.0
220
0.0
230
1.0
  2
SOLID
 70
     1
 71
     1
 91
        1
 92
        1
 93
        1
 72
     4
 94
        3
 73
     0
 74
     0
 95
       26
 96
       22
 40
0.0
 40
0.0
 40
0.0
 40
0.0
 40
1.0
 40
1.0
 40
1.0
 40
2.0
 40
2.0
 40
2.0
 40
3.0
 40
3.0
 40
3.0
 40
4.0
 40
4.0
 40
4.0
 40
5.0
 40
5.0
 40
5.0
 40
6.0
 40
6.0
 40
6.0
 40
7.0
 40
7.0
 40
7.0
 40
7.0
 10
103.4867065170971
 20
-139.7759643205247
 10
103.4867065170971
 20
-139.7759643205247
 10
103.4867065170971
 20
-138.6718112175022
 10
103.4867065170971
 20
-138.6718112175022
 10
103.4867065170971
 20
-138.6718112175022
 10
103.1566663696101
 20
-138.6718112175022
 10
103.1566663696101
 20
-138.6718112175022
 10
103.1566663696101
 20
-138.6718112175022
 10
103.1566663696101
 20
-138.5236721116364
 10
103.1566663696101
 20
-138.5236721116364
 10
103.4887735743882
 20
-138.5088582010498
 10
103.5352823634391
 20
-138.3459051845975
 10
103.5649101846122
 20
-138.2315280144872
 10
103.5649101846122
 20
-138.2315280144872
 10
103.7109822331868
 20
-138.2315280144872
 10
103.7109822331868
 20
-138.2315280144872
 10
103.7109822331868
 20
-138.2315280144872
 10
103.7109822331868
 20
-139.7759643205247
 10
103.7109822331868
 20
-139.7759643205247
 10
103.7109822331868
 20
-139.7759643205247
 10
103.4867065170971
 20
-139.7759643205247
 10
103.4867065170971
 20
-139.7759643205247
 97
        0
 97
        1
330
C7
 75
     2
 76
     1
 98
        1
 10
0.0
 20
0.0
450
        0
451
        0
460
0.0
461
0.0
452
        0
462
0.0
453
        0
470

  0
ENDBLK
  5
C4
330
C1
100
AcDbEntity
  8
0
100
AcDbBlockEnd
  0
BLOCK
  5
CB
330
C9
100
AcDbEntity
  8
0
100
AcDbBlockBegin
  2
Block_8
 70
     0
 10
0.0
 20
0.0
 30
0.0
  3
Block_8
  1

  0
LINE
  5
CD
330
C9
100
AcDbEntity
  8
レイヤー 1
  6
AI-Linetype-0
 62
   154
420
    23468
370
    25
100
AcDbLine
 10
112.4394552953736
 20
-142.9232560187262
 30
0.0
 11
93.44303641304589
 21
-142.9232560187262
 31
0.0
  0
LINE
  5
CF
330
C9
100
AcDbEntity
  8
レイヤー 1
 62
   250
420
  2299925
370
     9
100
AcDbLine
 10
104.3839204850545
 20
-142.3421204155324
 30
0.0
 11
108.7225710952836
 21
-138.0034979307732
 31
0.0
  0
LWPOLYLINE
  5
D0
330
C9
100
AcDbEntity
  8
レイヤー 1
 62
   250
420
  2299925
370
     9
100
AcDbPolyline
 90
        3
 70
     0
 43
0.0
 10
104.8841593612589
 20
-141.4760157154512
 10
104.3839204850545
 20
-142.3421204155324
 10
105.2500270483685
 20
-141.8418815394833
  0
INSERT
  5
D2
330
C9
100
AcDbEntity
  8
レイヤー 1
100
AcDbBlockReference
  2
Block_9
 10
0.0
 20
0.0
 30
0.0
  0
ENDBLK
  5
CC
330
C9
100
AcDbEntity
  8
0
100
AcDbBlockEnd
  0
BLOCK
  5
D3
330
D1
100
AcDbEntity
  8
0
100
AcDbBlockBegin
  2
Block_9
 70
     0
 10
0.0
 20
0.0
 30
0.0
  3
Block_9
  1

  0
INSERT
  5
D6
330
D1
100
AcDbEntity
  8
レイヤー 1
100
AcDbBlockReference
  2
Block_10
 10
0.0
 20
0.0
 30
0.0
  0
ENDBLK
  5
D4
330
D1
100
AcDbEntity
  8
0
100
AcDbBlockEnd
  0
BLOCK
  5
D7
330
D5
100
AcDbEntity
  8
0
100
AcDbBlockBegin
  2
Block_10
 70
     0
 10
0.0
 20
0.0
 30
0.0
  3
Block_10
  1

  0
SPLINE
  5
D9
330
D5
100
AcDbEntity
  8
レイヤー 1
100
AcDbSpline
210
0.0
220
0.0
230
1.0
 70
     9
 71
     3
 72
    17
 73
    13
 74
     0
 42
0.0000000001
 43
0.0000000001
 40
0.0
 40
0.0
 40
0.0
 40
0.0
 40
1.0
 40
1.0
 40
1.0
 40
2.0
 40
2.0
 40
2.0
 40
3.0
 40
3.0
 40
3.0
 40
4.0
 40
4.0
 40
4.0
 40
4.0
 10
107.3205810278573
 20
-136.5677191498858
 30
0.0
 10
107.3037000599796
 20
-136.5971747162847
 30
0.0
 10
107.2530571563464
 20
-136.6903645491607
 30
0.0
 10
107.2423773603422
 20
-136.7093125743296
 30
0.0
 10
107.4328911406765
 20
-136.7685682166759
 30
0.0
 10
107.4539062231365
 20
-136.7749416433236
 30
0.0
 10
107.5259087187782
 20
-136.8025024072056
 30
0.0
 10
107.5810302465422
 20
-136.7156860009773
 30
0.0
 10
107.6041123862934
 20
-136.6416164480444
 30
0.0
 10
107.61892629688
 20
-136.5677191498858
 30
0.0
 10
107.61892629688
 20
-136.5677191498858
 30
0.0
 10
107.3205810278573
 20
-136.5677191498858
 30
0.0
 10
107.3205810278573
 20
-136.5677191498858
 30
0.0
  0
SPLINE
  5
DA
330
D5
100
AcDbEntity
  8
レイヤー 1
100
AcDbSpline
210
0.0
220
0.0
230
1.0
 70
    11
 71
     3
 72
    20
 73
    16
 74
     0
 42
0.0000000001
 43
0.0000000001
 40
0.0
 40
0.0
 40
0.0
 40
0.0
 40
1.0
 40
1.0
 40
1.0
 40
2.0
 40
2.0
 40
2.0
 40
3.0
 40
3.0
 40
3.0
 40
4.0
 40
4.0
 40
4.0
 40
5.0
 40
5.0
 40
5.0
 40
5.0
 10
107.2571912709287
 20
-135.7172973293519
 30
0.0
 10
107.2571912709287
 20
-135.7172973293519
 30
0.0
 10
107.2254963924644
 20
-135.7172973293519
 30
0.0
 10
107.2254963924644
 20
-135.7172973293519
 30
0.0
 10
107.2720051815153
 20
-135.8166883341014
 30
0.0
 10
107.3037000599796
 20
-135.8969590589077
 30
0.0
 10
107.3374619957351
 20
-136.0239108275391
 30
0.0
 10
107.3374619957351
 20
-136.0239108275391
 30
0.0
 10
107.5448567439471
 20
-136.0239108275391
 30
0.0
 10
107.5448567439471
 20
-136.0239108275391
 30
0.0
 10
107.5765516224114
 20
-135.9308932494374
 30
0.0
 10
107.5999782717111
 20
-135.8463161552745
 30
0.0
 10
107.6230604114623
 20
-135.7172973293519
 30
0.0
 10
107.6230604114623
 20
-135.7172973293519
 30
0.0
 10
107.2571912709287
 20
-135.7172973293519
 30
0.0
 10
107.2571912709287
 20
-135.7172973293519
 30
0.0
  0
SPLINE
  5
DB
330
D5
100
AcDbEntity
  8
レイヤー 1
100
AcDbSpline
210
0.0
220
0.0
230
1.0
 70
     9
 71
     3
 72
   242
 73
   238
 74
     0
 42
0.0000000001
 43
0.0000000001
 40
0.0
 40
0.0
 40
0.0
 40
0.0
 40
1.0
 40
1.0
 40
1.0
 40
2.0
 40
2.0
 40
2.0
 40
3.0
 40
3.0
 40
3.0
 40
4.0
 40
4.0
 40
4.0
 40
5.0
 40
5.0
 40
5.0
 40
6.0
 40
6.0
 40
6.0
 40
7.0
 40
7.0
 40
7.0
 40
8.0
 40
8.0
 40
8.0
 40
9.0
 40
9.0
 40
9.0
 40
10.0
 40
10.0
 40
10.0
 40
11.0
 40
11.0
 40
11.0
 40
12.0
 40
12.0
 40
12.0
 40
13.0
 40
13.0
 40
13.0
 40
14.0
 40
14.0
 40
14.0
 40
15.0
 40
15.0
 40
15.0
 40
16.0
 40
16.0
 40
16.0
 40
17.0
 40
17.0
 40
17.0
 40
18.0
 40
18.0
 40
18.0
 40
19.0
 40
19.0
 40
19.0
 40
20.0
 40
20.0
 40
20.0
 40
21.0
 40
21.0
 40
21.0
 40
22.0
 40
22.0
 40
22.0
 40
23.0
 40
23.0
 40
23.0
 40
24.0
 40
24.0
 40
24.0
 40
25.0
 40
25.0
 40
25.0
 40
26.0
 40
26.0
 40
26.0
 40
27.0
 40
27.0
 40
27.0
 40
28.0
 40
28.0
 40
28.0
 40
29.0
 40
29.0
 40
29.0
 40
30.0
 40
30.0
 40
30.0
 40
31.0
 40
31.0
 40
31.0
 40
32.0
 40
32.0
 40
32.0
 40
33.0
 40
33.0
 40
33.0
 40
34.0
 40
34.0
 40
34.0
 40
35.0
 40
35.0
 40
35.0
 40
36.0
 40
36.0
 40
36.0
 40
37.0
 40
37.0
 40
37.0
 40
38.0
 40
38.0
 40
38.0
 40
39.0
 40
39.0
 40
39.0
 40
40.0
 40
40.0
 40
40.0
 40
41.0
 40
41.0
 40
41.0
 40
42.0
 40
42.0
 40
42.0
 40
43.0
 40
43.0
 40
43.0
 40
44.0
 40
44.0
 40
44.0
 40
45.0
 40
45.0
 40
45.0
 40
46.0
 40
46.0
 40
46.0
 40
47.0
 40
47.0
 40
47.0
 40
48.0
 40
48.0
 40
48.0
 40
49.0
 40
49.0
 40
49.0
 40
50.0
 40
50.0
 40
50.0
 40
51.0
 40
51.0
 40
51.0
 40
52.0
 40
52.0
 40
52.0
 40
53.0
 40
53.0
 40
53.0
 40
54.0
 40
54.0
 40
54.0
 40
55.0
 40
55.0
 40
55.0
 40
56.0
 40
56.0
 40
56.0
 40
57.0
 40
57.0
 40
57.0
 40
58.0
 40
58.0
 40
58.0
 40
59.0
 40
59.0
 40
59.0
 40
60.0
 40
60.0
 40
60.0
 40
61.0
 40
61.0
 40
61.0
 40
62.0
 40
62.0
 40
62.0
 40
63.0
 40
63.0
 40
63.0
 40
64.0
 40
64.0
 40
64.0
 40
65.0
 40
65.0
 40
65.0
 40
66.0
 40
66.0
 40
66.0
 40
67.0
 40
67.0
 40
67.0
 40
68.0
 40
68.0
 40
68.0
 40
69.0
 40
69.0
 40
69.0
 40
70.0
 40
70.0
 40
70.0
 40
71.0
 40
71.0
 40
71.0
 40
72.0
 40
72.0
 40
72.0
 40
73.0
 40
73.0
 40
73.0
 40
74.0
 40
74.0
 40
74.0
 40
75.0
 40
75.0
 40
75.0
 40
76.0
 40
76.0
 40
76.0
 40
77.0
 40
77.0
 40
77.0
 40
78.0
 40
78.0
 40
78.0
 40
79.0
 40
79.0
 40
79.0
 40
79.0
 10
107.8855766874383
 20
-136.1825574746349
 30
0.0
 10
107.8855766874383
 20
-136.1825574746349
 30
0.0
 10
107.6316731501754
 20
-136.1825574746349
 30
0.0
 10
107.6316731501754
 20
-136.1825574746349
 30
0.0
 10
107.6316731501754
 20
-136.1825574746349
 30
0.0
 10
107.3546874731613
 20
-136.1825574746349
 30
0.0
 10
107.3546874731613
 20
-136.1825574746349
 30
0.0
 10
107.3546874731613
 20
-136.1825574746349
 30
0.0
 10
107.4814669870185
 20
-136.2249321491035
 30
0.0
 10
107.4814669870185
 20
-136.2249321491035
 30
0.0
 10
107.4921467830228
 20
-136.22923851846
 30
0.0
 10
107.5048936363182
 20
-136.2354396903335
 30
0.0
 10
107.5048936363182
 20
-136.2481865436289
 30
0.0
 10
107.5048936363182
 20
-136.2693738808632
 30
0.0
 10
107.4728542483054
 20
-136.2757473075109
 30
0.0
 10
107.4518391658454
 20
-136.2798814220932
 30
0.0
 10
107.4411593698411
 20
-136.3031358166186
 30
0.0
 10
107.4115315486679
 20
-136.3687648856126
 30
0.0
 10
107.3925835234991
 20
-136.4132066173724
 30
0.0
 10
107.3925835234991
 20
-136.4132066173724
 30
0.0
 10
107.6633680286397
 20
-136.4132066173724
 30
0.0
 10
107.6633680286397
 20
-136.4132066173724
 30
0.0
 10
107.7543185494503
 20
-136.4132066173724
 30
0.0
 10
107.951033501658
 20
-136.4089002480158
 30
0.0
 10
108.0929714356503
 20
-136.4004597640769
 30
0.0
 10
108.0929714356503
 20
-136.4004597640769
 30
0.0
 10
108.0929714356503
 20
-136.5782266911159
 30
0.0
 10
108.0929714356503
 20
-136.5782266911159
 30
0.0
 10
108.0102891440043
 20
-136.5739203217593
 30
0.0
 10
107.9892740615443
 20
-136.5739203217593
 30
0.0
 10
107.8094400772143
 20
-136.569786207177
 30
0.0
 10
107.77774519875
 20
-136.7241264849162
 30
0.0
 10
107.7333034669903
 20
-136.8045694644967
 30
0.0
 10
107.6888617352306
 20
-136.874332648073
 30
0.0
 10
107.8094400772143
 20
-136.9335882904193
 30
0.0
 10
107.9152045086114
 20
-137.0012844167045
 30
0.0
 10
108.0189018827175
 20
-137.0837944535763
 30
0.0
 10
108.0189018827175
 20
-137.0837944535763
 30
0.0
 10
107.9003905980249
 20
-137.2508815846109
 30
0.0
 10
107.9003905980249
 20
-137.2508815846109
 30
0.0
 10
107.8769639487252
 20
-137.231933559442
 30
0.0
 10
107.8642170954298
 20
-137.2234930755031
 30
0.0
 10
107.7522514921591
 20
-137.138743726566
 30
0.0
 10
107.7036756458171
 20
-137.100675421454
 30
0.0
 10
107.6444200034708
 20
-137.0648464284074
 30
0.0
 10
107.563804769116
 20
-137.0204046966477
 30
0.0
 10
107.3522759063216
 20
-137.2066121076254
 30
0.0
 10
107.1472927249493
 20
-137.2298665021508
 30
0.0
 10
106.8572156850912
 20
-137.259494323324
 30
0.0
 10
106.8572156850912
 20
-137.259494323324
 30
0.0
 10
106.7538628205337
 20
-137.079660338994
 30
0.0
 10
106.7538628205337
 20
-137.079660338994
 30
0.0
 10
107.0711561147252
 20
-137.0753539696374
 30
0.0
 10
107.2465114749245
 20
-137.0500325178208
 30
0.0
 10
107.3987846953725
 20
-136.9399617170671
 30
0.0
 10
107.2806179202284
 20
-136.8891465586596
 30
0.0
 10
107.191734456709
 20
-136.8617580495519
 30
0.0
 10
107.1555609541139
 20
-136.8490111962565
 30
0.0
 10
107.136612928945
 20
-136.8765719601385
 30
0.0
 10
107.1217990183584
 20
-136.8955199853074
 30
0.0
 10
107.0942382544764
 20
-136.9294541758371
 30
0.0
 10
107.0942382544764
 20
-136.9294541758371
 30
0.0
 10
106.8975233022687
 20
-136.8469441389653
 30
0.0
 10
106.8975233022687
 20
-136.8469441389653
 30
0.0
 10
106.9802055939147
 20
-136.7665011593848
 30
0.0
 10
107.0415282935521
 20
-136.6712442692176
 30
0.0
 10
107.0983723690587
 20
-136.569786207177
 30
0.0
 10
106.9082030982729
 20
-136.5739203217593
 30
0.0
 10
106.8868435062644
 20
-136.5739203217593
 30
0.0
 10
106.8045057241669
 20
-136.5782266911159
 30
0.0
 10
106.8045057241669
 20
-136.5782266911159
 30
0.0
 10
106.8045057241669
 20
-136.4004597640769
 30
0.0
 10
106.8045057241669
 20
-136.4004597640769
 30
0.0
 10
106.9440320913195
 20
-136.4068331907247
 30
0.0
 10
107.1534938968227
 20
-136.4111395600812
 30
0.0
 10
107.1789876034136
 20
-136.4111395600812
 30
0.0
 10
107.1958685712913
 20
-136.3772053695515
 30
0.0
 10
107.2509900990553
 20
-136.2566270275678
 30
0.0
 10
107.2699381242242
 20
-136.1825574746349
 30
0.0
 10
107.2509900990553
 20
-136.1825574746349
 30
0.0
 10
107.0732231720164
 20
-136.1889309012826
 30
0.0
 10
106.8785752770998
 20
-136.201677754578
 30
0.0
 10
106.8785752770998
 20
-136.201677754578
 30
0.0
 10
106.8785752770998
 20
-136.3350029498572
 30
0.0
 10
106.8785752770998
 20
-136.3350029498572
 30
0.0
 10
106.8299994307578
 20
-136.3603244016738
 30
0.0
 10
106.7707437884115
 20
-136.3920192801381
 30
0.0
 10
106.6374185931323
 20
-136.4576483491321
 30
0.0
 10
106.6374185931323
 20
-136.4576483491321
 30
0.0
 10
106.6374185931323
 20
-136.6035481429324
 30
0.0
 10
106.6374185931323
 20
-136.6035481429324
 30
0.0
 10
106.6374185931323
 20
-136.6035481429324
 30
0.0
 10
106.6374185931323
 20
-137.0712198550551
 30
0.0
 10
106.6374185931323
 20
-137.0712198550551
 30
0.0
 10
106.6374185931323
 20
-137.1979993689123
 30
0.0
 10
106.6012450905372
 20
-137.2572550112586
 30
0.0
 10
106.3180582416496
 20
-137.2488145273197
 30
0.0
 10
106.3180582416496
 20
-137.2488145273197
 30
0.0
 10
106.2143608675436
 20
-137.0415920338819
 30
0.0
 10
106.2143608675436
 20
-137.0415920338819
 30
0.0
 10
106.2777506244722
 20
-137.0541666324031
 30
0.0
 10
106.3263264708142
 20
-137.0584730017597
 30
0.0
 10
106.3666340879917
 20
-137.0584730017597
 30
0.0
 10
106.4427706982157
 20
-137.0584730017597
 30
0.0
 10
106.4534504942199
 20
-137.0352186072342
 30
0.0
 10
106.4534504942199
 20
-136.9695895382402
 30
0.0
 10
106.4534504942199
 20
-136.9695895382402
 30
0.0
 10
106.4534504942199
 20
-136.5401583860038
 30
0.0
 10
106.4534504942199
 20
-136.5401583860038
 30
0.0
 10
106.3559542919874
 20
-136.580293748407
 30
0.0
 10
106.3390733241097
 20
-136.5866671750547
 30
0.0
 10
106.2925645350588
 20
-136.6057874549978
 30
0.0
 10
106.2884304204765
 20
-136.6268025374578
 30
0.0
 10
106.2839517963457
 20
-136.656430358631
 30
0.0
 10
106.2650037711768
 20
-136.656430358631
 30
0.0
 10
106.2567355420122
 20
-136.656430358631
 30
0.0
 10
106.2460557460079
 20
-136.6522962440487
 30
0.0
 10
106.2395100645859
 20
-136.6290418495233
 30
0.0
 10
106.2395100645859
 20
-136.6290418495233
 30
0.0
 10
106.1868001036616
 20
-136.4364610118978
 30
0.0
 10
106.1868001036616
 20
-136.4364610118978
 30
0.0
 10
106.3328721522362
 20
-136.3899522228469
 30
0.0
 10
106.398328966456
 20
-136.3666978283215
 30
0.0
 10
106.4534504942199
 20
-136.3455104910872
 30
0.0
 10
106.4534504942199
 20
-136.3455104910872
 30
0.0
 10
106.4534504942199
 20
-135.9329603067285
 30
0.0
 10
106.4534504942199
 20
-135.9329603067285
 30
0.0
 10
106.4534504942199
 20
-135.9329603067285
 30
0.0
 10
106.4003960237471
 20
-135.9329603067285
 30
0.0
 10
106.4003960237471
 20
-135.9329603067285
 30
0.0
 10
106.4003960237471
 20
-135.9329603067285
 30
0.0
 10
106.3221923562319
 20
-135.9329603067285
 30
0.0
 10
106.3221923562319
 20
-135.9329603067285
 30
0.0
 10
106.2543239751725
 20
-135.9329603067285
 30
0.0
 10
106.2460557460079
 20
-135.9329603067285
 30
0.0
 10
106.2098822434128
 20
-135.9393337333763
 30
0.0
 10
106.2098822434128
 20
-135.9393337333763
 30
0.0
 10
106.2098822434128
 20
-135.7446858384596
 30
0.0
 10
106.2098822434128
 20
-135.7446858384596
 30
0.0
 10
106.2374430072948
 20
-135.7510592651074
 30
0.0
 10
106.2460557460079
 20
-135.7510592651074
 30
0.0
 10
106.31564667481
 20
-135.7510592651074
 30
0.0
 10
106.31564667481
 20
-135.7510592651074
 30
0.0
 10
106.4489718700891
 20
-135.7510592651074
 30
0.0
 10
106.4489718700891
 20
-135.7510592651074
 30
0.0
 10
106.4489718700891
 20
-135.681296081531
 30
0.0
 10
106.4489718700891
 20
-135.5987860446593
 30
0.0
 10
106.446904812798
 20
-135.5944796753028
 30
0.0
 10
106.4386365836334
 20
-135.4146456909727
 30
0.0
 10
106.4386365836334
 20
-135.3956976658038
 30
0.0
 10
106.4362250167937
 20
-135.349188876753
 30
0.0
 10
106.4362250167937
 20
-135.349188876753
 30
0.0
 10
106.6522325037189
 20
-135.3576293606918
 30
0.0
 10
106.6522325037189
 20
-135.3576293606918
 30
0.0
 10
106.6629122997231
 20
-135.3576293606918
 30
0.0
 10
106.6839273821832
 20
-135.359696417983
 30
0.0
 10
106.6839273821832
 20
-135.3765773858607
 30
0.0
 10
106.6839273821832
 20
-135.3956976658038
 30
0.0
 10
106.6691134715966
 20
-135.4062052070339
 30
0.0
 10
106.6436197650057
 20
-135.425325486977
 30
0.0
 10
106.6436197650057
 20
-135.4759683906102
 30
0.0
 10
106.6374185931323
 20
-135.7045504760565
 30
0.0
 10
106.6394856504234
 20
-135.7510592651074
 30
0.0
 10
106.7686767311203
 20
-135.7510592651074
 30
0.0
 10
106.7810790748672
 20
-135.7510592651074
 30
0.0
 10
106.8785752770998
 20
-135.7426187811685
 30
0.0
 10
106.8785752770998
 20
-135.7426187811685
 30
0.0
 10
106.8785752770998
 20
-135.9372666760851
 30
0.0
 10
106.8785752770998
 20
-135.9372666760851
 30
0.0
 10
106.8403347172135
 20
-135.9350273640197
 30
0.0
 10
106.7728108457026
 20
-135.9308932494374
 30
0.0
 10
106.6374185931323
 20
-135.9329603067285
 30
0.0
 10
106.6374185931323
 20
-135.9329603067285
 30
0.0
 10
106.6374185931323
 20
-136.2714409381543
 30
0.0
 10
106.6374185931323
 20
-136.2714409381543
 30
0.0
 10
106.6925401208963
 20
-136.2481865436289
 30
0.0
 10
106.757996935116
 20
-136.2206257797469
 30
0.0
 10
106.8065727814581
 20
-136.1973713852215
 30
0.0
 10
106.8065727814581
 20
-136.1973713852215
 30
0.0
 10
106.8065727814581
 20
-136.0197767129568
 30
0.0
 10
106.8065727814581
 20
-136.0197767129568
 30
0.0
 10
106.9209499515684
 20
-136.032351311478
 30
0.0
 10
107.039461236261
 20
-136.032351311478
 30
0.0
 10
107.1555609541139
 20
-136.032351311478
 30
0.0
 10
107.1324788143627
 20
-135.9372666760851
 30
0.0
 10
107.1049180504807
 20
-135.8547566392134
 30
0.0
 10
107.0415282935521
 20
-135.7214314439342
 30
0.0
 10
106.9970865617924
 20
-135.7234985012254
 30
0.0
 10
106.9144042701464
 20
-135.7278048705819
 30
0.0
 10
106.8765082198086
 20
-135.7298719278731
 30
0.0
 10
106.8765082198086
 20
-135.7298719278731
 30
0.0
 10
106.8765082198086
 20
-135.550037943543
 30
0.0
 10
106.8765082198086
 20
-135.550037943543
 30
0.0
 10
107.0012206763747
 20
-135.5584784274819
 30
0.0
 10
107.1748534888313
 20
-135.5627847968385
 30
0.0
 10
107.2571912709287
 20
-135.5627847968385
 30
0.0
 10
107.2571912709287
 20
-135.5627847968385
 30
0.0
 10
107.3398735625747
 20
-135.5627847968385
 30
0.0
 10
107.3398735625747
 20
-135.5627847968385
 30
0.0
 10
107.3398735625747
 20
-135.3998317803861
 30
0.0
 10
107.3398735625747
 20
-135.3893242391561
 30
0.0
 10
107.3374619957351
 20
-135.3343749661664
 30
0.0
 10
107.3374619957351
 20
-135.3343749661664
 30
0.0
 10
107.5617377118248
 20
-135.359696417983
 30
0.0
 10
107.5617377118248
 20
-135.359696417983
 30
0.0
 10
107.5662163359556
 20
-135.359696417983
 30
0.0
 10
107.5872314184157
 20
-135.3617634752741
 30
0.0
 10
107.5872314184157
 20
-135.3786444431518
 30
0.0
 10
107.5872314184157
 20
-135.3934583537384
 30
0.0
 10
107.5765516224114
 20
-135.4020710924515
 30
0.0
 10
107.5489908585294
 20
-135.4168850030381
 30
0.0
 10
107.542789686656
 20
-135.4823418172579
 30
0.0
 10
107.5407226293648
 20
-135.5035291544922
 30
0.0
 10
107.5407226293648
 20
-135.5627847968385
 30
0.0
 10
107.5407226293648
 20
-135.5627847968385
 30
0.0
 10
107.6358072647577
 20
-135.5627847968385
 30
0.0
 10
107.6358072647577
 20
-135.5627847968385
 30
0.0
 10
107.7184895564037
 20
-135.5627847968385
 30
0.0
 10
107.8917778593118
 20
-135.5584784274819
 30
0.0
 10
108.0168348254263
 20
-135.550037943543
 30
0.0
 10
108.0168348254263
 20
-135.550037943543
 30
0.0
 10
108.0168348254263
 20
-135.7298719278731
 30
0.0
 10
108.0168348254263
 20
-135.7298719278731
 30
0.0
 10
107.9872070042532
 20
-135.7278048705819
 30
0.0
 10
107.8686957195606
 20
-135.7234985012254
 30
0.0
 10
107.8283881023832
 20
-135.7214314439342
 30
0.0
 10
107.8135741917966
 20
-135.7722466023416
 30
0.0
 10
107.7798122560411
 20
-135.8843844603865
 30
0.0
 10
107.7140109322729
 20
-136.0239108275391
 30
0.0
 10
107.7563856067414
 20
-136.0239108275391
 30
0.0
 10
108.033715793304
 20
-136.0049628023703
 30
0.0
 10
108.0950384929415
 20
-136.0027234903048
 30
0.0
 10
108.0950384929415
 20
-136.0027234903048
 30
0.0
 10
108.0950384929415
 20
-136.1868638439915
 30
0.0
 10
108.0950384929415
 20
-136.1868638439915
 30
0.0
 10
108.0654106717684
 20
-136.1868638439915
 30
0.0
 10
108.0485297038906
 20
-136.1825574746349
 30
0.0
 10
107.8855766874383
 20
-136.1825574746349
 30
0.0
  0
HATCH
  5
DC
330
D5
100
AcDbEntity
  8
レイヤー 1
 62
   250
420
  2299925
440
 33554687
100
AcDbHatch
 10
0.0
 20
0.0
 30
0.0
210
0.0
220
0.0
230
1.0
  2
SOLID
 70
     1
 71
     1
 91
        3
 92
        1
 93
        1
 72
     4
 94
        3
 73
     0
 74
     0
 95
       17
 96
       13
 40
0.0
 40
0.0
 40
0.0
 40
0.0
 40
1.0
 40
1.0
 40
1.0
 40
2.0
 40
2.0
 40
2.0
 40
3.0
 40
3.0
 40
3.0
 40
4.0
 40
4.0
 40
4.0
 40
4.0
 10
107.3205810278573
 20
-136.5677191498858
 10
107.3037000599796
 20
-136.5971747162847
 10
107.2530571563464
 20
-136.6903645491607
 10
107.2423773603422
 20
-136.7093125743296
 10
107.4328911406765
 20
-136.7685682166759
 10
107.4539062231365
 20
-136.7749416433236
 10
107.5259087187782
 20
-136.8025024072056
 10
107.5810302465422
 20
-136.7156860009773
 10
107.6041123862934
 20
-136.6416164480444
 10
107.61892629688
 20
-136.5677191498858
 10
107.61892629688
 20
-136.5677191498858
 10
107.3205810278573
 20
-136.5677191498858
 10
107.3205810278573
 20
-136.5677191498858
 97
        0
 97
        1
330
D9
 92
        1
 93
        1
 72
     4
 94
        3
 73
     0
 74
     0
 95
       20
 96
       16
 40
0.0
 40
0.0
 40
0.0
 40
0.0
 40
1.0
 40
1.0
 40
1.0
 40
2.0
 40
2.0
 40
2.0
 40
3.0
 40
3.0
 40
3.0
 40
4.0
 40
4.0
 40
4.0
 40
5.0
 40
5.0
 40
5.0
 40
5.0
 10
107.2571912709287
 20
-135.7172973293519
 10
107.2571912709287
 20
-135.7172973293519
 10
107.2254963924644
 20
-135.7172973293519
 10
107.2254963924644
 20
-135.7172973293519
 10
107.2720051815153
 20
-135.8166883341014
 10
107.3037000599796
 20
-135.8969590589077
 10
107.3374619957351
 20
-136.0239108275391
 10
107.3374619957351
 20
-136.0239108275391
 10
107.5448567439471
 20
-136.0239108275391
 10
107.5448567439471
 20
-136.0239108275391
 10
107.5765516224114
 20
-135.9308932494374
 10
107.5999782717111
 20
-135.8463161552745
 10
107.6230604114623
 20
-135.7172973293519
 10
107.6230604114623
 20
-135.7172973293519
 10
107.2571912709287
 20
-135.7172973293519
 10
107.2571912709287
 20
-135.7172973293519
 97
        0
 97
        1
330
DA
 92
        1
 93
        1
 72
     4
 94
        3
 73
     0
 74
     0
 95
      242
 96
      238
 40
0.0
 40
0.0
 40
0.0
 40
0.0
 40
1.0
 40
1.0
 40
1.0
 40
2.0
 40
2.0
 40
2.0
 40
3.0
 40
3.0
 40
3.0
 40
4.0
 40
4.0
 40
4.0
 40
5.0
 40
5.0
 40
5.0
 40
6.0
 40
6.0
 40
6.0
 40
7.0
 40
7.0
 40
7.0
 40
8.0
 40
8.0
 40
8.0
 40
9.0
 40
9.0
 40
9.0
 40
10.0
 40
10.0
 40
10.0
 40
11.0
 40
11.0
 40
11.0
 40
12.0
 40
12.0
 40
12.0
 40
13.0
 40
13.0
 40
13.0
 40
14.0
 40
14.0
 40
14.0
 40
15.0
 40
15.0
 40
15.0
 40
16.0
 40
16.0
 40
16.0
 40
17.0
 40
17.0
 40
17.0
 40
18.0
 40
18.0
 40
18.0
 40
19.0
 40
19.0
 40
19.0
 40
20.0
 40
20.0
 40
20.0
 40
21.0
 40
21.0
 40
21.0
 40
22.0
 40
22.0
 40
22.0
 40
23.0
 40
23.0
 40
23.0
 40
24.0
 40
24.0
 40
24.0
 40
25.0
 40
25.0
 40
25.0
 40
26.0
 40
26.0
 40
26.0
 40
27.0
 40
27.0
 40
27.0
 40
28.0
 40
28.0
 40
28.0
 40
29.0
 40
29.0
 40
29.0
 40
30.0
 40
30.0
 40
30.0
 40
31.0
 40
31.0
 40
31.0
 40
32.0
 40
32.0
 40
32.0
 40
33.0
 40
33.0
 40
33.0
 40
34.0
 40
34.0
 40
34.0
 40
35.0
 40
35.0
 40
35.0
 40
36.0
 40
36.0
 40
36.0
 40
37.0
 40
37.0
 40
37.0
 40
38.0
 40
38.0
 40
38.0
 40
39.0
 40
39.0
 40
39.0
 40
40.0
 40
40.0
 40
40.0
 40
41.0
 40
41.0
 40
41.0
 40
42.0
 40
42.0
 40
42.0
 40
43.0
 40
43.0
 40
43.0
 40
44.0
 40
44.0
 40
44.0
 40
45.0
 40
45.0
 40
45.0
 40
46.0
 40
46.0
 40
46.0
 40
47.0
 40
47.0
 40
47.0
 40
48.0
 40
48.0
 40
48.0
 40
49.0
 40
49.0
 40
49.0
 40
50.0
 40
50.0
 40
50.0
 40
51.0
 40
51.0
 40
51.0
 40
52.0
 40
52.0
 40
52.0
 40
53.0
 40
53.0
 40
53.0
 40
54.0
 40
54.0
 40
54.0
 40
55.0
 40
55.0
 40
55.0
 40
56.0
 40
56.0
 40
56.0
 40
57.0
 40
57.0
 40
57.0
 40
58.0
 40
58.0
 40
58.0
 40
59.0
 40
59.0
 40
59.0
 40
60.0
 40
60.0
 40
60.0
 40
61.0
 40
61.0
 40
61.0
 40
62.0
 40
62.0
 40
62.0
 40
63.0
 40
63.0
 40
63.0
 40
64.0
 40
64.0
 40
64.0
 40
65.0
 40
65.0
 40
65.0
 40
66.0
 40
66.0
 40
66.0
 40
67.0
 40
67.0
 40
67.0
 40
68.0
 40
68.0
 40
68.0
 40
69.0
 40
69.0
 40
69.0
 40
70.0
 40
70.0
 40
70.0
 40
71.0
 40
71.0
 40
71.0
 40
72.0
 40
72.0
 40
72.0
 40
73.0
 40
73.0
 40
73.0
 40
74.0
 40
74.0
 40
74.0
 40
75.0
 40
75.0
 40
75.0
 40
76.0
 40
76.0
 40
76.0
 40
77.0
 40
77.0
 40
77.0
 40
78.0
 40
78.0
 40
78.0
 40
79.0
 40
79.0
 40
79.0
 40
79.0
 10
107.8855766874383
 20
-136.1825574746349
 10
107.8855766874383
 20
-136.1825574746349
 10
107.6316731501754
 20
-136.1825574746349
 10
107.6316731501754
 20
-136.1825574746349
 10
107.6316731501754
 20
-136.1825574746349
 10
107.3546874731613
 20
-136.1825574746349
 10
107.3546874731613
 20
-136.1825574746349
 10
107.3546874731613
 20
-136.1825574746349
 10
107.4814669870185
 20
-136.2249321491035
 10
107.4814669870185
 20
-136.2249321491035
 10
107.4921467830228
 20
-136.22923851846
 10
107.5048936363182
 20
-136.2354396903335
 10
107.5048936363182
 20
-136.2481865436289
 10
107.5048936363182
 20
-136.2693738808632
 10
107.4728542483054
 20
-136.2757473075109
 10
107.4518391658454
 20
-136.2798814220932
 10
107.4411593698411
 20
-136.3031358166186
 10
107.4115315486679
 20
-136.3687648856126
 10
107.3925835234991
 20
-136.4132066173724
 10
107.3925835234991
 20
-136.4132066173724
 10
107.6633680286397
 20
-136.4132066173724
 10
107.6633680286397
 20
-136.4132066173724
 10
107.7543185494503
 20
-136.4132066173724
 10
107.951033501658
 20
-136.4089002480158
 10
108.0929714356503
 20
-136.4004597640769
 10
108.0929714356503
 20
-136.4004597640769
 10
108.0929714356503
 20
-136.5782266911159
 10
108.0929714356503
 20
-136.5782266911159
 10
108.0102891440043
 20
-136.5739203217593
 10
107.9892740615443
 20
-136.5739203217593
 10
107.8094400772143
 20
-136.569786207177
 10
107.77774519875
 20
-136.7241264849162
 10
107.7333034669903
 20
-136.8045694644967
 10
107.6888617352306
 20
-136.874332648073
 10
107.8094400772143
 20
-136.9335882904193
 10
107.9152045086114
 20
-137.0012844167045
 10
108.0189018827175
 20
-137.0837944535763
 10
108.0189018827175
 20
-137.0837944535763
 10
107.9003905980249
 20
-137.2508815846109
 10
107.9003905980249
 20
-137.2508815846109
 10
107.8769639487252
 20
-137.231933559442
 10
107.8642170954298
 20
-137.2234930755031
 10
107.7522514921591
 20
-137.138743726566
 10
107.7036756458171
 20
-137.100675421454
 10
107.6444200034708
 20
-137.0648464284074
 10
107.563804769116
 20
-137.0204046966477
 10
107.3522759063216
 20
-137.2066121076254
 10
107.1472927249493
 20
-137.2298665021508
 10
106.8572156850912
 20
-137.259494323324
 10
106.8572156850912
 20
-137.259494323324
 10
106.7538628205337
 20
-137.079660338994
 10
106.7538628205337
 20
-137.079660338994
 10
107.0711561147252
 20
-137.0753539696374
 10
107.2465114749245
 20
-137.0500325178208
 10
107.3987846953725
 20
-136.9399617170671
 10
107.2806179202284
 20
-136.8891465586596
 10
107.191734456709
 20
-136.8617580495519
 10
107.1555609541139
 20
-136.8490111962565
 10
107.136612928945
 20
-136.8765719601385
 10
107.1217990183584
 20
-136.8955199853074
 10
107.0942382544764
 20
-136.9294541758371
 10
107.0942382544764
 20
-136.9294541758371
 10
106.8975233022687
 20
-136.8469441389653
 10
106.8975233022687
 20
-136.8469441389653
 10
106.9802055939147
 20
-136.7665011593848
 10
107.0415282935521
 20
-136.6712442692176
 10
107.0983723690587
 20
-136.569786207177
 10
106.9082030982729
 20
-136.5739203217593
 10
106.8868435062644
 20
-136.5739203217593
 10
106.8045057241669
 20
-136.5782266911159
 10
106.8045057241669
 20
-136.5782266911159
 10
106.8045057241669
 20
-136.4004597640769
 10
106.8045057241669
 20
-136.4004597640769
 10
106.9440320913195
 20
-136.4068331907247
 10
107.1534938968227
 20
-136.4111395600812
 10
107.1789876034136
 20
-136.4111395600812
 10
107.1958685712913
 20
-136.3772053695515
 10
107.2509900990553
 20
-136.2566270275678
 10
107.2699381242242
 20
-136.1825574746349
 10
107.2509900990553
 20
-136.1825574746349
 10
107.0732231720164
 20
-136.1889309012826
 10
106.8785752770998
 20
-136.201677754578
 10
106.8785752770998
 20
-136.201677754578
 10
106.8785752770998
 20
-136.3350029498572
 10
106.8785752770998
 20
-136.3350029498572
 10
106.8299994307578
 20
-136.3603244016738
 10
106.7707437884115
 20
-136.3920192801381
 10
106.6374185931323
 20
-136.4576483491321
 10
106.6374185931323
 20
-136.4576483491321
 10
106.6374185931323
 20
-136.6035481429324
 10
106.6374185931323
 20
-136.6035481429324
 10
106.6374185931323
 20
-136.6035481429324
 10
106.6374185931323
 20
-137.0712198550551
 10
106.6374185931323
 20
-137.0712198550551
 10
106.6374185931323
 20
-137.1979993689123
 10
106.6012450905372
 20
-137.2572550112586
 10
106.3180582416496
 20
-137.2488145273197
 10
106.3180582416496
 20
-137.2488145273197
 10
106.2143608675436
 20
-137.0415920338819
 10
106.2143608675436
 20
-137.0415920338819
 10
106.2777506244722
 20
-137.0541666324031
 10
106.3263264708142
 20
-137.0584730017597
 10
106.3666340879917
 20
-137.0584730017597
 10
106.4427706982157
 20
-137.0584730017597
 10
106.4534504942199
 20
-137.0352186072342
 10
106.4534504942199
 20
-136.9695895382402
 10
106.4534504942199
 20
-136.9695895382402
 10
106.4534504942199
 20
-136.5401583860038
 10
106.4534504942199
 20
-136.5401583860038
 10
106.3559542919874
 20
-136.580293748407
 10
106.3390733241097
 20
-136.5866671750547
 10
106.2925645350588
 20
-136.6057874549978
 10
106.2884304204765
 20
-136.6268025374578
 10
106.2839517963457
 20
-136.656430358631
 10
106.2650037711768
 20
-136.656430358631
 10
106.2567355420122
 20
-136.656430358631
 10
106.2460557460079
 20
-136.6522962440487
 10
106.2395100645859
 20
-136.6290418495233
 10
106.2395100645859
 20
-136.6290418495233
 10
106.1868001036616
 20
-136.4364610118978
 10
106.1868001036616
 20
-136.4364610118978
 10
106.3328721522362
 20
-136.3899522228469
 10
106.398328966456
 20
-136.3666978283215
 10
106.4534504942199
 20
-136.3455104910872
 10
106.4534504942199
 20
-136.3455104910872
 10
106.4534504942199
 20
-135.9329603067285
 10
106.4534504942199
 20
-135.9329603067285
 10
106.4534504942199
 20
-135.9329603067285
 10
106.4003960237471
 20
-135.9329603067285
 10
106.4003960237471
 20
-135.9329603067285
 10
106.4003960237471
 20
-135.9329603067285
 10
106.3221923562319
 20
-135.9329603067285
 10
106.3221923562319
 20
-135.9329603067285
 10
106.2543239751725
 20
-135.9329603067285
 10
106.2460557460079
 20
-135.9329603067285
 10
106.2098822434128
 20
-135.9393337333763
 10
106.2098822434128
 20
-135.9393337333763
 10
106.2098822434128
 20
-135.7446858384596
 10
106.2098822434128
 20
-135.7446858384596
 10
106.2374430072948
 20
-135.7510592651074
 10
106.2460557460079
 20
-135.7510592651074
 10
106.31564667481
 20
-135.7510592651074
 10
106.31564667481
 20
-135.7510592651074
 10
106.4489718700891
 20
-135.7510592651074
 10
106.4489718700891
 20
-135.7510592651074
 10
106.4489718700891
 20
-135.681296081531
 10
106.4489718700891
 20
-135.5987860446593
 10
106.446904812798
 20
-135.5944796753028
 10
106.4386365836334
 20
-135.4146456909727
 10
106.4386365836334
 20
-135.3956976658038
 10
106.4362250167937
 20
-135.349188876753
 10
106.4362250167937
 20
-135.349188876753
 10
106.6522325037189
 20
-135.3576293606918
 10
106.6522325037189
 20
-135.3576293606918
 10
106.6629122997231
 20
-135.3576293606918
 10
106.6839273821832
 20
-135.359696417983
 10
106.6839273821832
 20
-135.3765773858607
 10
106.6839273821832
 20
-135.3956976658038
 10
106.6691134715966
 20
-135.4062052070339
 10
106.6436197650057
 20
-135.425325486977
 10
106.6436197650057
 20
-135.4759683906102
 10
106.6374185931323
 20
-135.7045504760565
 10
106.6394856504234
 20
-135.7510592651074
 10
106.7686767311203
 20
-135.7510592651074
 10
106.7810790748672
 20
-135.7510592651074
 10
106.8785752770998
 20
-135.7426187811685
 10
106.8785752770998
 20
-135.7426187811685
 10
106.8785752770998
 20
-135.9372666760851
 10
106.8785752770998
 20
-135.9372666760851
 10
106.8403347172135
 20
-135.9350273640197
 10
106.7728108457026
 20
-135.9308932494374
 10
106.6374185931323
 20
-135.9329603067285
 10
106.6374185931323
 20
-135.9329603067285
 10
106.6374185931323
 20
-136.2714409381543
 10
106.6374185931323
 20
-136.2714409381543
 10
106.6925401208963
 20
-136.2481865436289
 10
106.757996935116
 20
-136.2206257797469
 10
106.8065727814581
 20
-136.1973713852215
 10
106.8065727814581
 20
-136.1973713852215
 10
106.8065727814581
 20
-136.0197767129568
 10
106.8065727814581
 20
-136.0197767129568
 10
106.9209499515684
 20
-136.032351311478
 10
107.039461236261
 20
-136.032351311478
 10
107.1555609541139
 20
-136.032351311478
 10
107.1324788143627
 20
-135.9372666760851
 10
107.1049180504807
 20
-135.8547566392134
 10
107.0415282935521
 20
-135.7214314439342
 10
106.9970865617924
 20
-135.7234985012254
 10
106.9144042701464
 20
-135.7278048705819
 10
106.8765082198086
 20
-135.7298719278731
 10
106.8765082198086
 20
-135.7298719278731
 10
106.8765082198086
 20
-135.550037943543
 10
106.8765082198086
 20
-135.550037943543
 10
107.0012206763747
 20
-135.5584784274819
 10
107.1748534888313
 20
-135.5627847968385
 10
107.2571912709287
 20
-135.5627847968385
 10
107.2571912709287
 20
-135.5627847968385
 10
107.3398735625747
 20
-135.5627847968385
 10
107.3398735625747
 20
-135.5627847968385
 10
107.3398735625747
 20
-135.3998317803861
 10
107.3398735625747
 20
-135.3893242391561
 10
107.3374619957351
 20
-135.3343749661664
 10
107.3374619957351
 20
-135.3343749661664
 10
107.5617377118248
 20
-135.359696417983
 10
107.5617377118248
 20
-135.359696417983
 10
107.5662163359556
 20
-135.359696417983
 10
107.5872314184157
 20
-135.3617634752741
 10
107.5872314184157
 20
-135.3786444431518
 10
107.5872314184157
 20
-135.3934583537384
 10
107.5765516224114
 20
-135.4020710924515
 10
107.5489908585294
 20
-135.4168850030381
 10
107.542789686656
 20
-135.4823418172579
 10
107.5407226293648
 20
-135.5035291544922
 10
107.5407226293648
 20
-135.5627847968385
 10
107.5407226293648
 20
-135.5627847968385
 10
107.6358072647577
 20
-135.5627847968385
 10
107.6358072647577
 20
-135.5627847968385
 10
107.7184895564037
 20
-135.5627847968385
 10
107.8917778593118
 20
-135.5584784274819
 10
108.0168348254263
 20
-135.550037943543
 10
108.0168348254263
 20
-135.550037943543
 10
108.0168348254263
 20
-135.7298719278731
 10
108.0168348254263
 20
-135.7298719278731
 10
107.9872070042532
 20
-135.7278048705819
 10
107.8686957195606
 20
-135.7234985012254
 10
107.8283881023832
 20
-135.7214314439342
 10
107.8135741917966
 20
-135.7722466023416
 10
107.7798122560411
 20
-135.8843844603865
 10
107.7140109322729
 20
-136.0239108275391
 10
107.7563856067414
 20
-136.0239108275391
 10
108.033715793304
 20
-136.0049628023703
 10
108.0950384929415
 20
-136.0027234903048
 10
108.0950384929415
 20
-136.0027234903048
 10
108.0950384929415
 20
-136.1868638439915
 10
108.0950384929415
 20
-136.1868638439915
 10
108.0654106717684
 20
-136.1868638439915
 10
108.0485297038906
 20
-136.1825574746349
 10
107.8855766874383
 20
-136.1825574746349
 97
        0
 97
        1
330
DB
 75
     2
 76
     1
 98
        1
 10
0.0
 20
0.0
450
        0
451
        0
460
0.0
461
0.0
452
        0
462
0.0
453
        0
470

  0
SPLINE
  5
DD
330
D5
100
AcDbEntity
  8
レイヤー 1
100
AcDbSpline
210
0.0
220
0.0
230
1.0
 70
    11
 71
     3
 72
    17
 73
    13
 74
     0
 42
0.0000000001
 43
0.0000000001
 40
0.0
 40
0.0
 40
0.0
 40
0.0
 40
1.0
 40
1.0
 40
1.0
 40
2.0
 40
2.0
 40
2.0
 40
3.0
 40
3.0
 40
3.0
 40
4.0
 40
4.0
 40
4.0
 40
4.0
 10
109.7421386444394
 20
-136.9823363915356
 30
0.0
 10
109.7421386444394
 20
-136.9823363915356
 30
0.0
 10
109.0355495604147
 20
-136.9823363915356
 30
0.0
 10
109.0355495604147
 20
-136.9823363915356
 30
0.0
 10
109.0355495604147
 20
-136.9823363915356
 30
0.0
 10
109.0355495604147
 20
-137.0965413068717
 30
0.0
 10
109.0355495604147
 20
-137.0965413068717
 30
0.0
 10
109.0355495604147
 20
-137.0965413068717
 30
0.0
 10
109.7421386444394
 20
-137.0965413068717
 30
0.0
 10
109.7421386444394
 20
-137.0965413068717
 30
0.0
 10
109.7421386444394
 20
-137.0965413068717
 30
0.0
 10
109.7421386444394
 20
-136.9823363915356
 30
0.0
 10
109.7421386444394
 20
-136.9823363915356
 30
0.0
  0
SPLINE
  5
DE
330
D5
100
AcDbEntity
  8
レイヤー 1
100
AcDbSpline
210
0.0
220
0.0
230
1.0
 70
    11
 71
     3
 72
    17
 73
    13
 74
     0
 42
0.0000000001
 43
0.0000000001
 40
0.0
 40
0.0
 40
0.0
 40
0.0
 40
1.0
 40
1.0
 40
1.0
 40
2.0
 40
2.0
 40
2.0
 40
3.0
 40
3.0
 40
3.0
 40
4.0
 40
4.0
 40
4.0
 40
4.0
 10
109.7421386444394
 20
-136.7389403955027
 30
0.0
 10
109.7421386444394
 20
-136.7389403955027
 30
0.0
 10
109.0355495604147
 20
-136.7389403955027
 30
0.0
 10
109.0355495604147
 20
-136.7389403955027
 30
0.0
 10
109.0355495604147
 20
-136.7389403955027
 30
0.0
 10
109.0355495604147
 20
-136.853317565613
 30
0.0
 10
109.0355495604147
 20
-136.853317565613
 30
0.0
 10
109.0355495604147
 20
-136.853317565613
 30
0.0
 10
109.7421386444394
 20
-136.853317565613
 30
0.0
 10
109.7421386444394
 20
-136.853317565613
 30
0.0
 10
109.7421386444394
 20
-136.853317565613
 30
0.0
 10
109.7421386444394
 20
-136.7389403955027
 30
0.0
 10
109.7421386444394
 20
-136.7389403955027
 30
0.0
  0
SPLINE
  5
DF
330
D5
100
AcDbEntity
  8
レイヤー 1
100
AcDbSpline
210
0.0
220
0.0
230
1.0
 70
    11
 71
     3
 72
    17
 73
    13
 74
     0
 42
0.0000000001
 43
0.0000000001
 40
0.0
 40
0.0
 40
0.0
 40
0.0
 40
1.0
 40
1.0
 40
1.0
 40
2.0
 40
2.0
 40
2.0
 40
3.0
 40
3.0
 40
3.0
 40
4.0
 40
4.0
 40
4.0
 40
4.0
 10
109.7421386444394
 20
-136.5062241954741
 30
0.0
 10
109.7421386444394
 20
-136.5062241954741
 30
0.0
 10
109.0355495604147
 20
-136.5062241954741
 30
0.0
 10
109.0355495604147
 20
-136.5062241954741
 30
0.0
 10
109.0355495604147
 20
-136.5062241954741
 30
0.0
 10
109.0355495604147
 20
-136.6142279389367
 30
0.0
 10
109.0355495604147
 20
-136.6142279389367
 30
0.0
 10
109.0355495604147
 20
-136.6142279389367
 30
0.0
 10
109.7421386444394
 20
-136.6142279389367
 30
0.0
 10
109.7421386444394
 20
-136.6142279389367
 30
0.0
 10
109.7421386444394
 20
-136.6142279389367
 30
0.0
 10
109.7421386444394
 20
-136.5062241954741
 30
0.0
 10
109.7421386444394
 20
-136.5062241954741
 30
0.0
  0
SPLINE
  5
E0
330
D5
100
AcDbEntity
  8
レイヤー 1
100
AcDbSpline
210
0.0
220
0.0
230
1.0
 70
     9
 71
     3
 72
   203
 73
   199
 74
     0
 42
0.0000000001
 43
0.0000000001
 40
0.0
 40
0.0
 40
0.0
 40
0.0
 40
1.0
 40
1.0
 40
1.0
 40
2.0
 40
2.0
 40
2.0
 40
3.0
 40
3.0
 40
3.0
 40
4.0
 40
4.0
 40
4.0
 40
5.0
 40
5.0
 40
5.0
 40
6.0
 40
6.0
 40
6.0
 40
7.0
 40
7.0
 40
7.0
 40
8.0
 40
8.0
 40
8.0
 40
9.0
 40
9.0
 40
9.0
 40
10.0
 40
10.0
 40
10.0
 40
11.0
 40
11.0
 40
11.0
 40
12.0
 40
12.0
 40
12.0
 40
13.0
 40
13.0
 40
13.0
 40
14.0
 40
14.0
 40
14.0
 40
15.0
 40
15.0
 40
15.0
 40
16.0
 40
16.0
 40
16.0
 40
17.0
 40
17.0
 40
17.0
 40
18.0
 40
18.0
 40
18.0
 40
19.0
 40
19.0
 40
19.0
 40
20.0
 40
20.0
 40
20.0
 40
21.0
 40
21.0
 40
21.0
 40
22.0
 40
22.0
 40
22.0
 40
23.0
 40
23.0
 40
23.0
 40
24.0
 40
24.0
 40
24.0
 40
25.0
 40
25.0
 40
25.0
 40
26.0
 40
26.0
 40
26.0
 40
27.0
 40
27.0
 40
27.0
 40
28.0
 40
28.0
 40
28.0
 40
29.0
 40
29.0
 40
29.0
 40
30.0
 40
30.0
 40
30.0
 40
31.0
 40
31.0
 40
31.0
 40
32.0
 40
32.0
 40
32.0
 40
33.0
 40
33.0
 40
33.0
 40
34.0
 40
34.0
 40
34.0
 40
35.0
 40
35.0
 40
35.0
 40
36.0
 40
36.0
 40
36.0
 40
37.0
 40
37.0
 40
37.0
 40
38.0
 40
38.0
 40
38.0
 40
39.0
 40
39.0
 40
39.0
 40
40.0
 40
40.0
 40
40.0
 40
41.0
 40
41.0
 40
41.0
 40
42.0
 40
42.0
 40
42.0
 40
43.0
 40
43.0
 40
43.0
 40
44.0
 40
44.0
 40
44.0
 40
45.0
 40
45.0
 40
45.0
 40
46.0
 40
46.0
 40
46.0
 40
47.0
 40
47.0
 40
47.0
 40
48.0
 40
48.0
 40
48.0
 40
49.0
 40
49.0
 40
49.0
 40
50.0
 40
50.0
 40
50.0
 40
51.0
 40
51.0
 40
51.0
 40
52.0
 40
52.0
 40
52.0
 40
53.0
 40
53.0
 40
53.0
 40
54.0
 40
54.0
 40
54.0
 40
55.0
 40
55.0
 40
55.0
 40
56.0
 40
56.0
 40
56.0
 40
57.0
 40
57.0
 40
57.0
 40
58.0
 40
58.0
 40
58.0
 40
59.0
 40
59.0
 40
59.0
 40
60.0
 40
60.0
 40
60.0
 40
61.0
 40
61.0
 40
61.0
 40
62.0
 40
62.0
 40
62.0
 40
63.0
 40
63.0
 40
63.0
 40
64.0
 40
64.0
 40
64.0
 40
65.0
 40
65.0
 40
65.0
 40
66.0
 40
66.0
 40
66.0
 40
66.0
 10
109.577118570696
 20
-136.25025360092
 30
0.0
 10
109.577118570696
 20
-136.25025360092
 30
0.0
 10
109.0183240829885
 20
-136.25025360092
 30
0.0
 10
109.0183240829885
 20
-136.25025360092
 30
0.0
 10
109.0079887965327
 20
-136.2946953326798
 30
0.0
 10
108.9993760578196
 20
-136.3263902111441
 30
0.0
 10
108.9866292045241
 20
-136.3646307710303
 30
0.0
 10
109.012122911115
 20
-136.3646307710303
 30
0.0
 10
109.0269368217016
 20
-136.3666978283215
 30
0.0
 10
109.033137993575
 20
-136.3666978283215
 30
0.0
 10
109.033137993575
 20
-136.3666978283215
 30
0.0
 10
109.2215847166182
 20
-136.3666978283215
 30
0.0
 10
109.2215847166182
 20
-136.3666978283215
 30
0.0
 10
109.2215847166182
 20
-136.3666978283215
 30
0.0
 10
109.5960665958649
 20
-136.3666978283215
 30
0.0
 10
109.5960665958649
 20
-136.3666978283215
 30
0.0
 10
109.646709499498
 20
-136.3666978283215
 30
0.0
 10
109.9302408579341
 20
-136.3539509750261
 30
0.0
 10
109.9619357363984
 20
-136.3539509750261
 30
0.0
 10
109.9598686791072
 20
-136.3815117389081
 30
0.0
 10
109.9578016218161
 20
-136.4004597640769
 30
0.0
 10
109.9578016218161
 20
-136.4300875852501
 30
0.0
 10
109.9557345645249
 20
-136.4617824637144
 30
0.0
 10
109.9557345645249
 20
-136.5971747162847
 30
0.0
 10
109.9557345645249
 20
-136.6247354801667
 30
0.0
 10
109.9557345645249
 20
-136.6247354801667
 30
0.0
 10
109.9557345645249
 20
-136.8701985334908
 30
0.0
 10
109.9557345645249
 20
-136.8701985334908
 30
0.0
 10
109.9557345645249
 20
-136.9146402652505
 30
0.0
 10
109.9598686791072
 20
-137.1113552174582
 30
0.0
 10
109.9640027936895
 20
-137.2636284379063
 30
0.0
 10
109.9640027936895
 20
-137.2636284379063
 30
0.0
 10
109.7376600203086
 20
-137.2636284379063
 30
0.0
 10
109.7376600203086
 20
-137.2636284379063
 30
0.0
 10
109.7376600203086
 20
-137.2636284379063
 30
0.0
 10
109.7397270775998
 20
-137.2298665021508
 30
0.0
 10
109.7397270775998
 20
-137.2298665021508
 30
0.0
 10
109.7397270775998
 20
-137.2298665021508
 30
0.0
 10
109.0376166177059
 20
-137.2298665021508
 30
0.0
 10
109.0376166177059
 20
-137.2298665021508
 30
0.0
 10
109.0376166177059
 20
-137.2298665021508
 30
0.0
 10
109.039683674997
 20
-137.2636284379063
 30
0.0
 10
109.039683674997
 20
-137.2636284379063
 30
0.0
 10
109.039683674997
 20
-137.2636284379063
 30
0.0
 10
108.8216091307807
 20
-137.2636284379063
 30
0.0
 10
108.8216091307807
 20
-137.2636284379063
 30
0.0
 10
108.8260877549115
 20
-137.2086791649166
 30
0.0
 10
108.8260877549115
 20
-137.1959323116211
 30
0.0
 10
108.832288926785
 20
-137.0817273962851
 30
0.0
 10
108.8343559840761
 20
-137.0541666324031
 30
0.0
 10
108.8364230413673
 20
-136.9210136918982
 30
0.0
 10
108.8364230413673
 20
-136.9018934119551
 30
0.0
 10
108.8364230413673
 20
-136.9018934119551
 30
0.0
 10
108.8364230413673
 20
-136.6988050330996
 30
0.0
 10
108.8364230413673
 20
-136.6988050330996
 30
0.0
 10
108.6968966742146
 20
-136.9484022010059
 30
0.0
 10
108.5277424858889
 20
-137.079660338994
 30
0.0
 10
108.4219780544917
 20
-137.1451171532137
 30
0.0
 10
108.4219780544917
 20
-137.1451171532137
 30
0.0
 10
108.2483452420351
 20
-137.0055907860611
 30
0.0
 10
108.2483452420351
 20
-137.0055907860611
 30
0.0
 10
108.3372287055546
 20
-136.9547756276537
 30
0.0
 10
108.481233696838
 20
-136.8679592214253
 30
0.0
 10
108.6186930066995
 20
-136.673483581283
 30
0.0
 10
108.7096435275101
 20
-136.5465318126515
 30
0.0
 10
108.7751003417298
 20
-136.4026990761424
 30
0.0
 10
108.8092067870338
 20
-136.25025360092
 30
0.0
 10
108.5804524468132
 20
-136.2524929129855
 30
0.0
 10
108.4006184624832
 20
-136.2588663396332
 30
0.0
 10
108.3055338270903
 20
-136.2609333969243
 30
0.0
 10
108.3055338270903
 20
-136.2609333969243
 30
0.0
 10
108.3055338270903
 20
-136.0831664698854
 30
0.0
 10
108.3055338270903
 20
-136.0831664698854
 30
0.0
 10
108.502248779298
 20
-136.0895398965332
 30
0.0
 10
108.7857801377341
 20
-136.0938462658897
 30
0.0
 10
108.935986300891
 20
-136.0938462658897
 30
0.0
 10
108.935986300891
 20
-136.0938462658897
 30
0.0
 10
109.1495822209765
 20
-136.0938462658897
 30
0.0
 10
109.1495822209765
 20
-136.0938462658897
 30
0.0
 10
109.1495822209765
 20
-136.0938462658897
 30
0.0
 10
109.1495822209765
 20
-135.9858425224271
 30
0.0
 10
109.1495822209765
 20
-135.9858425224271
 30
0.0
 10
109.1495822209765
 20
-135.9858425224271
 30
0.0
 10
109.0035101724019
 20
-135.9858425224271
 30
0.0
 10
109.0035101724019
 20
-135.9858425224271
 30
0.0
 10
108.8343559840761
 20
-135.9858425224271
 30
0.0
 10
108.6652017957504
 20
-135.9901488917837
 30
0.0
 10
108.4981146647157
 20
-135.9965223184314
 30
0.0
 10
108.4981146647157
 20
-135.9965223184314
 30
0.0
 10
108.4981146647157
 20
-135.8251288180402
 30
0.0
 10
108.4981146647157
 20
-135.8251288180402
 30
0.0
 10
108.6524549424549
 20
-135.8356363592702
 30
0.0
 10
108.8384900986584
 20
-135.8356363592702
 30
0.0
 10
109.0035101724019
 20
-135.8356363592702
 30
0.0
 10
109.0035101724019
 20
-135.8356363592702
 30
0.0
 10
109.1495822209765
 20
-135.8356363592702
 30
0.0
 10
109.1495822209765
 20
-135.8356363592702
 30
0.0
 10
109.1495822209765
 20
-135.8356363592702
 30
0.0
 10
109.1495822209765
 20
-135.7172973293519
 30
0.0
 10
109.1495822209765
 20
-135.7172973293519
 30
0.0
 10
109.1495822209765
 20
-135.7172973293519
 30
0.0
 10
109.0183240829885
 20
-135.7172973293519
 30
0.0
 10
109.0183240829885
 20
-135.7172973293519
 30
0.0
 10
108.9718152939376
 20
-135.7172973293519
 30
0.0
 10
108.7688991698564
 20
-135.7257378132908
 30
0.0
 10
108.7265244953878
 20
-135.7257378132908
 30
0.0
 10
108.5236083713066
 20
-135.7298719278731
 30
0.0
 10
108.447127251534
 20
-135.7319389851642
 30
0.0
 10
108.3689235840189
 20
-135.7341782972296
 30
0.0
 10
108.3689235840189
 20
-135.7341782972296
 30
0.0
 10
108.3689235840189
 20
-135.550037943543
 30
0.0
 10
108.3689235840189
 20
-135.550037943543
 30
0.0
 10
108.4833007541291
 20
-135.5584784274819
 30
0.0
 10
108.5277424858889
 20
-135.5584784274819
 30
0.0
 10
108.9104925943001
 20
-135.567091166195
 30
0.0
 10
108.8471028373716
 20
-135.4718342760279
 30
0.0
 10
108.8195420734895
 20
-135.4442735121459
 30
0.0
 10
108.7837130804429
 20
-135.408272264325
 30
0.0
 10
108.7837130804429
 20
-135.408272264325
 30
0.0
 10
108.9590684406422
 20
-135.3257622274533
 30
0.0
 10
108.9590684406422
 20
-135.3257622274533
 30
0.0
 10
108.9993760578196
 20
-135.3617634752741
 30
0.0
 10
109.0438177895793
 20
-135.4041381497427
 30
0.0
 10
109.1178873425122
 20
-135.5140366957222
 30
0.0
 10
109.1178873425122
 20
-135.5140366957222
 30
0.0
 10
109.0035101724019
 20
-135.5691582234862
 30
0.0
 10
109.0035101724019
 20
-135.5691582234862
 30
0.0
 10
109.0035101724019
 20
-135.5691582234862
 30
0.0
 10
109.0141899684062
 20
-135.5691582234862
 30
0.0
 10
109.0141899684062
 20
-135.5691582234862
 30
0.0
 10
109.0141899684062
 20
-135.5691582234862
 30
0.0
 10
109.5368109535186
 20
-135.5691582234862
 30
0.0
 10
109.5368109535186
 20
-135.5691582234862
 30
0.0
 10
109.5368109535186
 20
-135.5691582234862
 30
0.0
 10
109.4417263181257
 20
-135.5247164917265
 30
0.0
 10
109.4417263181257
 20
-135.5247164917265
 30
0.0
 10
109.4689425724591
 20
-135.4866481866144
 30
0.0
 10
109.5261311575143
 20
-135.4062052070339
 30
0.0
 10
109.5409450681009
 20
-135.332135654101
 30
0.0
 10
109.5409450681009
 20
-135.332135654101
 30
0.0
 10
109.7545409881863
 20
-135.3956976658038
 30
0.0
 10
109.7545409881863
 20
-135.3956976658038
 30
0.0
 10
109.7631537268995
 20
-135.397764723095
 30
0.0
 10
109.7841688093595
 20
-135.408272264325
 30
0.0
 10
109.7841688093595
 20
-135.4294596015593
 30
0.0
 10
109.7841688093595
 20
-135.4675279066713
 30
0.0
 10
109.7187119951398
 20
-135.4675279066713
 30
0.0
 10
109.6997639699709
 20
-135.4675279066713
 30
0.0
 10
109.6890841739666
 20
-135.4866481866144
 30
0.0
 10
109.6656575246669
 20
-135.5267835490176
 30
0.0
 10
109.6360297034937
 20
-135.567091166195
 30
0.0
 10
110.0360052893313
 20
-135.5607177395473
 30
0.0
 10
110.0656331105044
 20
-135.5584784274819
 30
0.0
 10
110.1417697207284
 20
-135.5522772556084
 30
0.0
 10
110.1417697207284
 20
-135.5522772556084
 30
0.0
 10
110.1417697207284
 20
-135.7341782972296
 30
0.0
 10
110.1417697207284
 20
-135.7341782972296
 30
0.0
 10
110.1228216955596
 20
-135.7341782972296
 30
0.0
 10
110.0973279889687
 20
-135.7319389851642
 30
0.0
 10
109.8775308970098
 20
-135.7234985012254
 30
0.0
 10
109.8265434838281
 20
-135.7214314439342
 30
0.0
 10
109.6067463918691
 20
-135.7172973293519
 30
0.0
 10
109.5623046601094
 20
-135.7172973293519
 30
0.0
 10
109.5623046601094
 20
-135.7172973293519
 30
0.0
 10
109.3462971731842
 20
-135.7172973293519
 30
0.0
 10
109.3462971731842
 20
-135.7172973293519
 30
0.0
 10
109.3462971731842
 20
-135.7172973293519
 30
0.0
 10
109.3462971731842
 20
-135.8356363592702
 30
0.0
 10
109.3462971731842
 20
-135.8356363592702
 30
0.0
 10
109.3462971731842
 20
-135.8356363592702
 30
0.0
 10
109.5199299856408
 20
-135.8356363592702
 30
0.0
 10
109.5199299856408
 20
-135.8356363592702
 30
0.0
 10
109.6828830020932
 20
-135.8356363592702
 30
0.0
 10
109.8730522728789
 20
-135.8356363592702
 30
0.0
 10
110.0298041174578
 20
-135.8251288180402
 30
0.0
 10
110.0298041174578
 20
-135.8251288180402
 30
0.0
 10
110.0298041174578
 20
-135.9965223184314
 30
0.0
 10
110.0298041174578
 20
-135.9965223184314
 30
0.0
 10
109.8203423119546
 20
-135.9880818344925
 30
0.0
 10
109.6236273597469
 20
-135.9858425224271
 30
0.0
 10
109.5199299856408
 20
-135.9858425224271
 30
0.0
 10
109.5199299856408
 20
-135.9858425224271
 30
0.0
 10
109.3462971731842
 20
-135.9858425224271
 30
0.0
 10
109.3462971731842
 20
-135.9858425224271
 30
0.0
 10
109.3462971731842
 20
-135.9858425224271
 30
0.0
 10
109.3462971731842
 20
-136.0938462658897
 30
0.0
 10
109.3462971731842
 20
-136.0938462658897
 30
0.0
 10
109.3462971731842
 20
-136.0938462658897
 30
0.0
 10
109.577118570696
 20
-136.0938462658897
 30
0.0
 10
109.577118570696
 20
-136.0938462658897
 30
0.0
 10
109.7100992564266
 20
-136.0938462658897
 30
0.0
 10
109.9981092389935
 20
-136.0895398965332
 30
0.0
 10
110.2072265349482
 20
-136.0831664698854
 30
0.0
 10
110.2072265349482
 20
-136.0831664698854
 30
0.0
 10
110.2072265349482
 20
-136.2609333969243
 30
0.0
 10
110.2072265349482
 20
-136.2609333969243
 30
0.0
 10
110.0149902068712
 20
-136.2545599702766
 30
0.0
 10
109.701831027262
 20
-136.25025360092
 30
0.0
 10
109.577118570696
 20
-136.25025360092
 30
0.0
  0
HATCH
  5
E1
330
D5
100
AcDbEntity
  8
レイヤー 1
 62
   250
420
  2299925
440
 33554687
100
AcDbHatch
 10
0.0
 20
0.0
 30
0.0
210
0.0
220
0.0
230
1.0
  2
SOLID
 70
     1
 71
     1
 91
        4
 92
        1
 93
        1
 72
     4
 94
        3
 73
     0
 74
     0
 95
       17
 96
       13
 40
0.0
 40
0.0
 40
0.0
 40
0.0
 40
1.0
 40
1.0
 40
1.0
 40
2.0
 40
2.0
 40
2.0
 40
3.0
 40
3.0
 40
3.0
 40
4.0
 40
4.0
 40
4.0
 40
4.0
 10
109.7421386444394
 20
-136.9823363915356
 10
109.7421386444394
 20
-136.9823363915356
 10
109.0355495604147
 20
-136.9823363915356
 10
109.0355495604147
 20
-136.9823363915356
 10
109.0355495604147
 20
-136.9823363915356
 10
109.0355495604147
 20
-137.0965413068717
 10
109.0355495604147
 20
-137.0965413068717
 10
109.0355495604147
 20
-137.0965413068717
 10
109.7421386444394
 20
-137.0965413068717
 10
109.7421386444394
 20
-137.0965413068717
 10
109.7421386444394
 20
-137.0965413068717
 10
109.7421386444394
 20
-136.9823363915356
 10
109.7421386444394
 20
-136.9823363915356
 97
        0
 97
        1
330
DD
 92
        1
 93
        1
 72
     4
 94
        3
 73
     0
 74
     0
 95
       17
 96
       13
 40
0.0
 40
0.0
 40
0.0
 40
0.0
 40
1.0
 40
1.0
 40
1.0
 40
2.0
 40
2.0
 40
2.0
 40
3.0
 40
3.0
 40
3.0
 40
4.0
 40
4.0
 40
4.0
 40
4.0
 10
109.7421386444394
 20
-136.7389403955027
 10
109.7421386444394
 20
-136.7389403955027
 10
109.0355495604147
 20
-136.7389403955027
 10
109.0355495604147
 20
-136.7389403955027
 10
109.0355495604147
 20
-136.7389403955027
 10
109.0355495604147
 20
-136.853317565613
 10
109.0355495604147
 20
-136.853317565613
 10
109.0355495604147
 20
-136.853317565613
 10
109.7421386444394
 20
-136.853317565613
 10
109.7421386444394
 20
-136.853317565613
 10
109.7421386444394
 20
-136.853317565613
 10
109.7421386444394
 20
-136.7389403955027
 10
109.7421386444394
 20
-136.7389403955027
 97
        0
 97
        1
330
DE
 92
        1
 93
        1
 72
     4
 94
        3
 73
     0
 74
     0
 95
       17
 96
       13
 40
0.0
 40
0.0
 40
0.0
 40
0.0
 40
1.0
 40
1.0
 40
1.0
 40
2.0
 40
2.0
 40
2.0
 40
3.0
 40
3.0
 40
3.0
 40
4.0
 40
4.0
 40
4.0
 40
4.0
 10
109.7421386444394
 20
-136.5062241954741
 10
109.7421386444394
 20
-136.5062241954741
 10
109.0355495604147
 20
-136.5062241954741
 10
109.0355495604147
 20
-136.5062241954741
 10
109.0355495604147
 20
-136.5062241954741
 10
109.0355495604147
 20
-136.6142279389367
 10
109.0355495604147
 20
-136.6142279389367
 10
109.0355495604147
 20
-136.6142279389367
 10
109.7421386444394
 20
-136.6142279389367
 10
109.7421386444394
 20
-136.6142279389367
 10
109.7421386444394
 20
-136.6142279389367
 10
109.7421386444394
 20
-136.5062241954741
 10
109.7421386444394
 20
-136.5062241954741
 97
        0
 97
        1
330
DF
 92
        1
 93
        1
 72
     4
 94
        3
 73
     0
 74
     0
 95
      203
 96
      199
 40
0.0
 40
0.0
 40
0.0
 40
0.0
 40
1.0
 40
1.0
 40
1.0
 40
2.0
 40
2.0
 40
2.0
 40
3.0
 40
3.0
 40
3.0
 40
4.0
 40
4.0
 40
4.0
 40
5.0
 40
5.0
 40
5.0
 40
6.0
 40
6.0
 40
6.0
 40
7.0
 40
7.0
 40
7.0
 40
8.0
 40
8.0
 40
8.0
 40
9.0
 40
9.0
 40
9.0
 40
10.0
 40
10.0
 40
10.0
 40
11.0
 40
11.0
 40
11.0
 40
12.0
 40
12.0
 40
12.0
 40
13.0
 40
13.0
 40
13.0
 40
14.0
 40
14.0
 40
14.0
 40
15.0
 40
15.0
 40
15.0
 40
16.0
 40
16.0
 40
16.0
 40
17.0
 40
17.0
 40
17.0
 40
18.0
 40
18.0
 40
18.0
 40
19.0
 40
19.0
 40
19.0
 40
20.0
 40
20.0
 40
20.0
 40
21.0
 40
21.0
 40
21.0
 40
22.0
 40
22.0
 40
22.0
 40
23.0
 40
23.0
 40
23.0
 40
24.0
 40
24.0
 40
24.0
 40
25.0
 40
25.0
 40
25.0
 40
26.0
 40
26.0
 40
26.0
 40
27.0
 40
27.0
 40
27.0
 40
28.0
 40
28.0
 40
28.0
 40
29.0
 40
29.0
 40
29.0
 40
30.0
 40
30.0
 40
30.0
 40
31.0
 40
31.0
 40
31.0
 40
32.0
 40
32.0
 40
32.0
 40
33.0
 40
33.0
 40
33.0
 40
34.0
 40
34.0
 40
34.0
 40
35.0
 40
35.0
 40
35.0
 40
36.0
 40
36.0
 40
36.0
 40
37.0
 40
37.0
 40
37.0
 40
38.0
 40
38.0
 40
38.0
 40
39.0
 40
39.0
 40
39.0
 40
40.0
 40
40.0
 40
40.0
 40
41.0
 40
41.0
 40
41.0
 40
42.0
 40
42.0
 40
42.0
 40
43.0
 40
43.0
 40
43.0
 40
44.0
 40
44.0
 40
44.0
 40
45.0
 40
45.0
 40
45.0
 40
46.0
 40
46.0
 40
46.0
 40
47.0
 40
47.0
 40
47.0
 40
48.0
 40
48.0
 40
48.0
 40
49.0
 40
49.0
 40
49.0
 40
50.0
 40
50.0
 40
50.0
 40
51.0
 40
51.0
 40
51.0
 40
52.0
 40
52.0
 40
52.0
 40
53.0
 40
53.0
 40
53.0
 40
54.0
 40
54.0
 40
54.0
 40
55.0
 40
55.0
 40
55.0
 40
56.0
 40
56.0
 40
56.0
 40
57.0
 40
57.0
 40
57.0
 40
58.0
 40
58.0
 40
58.0
 40
59.0
 40
59.0
 40
59.0
 40
60.0
 40
60.0
 40
60.0
 40
61.0
 40
61.0
 40
61.0
 40
62.0
 40
62.0
 40
62.0
 40
63.0
 40
63.0
 40
63.0
 40
64.0
 40
64.0
 40
64.0
 40
65.0
 40
65.0
 40
65.0
 40
66.0
 40
66.0
 40
66.0
 40
66.0
 10
109.577118570696
 20
-136.25025360092
 10
109.577118570696
 20
-136.25025360092
 10
109.0183240829885
 20
-136.25025360092
 10
109.0183240829885
 20
-136.25025360092
 10
109.0079887965327
 20
-136.2946953326798
 10
108.9993760578196
 20
-136.3263902111441
 10
108.9866292045241
 20
-136.3646307710303
 10
109.012122911115
 20
-136.3646307710303
 10
109.0269368217016
 20
-136.3666978283215
 10
109.033137993575
 20
-136.3666978283215
 10
109.033137993575
 20
-136.3666978283215
 10
109.2215847166182
 20
-136.3666978283215
 10
109.2215847166182
 20
-136.3666978283215
 10
109.2215847166182
 20
-136.3666978283215
 10
109.5960665958649
 20
-136.3666978283215
 10
109.5960665958649
 20
-136.3666978283215
 10
109.646709499498
 20
-136.3666978283215
 10
109.9302408579341
 20
-136.3539509750261
 10
109.9619357363984
 20
-136.3539509750261
 10
109.9598686791072
 20
-136.3815117389081
 10
109.9578016218161
 20
-136.4004597640769
 10
109.9578016218161
 20
-136.4300875852501
 10
109.9557345645249
 20
-136.4617824637144
 10
109.9557345645249
 20
-136.5971747162847
 10
109.9557345645249
 20
-136.6247354801667
 10
109.9557345645249
 20
-136.6247354801667
 10
109.9557345645249
 20
-136.8701985334908
 10
109.9557345645249
 20
-136.8701985334908
 10
109.9557345645249
 20
-136.9146402652505
 10
109.9598686791072
 20
-137.1113552174582
 10
109.9640027936895
 20
-137.2636284379063
 10
109.9640027936895
 20
-137.2636284379063
 10
109.7376600203086
 20
-137.2636284379063
 10
109.7376600203086
 20
-137.2636284379063
 10
109.7376600203086
 20
-137.2636284379063
 10
109.7397270775998
 20
-137.2298665021508
 10
109.7397270775998
 20
-137.2298665021508
 10
109.7397270775998
 20
-137.2298665021508
 10
109.0376166177059
 20
-137.2298665021508
 10
109.0376166177059
 20
-137.2298665021508
 10
109.0376166177059
 20
-137.2298665021508
 10
109.039683674997
 20
-137.2636284379063
 10
109.039683674997
 20
-137.2636284379063
 10
109.039683674997
 20
-137.2636284379063
 10
108.8216091307807
 20
-137.2636284379063
 10
108.8216091307807
 20
-137.2636284379063
 10
108.8260877549115
 20
-137.2086791649166
 10
108.8260877549115
 20
-137.1959323116211
 10
108.832288926785
 20
-137.0817273962851
 10
108.8343559840761
 20
-137.0541666324031
 10
108.8364230413673
 20
-136.9210136918982
 10
108.8364230413673
 20
-136.9018934119551
 10
108.8364230413673
 20
-136.9018934119551
 10
108.8364230413673
 20
-136.6988050330996
 10
108.8364230413673
 20
-136.6988050330996
 10
108.6968966742146
 20
-136.9484022010059
 10
108.5277424858889
 20
-137.079660338994
 10
108.4219780544917
 20
-137.1451171532137
 10
108.4219780544917
 20
-137.1451171532137
 10
108.2483452420351
 20
-137.0055907860611
 10
108.2483452420351
 20
-137.0055907860611
 10
108.3372287055546
 20
-136.9547756276537
 10
108.481233696838
 20
-136.8679592214253
 10
108.6186930066995
 20
-136.673483581283
 10
108.7096435275101
 20
-136.5465318126515
 10
108.7751003417298
 20
-136.4026990761424
 10
108.8092067870338
 20
-136.25025360092
 10
108.5804524468132
 20
-136.2524929129855
 10
108.4006184624832
 20
-136.2588663396332
 10
108.3055338270903
 20
-136.2609333969243
 10
108.3055338270903
 20
-136.2609333969243
 10
108.3055338270903
 20
-136.0831664698854
 10
108.3055338270903
 20
-136.0831664698854
 10
108.502248779298
 20
-136.0895398965332
 10
108.7857801377341
 20
-136.0938462658897
 10
108.935986300891
 20
-136.0938462658897
 10
108.935986300891
 20
-136.0938462658897
 10
109.1495822209765
 20
-136.0938462658897
 10
109.1495822209765
 20
-136.0938462658897
 10
109.1495822209765
 20
-136.0938462658897
 10
109.1495822209765
 20
-135.9858425224271
 10
109.1495822209765
 20
-135.9858425224271
 10
109.1495822209765
 20
-135.9858425224271
 10
109.0035101724019
 20
-135.9858425224271
 10
109.0035101724019
 20
-135.9858425224271
 10
108.8343559840761
 20
-135.9858425224271
 10
108.6652017957504
 20
-135.9901488917837
 10
108.4981146647157
 20
-135.9965223184314
 10
108.4981146647157
 20
-135.9965223184314
 10
108.4981146647157
 20
-135.8251288180402
 10
108.4981146647157
 20
-135.8251288180402
 10
108.6524549424549
 20
-135.8356363592702
 10
108.8384900986584
 20
-135.8356363592702
 10
109.0035101724019
 20
-135.8356363592702
 10
109.0035101724019
 20
-135.8356363592702
 10
109.1495822209765
 20
-135.8356363592702
 10
109.1495822209765
 20
-135.8356363592702
 10
109.1495822209765
 20
-135.8356363592702
 10
109.1495822209765
 20
-135.7172973293519
 10
109.1495822209765
 20
-135.7172973293519
 10
109.1495822209765
 20
-135.7172973293519
 10
109.0183240829885
 20
-135.7172973293519
 10
109.0183240829885
 20
-135.7172973293519
 10
108.9718152939376
 20
-135.7172973293519
 10
108.7688991698564
 20
-135.7257378132908
 10
108.7265244953878
 20
-135.7257378132908
 10
108.5236083713066
 20
-135.7298719278731
 10
108.447127251534
 20
-135.7319389851642
 10
108.3689235840189
 20
-135.7341782972296
 10
108.3689235840189
 20
-135.7341782972296
 10
108.3689235840189
 20
-135.550037943543
 10
108.3689235840189
 20
-135.550037943543
 10
108.4833007541291
 20
-135.5584784274819
 10
108.5277424858889
 20
-135.5584784274819
 10
108.9104925943001
 20
-135.567091166195
 10
108.8471028373716
 20
-135.4718342760279
 10
108.8195420734895
 20
-135.4442735121459
 10
108.7837130804429
 20
-135.408272264325
 10
108.7837130804429
 20
-135.408272264325
 10
108.9590684406422
 20
-135.3257622274533
 10
108.9590684406422
 20
-135.3257622274533
 10
108.9993760578196
 20
-135.3617634752741
 10
109.0438177895793
 20
-135.4041381497427
 10
109.1178873425122
 20
-135.5140366957222
 10
109.1178873425122
 20
-135.5140366957222
 10
109.0035101724019
 20
-135.5691582234862
 10
109.0035101724019
 20
-135.5691582234862
 10
109.0035101724019
 20
-135.5691582234862
 10
109.0141899684062
 20
-135.5691582234862
 10
109.0141899684062
 20
-135.5691582234862
 10
109.0141899684062
 20
-135.5691582234862
 10
109.5368109535186
 20
-135.5691582234862
 10
109.5368109535186
 20
-135.5691582234862
 10
109.5368109535186
 20
-135.5691582234862
 10
109.4417263181257
 20
-135.5247164917265
 10
109.4417263181257
 20
-135.5247164917265
 10
109.4689425724591
 20
-135.4866481866144
 10
109.5261311575143
 20
-135.4062052070339
 10
109.5409450681009
 20
-135.332135654101
 10
109.5409450681009
 20
-135.332135654101
 10
109.7545409881863
 20
-135.3956976658038
 10
109.7545409881863
 20
-135.3956976658038
 10
109.7631537268995
 20
-135.397764723095
 10
109.7841688093595
 20
-135.408272264325
 10
109.7841688093595
 20
-135.4294596015593
 10
109.7841688093595
 20
-135.4675279066713
 10
109.7187119951398
 20
-135.4675279066713
 10
109.6997639699709
 20
-135.4675279066713
 10
109.6890841739666
 20
-135.4866481866144
 10
109.6656575246669
 20
-135.5267835490176
 10
109.6360297034937
 20
-135.567091166195
 10
110.0360052893313
 20
-135.5607177395473
 10
110.0656331105044
 20
-135.5584784274819
 10
110.1417697207284
 20
-135.5522772556084
 10
110.1417697207284
 20
-135.5522772556084
 10
110.1417697207284
 20
-135.7341782972296
 10
110.1417697207284
 20
-135.7341782972296
 10
110.1228216955596
 20
-135.7341782972296
 10
110.0973279889687
 20
-135.7319389851642
 10
109.8775308970098
 20
-135.7234985012254
 10
109.8265434838281
 20
-135.7214314439342
 10
109.6067463918691
 20
-135.7172973293519
 10
109.5623046601094
 20
-135.7172973293519
 10
109.5623046601094
 20
-135.7172973293519
 10
109.3462971731842
 20
-135.7172973293519
 10
109.3462971731842
 20
-135.7172973293519
 10
109.3462971731842
 20
-135.7172973293519
 10
109.3462971731842
 20
-135.8356363592702
 10
109.3462971731842
 20
-135.8356363592702
 10
109.3462971731842
 20
-135.8356363592702
 10
109.5199299856408
 20
-135.8356363592702
 10
109.5199299856408
 20
-135.8356363592702
 10
109.6828830020932
 20
-135.8356363592702
 10
109.8730522728789
 20
-135.8356363592702
 10
110.0298041174578
 20
-135.8251288180402
 10
110.0298041174578
 20
-135.8251288180402
 10
110.0298041174578
 20
-135.9965223184314
 10
110.0298041174578
 20
-135.9965223184314
 10
109.8203423119546
 20
-135.9880818344925
 10
109.6236273597469
 20
-135.9858425224271
 10
109.5199299856408
 20
-135.9858425224271
 10
109.5199299856408
 20
-135.9858425224271
 10
109.3462971731842
 20
-135.9858425224271
 10
109.3462971731842
 20
-135.9858425224271
 10
109.3462971731842
 20
-135.9858425224271
 10
109.3462971731842
 20
-136.0938462658897
 10
109.3462971731842
 20
-136.0938462658897
 10
109.3462971731842
 20
-136.0938462658897
 10
109.577118570696
 20
-136.0938462658897
 10
109.577118570696
 20
-136.0938462658897
 10
109.7100992564266
 20
-136.0938462658897
 10
109.9981092389935
 20
-136.0895398965332
 10
110.2072265349482
 20
-136.0831664698854
 10
110.2072265349482
 20
-136.0831664698854
 10
110.2072265349482
 20
-136.2609333969243
 10
110.2072265349482
 20
-136.2609333969243
 10
110.0149902068712
 20
-136.2545599702766
 10
109.701831027262
 20
-136.25025360092
 10
109.577118570696
 20
-136.25025360092
 97
        0
 97
        1
330
E0
 75
     2
 76
     1
 98
        1
 10
0.0
 20
0.0
450
        0
451
        0
460
0.0
461
0.0
452
        0
462
0.0
453
        0
470

  0
SPLINE
  5
E2
330
D5
100
AcDbEntity
  8
レイヤー 1
100
AcDbSpline
210
0.0
220
0.0
230
1.0
 70
     9
 71
     3
 72
    29
 73
    25
 74
     0
 42
0.0000000001
 43
0.0000000001
 40
0.0
 40
0.0
 40
0.0
 40
0.0
 40
1.0
 40
1.0
 40
1.0
 40
2.0
 40
2.0
 40
2.0
 40
3.0
 40
3.0
 40
3.0
 40
4.0
 40
4.0
 40
4.0
 40
5.0
 40
5.0
 40
5.0
 40
6.0
 40
6.0
 40
6.0
 40
7.0
 40
7.0
 40
7.0
 40
8.0
 40
8.0
 40
8.0
 40
8.0
 10
111.4522840433175
 20
-135.6981770494088
 30
0.0
 10
111.4522840433175
 20
-135.6981770494088
 30
0.0
 10
111.0988172465308
 20
-135.6981770494088
 30
0.0
 10
111.0988172465308
 20
-135.6981770494088
 30
0.0
 10
110.9868516432602
 20
-135.6981770494088
 30
0.0
 10
110.8473252761076
 20
-135.7045504760565
 30
0.0
 10
110.7394937874193
 20
-135.7172973293519
 30
0.0
 10
110.7394937874193
 20
-135.7172973293519
 30
0.0
 10
110.7394937874193
 20
-135.4823418172579
 30
0.0
 10
110.7394937874193
 20
-135.4823418172579
 30
0.0
 10
110.8576605625633
 20
-135.4971557278444
 30
0.0
 10
111.0419731710242
 20
-135.501462097201
 30
0.0
 10
111.0988172465308
 20
-135.501462097201
 30
0.0
 10
111.0988172465308
 20
-135.501462097201
 30
0.0
 10
111.4522840433175
 20
-135.501462097201
 30
0.0
 10
111.4522840433175
 20
-135.501462097201
 30
0.0
 10
111.4712320684863
 20
-135.501462097201
 30
0.0
 10
111.6744927021161
 20
-135.501462097201
 30
0.0
 10
111.8160861265598
 20
-135.4823418172579
 30
0.0
 10
111.8160861265598
 20
-135.4823418172579
 30
0.0
 10
111.8160861265598
 20
-135.7172973293519
 30
0.0
 10
111.8160861265598
 20
-135.7172973293519
 30
0.0
 10
111.6596787915295
 20
-135.6981770494088
 30
0.0
 10
111.4691650111952
 20
-135.6981770494088
 30
0.0
 10
111.4522840433175
 20
-135.6981770494088
 30
0.0
  0
SPLINE
  5
E3
330
D5
100
AcDbEntity
  8
レイヤー 1
100
AcDbSpline
210
0.0
220
0.0
230
1.0
 70
     9
 71
     3
 72
    47
 73
    43
 74
     0
 42
0.0000000001
 43
0.0000000001
 40
0.0
 40
0.0
 40
0.0
 40
0.0
 40
1.0
 40
1.0
 40
1.0
 40
2.0
 40
2.0
 40
2.0
 40
3.0
 40
3.0
 40
3.0
 40
4.0
 40
4.0
 40
4.0
 40
5.0
 40
5.0
 40
5.0
 40
6.0
 40
6.0
 40
6.0
 40
7.0
 40
7.0
 40
7.0
 40
8.0
 40
8.0
 40
8.0
 40
9.0
 40
9.0
 40
9.0
 40
10.0
 40
10.0
 40
10.0
 40
11.0
 40
11.0
 40
11.0
 40
12.0
 40
12.0
 40
12.0
 40
13.0
 40
13.0
 40
13.0
 40
14.0
 40
14.0
 40
14.0
 40
14.0
 10
111.5539143601323
 20
-136.2269992063946
 30
0.0
 10
111.5539143601323
 20
-136.2269992063946
 30
0.0
 10
111.4522840433175
 20
-136.2269992063946
 30
0.0
 10
111.4522840433175
 20
-136.2269992063946
 30
0.0
 10
111.4522840433175
 20
-136.3138156126229
 30
0.0
 10
111.4312689608574
 20
-136.7031114024561
 30
0.0
 10
111.2345540086497
 20
-136.9230807491893
 30
0.0
 10
111.0819362786531
 20
-137.0922349375151
 30
0.0
 10
110.8748860399896
 20
-137.1621703758657
 30
0.0
 10
110.7901366910524
 20
-137.1895588849734
 30
0.0
 10
110.7901366910524
 20
-137.1895588849734
 30
0.0
 10
110.5954887961358
 20
-137.0224717539388
 30
0.0
 10
110.5954887961358
 20
-137.0224717539388
 30
0.0
 10
110.6929849983684
 20
-137.0097249006434
 30
0.0
 10
110.8683403585676
 20
-136.9864705061179
 30
0.0
 10
111.0567870816108
 20
-136.798196037849
 30
0.0
 10
111.1308566345436
 20
-136.7263657969816
 30
0.0
 10
111.2345540086497
 20
-136.5866671750547
 30
0.0
 10
111.2345540086497
 20
-136.2269992063946
 30
0.0
 10
111.2345540086497
 20
-136.2269992063946
 30
0.0
 10
111.0037326111379
 20
-136.2269992063946
 30
0.0
 10
111.0037326111379
 20
-136.2269992063946
 30
0.0
 10
110.8176974549345
 20
-136.2269992063946
 30
0.0
 10
110.6313177891824
 20
-136.2313055757512
 30
0.0
 10
110.4452826329789
 20
-136.2461194863378
 30
0.0
 10
110.4452826329789
 20
-136.2461194863378
 30
0.0
 10
110.4452826329789
 20
-136.0261501396045
 30
0.0
 10
110.4452826329789
 20
-136.0261501396045
 30
0.0
 10
110.6337293560221
 20
-136.0409640501911
 30
0.0
 10
110.9193277717493
 20
-136.0450981647734
 30
0.0
 10
111.0037326111379
 20
-136.0450981647734
 30
0.0
 10
111.0037326111379
 20
-136.0450981647734
 30
0.0
 10
111.5539143601323
 20
-136.0450981647734
 30
0.0
 10
111.5539143601323
 20
-136.0450981647734
 30
0.0
 10
111.5728623853012
 20
-136.0450981647734
 30
0.0
 10
111.8901556794927
 20
-136.0450981647734
 30
0.0
 10
112.1185655101648
 20
-136.0261501396045
 30
0.0
 10
112.1185655101648
 20
-136.0261501396045
 30
0.0
 10
112.1185655101648
 20
-136.2461194863378
 30
0.0
 10
112.1185655101648
 20
-136.2461194863378
 30
0.0
 10
111.9304632966702
 20
-136.2313055757512
 30
0.0
 10
111.742016573627
 20
-136.2269992063946
 30
0.0
 10
111.5539143601323
 20
-136.2269992063946
 30
0.0
  0
HATCH
  5
E4
330
D5
100
AcDbEntity
  8
レイヤー 1
 62
   250
420
  2299925
440
 33554687
100
AcDbHatch
 10
0.0
 20
0.0
 30
0.0
210
0.0
220
0.0
230
1.0
  2
SOLID
 70
     1
 71
     1
 91
        2
 92
        1
 93
        1
 72
     4
 94
        3
 73
     0
 74
     0
 95
       29
 96
       25
 40
0.0
 40
0.0
 40
0.0
 40
0.0
 40
1.0
 40
1.0
 40
1.0
 40
2.0
 40
2.0
 40
2.0
 40
3.0
 40
3.0
 40
3.0
 40
4.0
 40
4.0
 40
4.0
 40
5.0
 40
5.0
 40
5.0
 40
6.0
 40
6.0
 40
6.0
 40
7.0
 40
7.0
 40
7.0
 40
8.0
 40
8.0
 40
8.0
 40
8.0
 10
111.4522840433175
 20
-135.6981770494088
 10
111.4522840433175
 20
-135.6981770494088
 10
111.0988172465308
 20
-135.6981770494088
 10
111.0988172465308
 20
-135.6981770494088
 10
110.9868516432602
 20
-135.6981770494088
 10
110.8473252761076
 20
-135.7045504760565
 10
110.7394937874193
 20
-135.7172973293519
 10
110.7394937874193
 20
-135.7172973293519
 10
110.7394937874193
 20
-135.4823418172579
 10
110.7394937874193
 20
-135.4823418172579
 10
110.8576605625633
 20
-135.4971557278444
 10
111.0419731710242
 20
-135.501462097201
 10
111.0988172465308
 20
-135.501462097201
 10
111.0988172465308
 20
-135.501462097201
 10
111.4522840433175
 20
-135.501462097201
 10
111.4522840433175
 20
-135.501462097201
 10
111.4712320684863
 20
-135.501462097201
 10
111.6744927021161
 20
-135.501462097201
 10
111.8160861265598
 20
-135.4823418172579
 10
111.8160861265598
 20
-135.4823418172579
 10
111.8160861265598
 20
-135.7172973293519
 10
111.8160861265598
 20
-135.7172973293519
 10
111.6596787915295
 20
-135.6981770494088
 10
111.4691650111952
 20
-135.6981770494088
 10
111.4522840433175
 20
-135.6981770494088
 97
        0
 97
        1
330
E2
 92
        1
 93
        1
 72
     4
 94
        3
 73
     0
 74
     0
 95
       47
 96
       43
 40
0.0
 40
0.0
 40
0.0
 40
0.0
 40
1.0
 40
1.0
 40
1.0
 40
2.0
 40
2.0
 40
2.0
 40
3.0
 40
3.0
 40
3.0
 40
4.0
 40
4.0
 40
4.0
 40
5.0
 40
5.0
 40
5.0
 40
6.0
 40
6.0
 40
6.0
 40
7.0
 40
7.0
 40
7.0
 40
8.0
 40
8.0
 40
8.0
 40
9.0
 40
9.0
 40
9.0
 40
10.0
 40
10.0
 40
10.0
 40
11.0
 40
11.0
 40
11.0
 40
12.0
 40
12.0
 40
12.0
 40
13.0
 40
13.0
 40
13.0
 40
14.0
 40
14.0
 40
14.0
 40
14.0
 10
111.5539143601323
 20
-136.2269992063946
 10
111.5539143601323
 20
-136.2269992063946
 10
111.4522840433175
 20
-136.2269992063946
 10
111.4522840433175
 20
-136.2269992063946
 10
111.4522840433175
 20
-136.3138156126229
 10
111.4312689608574
 20
-136.7031114024561
 10
111.2345540086497
 20
-136.9230807491893
 10
111.0819362786531
 20
-137.0922349375151
 10
110.8748860399896
 20
-137.1621703758657
 10
110.7901366910524
 20
-137.1895588849734
 10
110.7901366910524
 20
-137.1895588849734
 10
110.5954887961358
 20
-137.0224717539388
 10
110.5954887961358
 20
-137.0224717539388
 10
110.6929849983684
 20
-137.0097249006434
 10
110.8683403585676
 20
-136.9864705061179
 10
111.0567870816108
 20
-136.798196037849
 10
111.1308566345436
 20
-136.7263657969816
 10
111.2345540086497
 20
-136.5866671750547
 10
111.2345540086497
 20
-136.2269992063946
 10
111.2345540086497
 20
-136.2269992063946
 10
111.0037326111379
 20
-136.2269992063946
 10
111.0037326111379
 20
-136.2269992063946
 10
110.8176974549345
 20
-136.2269992063946
 10
110.6313177891824
 20
-136.2313055757512
 10
110.4452826329789
 20
-136.2461194863378
 10
110.4452826329789
 20
-136.2461194863378
 10
110.4452826329789
 20
-136.0261501396045
 10
110.4452826329789
 20
-136.0261501396045
 10
110.6337293560221
 20
-136.0409640501911
 10
110.9193277717493
 20
-136.0450981647734
 10
111.0037326111379
 20
-136.0450981647734
 10
111.0037326111379
 20
-136.0450981647734
 10
111.5539143601323
 20
-136.0450981647734
 10
111.5539143601323
 20
-136.0450981647734
 10
111.5728623853012
 20
-136.0450981647734
 10
111.8901556794927
 20
-136.0450981647734
 10
112.1185655101648
 20
-136.0261501396045
 10
112.1185655101648
 20
-136.0261501396045
 10
112.1185655101648
 20
-136.2461194863378
 10
112.1185655101648
 20
-136.2461194863378
 10
111.9304632966702
 20
-136.2313055757512
 10
111.742016573627
 20
-136.2269992063946
 10
111.5539143601323
 20
-136.2269992063946
 97
        0
 97
        1
330
E3
 75
     2
 76
     1
 98
        1
 10
0.0
 20
0.0
450
        0
451
        0
460
0.0
461
0.0
452
        0
462
0.0
453
        0
470

  0
SPLINE
  5
E5
330
D5
100
AcDbEntity
  8
レイヤー 1
100
AcDbSpline
210
0.0
220
0.0
230
1.0
 70
     9
 71
     3
 72
    29
 73
    25
 74
     0
 42
0.0000000001
 43
0.0000000001
 40
0.0
 40
0.0
 40
0.0
 40
0.0
 40
1.0
 40
1.0
 40
1.0
 40
2.0
 40
2.0
 40
2.0
 40
3.0
 40
3.0
 40
3.0
 40
4.0
 40
4.0
 40
4.0
 40
5.0
 40
5.0
 40
5.0
 40
6.0
 40
6.0
 40
6.0
 40
7.0
 40
7.0
 40
7.0
 40
8.0
 40
8.0
 40
8.0
 40
8.0
 10
113.3997965211292
 20
-136.3899522228469
 30
0.0
 10
113.3997965211292
 20
-136.3899522228469
 30
0.0
 10
112.9154160959031
 20
-136.3899522228469
 30
0.0
 10
112.9154160959031
 20
-136.3899522228469
 30
0.0
 10
112.8878553320211
 20
-136.3899522228469
 30
0.0
 10
112.5705620378296
 20
-136.3899522228469
 30
0.0
 10
112.3590331750352
 20
-136.4152736746635
 30
0.0
 10
112.3590331750352
 20
-136.4152736746635
 30
0.0
 10
112.3590331750352
 20
-136.1847967867003
 30
0.0
 10
112.3590331750352
 20
-136.1847967867003
 30
0.0
 10
112.5175075673567
 20
-136.2080511812258
 30
0.0
 10
112.708021347691
 20
-136.2101182385169
 30
0.0
 10
112.9154160959031
 20
-136.2101182385169
 30
0.0
 10
112.9154160959031
 20
-136.2101182385169
 30
0.0
 10
113.3997965211292
 20
-136.2101182385169
 30
0.0
 10
113.3997965211292
 20
-136.2101182385169
 30
0.0
 10
113.5858316773327
 20
-136.2101182385169
 30
0.0
 10
113.7722113430847
 20
-136.2080511812258
 30
0.0
 10
113.956179441997
 20
-136.1847967867003
 30
0.0
 10
113.956179441997
 20
-136.1847967867003
 30
0.0
 10
113.956179441997
 20
-136.4152736746635
 30
0.0
 10
113.956179441997
 20
-136.4152736746635
 30
0.0
 10
113.7722113430847
 20
-136.3920192801381
 30
0.0
 10
113.5245089776952
 20
-136.3899522228469
 30
0.0
 10
113.3997965211292
 20
-136.3899522228469
 30
0.0
  0
HATCH
  5
E6
330
D5
100
AcDbEntity
  8
レイヤー 1
 62
   250
420
  2299925
440
 33554687
100
AcDbHatch
 10
0.0
 20
0.0
 30
0.0
210
0.0
220
0.0
230
1.0
  2
SOLID
 70
     1
 71
     1
 91
        1
 92
        1
 93
        1
 72
     4
 94
        3
 73
     0
 74
     0
 95
       29
 96
       25
 40
0.0
 40
0.0
 40
0.0
 40
0.0
 40
1.0
 40
1.0
 40
1.0
 40
2.0
 40
2.0
 40
2.0
 40
3.0
 40
3.0
 40
3.0
 40
4.0
 40
4.0
 40
4.0
 40
5.0
 40
5.0
 40
5.0
 40
6.0
 40
6.0
 40
6.0
 40
7.0
 40
7.0
 40
7.0
 40
8.0
 40
8.0
 40
8.0
 40
8.0
 10
113.3997965211292
 20
-136.3899522228469
 10
113.3997965211292
 20
-136.3899522228469
 10
112.9154160959031
 20
-136.3899522228469
 10
112.9154160959031
 20
-136.3899522228469
 10
112.8878553320211
 20
-136.3899522228469
 10
112.5705620378296
 20
-136.3899522228469
 10
112.3590331750352
 20
-136.4152736746635
 10
112.3590331750352
 20
-136.4152736746635
 10
112.3590331750352
 20
-136.1847967867003
 10
112.3590331750352
 20
-136.1847967867003
 10
112.5175075673567
 20
-136.2080511812258
 10
112.708021347691
 20
-136.2101182385169
 10
112.9154160959031
 20
-136.2101182385169
 10
112.9154160959031
 20
-136.2101182385169
 10
113.3997965211292
 20
-136.2101182385169
 10
113.3997965211292
 20
-136.2101182385169
 10
113.5858316773327
 20
-136.2101182385169
 10
113.7722113430847
 20
-136.2080511812258
 10
113.956179441997
 20
-136.1847967867003
 10
113.956179441997
 20
-136.1847967867003
 10
113.956179441997
 20
-136.4152736746635
 10
113.956179441997
 20
-136.4152736746635
 10
113.7722113430847
 20
-136.3920192801381
 10
113.5245089776952
 20
-136.3899522228469
 10
113.3997965211292
 20
-136.3899522228469
 97
        0
 97
        1
330
E5
 75
     2
 76
     1
 98
        1
 10
0.0
 20
0.0
450
        0
451
        0
460
0.0
461
0.0
452
        0
462
0.0
453
        0
470

  0
SPLINE
  5
E7
330
D5
100
AcDbEntity
  8
レイヤー 1
100
AcDbSpline
210
0.0
220
0.0
230
1.0
 70
     9
 71
     3
 72
    17
 73
    13
 74
     0
 42
0.0000000001
 43
0.0000000001
 40
0.0
 40
0.0
 40
0.0
 40
0.0
 40
1.0
 40
1.0
 40
1.0
 40
2.0
 40
2.0
 40
2.0
 40
3.0
 40
3.0
 40
3.0
 40
4.0
 40
4.0
 40
4.0
 40
4.0
 10
115.8185980613231
 20
-135.4230861749116
 30
0.0
 10
115.7638210431076
 20
-135.4230861749116
 30
0.0
 10
115.7193793113479
 20
-135.4675279066713
 30
0.0
 10
115.7193793113479
 20
-135.5226494344353
 30
0.0
 10
115.7193793113479
 20
-135.5796657647162
 30
0.0
 10
115.7638210431076
 20
-135.6284138658325
 30
0.0
 10
115.8227321759054
 20
-135.6284138658325
 30
0.0
 10
115.8819878182517
 20
-135.6284138658325
 30
0.0
 10
115.9222954354291
 20
-135.577598707425
 30
0.0
 10
115.9222954354291
 20
-135.5247164917265
 30
0.0
 10
115.9222954354291
 20
-135.4675279066713
 30
0.0
 10
115.8757866463783
 20
-135.4230861749116
 30
0.0
 10
115.8185980613231
 20
-135.4230861749116
 30
0.0
  0
SPLINE
  5
E8
330
D5
100
AcDbEntity
  8
レイヤー 1
100
AcDbSpline
210
0.0
220
0.0
230
1.0
 70
     9
 71
     3
 72
    17
 73
    13
 74
     0
 42
0.0000000001
 43
0.0000000001
 40
0.0
 40
0.0
 40
0.0
 40
0.0
 40
1.0
 40
1.0
 40
1.0
 40
2.0
 40
2.0
 40
2.0
 40
3.0
 40
3.0
 40
3.0
 40
4.0
 40
4.0
 40
4.0
 40
4.0
 10
115.8206651186143
 20
-135.7531263223985
 30
0.0
 10
115.6938856047571
 20
-135.7531263223985
 30
0.0
 10
115.5922552879422
 20
-135.6516682603579
 30
0.0
 10
115.5922552879422
 20
-135.5247164917265
 30
0.0
 10
115.5922552879422
 20
-135.397764723095
 30
0.0
 10
115.6938856047571
 20
-135.294067348989
 30
0.0
 10
115.8206651186143
 20
-135.294067348989
 30
0.0
 10
115.94778914202
 20
-135.294067348989
 30
0.0
 10
116.051486516126
 20
-135.397764723095
 30
0.0
 10
116.051486516126
 20
-135.5247164917265
 30
0.0
 10
116.051486516126
 20
-135.6516682603579
 30
0.0
 10
115.94778914202
 20
-135.7531263223985
 30
0.0
 10
115.8206651186143
 20
-135.7531263223985
 30
0.0
  0
SPLINE
  5
E9
330
D5
100
AcDbEntity
  8
レイヤー 1
100
AcDbSpline
210
0.0
220
0.0
230
1.0
 70
     9
 71
     3
 72
    44
 73
    40
 74
     0
 42
0.0000000001
 43
0.0000000001
 40
0.0
 40
0.0
 40
0.0
 40
0.0
 40
1.0
 40
1.0
 40
1.0
 40
2.0
 40
2.0
 40
2.0
 40
3.0
 40
3.0
 40
3.0
 40
4.0
 40
4.0
 40
4.0
 40
5.0
 40
5.0
 40
5.0
 40
6.0
 40
6.0
 40
6.0
 40
7.0
 40
7.0
 40
7.0
 40
8.0
 40
8.0
 40
8.0
 40
9.0
 40
9.0
 40
9.0
 40
10.0
 40
10.0
 40
10.0
 40
11.0
 40
11.0
 40
11.0
 40
12.0
 40
12.0
 40
12.0
 40
13.0
 40
13.0
 40
13.0
 40
13.0
 10
115.6112033131111
 20
-135.9520805866717
 30
0.0
 10
115.4992377098404
 20
-136.3201890392706
 30
0.0
 10
115.4485948062073
 20
-136.4788356863664
 30
0.0
 10
115.2518798539995
 20
-136.7284328542727
 30
0.0
 10
115.0675672455387
 20
-136.9590819970102
 30
0.0
 10
114.830889185702
 20
-137.1451171532137
 30
0.0
 10
114.5514919418482
 20
-137.2383069860897
 30
0.0
 10
114.5514919418482
 20
-137.2383069860897
 30
0.0
 10
114.3589111042228
 20
-137.0584730017597
 30
0.0
 10
114.3589111042228
 20
-137.0584730017597
 30
0.0
 10
115.0000433740277
 20
-136.9061997813116
 30
0.0
 10
115.3300835215147
 20
-136.3498168604438
 30
0.0
 10
115.3934732784433
 20
-135.9097059122031
 30
0.0
 10
115.3934732784433
 20
-135.9097059122031
 30
0.0
 10
114.6276285520722
 20
-135.9097059122031
 30
0.0
 10
114.6276285520722
 20
-135.9097059122031
 30
0.0
 10
114.5346109739705
 20
-135.9097059122031
 30
0.0
 10
114.3506428750582
 20
-135.9140122815597
 30
0.0
 10
114.1938910304793
 20
-135.9329603067285
 30
0.0
 10
114.1938910304793
 20
-135.9329603067285
 30
0.0
 10
114.1938910304793
 20
-135.7129909599954
 30
0.0
 10
114.1938910304793
 20
-135.7129909599954
 30
0.0
 10
114.2807074367076
 20
-135.7341782972296
 30
0.0
 10
114.5325439166793
 20
-135.7341782972296
 30
0.0
 10
114.6317626666546
 20
-135.7341782972296
 30
0.0
 10
114.6317626666546
 20
-135.7341782972296
 30
0.0
 10
115.0634331309563
 20
-135.7341782972296
 30
0.0
 10
115.0634331309563
 20
-135.7341782972296
 30
0.0
 10
115.1058078054249
 20
-135.7341782972296
 30
0.0
 10
115.3404188079704
 20
-135.7319389851642
 30
0.0
 10
115.3786593678567
 20
-135.7257378132908
 30
0.0
 10
115.4210340423253
 20
-135.7193643866431
 30
0.0
 10
115.4231010996164
 20
-135.7172973293519
 30
0.0
 10
115.4844237992539
 20
-135.6769897121745
 30
0.0
 10
115.4844237992539
 20
-135.6769897121745
 30
0.0
 10
115.6725260127485
 20
-135.8315022446879
 30
0.0
 10
115.6725260127485
 20
-135.8315022446879
 30
0.0
 10
115.6432427011239
 20
-135.8611300658611
 30
0.0
 10
115.6284287905373
 20
-135.8928249443254
 30
0.0
 10
115.6112033131111
 20
-135.9520805866717
 30
0.0
  0
HATCH
  5
EA
330
D5
100
AcDbEntity
  8
レイヤー 1
 62
   250
420
  2299925
440
 33554687
100
AcDbHatch
 10
0.0
 20
0.0
 30
0.0
210
0.0
220
0.0
230
1.0
  2
SOLID
 70
     1
 71
     1
 91
        3
 92
        1
 93
        1
 72
     4
 94
        3
 73
     0
 74
     0
 95
       17
 96
       13
 40
0.0
 40
0.0
 40
0.0
 40
0.0
 40
1.0
 40
1.0
 40
1.0
 40
2.0
 40
2.0
 40
2.0
 40
3.0
 40
3.0
 40
3.0
 40
4.0
 40
4.0
 40
4.0
 40
4.0
 10
115.8185980613231
 20
-135.4230861749116
 10
115.7638210431076
 20
-135.4230861749116
 10
115.7193793113479
 20
-135.4675279066713
 10
115.7193793113479
 20
-135.5226494344353
 10
115.7193793113479
 20
-135.5796657647162
 10
115.7638210431076
 20
-135.6284138658325
 10
115.8227321759054
 20
-135.6284138658325
 10
115.8819878182517
 20
-135.6284138658325
 10
115.9222954354291
 20
-135.577598707425
 10
115.9222954354291
 20
-135.5247164917265
 10
115.9222954354291
 20
-135.4675279066713
 10
115.8757866463783
 20
-135.4230861749116
 10
115.8185980613231
 20
-135.4230861749116
 97
        0
 97
        1
330
E7
 92
        1
 93
        1
 72
     4
 94
        3
 73
     0
 74
     0
 95
       17
 96
       13
 40
0.0
 40
0.0
 40
0.0
 40
0.0
 40
1.0
 40
1.0
 40
1.0
 40
2.0
 40
2.0
 40
2.0
 40
3.0
 40
3.0
 40
3.0
 40
4.0
 40
4.0
 40
4.0
 40
4.0
 10
115.8206651186143
 20
-135.7531263223985
 10
115.6938856047571
 20
-135.7531263223985
 10
115.5922552879422
 20
-135.6516682603579
 10
115.5922552879422
 20
-135.5247164917265
 10
115.5922552879422
 20
-135.397764723095
 10
115.6938856047571
 20
-135.294067348989
 10
115.8206651186143
 20
-135.294067348989
 10
115.94778914202
 20
-135.294067348989
 10
116.051486516126
 20
-135.397764723095
 10
116.051486516126
 20
-135.5247164917265
 10
116.051486516126
 20
-135.6516682603579
 10
115.94778914202
 20
-135.7531263223985
 10
115.8206651186143
 20
-135.7531263223985
 97
        0
 97
        1
330
E8
 92
        1
 93
        1
 72
     4
 94
        3
 73
     0
 74
     0
 95
       44
 96
       40
 40
0.0
 40
0.0
 40
0.0
 40
0.0
 40
1.0
 40
1.0
 40
1.0
 40
2.0
 40
2.0
 40
2.0
 40
3.0
 40
3.0
 40
3.0
 40
4.0
 40
4.0
 40
4.0
 40
5.0
 40
5.0
 40
5.0
 40
6.0
 40
6.0
 40
6.0
 40
7.0
 40
7.0
 40
7.0
 40
8.0
 40
8.0
 40
8.0
 40
9.0
 40
9.0
 40
9.0
 40
10.0
 40
10.0
 40
10.0
 40
11.0
 40
11.0
 40
11.0
 40
12.0
 40
12.0
 40
12.0
 40
13.0
 40
13.0
 40
13.0
 40
13.0
 10
115.6112033131111
 20
-135.9520805866717
 10
115.4992377098404
 20
-136.3201890392706
 10
115.4485948062073
 20
-136.4788356863664
 10
115.2518798539995
 20
-136.7284328542727
 10
115.0675672455387
 20
-136.9590819970102
 10
114.830889185702
 20
-137.1451171532137
 10
114.5514919418482
 20
-137.2383069860897
 10
114.5514919418482
 20
-137.2383069860897
 10
114.3589111042228
 20
-137.0584730017597
 10
114.3589111042228
 20
-137.0584730017597
 10
115.0000433740277
 20
-136.9061997813116
 10
115.3300835215147
 20
-136.3498168604438
 10
115.3934732784433
 20
-135.9097059122031
 10
115.3934732784433
 20
-135.9097059122031
 10
114.6276285520722
 20
-135.9097059122031
 10
114.6276285520722
 20
-135.9097059122031
 10
114.5346109739705
 20
-135.9097059122031
 10
114.3506428750582
 20
-135.9140122815597
 10
114.1938910304793
 20
-135.9329603067285
 10
114.1938910304793
 20
-135.9329603067285
 10
114.1938910304793
 20
-135.7129909599954
 10
114.1938910304793
 20
-135.7129909599954
 10
114.2807074367076
 20
-135.7341782972296
 10
114.5325439166793
 20
-135.7341782972296
 10
114.6317626666546
 20
-135.7341782972296
 10
114.6317626666546
 20
-135.7341782972296
 10
115.0634331309563
 20
-135.7341782972296
 10
115.0634331309563
 20
-135.7341782972296
 10
115.1058078054249
 20
-135.7341782972296
 10
115.3404188079704
 20
-135.7319389851642
 10
115.3786593678567
 20
-135.7257378132908
 10
115.4210340423253
 20
-135.7193643866431
 10
115.4231010996164
 20
-135.7172973293519
 10
115.4844237992539
 20
-135.6769897121745
 10
115.4844237992539
 20
-135.6769897121745
 10
115.6725260127485
 20
-135.8315022446879
 10
115.6725260127485
 20
-135.8315022446879
 10
115.6432427011239
 20
-135.8611300658611
 10
115.6284287905373
 20
-135.8928249443254
 10
115.6112033131111
 20
-135.9520805866717
 97
        0
 97
        1
330
E9
 75
     2
 76
     1
 98
        1
 10
0.0
 20
0.0
450
        0
451
        0
460
0.0
461
0.0
452
        0
462
0.0
453
        0
470

  0
ENDBLK
  5
D8
330
D5
100
AcDbEntity
  8
0
100
AcDbBlockEnd
  0
ENDSEC
  0
SECTION
  2
ENTITIES
  0
LWPOLYLINE
  5
79
330
70
100
AcDbEntity
  8
レイヤー 1
 62
   250
420
  2299925
370
    25
100
AcDbPolyline
 90
        4
 70
     0
 43
0.0
 10
93.43125705166093
 20
-154.348863618166
 10
101.4259423274402
 20
-154.3495691737036
 10
101.4259423274402
 20
-157.3488504860744
 10
91.4262092743843
 20
-157.3488504860744
  0
LWPOLYLINE
  5
7A
330
70
100
AcDbEntity
  8
レイヤー 1
 62
   250
420
  2299925
370
    25
100
AcDbPolyline
 90
        7
 70
     1
 43
0.0
 10
92.42943871857814
 20
-154.347835677231
 10
92.92897205178666
 20
-155.3479606769813
 10
93.42921094055036
 20
-154.347835677231
 10
93.42921094055036
 20
-144.5477447015467
 10
113.4293463275754
 20
-144.5477447015467
 10
113.4293463275754
 20
-143.5478313937233
 10
92.42943871857814
 20
-143.5478313937233
  0
LINE
  5
7B
330
70
100
AcDbEntity
  8
レイヤー 1
 62
   250
420
  2299925
370
    25
100
AcDbLine
 10
92.42943871857814
 20
-154.347835677231
 30
0.0
 11
91.4262092743843
 21
-157.3488504860744
 31
0.0
  0
CIRCLE
  5
7C
330
70
100
AcDbEntity
  8
レイヤー 1
 62
   250
420
  2299925
370
     9
100
AcDbCircle
 10
101.4259423274401
 20
-161.3486095506987
 30
0.0
 40
0.0999066653798568
  0
SPLINE
  5
7D
330
70
100
AcDbEntity
  8
レイヤー 1
 62
   250
420
  2299925
370
     9
100
AcDbSpline
210
0.0
220
0.0
230
1.0
 70
     9
 71
     3
 72
    17
 73
    13
 74
     0
 42
0.0000000001
 43
0.0000000001
 40
0.0
 40
0.0
 40
0.0
 40
0.0
 40
1.0
 40
1.0
 40
1.0
 40
2.0
 40
2.0
 40
2.0
 40
3.0
 40
3.0
 40
3.0
 40
4.0
 40
4.0
 40
4.0
 40
4.0
 10
91.52682149658147
 20
-161.3486095506987
 30
0.0
 10
91.52682149658147
 20
-161.2935056632157
 30
0.0
 10
91.48201871881507
 20
-161.2487028865809
 30
0.0
 10
91.4262092743843
 20
-161.2487028865809
 30
0.0
 10
91.3711053855094
 20
-161.2487028865809
 30
0.0
 10
91.32630260774234
 20
-161.2935056632157
 30
0.0
 10
91.32630260774234
 20
-161.3486095506987
 30
0.0
 10
91.32630260774234
 20
-161.4037440088004
 30
0.0
 10
91.3711053855094
 20
-161.4485162148166
 30
0.0
 10
91.4262092743843
 20
-161.4485162148166
 30
0.0
 10
91.48201871881507
 20
-161.4485162148166
 30
0.0
 10
91.52682149658147
 20
-161.4037440088004
 30
0.0
 10
91.52682149658147
 20
-161.3486095506987
 30
0.0
  0
LINE
  5
7E
330
70
100
AcDbEntity
  8
レイヤー 1
 62
   250
420
  2299925
370
     9
100
AcDbLine
 10
91.4262092743843
 20
-161.3486095506987
 30
0.0
 11
101.4259423274402
 21
-161.3486095506987
 31
0.0
  0
LINE
  5
7F
330
70
100
AcDbEntity
  8
レイヤー 1
 62
   250
420
  2299925
370
     9
100
AcDbLine
 10
91.4262092743843
 20
-158.8878082245901
 30
0.0
 11
91.4262092743843
 21
-162.3483817474146
 31
0.0
  0
LINE
  5
80
330
70
100
AcDbEntity
  8
レイヤー 1
 62
   250
420
  2299925
370
     9
100
AcDbLine
 10
101.4259423274402
 20
-158.8878082245901
 30
0.0
 11
101.4259423274402
 21
-162.3483817474146
 31
0.0
  0
INSERT
  5
82
330
70
100
AcDbEntity
  8
レイヤー 1
100
AcDbBlockReference
  2
Block_0
 10
0.0
 20
0.0
 30
0.0
  0
LINE
  5
8E
330
70
100
AcDbEntity
  8
レイヤー 1
 62
   250
420
  2299925
370
     9
100
AcDbLine
 10
118.6776211936808
 20
-154.347835677231
 30
0.0
 11
102.5759273271526
 21
-154.347835677231
 31
0.0
  0
LINE
  5
8F
330
70
100
AcDbEntity
  8
レイヤー 1
 62
   250
420
  2299925
370
     9
100
AcDbLine
 10
118.6776211936808
 20
-144.5477447015467
 30
0.0
 11
114.6117173241439
 21
-144.5477447015467
 31
0.0
  0
LINE
  5
90
330
70
100
AcDbEntity
  8
レイヤー 1
 62
   250
420
  2299925
370
     9
100
AcDbLine
 10
118.6776211936808
 20
-143.6065688922248
 30
0.0
 11
114.6117173241439
 21
-143.6065688922248
 31
0.0
  0
INSERT
  5
92
330
70
100
AcDbEntity
  8
レイヤー 1
100
AcDbBlockReference
  2
Block_2
 10
0.0
 20
0.0
 30
0.0
  0
INSERT
  5
A3
330
70
100
AcDbEntity
  8
レイヤー 1
100
AcDbBlockReference
  2
Block_4
 10
0.0
 20
0.0
 30
0.0
  0
INSERT
  5
A9
330
70
100
AcDbEntity
  8
レイヤー 1
100
AcDbBlockReference
  2
Block_5
 10
0.0
 20
0.0
 30
0.0
  0
CIRCLE
  5
AE
330
70
100
AcDbEntity
  8
レイヤー 1
 62
   250
420
  2299925
370
     9
100
AcDbCircle
 10
117.6778489969649
 20
-154.3388800073096
 30
0.0
 40
0.0999066641178353
  0
HATCH
  5
AF
330
70
100
AcDbEntity
  8
レイヤー 1
 62
   250
420
  2299925
440
 33554687
100
AcDbHatch
 10
0.0
 20
0.0
 30
0.0
210
0.0
220
0.0
230
1.0
  2
SOLID
 70
     1
 71
     1
 91
        1
 92
        1
 93
        1
 72
     2
 10
117.6778489969649
 20
-154.3388800073096
 40
0.0999066641178353
 50
0.0
 51
360.0
 73
     1
 97
        1
330
AE
 75
     2
 76
     1
 98
        1
 10
0.0
 20
0.0
450
        0
451
        0
460
0.0
461
0.0
452
        0
462
0.0
453
        0
470

  0
LINE
  5
B0
330
70
100
AcDbEntity
  8
レイヤー 1
 62
   250
420
  2299925
370
     9
100
AcDbLine
 10
117.6778489969649
 20
-157.3392196529868
 30
0.0
 11
117.6778489969649
 21
-139.8362564884135
 31
0.0
  0
LINE
  5
B1
330
70
100
AcDbEntity
  8
レイヤー 1
 62
   250
420
  2299925
370
     9
100
AcDbLine
 10
118.6776211936808
 20
-157.3481802083137
 30
0.0
 11
102.5759273271526
 21
-157.3481802083137
 31
0.0
  0
CIRCLE
  5
B2
330
70
100
AcDbEntity
  8
レイヤー 1
 62
   250
420
  2299925
370
     9
100
AcDbCircle
 10
117.6778489969649
 20
-157.3392196529868
 30
0.0
 40
0.0999066641178353
  0
HATCH
  5
B3
330
70
100
AcDbEntity
  8
レイヤー 1
 62
   250
420
  2299925
440
 33554687
100
AcDbHatch
 10
0.0
 20
0.0
 30
0.0
210
0.0
220
0.0
230
1.0
  2
SOLID
 70
     1
 71
     1
 91
        1
 92
        1
 93
        1
 72
     2
 10
117.6778489969649
 20
-157.3392196529868
 40
0.0999066641178353
 50
0.0
 51
360.0
 73
     1
 97
        1
330
B2
 75
     2
 76
     1
 98
        1
 10
0.0
 20
0.0
450
        0
451
        0
460
0.0
461
0.0
452
        0
462
0.0
453
        0
470

  0
SPLINE
  5
B4
330
70
100
AcDbEntity
  8
レイヤー 1
 62
   250
420
  2299925
370
     9
100
AcDbSpline
210
0.0
220
0.0
230
1.0
 70
     9
 71
     3
 72
    17
 73
    13
 74
     0
 42
0.0000000001
 43
0.0000000001
 40
0.0
 40
0.0
 40
0.0
 40
0.0
 40
1.0
 40
1.0
 40
1.0
 40
2.0
 40
2.0
 40
2.0
 40
3.0
 40
3.0
 40
3.0
 40
4.0
 40
4.0
 40
4.0
 40
4.0
 10
117.7777556610827
 20
-144.5477447015467
 30
0.0
 10
117.7777556610827
 20
-144.6028838668067
 30
0.0
 10
117.7329528844479
 20
-144.6476513656646
 30
0.0
 10
117.6778489969649
 20
-144.6476513656646
 30
0.0
 10
117.6227098317049
 20
-144.6476513656646
 30
0.0
 10
117.577942332847
 20
-144.6028838668067
 30
0.0
 10
117.577942332847
 20
-144.5477447015467
 30
0.0
 10
117.577942332847
 20
-144.4926356796949
 30
0.0
 10
117.6227098317049
 20
-144.4478329019282
 30
0.0
 10
117.6778489969649
 20
-144.4478329019282
 30
0.0
 10
117.7329528844479
 20
-144.4478329019282
 30
0.0
 10
117.7777556610827
 20
-144.4926356796949
 30
0.0
 10
117.7777556610827
 20
-144.5477447015467
 30
0.0
  0
HATCH
  5
B5
330
70
100
AcDbEntity
  8
レイヤー 1
 62
   250
420
  2299925
440
 33554687
100
AcDbHatch
 10
0.0
 20
0.0
 30
0.0
210
0.0
220
0.0
230
1.0
  2
SOLID
 70
     1
 71
     1
 91
        1
 92
        1
 93
        1
 72
     4
 94
        3
 73
     0
 74
     0
 95
       17
 96
       13
 40
0.0
 40
0.0
 40
0.0
 40
0.0
 40
1.0
 40
1.0
 40
1.0
 40
2.0
 40
2.0
 40
2.0
 40
3.0
 40
3.0
 40
3.0
 40
4.0
 40
4.0
 40
4.0
 40
4.0
 10
117.7777556610827
 20
-144.5477447015467
 10
117.7777556610827
 20
-144.6028838668067
 10
117.7329528844479
 20
-144.6476513656646
 10
117.6778489969649
 20
-144.6476513656646
 10
117.6227098317049
 20
-144.6476513656646
 10
117.577942332847
 20
-144.6028838668067
 10
117.577942332847
 20
-144.5477447015467
 10
117.577942332847
 20
-144.4926356796949
 10
117.6227098317049
 20
-144.4478329019282
 10
117.6778489969649
 20
-144.4478329019282
 10
117.7329528844479
 20
-144.4478329019282
 10
117.7777556610827
 20
-144.4926356796949
 10
117.7777556610827
 20
-144.5477447015467
 97
        0
 97
        1
330
B4
 75
     2
 76
     1
 98
        1
 10
0.0
 20
0.0
450
        0
451
        0
460
0.0
461
0.0
452
        0
462
0.0
453
        0
470

  0
CIRCLE
  5
B6
330
70
100
AcDbEntity
  8
レイヤー 1
 62
   250
420
  2299925
370
     9
100
AcDbCircle
 10
117.6778489969649
 20
-143.6065688922248
 30
0.0
 40
0.0999066641178353
  0
HATCH
  5
B7
330
70
100
AcDbEntity
  8
レイヤー 1
 62
   250
420
  2299925
440
 33554687
100
AcDbHatch
 10
0.0
 20
0.0
 30
0.0
210
0.0
220
0.0
230
1.0
  2
SOLID
 70
     1
 71
     1
 91
        1
 92
        1
 93
        1
 72
     2
 10
117.6778489969649
 20
-143.6065688922248
 40
0.0999066641178353
 50
0.0
 51
360.0
 73
     1
 97
        1
330
B6
 75
     2
 76
     1
 98
        1
 10
0.0
 20
0.0
450
        0
451
        0
460
0.0
461
0.0
452
        0
462
0.0
453
        0
470

  0
SPLINE
  5
B8
330
70
100
AcDbEntity
  8
レイヤー 1
 62
   250
420
  2299925
370
     9
100
AcDbSpline
210
0.0
220
0.0
230
1.0
 70
     9
 71
     3
 72
    17
 73
    13
 74
     0
 42
0.0000000001
 43
0.0000000001
 40
0.0
 40
0.0
 40
0.0
 40
0.0
 40
1.0
 40
1.0
 40
1.0
 40
2.0
 40
2.0
 40
2.0
 40
3.0
 40
3.0
 40
3.0
 40
4.0
 40
4.0
 40
4.0
 40
4.0
 10
92.52934538521978
 20
-140.3721259191867
 30
0.0
 10
92.52934538521978
 20
-140.317022031704
 30
0.0
 10
92.48454260745306
 20
-140.2722192550689
 30
0.0
 10
92.42943871857814
 20
-140.2722192550689
 30
0.0
 10
92.37429955192506
 20
-140.2722192550689
 30
0.0
 10
92.3295320519365
 20
-140.317022031704
 30
0.0
 10
92.3295320519365
 20
-140.3721259191867
 30
0.0
 10
92.3295320519365
 20
-140.4272650844467
 30
0.0
 10
92.37429955192506
 20
-140.4720273473664
 30
0.0
 10
92.42943871857814
 20
-140.4720273473664
 30
0.0
 10
92.48454260745306
 20
-140.4720273473664
 30
0.0
 10
92.52934538521978
 20
-140.4272650844467
 30
0.0
 10
92.52934538521978
 20
-140.3721259191867
 30
0.0
  0
LINE
  5
B9
330
70
100
AcDbEntity
  8
レイヤー 1
 62
   250
420
  2299925
370
     9
100
AcDbLine
 10
92.42943871857814
 20
-141.8321672708269
 30
0.0
 11
92.42943871857814
 21
-139.3723537224708
 31
0.0
  0
SPLINE
  5
BA
330
70
100
AcDbEntity
  8
レイヤー 1
 62
   250
420
  2299925
370
     9
100
AcDbSpline
210
0.0
220
0.0
230
1.0
 70
     9
 71
     3
 72
    17
 73
    13
 74
     0
 42
0.0000000001
 43
0.0000000001
 40
0.0
 40
0.0
 40
0.0
 40
0.0
 40
1.0
 40
1.0
 40
1.0
 40
2.0
 40
2.0
 40
2.0
 40
3.0
 40
3.0
 40
3.0
 40
4.0
 40
4.0
 40
4.0
 40
4.0
 10
113.5292529916933
 20
-140.3721259191867
 30
0.0
 10
113.5292529916933
 20
-140.317022031704
 30
0.0
 10
113.4844854928354
 20
-140.2722192550689
 30
0.0
 10
113.4293463275754
 20
-140.2722192550689
 30
0.0
 10
113.3742424400924
 20
-140.2722192550689
 30
0.0
 10
113.3294396634576
 20
-140.317022031704
 30
0.0
 10
113.3294396634576
 20
-140.3721259191867
 30
0.0
 10
113.3294396634576
 20
-140.4272650844467
 30
0.0
 10
113.3742424400924
 20
-140.4720273473664
 30
0.0
 10
113.4293463275754
 20
-140.4720273473664
 30
0.0
 10
113.4844854928354
 20
-140.4720273473664
 30
0.0
 10
113.5292529916933
 20
-140.4272650844467
 30
0.0
 10
113.5292529916933
 20
-140.3721259191867
 30
0.0
  0
LINE
  5
BB
330
70
100
AcDbEntity
  8
レイヤー 1
 62
   250
420
  2299925
370
     9
100
AcDbLine
 10
113.4293463275754
 20
-141.8321672708269
 30
0.0
 11
113.4293463275754
 21
-139.3723537224708
 31
0.0
  0
LINE
  5
BC
330
70
100
AcDbEntity
  8
レイヤー 1
 62
   250
420
  2299925
370
     9
100
AcDbLine
 10
92.43010899635583
 20
-140.3721259191867
 30
0.0
 11
113.4293463275754
 21
-140.3721259191867
 31
0.0
  0
INSERT
  5
BE
330
70
100
AcDbEntity
  8
レイヤー 1
100
AcDbBlockReference
  2
Block_6
 10
0.0
 20
0.0
 30
0.0
  0
INSERT
  5
CA
330
70
100
AcDbEntity
  8
レイヤー 1
100
AcDbBlockReference
  2
Block_8
 10
0.0
 20
0.0
 30
0.0
  0
ENDSEC
  0
SECTION
  2
OBJECTS
  0
DICTIONARY
  5
C
330
0
100
AcDbDictionary
281
     1
  3
ACAD_COLOR
350
63
  3
ACAD_DETAILVIEWSTYLE
350
6A
  3
ACAD_GROUP
350
D
  3
ACAD_LAYOUT
350
62
  3
ACAD_MATERIAL
350
10
  3
ACAD_MLEADERSTYLE
350
66
  3
ACAD_MLINESTYLE
350
5F
  3
ACAD_PLOTSETTINGS
350
61
  3
ACAD_PLOTSTYLENAME
350
E
  3
ACAD_SCALELIST
350
42
  3
ACAD_SECTIONVIEWSTYLE
350
68
  3
ACAD_TABLESTYLE
350
64
  3
ACAD_VISUALSTYLE
350
29
  3
ACDB_RECOMPOSE_DATA
350
F3
  3
AcDbVariableDictionary
350
EB
  0
DICTIONARY
  5
63
102
{ACAD_REACTORS
330
C
102
}
330
C
100
AcDbDictionary
281
     1
  0
DICTIONARY
  5
6A
102
{ACAD_REACTORS
330
C
102
}
330
C
100
AcDbDictionary
281
     1
  3
Imperial24
350
6B
  0
DICTIONARY
  5
D
102
{ACAD_REACTORS
330
C
102
}
330
C
100
AcDbDictionary
281
     1
  0
DICTIONARY
  5
62
102
{ACAD_REACTORS
330
C
102
}
330
C
100
AcDbDictionary
281
     1
  3
Layout1
350
6F
  3
Layout2
350
77
  3
Model
350
73
  0
DICTIONARY
  5
10
102
{ACAD_REACTORS
330
C
102
}
330
C
100
AcDbDictionary
281
     1
  3
ByBlock
350
19
  3
ByLayer
350
11
  3
Global
350
21
  0
DICTIONARY
  5
66
102
{ACAD_REACTORS
330
C
102
}
330
C
100
AcDbDictionary
281
     1
  3
Standard
350
67
  0
DICTIONARY
  5
5F
102
{ACAD_REACTORS
330
C
102
}
330
C
100
AcDbDictionary
281
     1
  3
Standard
350
60
  0
DICTIONARY
  5
61
102
{ACAD_REACTORS
330
C
102
}
330
C
100
AcDbDictionary
281
     1
  0
ACDBDICTIONARYWDFLT
  5
E
102
{ACAD_REACTORS
330
C
102
}
330
C
100
AcDbDictionary
281
     1
  3
Normal
350
F
100
AcDbDictionaryWithDefault
340
F
  0
DICTIONARY
  5
42
102
{ACAD_REACTORS
330
C
102
}
330
C
100
AcDbDictionary
281
     1
  3
A0
350
43
  3
A1
350
44
  3
A2
350
45
  3
A3
350
46
  3
A4
350
47
  3
A5
350
48
  3
A6
350
49
  3
A7
350
4A
  3
A8
350
4B
  3
A9
350
4C
  3
B0
350
4D
  3
B1
350
4E
  3
B2
350
4F
  3
B3
350
50
  3
B4
350
51
  3
B5
350
52
  3
B6
350
53
  0
DICTIONARY
  5
68
102
{ACAD_REACTORS
330
C
102
}
330
C
100
AcDbDictionary
281
     1
  3
Imperial24
350
69
  0
DICTIONARY
  5
64
102
{ACAD_REACTORS
330
C
102
}
330
C
100
AcDbDictionary
281
     1
  3
Standard
350
65
  0
DICTIONARY
  5
29
102
{ACAD_REACTORS
330
C
102
}
330
C
100
AcDbDictionary
281
     1
  3
2dWireframe
350
2F
  3
Basic
350
2E
  3
Brighten
350
35
  3
ColorChange
350
39
  3
Conceptual
350
32
  3
Dim
350
34
  3
EdgeColorOff
350
41
  3
Facepattern
350
38
  3
Flat
350
2A
  3
FlatWithEdges
350
2B
  3
Gouraud
350
2C
  3
GouraudWithEdges
350
2D
  3
Hidden
350
31
  3
JitterOff
350
3F
  3
Linepattern
350
37
  3
OverhangOff
350
40
  3
Realistic
350
33
  3
Shaded
350
3E
  3
Shaded with edges
350
3D
  3
Shades of Gray
350
3A
  3
Sketchy
350
3B
  3
Thicken
350
36
  3
Wireframe
350
30
  3
X-Ray
350
3C
  0
XRECORD
  5
F3
102
{ACAD_REACTORS
330
C
102
}
330
C
100
AcDbXrecord
280
     1
 90
        1
330
65
  0
DICTIONARY
  5
EB
102
{ACAD_REACTORS
330
C
102
}
330
C
100
AcDbDictionary
281
     1
  3
CANNOSCALE
350
F0
  3
CMLEADERSTYLE
350
ED
  3
CTABLESTYLE
350
EC
  3
CVIEWDETAILSTYLE
350
EE
  3
CVIEWSECTIONSTYLE
350
EF
  0
ACDBDETAILVIEWSTYLE
  5
6B
102
{ACAD_XDICTIONARY
360
128
102
}
102
{ACAD_REACTORS
330
6A
102
}
330
6A
100
AcDbModelDocViewStyle
 70
     0
  3
Imperial24
290
     0
100
AcDbDetailViewStyle
 70
     0
 71
     0
 90
        3
 71
     1
340
55
 62
   256
 40
0.24
340
0
 62
   256
 40
0.24
300

 40
0.36
280
     3
 71
     2
340
5D
 90
       25
 62
   256
 71
     3
340
55
 62
   256
 40
0.24
 90
        1
 40
0.75
 90
        1
300
%<\AcVar ViewType \f "%tc1">% %<\AcVar ViewDetailId>%\PSCALE %<\AcVar ViewScale \f "%sn">%
 71
     4
340
5D
 90
       25
 62
   256
340
5D
 90
       25
 62
   256
280
     0
  0
LAYOUT
  5
6F
102
{ACAD_REACTORS
330
62
102
}
330
62
100
AcDbPlotSettings
  1

  2

  4

  6

 40
0.0
 41
0.0
 42
0.0
 43
0.0
 44
0.0
 45
0.0
 46
0.0
 47
0.0
 48
0.0
 49
0.0
140
0.0
141
0.0
142
1.0
143
1.0
 70
   688
 72
     0
 73
     0
 74
     5
  7

 75
    16
147
1.0
 76
     0
 77
     2
 78
   300
148
0.0
149
0.0
100
AcDbLayout
  1
Layout1
 70
     1
 71
     1
 10
0.0
 20
0.0
 11
12.0
 21
9.0
 12
0.0
 22
0.0
 32
0.0
 14
0.0
 24
0.0
 34
0.0
 15
0.0
 25
0.0
 35
0.0
146
0.0
 13
0.0
 23
0.0
 33
0.0
 16
1.0
 26
0.0
 36
0.0
 17
0.0
 27
1.0
 37
0.0
 76
     0
330
6C
  0
LAYOUT
  5
77
102
{ACAD_REACTORS
330
62
102
}
330
62
100
AcDbPlotSettings
  1

  2

  4

  6

 40
0.0
 41
0.0
 42
0.0
 43
0.0
 44
0.0
 45
0.0
 46
0.0
 47
0.0
 48
0.0
 49
0.0
140
0.0
141
0.0
142
1.0
143
1.0
 70
   688
 72
     0
 73
     0
 74
     5
  7

 75
    16
147
1.0
 76
     0
 77
     2
 78
   300
148
0.0
149
0.0
100
AcDbLayout
  1
Layout2
 70
     1
 71
     2
 10
0.0
 20
0.0
 11
12.0
 21
9.0
 12
0.0
 22
0.0
 32
0.0
 14
0.0
 24
0.0
 34
0.0
 15
0.0
 25
0.0
 35
0.0
146
0.0
 13
0.0
 23
0.0
 33
0.0
 16
1.0
 26
0.0
 36
0.0
 17
0.0
 27
1.0
 37
0.0
 76
     0
330
74
  0
LAYOUT
  5
73
102
{ACAD_REACTORS
330
62
102
}
330
62
100
AcDbPlotSettings
  1

  2

  4

  6

 40
0.0
 41
0.0
 42
0.0
 43
0.0
 44
0.0
 45
0.0
 46
0.0
 47
0.0
 48
0.0
 49
0.0
140
0.0
141
0.0
142
1.0
143
1.0
 70
  1712
 72
     0
 73
     0
 74
     0
  7

 75
     0
147
1.0
 76
     0
 77
     2
 78
   300
148
0.0
149
0.0
100
AcDbLayout
  1
Model
 70
     1
 71
     0
 10
0.0
 20
0.0
 11
12.0
 21
9.0
 12
0.0
 22
0.0
 32
0.0
 14
0.0
 24
0.0
 34
0.0
 15
0.0
 25
0.0
 35
0.0
146
0.0
 13
0.0
 23
0.0
 33
0.0
 16
1.0
 26
0.0
 36
0.0
 17
0.0
 27
1.0
 37
0.0
 76
     0
330
70
  0
MATERIAL
  5
19
102
{ACAD_XDICTIONARY
360
1A
102
}
102
{ACAD_REACTORS
330
10
102
}
330
10
100
AcDbMaterial
  1
ByBlock
 72
     0
 43
0.0208333333333333
 43
0.0
 43
0.0
 43
0.0
 43
0.0
 43
0.0208333333333333
 43
0.0
 43
0.0
 43
0.0
 43
0.0
 43
1.0
 43
0.0
 43
0.0
 43
0.0
 43
0.0
 43
1.0
 77
     0
 47
0.0208333333333333
 47
0.0
 47
0.0
 47
0.0
 47
0.0
 47
0.0208333333333333
 47
0.0
 47
0.0
 47
0.0
 47
0.0
 47
1.0
 47
0.0
 47
0.0
 47
0.0
 47
0.0
 47
1.0
171
     0
 49
0.0208333333333333
 49
0.0
 49
0.0
 49
0.0
 49
0.0
 49
0.0208333333333333
 49
0.0
 49
0.0
 49
0.0
 49
0.0
 49
1.0
 49
0.0
 49
0.0
 49
0.0
 49
0.0
 49
1.0
175
     0
142
0.0208333333333333
142
0.0
142
0.0
142
0.0
142
0.0
142
0.0208333333333333
142
0.0
142
0.0
142
0.0
142
0.0
142
1.0
142
0.0
142
0.0
142
0.0
142
0.0
142
1.0
179
     0
144
0.0208333333333333
144
0.0
144
0.0
144
0.0
144
0.0
144
0.0208333333333333
144
0.0
144
0.0
144
0.0
144
0.0
144
1.0
144
0.0
144
0.0
144
0.0
144
0.0
144
1.0
147
0.0208333333333333
147
0.0
147
0.0
147
0.0
147
0.0
147
0.0208333333333333
147
0.0
147
0.0
147
0.0
147
0.0
147
1.0
147
0.0
147
0.0
147
0.0
147
0.0
147
1.0
  0
MATERIAL
  5
11
102
{ACAD_XDICTIONARY
360
12
102
}
102
{ACAD_REACTORS
330
10
102
}
330
10
100
AcDbMaterial
  1
ByLayer
 72
     0
 43
0.0208333333333333
 43
0.0
 43
0.0
 43
0.0
 43
0.0
 43
0.0208333333333333
 43
0.0
 43
0.0
 43
0.0
 43
0.0
 43
1.0
 43
0.0
 43
0.0
 43
0.0
 43
0.0
 43
1.0
 77
     0
 47
0.0208333333333333
 47
0.0
 47
0.0
 47
0.0
 47
0.0
 47
0.0208333333333333
 47
0.0
 47
0.0
 47
0.0
 47
0.0
 47
1.0
 47
0.0
 47
0.0
 47
0.0
 47
0.0
 47
1.0
171
     0
 49
0.0208333333333333
 49
0.0
 49
0.0
 49
0.0
 49
0.0
 49
0.0208333333333333
 49
0.0
 49
0.0
 49
0.0
 49
0.0
 49
1.0
 49
0.0
 49
0.0
 49
0.0
 49
0.0
 49
1.0
175
     0
142
0.0208333333333333
142
0.0
142
0.0
142
0.0
142
0.0
142
0.0208333333333333
142
0.0
142
0.0
142
0.0
142
0.0
142
1.0
142
0.0
142
0.0
142
0.0
142
0.0
142
1.0
179
     0
144
0.0208333333333333
144
0.0
144
0.0
144
0.0
144
0.0
144
0.0208333333333333
144
0.0
144
0.0
144
0.0
144
0.0
144
1.0
144
0.0
144
0.0
144
0.0
144
0.0
144
1.0
147
0.0208333333333333
147
0.0
147
0.0
147
0.0
147
0.0
147
0.0208333333333333
147
0.0
147
0.0
147
0.0
147
0.0
147
1.0
147
0.0
147
0.0
147
0.0
147
0.0
147
1.0
  0
MATERIAL
  5
21
102
{ACAD_XDICTIONARY
360
22
102
}
102
{ACAD_REACTORS
330
10
102
}
330
10
100
AcDbMaterial
  1
Global
 72
     0
 43
0.0208333333333333
 43
0.0
 43
0.0
 43
0.0
 43
0.0
 43
0.0208333333333333
 43
0.0
 43
0.0
 43
0.0
 43
0.0
 43
1.0
 43
0.0
 43
0.0
 43
0.0
 43
0.0
 43
1.0
 77
     0
 47
0.0208333333333333
 47
0.0
 47
0.0
 47
0.0
 47
0.0
 47
0.0208333333333333
 47
0.0
 47
0.0
 47
0.0
 47
0.0
 47
1.0
 47
0.0
 47
0.0
 47
0.0
 47
0.0
 47
1.0
171
     0
 49
0.0208333333333333
 49
0.0
 49
0.0
 49
0.0
 49
0.0
 49
0.0208333333333333
 49
0.0
 49
0.0
 49
0.0
 49
0.0
 49
1.0
 49
0.0
 49
0.0
 49
0.0
 49
0.0
 49
1.0
175
     0
142
0.0208333333333333
142
0.0
142
0.0
142
0.0
142
0.0
142
0.0208333333333333
142
0.0
142
0.0
142
0.0
142
0.0
142
1.0
142
0.0
142
0.0
142
0.0
142
0.0
142
1.0
179
     0
144
0.0208333333333333
144
0.0
144
0.0
144
0.0
144
0.0
144
0.0208333333333333
144
0.0
144
0.0
144
0.0
144
0.0
144
1.0
144
0.0
144
0.0
144
0.0
144
0.0
144
1.0
147
0.0208333333333333
147
0.0
147
0.0
147
0.0
147
0.0
147
0.0208333333333333
147
0.0
147
0.0
147
0.0
147
0.0
147
1.0
147
0.0
147
0.0
147
0.0
147
0.0
147
1.0
  0
MLEADERSTYLE
  5
67
102
{ACAD_XDICTIONARY
360
124
102
}
102
{ACAD_REACTORS
330
66
102
}
330
66
100
AcDbMLeaderStyle
179
     2
170
     2
171
     1
172
     0
 90
        2
 40
0.0
 41
0.0
173
     1
 91
-1056964608
340
5B
 92
       -2
290
     1
 42
0.09
291
     1
 43
0.36
  3
Standard
 44
0.18
300

342
55
174
     1
178
     6
175
     1
176
     0
 93
-1056964608
 45
0.18
292
     0
297
     0
 46
0.18
 94
-1056964608
 47
1.0
 49
1.0
140
1.0
293
     1
141
0.0
294
     1
177
     0
142
1.0
295
     0
296
     0
143
0.125
271
     0
272
     9
273
     9
  0
MLINESTYLE
  5
60
102
{ACAD_REACTORS
330
5F
102
}
330
5F
100
AcDbMlineStyle
  2
STANDARD
 70
     0
  3

 62
   256
 51
90.0
 52
90.0
 71
     2
 49
0.5
 62
   256
  6
BYLAYER
 49
-0.5
 62
   256
  6
BYLAYER
  0
ACDBPLACEHOLDER
  5
F
102
{ACAD_REACTORS
330
E
102
}
330
E
  0
SCALE
  5
43
102
{ACAD_REACTORS
330
42
102
}
330
42
100
AcDbScale
 70
     0
300
1:1
140
1.0
141
1.0
290
     1
  0
SCALE
  5
44
102
{ACAD_REACTORS
330
42
102
}
330
42
100
AcDbScale
 70
     0
300
1/128" = 1'-0"
140
0.0078125
141
12.0
290
     0
  0
SCALE
  5
45
102
{ACAD_REACTORS
330
42
102
}
330
42
100
AcDbScale
 70
     0
300
1/64" = 1'-0"
140
0.015625
141
12.0
290
     0
  0
SCALE
  5
46
102
{ACAD_REACTORS
330
42
102
}
330
42
100
AcDbScale
 70
     0
300
1/32" = 1'-0"
140
0.03125
141
12.0
290
     0
  0
SCALE
  5
47
102
{ACAD_REACTORS
330
42
102
}
330
42
100
AcDbScale
 70
     0
300
1/16" = 1'-0"
140
0.0625
141
12.0
290
     0
  0
SCALE
  5
48
102
{ACAD_REACTORS
330
42
102
}
330
42
100
AcDbScale
 70
     0
300
3/32" = 1'-0"
140
0.09375
141
12.0
290
     0
  0
SCALE
  5
49
102
{ACAD_REACTORS
330
42
102
}
330
42
100
AcDbScale
 70
     0
300
1/8" = 1'-0"
140
0.125
141
12.0
290
     0
  0
SCALE
  5
4A
102
{ACAD_REACTORS
330
42
102
}
330
42
100
AcDbScale
 70
     0
300
3/16" = 1'-0"
140
0.1875
141
12.0
290
     0
  0
SCALE
  5
4B
102
{ACAD_REACTORS
330
42
102
}
330
42
100
AcDbScale
 70
     0
300
1/4" = 1'-0"
140
0.25
141
12.0
290
     0
  0
SCALE
  5
4C
102
{ACAD_REACTORS
330
42
102
}
330
42
100
AcDbScale
 70
     0
300
3/8" = 1'-0"
140
0.375
141
12.0
290
     0
  0
SCALE
  5
4D
102
{ACAD_REACTORS
330
42
102
}
330
42
100
AcDbScale
 70
     0
300
1/2" = 1'-0"
140
0.5
141
12.0
290
     0
  0
SCALE
  5
4E
102
{ACAD_REACTORS
330
42
102
}
330
42
100
AcDbScale
 70
     0
300
3/4" = 1'-0"
140
0.75
141
12.0
290
     0
  0
SCALE
  5
4F
102
{ACAD_REACTORS
330
42
102
}
330
42
100
AcDbScale
 70
     0
300
1" = 1'-0"
140
1.0
141
12.0
290
     0
  0
SCALE
  5
50
102
{ACAD_REACTORS
330
42
102
}
330
42
100
AcDbScale
 70
     0
300
1-1/2" = 1'-0"
140
1.5
141
12.0
290
     0
  0
SCALE
  5
51
102
{ACAD_REACTORS
330
42
102
}
330
42
100
AcDbScale
 70
     0
300
3" = 1'-0"
140
3.0
141
12.0
290
     0
  0
SCALE
  5
52
102
{ACAD_REACTORS
330
42
102
}
330
42
100
AcDbScale
 70
     0
300
6" = 1'-0"
140
6.0
141
12.0
290
     0
  0
SCALE
  5
53
102
{ACAD_REACTORS
330
42
102
}
330
42
100
AcDbScale
 70
     0
300
1'-0" = 1'-0"
140
12.0
141
12.0
290
     0
  0
ACDBSECTIONVIEWSTYLE
  5
69
102
{ACAD_XDICTIONARY
360
126
102
}
102
{ACAD_REACTORS
330
68
102
}
330
68
100
AcDbModelDocViewStyle
 70
     0
  3
Imperial24
290
     0
100
AcDbSectionViewStyle
 70
     0
 71
     0
 90
       78
 71
     1
340
55
 62
   256
 40
0.24
340
0
340
0
 62
   256
 40
0.24
300
I, O, Q, S, X, Z
 40
0.48
 90
        3
 40
0.18
 90
        1
 71
     2
340
5D
 90
       25
 62
   256
340
5D
 90
       50
 62
   256
 40
0.24
 40
0.0
 40
0.24
 71
     3
340
55
 62
   256
 40
0.24
 90
        1
 40
0.75
 90
        1
300
%<\AcVar ViewType \f "%tc1">% %<\AcVar ViewSectionStartId>%-%<\AcVar ViewSectionEndId>%\PSCALE %<\AcVar ViewScale \f "%sn">%
 71
     4
 62
   256
 62
   257
300
ANSI31
 40
1.0
 90
        0
290
     0
290
     0
 90
        6
 40
0.0
 40
1.570796326794896
 40
0.2617993877991494
 40
1.308996938995747
 40
-0.2617993877991494
 40
1.832595714594046
  0
TABLESTYLE
  5
65
102
{ACAD_XDICTIONARY
360
F1
102
}
102
{ACAD_REACTORS
330
64
102
}
330
64
100
AcDbTableStyle
280
     0
  3
Standard
 70
     0
 71
     0
 40
0.06
 41
0.06
280
     0
281
     0
  7
Standard
140
0.18
170
     2
 62
     0
 63
     7
283
     0
 90
      512
 91
        0
  1

274
    -2
284
     1
 64
     0
275
    -2
285
     1
 65
     0
276
    -2
286
     1
 66
     0
277
    -2
287
     1
 67
     0
278
    -2
288
     1
 68
     0
279
    -2
289
     1
 69
     0
  7
Standard
140
0.25
170
     5
 62
     0
 63
     7
283
     0
 90
      512
 91
        0
  1

274
    -2
284
     1
 64
     0
275
    -2
285
     1
 65
     0
276
    -2
286
     1
 66
     0
277
    -2
287
     1
 67
     0
278
    -2
288
     1
 68
     0
279
    -2
289
     1
 69
     0
  7
Standard
140
0.18
170
     5
 62
     0
 63
     7
283
     0
 90
      512
 91
        0
  1

274
    -2
284
     1
 64
     0
275
    -2
285
     1
 65
     0
276
    -2
286
     1
 66
     0
277
    -2
287
     1
 67
     0
278
    -2
288
     1
 68
     0
279
    -2
289
     1
 69
     0
  0
VISUALSTYLE
  5
2F
102
{ACAD_XDICTIONARY
360
FE
102
}
102
{ACAD_REACTORS
330
29
102
}
330
29
100
AcDbVisualStyle
  2
2dWireframe
 70
     4
177
     2
291
     0
 71
     0
176
     1
 72
     2
176
     1
 73
     0
176
     1
 90
        0
176
     1
 40
0.6
176
     1
 41
30.0
176
     1
 63
     7
421
 16777215
176
     1
 74
     1
176
     1
 91
        4
176
     1
 64
     7
176
     1
 65
   257
176
     1
 75
     1
176
     1
175
     1
176
     1
 42
1.0
176
     1
 92
        0
176
     1
 66
   257
176
     1
 43
1.0
176
     1
 76
     1
176
     1
 77
     6
176
     1
 78
     2
176
     1
 67
     7
176
     1
 79
     5
176
     1
170
     0
176
     1
171
     0
176
     1
290
     0
176
     1
 93
        1
176
     1
 44
0.0
176
     1
173
     0
176
     1
1001
ACAD
1000
AcDbSavedByObjectVersion
1070
     0
  0
VISUALSTYLE
  5
2E
102
{ACAD_XDICTIONARY
360
FC
102
}
102
{ACAD_REACTORS
330
29
102
}
330
29
100
AcDbVisualStyle
  2
Basic
 70
     7
177
     2
291
     1
 71
     1
176
     1
 72
     0
176
     1
 73
     1
176
     1
 90
        0
176
     1
 40
0.6
176
     1
 41
30.0
176
     1
 63
     7
421
 16777215
176
     1
 74
     0
176
     1
 91
        4
176
     1
 64
     7
176
     1
 65
   257
176
     1
 75
     1
176
     1
175
     1
176
     1
 42
1.0
176
     1
 92
        8
176
     1
 66
     7
176
     1
 43
1.0
176
     1
 76
     1
176
     1
 77
     6
176
     1
 78
     2
176
     1
 67
     7
176
     1
 79
     5
176
     1
170
     0
176
     1
171
     0
176
     1
290
     0
176
     1
 93
        1
176
     1
 44
0.0
176
     1
173
     0
176
     1
1001
ACAD
1000
AcDbSavedByObjectVersion
1070
     0
  0
VISUALSTYLE
  5
35
102
{ACAD_XDICTIONARY
360
10A
102
}
102
{ACAD_REACTORS
330
29
102
}
330
29
100
AcDbVisualStyle
  2
Brighten
 70
    12
177
     2
291
     1
 71
     2
176
     1
 72
     2
176
     1
 73
     0
176
     1
 90
        0
176
     1
 40
0.6
176
     1
 41
30.0
176
     1
 63
     7
421
 16777215
176
     1
 74
     1
176
     1
 91
        4
176
     1
 64
     7
176
     1
 65
   257
176
     1
 75
     1
176
     1
175
     1
176
     1
 42
1.0
176
     1
 92
        8
176
     1
 66
     7
176
     1
 43
1.0
176
     1
 76
     1
176
     1
 77
     6
176
     1
 78
     2
176
     1
 67
     7
176
     1
 79
     5
176
     1
170
     0
176
     1
171
     0
176
     1
290
     0
176
     1
 93
        1
176
     1
 44
50.0
176
     1
173
     0
176
     1
1001
ACAD
1000
AcDbSavedByObjectVersion
1070
     0
  0
VISUALSTYLE
  5
39
102
{ACAD_XDICTIONARY
360
112
102
}
102
{ACAD_REACTORS
330
29
102
}
330
29
100
AcDbVisualStyle
  2
ColorChange
 70
    16
177
     2
291
     1
 71
     2
176
     1
 72
     2
176
     1
 73
     3
176
     1
 90
        0
176
     1
 40
0.6
176
     1
 41
30.0
176
     1
 63
     8
421
  8421504
176
     1
 74
     1
176
     1
 91
        4
176
     1
 64
     7
176
     1
 65
   257
176
     1
 75
     1
176
     1
175
     1
176
     1
 42
1.0
176
     1
 92
        8
176
     1
 66
     8
424
  8421504
176
     1
 43
1.0
176
     1
 76
     1
176
     1
 77
     6
176
     1
 78
     2
176
     1
 67
     7
176
     1
 79
     5
176
     1
170
     0
176
     1
171
     0
176
     1
290
     0
176
     1
 93
        1
176
     1
 44
0.0
176
     1
173
     0
176
     1
1001
ACAD
1000
AcDbSavedByObjectVersion
1070
     0
  0
VISUALSTYLE
  5
32
102
{ACAD_XDICTIONARY
360
104
102
}
102
{ACAD_REACTORS
330
29
102
}
330
29
100
AcDbVisualStyle
  2
Conceptual
 70
     9
177
     2
291
     0
 71
     3
176
     1
 72
     2
176
     1
 73
     0
176
     1
 90
        0
176
     1
 40
0.6
176
     1
 41
30.0
176
     1
 63
     7
421
 16777215
176
     1
 74
     2
176
     1
 91
        2
176
     1
 64
     7
176
     1
 65
   257
176
     1
 75
     1
176
     1
175
     1
176
     1
 42
179.0
176
     1
 92
        8
176
     1
 66
     7
176
     1
 43
1.0
176
     1
 76
     1
176
     1
 77
     6
176
     1
 78
     2
176
     1
 67
     7
176
     1
 79
     3
176
     1
170
     0
176
     1
171
     0
176
     1
290
     0
176
     1
 93
        1
176
     1
 44
0.0
176
     1
173
     0
176
     1
1001
ACAD
1000
AcDbSavedByObjectVersion
1070
     0
  0
VISUALSTYLE
  5
34
102
{ACAD_XDICTIONARY
360
108
102
}
102
{ACAD_REACTORS
330
29
102
}
330
29
100
AcDbVisualStyle
  2
Dim
 70
    11
177
     2
291
     1
 71
     2
176
     1
 72
     2
176
     1
 73
     0
176
     1
 90
        0
176
     1
 40
0.6
176
     1
 41
30.0
176
     1
 63
     7
421
 16777215
176
     1
 74
     1
176
     1
 91
        4
176
     1
 64
     7
176
     1
 65
   257
176
     1
 75
     1
176
     1
175
     1
176
     1
 42
1.0
176
     1
 92
        8
176
     1
 66
     7
176
     1
 43
1.0
176
     1
 76
     1
176
     1
 77
     6
176
     1
 78
     2
176
     1
 67
     7
176
     1
 79
     5
176
     1
170
     0
176
     1
171
     0
176
     1
290
     0
176
     1
 93
        1
176
     1
 44
-50.0
176
     1
173
     0
176
     1
1001
ACAD
1000
AcDbSavedByObjectVersion
1070
     0
  0
VISUALSTYLE
  5
41
102
{ACAD_XDICTIONARY
360
122
102
}
102
{ACAD_REACTORS
330
29
102
}
330
29
100
AcDbVisualStyle
  2
EdgeColorOff
 70
    22
177
     2
291
     1
 71
     2
176
     0
 72
     2
176
     0
 73
     0
176
     0
 90
        0
176
     0
 40
0.6
176
     0
 41
30.0
176
     0
 63
     7
421
 16777215
176
     0
 74
     1
176
     0
 91
        4
176
     0
 64
     7
176
     0
 65
   257
176
     0
 75
     1
176
     0
175
     1
176
     0
 42
1.0
176
     0
 92
        8
176
     2
 66
     7
176
     0
 43
1.0
176
     0
 76
     1
176
     0
 77
     6
176
     0
 78
     2
176
     0
 67
     7
176
     0
 79
     5
176
     0
170
     0
176
     0
171
     0
176
     0
290
     0
176
     0
 93
        1
176
     0
 44
0.0
176
     0
173
     0
176
     0
1001
ACAD
1000
AcDbSavedByObjectVersion
1070
     0
  0
VISUALSTYLE
  5
38
102
{ACAD_XDICTIONARY
360
110
102
}
102
{ACAD_REACTORS
330
29
102
}
330
29
100
AcDbVisualStyle
  2
Facepattern
 70
    15
177
     2
291
     1
 71
     2
176
     1
 72
     2
176
     1
 73
     0
176
     1
 90
        0
176
     1
 40
0.6
176
     1
 41
30.0
176
     1
 63
     7
421
 16777215
176
     1
 74
     1
176
     1
 91
        4
176
     1
 64
     7
176
     1
 65
   257
176
     1
 75
     1
176
     1
175
     1
176
     1
 42
1.0
176
     1
 92
        8
176
     1
 66
     7
176
     1
 43
1.0
176
     1
 76
     1
176
     1
 77
     6
176
     1
 78
     2
176
     1
 67
     7
176
     1
 79
     5
176
     1
170
     0
176
     1
171
     0
176
     1
290
     0
176
     1
 93
        1
176
     1
 44
0.0
176
     1
173
     0
176
     1
1001
ACAD
1000
AcDbSavedByObjectVersion
1070
     0
  0
VISUALSTYLE
  5
2A
102
{ACAD_XDICTIONARY
360
F4
102
}
102
{ACAD_REACTORS
330
29
102
}
330
29
100
AcDbVisualStyle
  2
Flat
 70
     0
177
     2
291
     1
 71
     2
176
     1
 72
     1
176
     1
 73
     1
176
     1
 90
        2
176
     1
 40
0.6
176
     1
 41
30.0
176
     1
 63
     7
421
 16777215
176
     1
 74
     0
176
     1
 91
        0
176
     1
 64
     7
176
     1
 65
   257
176
     1
 75
     1
176
     1
175
     1
176
     1
 42
1.0
176
     1
 92
        8
176
     1
 66
     7
176
     1
 43
1.0
176
     1
 76
     1
176
     1
 77
     6
176
     1
 78
     2
176
     1
 67
     7
176
     1
 79
     5
176
     1
170
     0
176
     1
171
     0
176
     1
290
     0
176
     1
 93
       13
176
     1
 44
0.0
176
     1
173
     0
176
     1
1001
ACAD
1000
AcDbSavedByObjectVersion
1070
     0
  0
VISUALSTYLE
  5
2B
102
{ACAD_XDICTIONARY
360
F6
102
}
102
{ACAD_REACTORS
330
29
102
}
330
29
100
AcDbVisualStyle
  2
FlatWithEdges
 70
     1
177
     2
291
     1
 71
     2
176
     1
 72
     1
176
     1
 73
     1
176
     1
 90
        2
176
     1
 40
0.6
176
     1
 41
30.0
176
     1
 63
     7
421
 16777215
176
     1
 74
     1
176
     1
 91
        0
176
     1
 64
     7
176
     1
 65
   257
176
     1
 75
     1
176
     1
175
     1
176
     1
 42
1.0
176
     1
 92
        0
176
     1
 66
   257
176
     1
 43
1.0
176
     1
 76
     1
176
     1
 77
     6
176
     1
 78
     2
176
     1
 67
     7
176
     1
 79
     5
176
     1
170
     0
176
     1
171
     0
176
     1
290
     0
176
     1
 93
       13
176
     1
 44
0.0
176
     1
173
     0
176
     1
1001
ACAD
1000
AcDbSavedByObjectVersion
1070
     0
  0
VISUALSTYLE
  5
2C
102
{ACAD_XDICTIONARY
360
F8
102
}
102
{ACAD_REACTORS
330
29
102
}
330
29
100
AcDbVisualStyle
  2
Gouraud
 70
     2
177
     2
291
     1
 71
     2
176
     1
 72
     2
176
     1
 73
     1
176
     1
 90
        2
176
     1
 40
0.6
176
     1
 41
30.0
176
     1
 63
     7
421
 16777215
176
     1
 74
     0
176
     1
 91
        0
176
     1
 64
     7
176
     1
 65
   257
176
     1
 75
     1
176
     1
175
     1
176
     1
 42
1.0
176
     1
 92
        0
176
     1
 66
     7
176
     1
 43
1.0
176
     1
 76
     1
176
     1
 77
     6
176
     1
 78
     2
176
     1
 67
     7
176
     1
 79
     5
176
     1
170
     0
176
     1
171
     0
176
     1
290
     0
176
     1
 93
       13
176
     1
 44
0.0
176
     1
173
     0
176
     1
1001
ACAD
1000
AcDbSavedByObjectVersion
1070
     0
  0
VISUALSTYLE
  5
2D
102
{ACAD_XDICTIONARY
360
FA
102
}
102
{ACAD_REACTORS
330
29
102
}
330
29
100
AcDbVisualStyle
  2
GouraudWithEdges
 70
     3
177
     2
291
     1
 71
     2
176
     1
 72
     2
176
     1
 73
     1
176
     1
 90
        2
176
     1
 40
0.6
176
     1
 41
30.0
176
     1
 63
     7
421
 16777215
176
     1
 74
     1
176
     1
 91
        0
176
     1
 64
     7
176
     1
 65
   257
176
     1
 75
     1
176
     1
175
     1
176
     1
 42
1.0
176
     1
 92
        0
176
     1
 66
   257
176
     1
 43
1.0
176
     1
 76
     1
176
     1
 77
     6
176
     1
 78
     2
176
     1
 67
     7
176
     1
 79
     5
176
     1
170
     0
176
     1
171
     0
176
     1
290
     0
176
     1
 93
       13
176
     1
 44
0.0
176
     1
173
     0
176
     1
1001
ACAD
1000
AcDbSavedByObjectVersion
1070
     0
  0
VISUALSTYLE
  5
31
102
{ACAD_XDICTIONARY
360
102
102
}
102
{ACAD_REACTORS
330
29
102
}
330
29
100
AcDbVisualStyle
  2
Hidden
 70
     6
177
     2
291
     0
 71
     1
176
     1
 72
     2
176
     1
 73
     2
176
     1
 90
        0
176
     1
 40
0.6
176
     1
 41
30.0
176
     1
 63
     7
421
 16777215
176
     1
 74
     2
176
     1
 91
        2
176
     1
 64
     7
176
     1
 65
   257
176
     1
 75
     2
176
     1
175
     1
176
     1
 42
40.0
176
     1
 92
        0
176
     1
 66
   257
176
     1
 43
1.0
176
     1
 76
     1
176
     1
 77
     6
176
     1
 78
     2
176
     1
 67
     7
176
     1
 79
     3
176
     1
170
     0
176
     1
171
     0
176
     1
290
     0
176
     1
 93
        1
176
     1
 44
0.0
176
     1
173
     0
176
     1
1001
ACAD
1000
AcDbSavedByObjectVersion
1070
     0
  0
VISUALSTYLE
  5
3F
102
{ACAD_XDICTIONARY
360
11E
102
}
102
{ACAD_REACTORS
330
29
102
}
330
29
100
AcDbVisualStyle
  2
JitterOff
 70
    20
177
     2
291
     1
 71
     2
176
     0
 72
     2
176
     0
 73
     0
176
     0
 90
        0
176
     0
 40
0.6
176
     0
 41
30.0
176
     0
 63
     7
421
 16777215
176
     0
 74
     1
176
     0
 91
        4
176
     0
 64
     7
176
     0
 65
   257
176
     0
 75
     1
176
     0
175
     1
176
     0
 42
1.0
176
     0
 92
       10
176
     2
 66
     7
176
     0
 43
1.0
176
     0
 76
     1
176
     0
 77
     6
176
     0
 78
     2
176
     0
 67
     7
176
     0
 79
     5
176
     0
170
     0
176
     0
171
     0
176
     0
290
     0
176
     0
 93
        1
176
     0
 44
0.0
176
     0
173
     0
176
     0
1001
ACAD
1000
AcDbSavedByObjectVersion
1070
     0
  0
VISUALSTYLE
  5
37
102
{ACAD_XDICTIONARY
360
10E
102
}
102
{ACAD_REACTORS
330
29
102
}
330
29
100
AcDbVisualStyle
  2
Linepattern
 70
    14
177
     2
291
     1
 71
     2
176
     1
 72
     2
176
     1
 73
     0
176
     1
 90
        0
176
     1
 40
0.6
176
     1
 41
30.0
176
     1
 63
     7
421
 16777215
176
     1
 74
     1
176
     1
 91
        4
176
     1
 64
     7
176
     1
 65
   257
176
     1
 75
     7
176
     1
175
     7
176
     1
 42
1.0
176
     1
 92
        8
176
     1
 66
     7
176
     1
 43
1.0
176
     1
 76
     1
176
     1
 77
     6
176
     1
 78
     2
176
     1
 67
     7
176
     1
 79
     5
176
     1
170
     0
176
     1
171
     0
176
     1
290
     0
176
     1
 93
        1
176
     1
 44
0.0
176
     1
173
     0
176
     1
1001
ACAD
1000
AcDbSavedByObjectVersion
1070
     0
  0
VISUALSTYLE
  5
40
102
{ACAD_XDICTIONARY
360
120
102
}
102
{ACAD_REACTORS
330
29
102
}
330
29
100
AcDbVisualStyle
  2
OverhangOff
 70
    21
177
     2
291
     1
 71
     2
176
     0
 72
     2
176
     0
 73
     0
176
     0
 90
        0
176
     0
 40
0.6
176
     0
 41
30.0
176
     0
 63
     7
421
 16777215
176
     0
 74
     1
176
     0
 91
        4
176
     0
 64
     7
176
     0
 65
   257
176
     0
 75
     1
176
     0
175
     1
176
     0
 42
1.0
176
     0
 92
        9
176
     2
 66
     7
176
     0
 43
1.0
176
     0
 76
     1
176
     0
 77
     6
176
     0
 78
     2
176
     0
 67
     7
176
     0
 79
     5
176
     0
170
     0
176
     0
171
     0
176
     0
290
     0
176
     0
 93
        1
176
     0
 44
0.0
176
     0
173
     0
176
     0
1001
ACAD
1000
AcDbSavedByObjectVersion
1070
     0
  0
VISUALSTYLE
  5
33
102
{ACAD_XDICTIONARY
360
106
102
}
102
{ACAD_REACTORS
330
29
102
}
330
29
100
AcDbVisualStyle
  2
Realistic
 70
     8
177
     2
291
     0
 71
     2
176
     1
 72
     3
176
     1
 73
     0
176
     1
 90
        2
176
     1
 40
0.6
176
     1
 41
30.0
176
     1
 63
     7
421
 16777215
176
     1
 74
     0
176
     1
 91
        0
176
     1
 64
     7
176
     1
 65
   257
176
     1
 75
     1
176
     1
175
     1
176
     1
 42
1.0
176
     1
 92
        8
176
     1
 66
   257
176
     1
 43
1.0
176
     1
 76
     1
176
     1
 77
     6
176
     1
 78
     2
176
     1
 67
     7
176
     1
 79
     3
176
     1
170
     0
176
     1
171
     0
176
     1
290
     0
176
     1
 93
       13
176
     1
 44
0.0
176
     1
173
     0
176
     1
1001
ACAD
1000
AcDbSavedByObjectVersion
1070
     0
  0
VISUALSTYLE
  5
3E
102
{ACAD_XDICTIONARY
360
11C
102
}
102
{ACAD_REACTORS
330
29
102
}
330
29
100
AcDbVisualStyle
  2
Shaded
 70
    27
177
     2
291
     0
 71
     2
176
     1
 72
     2
176
     1
 73
     1
176
     1
 90
        2
176
     1
 40
0.6
176
     1
 41
30.0
176
     1
 63
     7
421
 16777215
176
     1
 74
     0
176
     1
 91
        4
176
     1
 64
     7
176
     1
 65
   257
176
     1
 75
     1
176
     1
175
     1
176
     1
 42
1.0
176
     1
 92
        8
176
     1
 66
   257
176
     1
 43
1.0
176
     1
 76
     1
176
     1
 77
     6
176
     1
 78
     2
176
     1
 67
     8
425
  7895160
176
     1
 79
     3
176
     1
170
     0
176
     1
171
     0
176
     1
290
     0
176
     1
 93
        5
176
     1
 44
0.0
176
     1
173
     0
176
     1
1001
ACAD
1000
AcDbSavedByObjectVersion
1070
     0
  0
VISUALSTYLE
  5
3D
102
{ACAD_XDICTIONARY
360
11A
102
}
102
{ACAD_REACTORS
330
29
102
}
330
29
100
AcDbVisualStyle
  2
Shaded with edges
 70
    26
177
     2
291
     0
 71
     2
176
     1
 72
     2
176
     1
 73
     1
176
     1
 90
        2
176
     1
 40
0.6
176
     1
 41
30.0
176
     1
 63
     7
421
 16777215
176
     1
 74
     1
176
     1
 91
        2
176
     1
 64
     7
176
     1
 65
   257
176
     1
 75
     2
176
     1
175
     1
176
     1
 42
1.0
176
     1
 92
        8
176
     1
 66
   257
176
     1
 43
1.0
176
     1
 76
     1
176
     1
 77
     6
176
     1
 78
     2
176
     1
 67
     7
176
     1
 79
     3
176
     1
170
     0
176
     1
171
     0
176
     1
290
     0
176
     1
 93
        5
176
     1
 44
0.0
176
     1
173
     0
176
     1
1001
ACAD
1000
AcDbSavedByObjectVersion
1070
     0
  0
VISUALSTYLE
  5
3A
102
{ACAD_XDICTIONARY
360
114
102
}
102
{ACAD_REACTORS
330
29
102
}
330
29
100
AcDbVisualStyle
  2
Shades of Gray
 70
    23
177
     2
291
     0
 71
     2
176
     1
 72
     2
176
     1
 73
     3
176
     1
 90
        0
176
     1
 40
0.6
176
     1
 41
30.0
176
     1
 63
     7
421
 16777215
176
     1
 74
     2
176
     1
 91
        2
176
     1
 64
     7
176
     1
 65
     7
176
     1
 75
     1
176
     1
175
     1
176
     1
 42
40.0
176
     1
 92
        8
176
     1
 66
     7
176
     1
 43
1.0
176
     1
 76
     1
176
     1
 77
     6
176
     1
 78
     2
176
     1
 67
     7
176
     1
 79
     3
176
     1
170
     0
176
     1
171
     0
176
     1
290
     0
176
     1
 93
        1
176
     1
 44
0.0
176
     1
173
     0
176
     1
1001
ACAD
1000
AcDbSavedByObjectVersion
1070
     0
  0
VISUALSTYLE
  5
3B
102
{ACAD_XDICTIONARY
360
116
102
}
102
{ACAD_REACTORS
330
29
102
}
330
29
100
AcDbVisualStyle
  2
Sketchy
 70
    24
177
     2
291
     0
 71
     1
176
     1
 72
     2
176
     1
 73
     2
176
     1
 90
        0
176
     1
 40
0.6
176
     1
 41
30.0
176
     1
 63
     7
421
 16777215
176
     1
 74
     2
176
     1
 91
        2
176
     1
 64
     7
176
     1
 65
     7
176
     1
 75
     1
176
     1
175
     1
176
     1
 42
40.0
176
     1
 92
       11
176
     1
 66
     7
176
     1
 43
1.0
176
     1
 76
     1
176
     1
 77
     6
176
     1
 78
     2
176
     1
 67
     7
176
     1
 79
     6
176
     1
170
     0
176
     1
171
     0
176
     1
290
     0
176
     1
 93
        1
176
     1
 44
0.0
176
     1
173
     0
176
     1
1001
ACAD
1000
AcDbSavedByObjectVersion
1070
     0
  0
VISUALSTYLE
  5
36
102
{ACAD_XDICTIONARY
360
10C
102
}
102
{ACAD_REACTORS
330
29
102
}
330
29
100
AcDbVisualStyle
  2
Thicken
 70
    13
177
     2
291
     1
 71
     2
176
     1
 72
     2
176
     1
 73
     0
176
     1
 90
        0
176
     1
 40
0.6
176
     1
 41
30.0
176
     1
 63
     7
421
 16777215
176
     1
 74
     1
176
     1
 91
        4
176
     1
 64
     7
176
     1
 65
   257
176
     1
 75
     1
176
     1
175
     1
176
     1
 42
1.0
176
     1
 92
       12
176
     1
 66
     7
176
     1
 43
1.0
176
     1
 76
     1
176
     1
 77
     6
176
     1
 78
     2
176
     1
 67
     7
176
     1
 79
     5
176
     1
170
     0
176
     1
171
     0
176
     1
290
     0
176
     1
 93
        1
176
     1
 44
0.0
176
     1
173
     0
176
     1
1001
ACAD
1000
AcDbSavedByObjectVersion
1070
     0
  0
VISUALSTYLE
  5
30
102
{ACAD_XDICTIONARY
360
100
102
}
102
{ACAD_REACTORS
330
29
102
}
330
29
100
AcDbVisualStyle
  2
Wireframe
 70
     5
177
     2
291
     0
 71
     0
176
     1
 72
     2
176
     1
 73
     0
176
     1
 90
        0
176
     1
 40
0.6
176
     1
 41
30.0
176
     1
 63
     7
421
 16777215
176
     1
 74
     1
176
     1
 91
        4
176
     1
 64
     7
176
     1
 65
   257
176
     1
 75
     1
176
     1
175
     1
176
     1
 42
1.0
176
     1
 92
        0
176
     1
 66
   257
176
     1
 43
1.0
176
     1
 76
     1
176
     1
 77
     6
176
     1
 78
     2
176
     1
 67
     7
176
     1
 79
     3
176
     1
170
     0
176
     1
171
     0
176
     1
290
     0
176
     1
 93
        1
176
     1
 44
0.0
176
     1
173
     0
176
     1
1001
ACAD
1000
AcDbSavedByObjectVersion
1070
     0
  0
VISUALSTYLE
  5
3C
102
{ACAD_XDICTIONARY
360
118
102
}
102
{ACAD_REACTORS
330
29
102
}
330
29
100
AcDbVisualStyle
  2
X-Ray
 70
    25
177
     2
291
     0
 71
     2
176
     1
 72
     2
176
     1
 73
     1
176
     1
 90
        1
176
     1
 40
0.5
176
     1
 41
30.0
176
     1
 63
     7
421
 16777215
176
     1
 74
     1
176
     1
 91
        0
176
     1
 64
     7
176
     1
 65
   257
176
     1
 75
     1
176
     1
175
     1
176
     1
 42
1.0
176
     1
 92
        8
176
     1
 66
     7
176
     1
 43
1.0
176
     1
 76
     1
176
     1
 77
     6
176
     1
 78
     2
176
     1
 67
     7
176
     1
 79
     3
176
     1
170
     0
176
     1
171
     0
176
     1
290
     0
176
     1
 93
       13
176
     1
 44
0.0
176
     1
173
     0
176
     1
1001
ACAD
1000
AcDbSavedByObjectVersion
1070
     0
  0
DICTIONARYVAR
  5
F0
102
{ACAD_REACTORS
330
EB
102
}
330
EB
100
DictionaryVariables
280
     0
  1
1:1
  0
DICTIONARYVAR
  5
ED
102
{ACAD_REACTORS
330
EB
102
}
330
EB
100
DictionaryVariables
280
     0
  1
STANDARD
  0
DICTIONARYVAR
  5
EC
102
{ACAD_REACTORS
330
EB
102
}
330
EB
100
DictionaryVariables
280
     0
  1
STANDARD
  0
DICTIONARYVAR
  5
EE
102
{ACAD_REACTORS
330
EB
102
}
330
EB
100
DictionaryVariables
280
     0
  1
Imperial24
  0
DICTIONARYVAR
  5
EF
102
{ACAD_REACTORS
330
EB
102
}
330
EB
100
DictionaryVariables
280
     0
  1
Imperial24
  0
DICTIONARY
  5
128
330
6B
100
AcDbDictionary
280
     1
281
     1
  3
ACAD_XREC_ROUNDTRIP
360
129
  0
DICTIONARY
  5
1A
330
19
100
AcDbDictionary
280
     1
281
     1
  3
BUMPTILE
360
1C
  3
DIFFUSETILE
360
1B
  3
OPACITYTILE
360
1F
  3
REFLECTIONTILE
360
1E
  3
REFRACTIONTILE
360
20
  3
SPECULARTILE
360
1D
  0
DICTIONARY
  5
12
330
11
100
AcDbDictionary
280
     1
281
     1
  3
BUMPTILE
360
14
  3
DIFFUSETILE
360
13
  3
OPACITYTILE
360
17
  3
REFLECTIONTILE
360
16
  3
REFRACTIONTILE
360
18
  3
SPECULARTILE
360
15
  0
DICTIONARY
  5
22
330
21
100
AcDbDictionary
280
     1
281
     1
  3
BUMPTILE
360
24
  3
DIFFUSETILE
360
23
  3
OPACITYTILE
360
27
  3
REFLECTIONTILE
360
26
  3
REFRACTIONTILE
360
28
  3
SPECULARTILE
360
25
  0
DICTIONARY
  5
124
330
67
100
AcDbDictionary
280
     1
281
     1
  3
ACAD_XREC_ROUNDTRIP
360
125
  0
DICTIONARY
  5
126
330
69
100
AcDbDictionary
280
     1
281
     1
  3
ACAD_XREC_ROUNDTRIP
360
127
  0
DICTIONARY
  5
F1
330
65
100
AcDbDictionary
280
     1
281
     1
  3
ACAD_ROUNDTRIP_2008_TABLESTYLE_CELLSTYLEMAP
360
F2
  0
DICTIONARY
  5
FE
330
2F
100
AcDbDictionary
280
     1
281
     1
  3
ACAD_XREC_ROUNDTRIP
360
FF
  0
DICTIONARY
  5
FC
330
2E
100
AcDbDictionary
280
     1
281
     1
  3
ACAD_XREC_ROUNDTRIP
360
FD
  0
DICTIONARY
  5
10A
330
35
100
AcDbDictionary
280
     1
281
     1
  3
ACAD_XREC_ROUNDTRIP
360
10B
  0
DICTIONARY
  5
112
330
39
100
AcDbDictionary
280
     1
281
     1
  3
ACAD_XREC_ROUNDTRIP
360
113
  0
DICTIONARY
  5
104
330
32
100
AcDbDictionary
280
     1
281
     1
  3
ACAD_XREC_ROUNDTRIP
360
105
  0
DICTIONARY
  5
108
330
34
100
AcDbDictionary
280
     1
281
     1
  3
ACAD_XREC_ROUNDTRIP
360
109
  0
DICTIONARY
  5
122
330
41
100
AcDbDictionary
280
     1
281
     1
  3
ACAD_XREC_ROUNDTRIP
360
123
  0
DICTIONARY
  5
110
330
38
100
AcDbDictionary
280
     1
281
     1
  3
ACAD_XREC_ROUNDTRIP
360
111
  0
DICTIONARY
  5
F4
330
2A
100
AcDbDictionary
280
     1
281
     1
  3
ACAD_XREC_ROUNDTRIP
360
F5
  0
DICTIONARY
  5
F6
330
2B
100
AcDbDictionary
280
     1
281
     1
  3
ACAD_XREC_ROUNDTRIP
360
F7
  0
DICTIONARY
  5
F8
330
2C
100
AcDbDictionary
280
     1
281
     1
  3
ACAD_XREC_ROUNDTRIP
360
F9
  0
DICTIONARY
  5
FA
330
2D
100
AcDbDictionary
280
     1
281
     1
  3
ACAD_XREC_ROUNDTRIP
360
FB
  0
DICTIONARY
  5
102
330
31
100
AcDbDictionary
280
     1
281
     1
  3
ACAD_XREC_ROUNDTRIP
360
103
  0
DICTIONARY
  5
11E
330
3F
100
AcDbDictionary
280
     1
281
     1
  3
ACAD_XREC_ROUNDTRIP
360
11F
  0
DICTIONARY
  5
10E
330
37
100
AcDbDictionary
280
     1
281
     1
  3
ACAD_XREC_ROUNDTRIP
360
10F
  0
DICTIONARY
  5
120
330
40
100
AcDbDictionary
280
     1
281
     1
  3
ACAD_XREC_ROUNDTRIP
360
121
  0
DICTIONARY
  5
106
330
33
100
AcDbDictionary
280
     1
281
     1
  3
ACAD_XREC_ROUNDTRIP
360
107
  0
DICTIONARY
  5
11C
330
3E
100
AcDbDictionary
280
     1
281
     1
  3
ACAD_XREC_ROUNDTRIP
360
11D
  0
DICTIONARY
  5
11A
330
3D
100
AcDbDictionary
280
     1
281
     1
  3
ACAD_XREC_ROUNDTRIP
360
11B
  0
DICTIONARY
  5
114
330
3A
100
AcDbDictionary
280
     1
281
     1
  3
ACAD_XREC_ROUNDTRIP
360
115
  0
DICTIONARY
  5
116
330
3B
100
AcDbDictionary
280
     1
281
     1
  3
ACAD_XREC_ROUNDTRIP
360
117
  0
DICTIONARY
  5
10C
330
36
100
AcDbDictionary
280
     1
281
     1
  3
ACAD_XREC_ROUNDTRIP
360
10D
  0
DICTIONARY
  5
100
330
30
100
AcDbDictionary
280
     1
281
     1
  3
ACAD_XREC_ROUNDTRIP
360
101
  0
DICTIONARY
  5
118
330
3C
100
AcDbDictionary
280
     1
281
     1
  3
ACAD_XREC_ROUNDTRIP
360
119
  0
XRECORD
  5
129
102
{ACAD_REACTORS
330
128
102
}
330
128
100
AcDbXrecord
280
     1
102
DISPLAYNAME
  1
Imperial24
102
FLAGS
 90
        0
  0
XRECORD
  5
1C
102
{ACAD_REACTORS
330
1A
102
}
330
1A
100
AcDbXrecord
280
     1
270
     1
271
     1
  0
XRECORD
  5
1B
102
{ACAD_REACTORS
330
1A
102
}
330
1A
100
AcDbXrecord
280
     1
270
     1
271
     1
  0
XRECORD
  5
1F
102
{ACAD_REACTORS
330
1A
102
}
330
1A
100
AcDbXrecord
280
     1
270
     1
271
     1
  0
XRECORD
  5
1E
102
{ACAD_REACTORS
330
1A
102
}
330
1A
100
AcDbXrecord
280
     1
270
     1
271
     1
  0
XRECORD
  5
20
102
{ACAD_REACTORS
330
1A
102
}
330
1A
100
AcDbXrecord
280
     1
270
     1
271
     1
  0
XRECORD
  5
1D
102
{ACAD_REACTORS
330
1A
102
}
330
1A
100
AcDbXrecord
280
     1
270
     1
271
     1
  0
XRECORD
  5
14
102
{ACAD_REACTORS
330
12
102
}
330
12
100
AcDbXrecord
280
     1
270
     1
271
     1
  0
XRECORD
  5
13
102
{ACAD_REACTORS
330
12
102
}
330
12
100
AcDbXrecord
280
     1
270
     1
271
     1
  0
XRECORD
  5
17
102
{ACAD_REACTORS
330
12
102
}
330
12
100
AcDbXrecord
280
     1
270
     1
271
     1
  0
XRECORD
  5
16
102
{ACAD_REACTORS
330
12
102
}
330
12
100
AcDbXrecord
280
     1
270
     1
271
     1
  0
XRECORD
  5
18
102
{ACAD_REACTORS
330
12
102
}
330
12
100
AcDbXrecord
280
     1
270
     1
271
     1
  0
XRECORD
  5
15
102
{ACAD_REACTORS
330
12
102
}
330
12
100
AcDbXrecord
280
     1
270
     1
271
     1
  0
XRECORD
  5
24
102
{ACAD_REACTORS
330
22
102
}
330
22
100
AcDbXrecord
280
     1
270
     1
271
     1
  0
XRECORD
  5
23
102
{ACAD_REACTORS
330
22
102
}
330
22
100
AcDbXrecord
280
     1
270
     1
271
     1
  0
XRECORD
  5
27
102
{ACAD_REACTORS
330
22
102
}
330
22
100
AcDbXrecord
280
     1
270
     1
271
     1
  0
XRECORD
  5
26
102
{ACAD_REACTORS
330
22
102
}
330
22
100
AcDbXrecord
280
     1
270
     1
271
     1
  0
XRECORD
  5
28
102
{ACAD_REACTORS
330
22
102
}
330
22
100
AcDbXrecord
280
     1
270
     1
271
     1
  0
XRECORD
  5
25
102
{ACAD_REACTORS
330
22
102
}
330
22
100
AcDbXrecord
280
     1
270
     1
271
     1
  0
XRECORD
  5
125
102
{ACAD_REACTORS
330
124
102
}
330
124
100
AcDbXrecord
280
     1
102
ACAD_ROUNDTRIP_2012_MLEADER_STYLE
298
     1
  0
XRECORD
  5
127
102
{ACAD_REACTORS
330
126
102
}
330
126
100
AcDbXrecord
280
     1
102
DISPLAYNAME
  1
Imperial24
102
FLAGS
 90
        0
  0
CELLSTYLEMAP
  5
F2
102
{ACAD_REACTORS
330
F1
102
}
330
F1
100
AcDbCellStyleMap
 90
        3
300
CELLSTYLE
  1
TABLEFORMAT_BEGIN
 90
        5
170
     1
 91
        0
 92
    32768
 62
   257
 93
        1
300
CONTENTFORMAT
  1
CONTENTFORMAT_BEGIN
 90
        0
 91
        0
 92
      512
 93
        0
300

 40
0.0
140
1.0
 94
        5
 62
     0
340
55
144
0.25
309
CONTENTFORMAT_END
171
     0
 94
        0
309
TABLEFORMAT_END
  1
CELLSTYLE_BEGIN
 90
        1
 91
        1
300
_TITLE
309
CELLSTYLE_END
300
CELLSTYLE
  1
TABLEFORMAT_BEGIN
 90
        5
170
     1
 91
        0
 92
        0
 62
   257
 93
        1
300
CONTENTFORMAT
  1
CONTENTFORMAT_BEGIN
 90
        0
 91
        0
 92
      512
 93
        0
300

 40
0.0
140
1.0
 94
        5
 62
     0
340
55
144
0.18
309
CONTENTFORMAT_END
171
     0
 94
        0
309
TABLEFORMAT_END
  1
CELLSTYLE_BEGIN
 90
        2
 91
        1
300
_HEADER
309
CELLSTYLE_END
300
CELLSTYLE
  1
TABLEFORMAT_BEGIN
 90
        5
170
     1
 91
        0
 92
        0
 62
   257
 93
        1
300
CONTENTFORMAT
  1
CONTENTFORMAT_BEGIN
 90
        0
 91
        0
 92
      512
 93
        0
300

 40
0.0
140
1.0
 94
        2
 62
     0
340
55
144
0.18
309
CONTENTFORMAT_END
171
     0
 94
        0
309
TABLEFORMAT_END
  1
CELLSTYLE_BEGIN
 90
        3
 91
        2
300
_DATA
309
CELLSTYLE_END
  0
XRECORD
  5
FF
102
{ACAD_REACTORS
330
FE
102
}
330
FE
100
AcDbXrecord
280
     1
102
RTVSPost2010Prop28
280
     1
102
RTVSPost2010PropOp28
 70
     1
102
RTVSPost2010Prop29
280
     1
102
RTVSPost2010PropOp29
 70
     1
102
RTVSPost2010Prop30
280
     0
102
RTVSPost2010PropOp30
 70
     1
102
RTVSPost2010Prop31
280
     0
102
RTVSPost2010PropOp31
 70
     1
102
RTVSPost2010Prop32
280
     0
102
RTVSPost2010PropOp32
 70
     1
102
RTVSPost2010Prop33
280
     0
102
RTVSPost2010PropOp33
 70
     1
102
RTVSPost2010Prop34
280
     0
102
RTVSPost2010PropOp34
 70
     1
102
RTVSPost2010Prop35
280
     0
102
RTVSPost2010PropOp35
 70
     1
102
RTVSPost2010Prop36
280
     0
102
RTVSPost2010PropOp36
 70
     1
102
RTVSPost2010Prop37
 90
       50
102
RTVSPost2010PropOp37
 70
     1
102
RTVSPost2010Prop38
140
0.0
102
RTVSPost2010PropOp38
 70
     1
102
RTVSPost2010Prop39
140
1.0
102
RTVSPost2010PropOp39
 70
     1
102
RTVSPost2010Prop40
 90
        0
102
RTVSPost2010PropOp40
 70
     1
102
RTVSPost2010Prop41ColorIndex
 90
       18
102
RTVSPost2010Prop41ColorRGB
 90
        0
102
RTVSPost2010PropOp41
 70
     1
102
RTVSPost2010Prop42
 90
       50
102
RTVSPost2010PropOp42
 70
     1
102
RTVSPost2010Prop43
 90
        3
102
RTVSPost2010PropOp43
 70
     1
102
RTVSPost2010Prop44ColorIndex
 90
        5
102
RTVSPost2010Prop44ColorRGB
 90
      255
102
RTVSPost2010PropOp44
 70
     1
102
RTVSPost2010Prop45
280
     0
102
RTVSPost2010PropOp45
 70
     1
102
RTVSPost2010Prop46
 90
       50
102
RTVSPost2010PropOp46
 70
     1
102
RTVSPost2010Prop47
 90
       50
102
RTVSPost2010PropOp47
 70
     1
102
RTVSPost2010Prop48
 90
       50
102
RTVSPost2010PropOp48
 70
     1
102
RTVSPost2010Prop49
280
     0
102
RTVSPost2010PropOp49
 70
     1
102
RTVSPost2010Prop50
 90
       50
102
RTVSPost2010PropOp50
 70
     1
102
RTVSPost2010Prop51ColorIndex
 90
      256
102
RTVSPost2010Prop51ColorRGB
 90
-16777216
102
RTVSPost2010PropOp51
 70
     0
102
RTVSPost2010Prop52
140
1.0
102
RTVSPost2010PropOp52
 70
     0
102
RTVSPost2010Prop53
 90
        2
102
RTVSPost2010PropOp53
 70
     1
102
RTVSPost2010Prop54
  1
strokes_ogs.tif
102
RTVSPost2010PropOp54
 70
     1
102
RTVSPost2010Prop55
280
     0
102
RTVSPost2010PropOp55
 70
     1
102
RTVSPost2010Prop56
140
1.0
102
RTVSPost2010PropOp56
 70
     1
102
RTVSPost2010Prop57
140
1.0
102
RTVSPost2010PropOp57
 70
     1
  0
XRECORD
  5
FD
102
{ACAD_REACTORS
330
FC
102
}
330
FC
100
AcDbXrecord
280
     1
102
RTVSPost2010Prop28
280
     0
102
RTVSPost2010PropOp28
 70
     1
102
RTVSPost2010Prop29
280
     1
102
RTVSPost2010PropOp29
 70
     1
102
RTVSPost2010Prop30
280
     1
102
RTVSPost2010PropOp30
 70
     1
102
RTVSPost2010Prop31
280
     0
102
RTVSPost2010PropOp31
 70
     1
102
RTVSPost2010Prop32
280
     0
102
RTVSPost2010PropOp32
 70
     1
102
RTVSPost2010Prop33
280
     0
102
RTVSPost2010PropOp33
 70
     1
102
RTVSPost2010Prop34
280
     0
102
RTVSPost2010PropOp34
 70
     1
102
RTVSPost2010Prop35
280
     0
102
RTVSPost2010PropOp35
 70
     1
102
RTVSPost2010Prop36
280
     0
102
RTVSPost2010PropOp36
 70
     1
102
RTVSPost2010Prop37
 90
       50
102
RTVSPost2010PropOp37
 70
     1
102
RTVSPost2010Prop38
140
0.0
102
RTVSPost2010PropOp38
 70
     1
102
RTVSPost2010Prop39
140
1.0
102
RTVSPost2010PropOp39
 70
     1
102
RTVSPost2010Prop40
 90
        0
102
RTVSPost2010PropOp40
 70
     1
102
RTVSPost2010Prop41ColorIndex
 90
       18
102
RTVSPost2010Prop41ColorRGB
 90
        0
102
RTVSPost2010PropOp41
 70
     1
102
RTVSPost2010Prop42
 90
       50
102
RTVSPost2010PropOp42
 70
     1
102
RTVSPost2010Prop43
 90
        3
102
RTVSPost2010PropOp43
 70
     1
102
RTVSPost2010Prop44ColorIndex
 90
        5
102
RTVSPost2010Prop44ColorRGB
 90
      255
102
RTVSPost2010PropOp44
 70
     1
102
RTVSPost2010Prop45
280
     0
102
RTVSPost2010PropOp45
 70
     1
102
RTVSPost2010Prop46
 90
       50
102
RTVSPost2010PropOp46
 70
     1
102
RTVSPost2010Prop47
 90
       50
102
RTVSPost2010PropOp47
 70
     1
102
RTVSPost2010Prop48
 90
       50
102
RTVSPost2010PropOp48
 70
     1
102
RTVSPost2010Prop49
280
     0
102
RTVSPost2010PropOp49
 70
     1
102
RTVSPost2010Prop50
 90
       50
102
RTVSPost2010PropOp50
 70
     1
102
RTVSPost2010Prop51ColorIndex
 90
      256
102
RTVSPost2010Prop51ColorRGB
 90
-16777216
102
RTVSPost2010PropOp51
 70
     0
102
RTVSPost2010Prop52
140
1.0
102
RTVSPost2010PropOp52
 70
     0
102
RTVSPost2010Prop53
 90
        2
102
RTVSPost2010PropOp53
 70
     1
102
RTVSPost2010Prop54
  1
strokes_ogs.tif
102
RTVSPost2010PropOp54
 70
     1
102
RTVSPost2010Prop55
280
     0
102
RTVSPost2010PropOp55
 70
     1
102
RTVSPost2010Prop56
140
1.0
102
RTVSPost2010PropOp56
 70
     1
102
RTVSPost2010Prop57
140
1.0
102
RTVSPost2010PropOp57
 70
     1
  0
XRECORD
  5
10B
102
{ACAD_REACTORS
330
10A
102
}
330
10A
100
AcDbXrecord
280
     1
102
RTVSPost2010Prop28
280
     0
102
RTVSPost2010PropOp28
 70
     1
102
RTVSPost2010Prop29
280
     1
102
RTVSPost2010PropOp29
 70
     1
102
RTVSPost2010Prop30
280
     1
102
RTVSPost2010PropOp30
 70
     1
102
RTVSPost2010Prop31
280
     0
102
RTVSPost2010PropOp31
 70
     1
102
RTVSPost2010Prop32
280
     0
102
RTVSPost2010PropOp32
 70
     1
102
RTVSPost2010Prop33
280
     0
102
RTVSPost2010PropOp33
 70
     1
102
RTVSPost2010Prop34
280
     0
102
RTVSPost2010PropOp34
 70
     1
102
RTVSPost2010Prop35
280
     0
102
RTVSPost2010PropOp35
 70
     1
102
RTVSPost2010Prop36
280
     0
102
RTVSPost2010PropOp36
 70
     1
102
RTVSPost2010Prop37
 90
       50
102
RTVSPost2010PropOp37
 70
     1
102
RTVSPost2010Prop38
140
0.0
102
RTVSPost2010PropOp38
 70
     1
102
RTVSPost2010Prop39
140
1.0
102
RTVSPost2010PropOp39
 70
     1
102
RTVSPost2010Prop40
 90
        0
102
RTVSPost2010PropOp40
 70
     1
102
RTVSPost2010Prop41ColorIndex
 90
       18
102
RTVSPost2010Prop41ColorRGB
 90
        0
102
RTVSPost2010PropOp41
 70
     1
102
RTVSPost2010Prop42
 90
       50
102
RTVSPost2010PropOp42
 70
     1
102
RTVSPost2010Prop43
 90
        3
102
RTVSPost2010PropOp43
 70
     1
102
RTVSPost2010Prop44ColorIndex
 90
        5
102
RTVSPost2010Prop44ColorRGB
 90
      255
102
RTVSPost2010PropOp44
 70
     1
102
RTVSPost2010Prop45
280
     0
102
RTVSPost2010PropOp45
 70
     1
102
RTVSPost2010Prop46
 90
       50
102
RTVSPost2010PropOp46
 70
     1
102
RTVSPost2010Prop47
 90
       50
102
RTVSPost2010PropOp47
 70
     1
102
RTVSPost2010Prop48
 90
       50
102
RTVSPost2010PropOp48
 70
     1
102
RTVSPost2010Prop49
280
     0
102
RTVSPost2010PropOp49
 70
     1
102
RTVSPost2010Prop50
 90
       50
102
RTVSPost2010PropOp50
 70
     1
102
RTVSPost2010Prop51ColorIndex
 90
      256
102
RTVSPost2010Prop51ColorRGB
 90
-16777216
102
RTVSPost2010PropOp51
 70
     0
102
RTVSPost2010Prop52
140
1.0
102
RTVSPost2010PropOp52
 70
     0
102
RTVSPost2010Prop53
 90
        2
102
RTVSPost2010PropOp53
 70
     1
102
RTVSPost2010Prop54
  1
strokes_ogs.tif
102
RTVSPost2010PropOp54
 70
     1
102
RTVSPost2010Prop55
280
     0
102
RTVSPost2010PropOp55
 70
     1
102
RTVSPost2010Prop56
140
1.0
102
RTVSPost2010PropOp56
 70
     1
102
RTVSPost2010Prop57
140
1.0
102
RTVSPost2010PropOp57
 70
     1
  0
XRECORD
  5
113
102
{ACAD_REACTORS
330
112
102
}
330
112
100
AcDbXrecord
280
     1
102
RTVSPost2010Prop28
280
     0
102
RTVSPost2010PropOp28
 70
     1
102
RTVSPost2010Prop29
280
     1
102
RTVSPost2010PropOp29
 70
     1
102
RTVSPost2010Prop30
280
     1
102
RTVSPost2010PropOp30
 70
     1
102
RTVSPost2010Prop31
280
     0
102
RTVSPost2010PropOp31
 70
     1
102
RTVSPost2010Prop32
280
     0
102
RTVSPost2010PropOp32
 70
     1
102
RTVSPost2010Prop33
280
     0
102
RTVSPost2010PropOp33
 70
     1
102
RTVSPost2010Prop34
280
     0
102
RTVSPost2010PropOp34
 70
     1
102
RTVSPost2010Prop35
280
     0
102
RTVSPost2010PropOp35
 70
     1
102
RTVSPost2010Prop36
280
     0
102
RTVSPost2010PropOp36
 70
     1
102
RTVSPost2010Prop37
 90
       50
102
RTVSPost2010PropOp37
 70
     1
102
RTVSPost2010Prop38
140
0.0
102
RTVSPost2010PropOp38
 70
     1
102
RTVSPost2010Prop39
140
1.0
102
RTVSPost2010PropOp39
 70
     1
102
RTVSPost2010Prop40
 90
        0
102
RTVSPost2010PropOp40
 70
     1
102
RTVSPost2010Prop41ColorIndex
 90
       18
102
RTVSPost2010Prop41ColorRGB
 90
        0
102
RTVSPost2010PropOp41
 70
     1
102
RTVSPost2010Prop42
 90
       50
102
RTVSPost2010PropOp42
 70
     1
102
RTVSPost2010Prop43
 90
        3
102
RTVSPost2010PropOp43
 70
     1
102
RTVSPost2010Prop44ColorIndex
 90
        5
102
RTVSPost2010Prop44ColorRGB
 90
      255
102
RTVSPost2010PropOp44
 70
     1
102
RTVSPost2010Prop45
280
     0
102
RTVSPost2010PropOp45
 70
     1
102
RTVSPost2010Prop46
 90
       50
102
RTVSPost2010PropOp46
 70
     1
102
RTVSPost2010Prop47
 90
       50
102
RTVSPost2010PropOp47
 70
     1
102
RTVSPost2010Prop48
 90
       50
102
RTVSPost2010PropOp48
 70
     1
102
RTVSPost2010Prop49
280
     0
102
RTVSPost2010PropOp49
 70
     1
102
RTVSPost2010Prop50
 90
       50
102
RTVSPost2010PropOp50
 70
     1
102
RTVSPost2010Prop51ColorIndex
 90
      256
102
RTVSPost2010Prop51ColorRGB
 90
-16777216
102
RTVSPost2010PropOp51
 70
     0
102
RTVSPost2010Prop52
140
1.0
102
RTVSPost2010PropOp52
 70
     0
102
RTVSPost2010Prop53
 90
        2
102
RTVSPost2010PropOp53
 70
     1
102
RTVSPost2010Prop54
  1
strokes_ogs.tif
102
RTVSPost2010PropOp54
 70
     1
102
RTVSPost2010Prop55
280
     0
102
RTVSPost2010PropOp55
 70
     1
102
RTVSPost2010Prop56
140
1.0
102
RTVSPost2010PropOp56
 70
     1
102
RTVSPost2010Prop57
140
1.0
102
RTVSPost2010PropOp57
 70
     1
  0
XRECORD
  5
105
102
{ACAD_REACTORS
330
104
102
}
330
104
100
AcDbXrecord
280
     1
102
RTVSPost2010Prop28
280
     0
102
RTVSPost2010PropOp28
 70
     1
102
RTVSPost2010Prop29
280
     1
102
RTVSPost2010PropOp29
 70
     1
102
RTVSPost2010Prop30
280
     1
102
RTVSPost2010PropOp30
 70
     1
102
RTVSPost2010Prop31
280
     0
102
RTVSPost2010PropOp31
 70
     1
102
RTVSPost2010Prop32
280
     0
102
RTVSPost2010PropOp32
 70
     1
102
RTVSPost2010Prop33
280
     0
102
RTVSPost2010PropOp33
 70
     1
102
RTVSPost2010Prop34
280
     0
102
RTVSPost2010PropOp34
 70
     1
102
RTVSPost2010Prop35
280
     0
102
RTVSPost2010PropOp35
 70
     1
102
RTVSPost2010Prop36
280
     0
102
RTVSPost2010PropOp36
 70
     1
102
RTVSPost2010Prop37
 90
       50
102
RTVSPost2010PropOp37
 70
     1
102
RTVSPost2010Prop38
140
0.0
102
RTVSPost2010PropOp38
 70
     1
102
RTVSPost2010Prop39
140
1.0
102
RTVSPost2010PropOp39
 70
     1
102
RTVSPost2010Prop40
 90
        0
102
RTVSPost2010PropOp40
 70
     1
102
RTVSPost2010Prop41ColorIndex
 90
       18
102
RTVSPost2010Prop41ColorRGB
 90
        0
102
RTVSPost2010PropOp41
 70
     1
102
RTVSPost2010Prop42
 90
       50
102
RTVSPost2010PropOp42
 70
     1
102
RTVSPost2010Prop43
 90
        3
102
RTVSPost2010PropOp43
 70
     1
102
RTVSPost2010Prop44ColorIndex
 90
        5
102
RTVSPost2010Prop44ColorRGB
 90
      255
102
RTVSPost2010PropOp44
 70
     1
102
RTVSPost2010Prop45
280
     0
102
RTVSPost2010PropOp45
 70
     1
102
RTVSPost2010Prop46
 90
       50
102
RTVSPost2010PropOp46
 70
     1
102
RTVSPost2010Prop47
 90
       50
102
RTVSPost2010PropOp47
 70
     1
102
RTVSPost2010Prop48
 90
       50
102
RTVSPost2010PropOp48
 70
     1
102
RTVSPost2010Prop49
280
     0
102
RTVSPost2010PropOp49
 70
     1
102
RTVSPost2010Prop50
 90
       50
102
RTVSPost2010PropOp50
 70
     1
102
RTVSPost2010Prop51ColorIndex
 90
      256
102
RTVSPost2010Prop51ColorRGB
 90
-16777216
102
RTVSPost2010PropOp51
 70
     0
102
RTVSPost2010Prop52
140
1.0
102
RTVSPost2010PropOp52
 70
     0
102
RTVSPost2010Prop53
 90
        2
102
RTVSPost2010PropOp53
 70
     1
102
RTVSPost2010Prop54
  1
strokes_ogs.tif
102
RTVSPost2010PropOp54
 70
     1
102
RTVSPost2010Prop55
280
     0
102
RTVSPost2010PropOp55
 70
     1
102
RTVSPost2010Prop56
140
1.0
102
RTVSPost2010PropOp56
 70
     1
102
RTVSPost2010Prop57
140
1.0
102
RTVSPost2010PropOp57
 70
     1
  0
XRECORD
  5
109
102
{ACAD_REACTORS
330
108
102
}
330
108
100
AcDbXrecord
280
     1
102
RTVSPost2010Prop28
280
     0
102
RTVSPost2010PropOp28
 70
     1
102
RTVSPost2010Prop29
280
     1
102
RTVSPost2010PropOp29
 70
     1
102
RTVSPost2010Prop30
280
     1
102
RTVSPost2010PropOp30
 70
     1
102
RTVSPost2010Prop31
280
     0
102
RTVSPost2010PropOp31
 70
     1
102
RTVSPost2010Prop32
280
     0
102
RTVSPost2010PropOp32
 70
     1
102
RTVSPost2010Prop33
280
     0
102
RTVSPost2010PropOp33
 70
     1
102
RTVSPost2010Prop34
280
     0
102
RTVSPost2010PropOp34
 70
     1
102
RTVSPost2010Prop35
280
     0
102
RTVSPost2010PropOp35
 70
     1
102
RTVSPost2010Prop36
280
     0
102
RTVSPost2010PropOp36
 70
     1
102
RTVSPost2010Prop37
 90
       50
102
RTVSPost2010PropOp37
 70
     1
102
RTVSPost2010Prop38
140
0.0
102
RTVSPost2010PropOp38
 70
     1
102
RTVSPost2010Prop39
140
1.0
102
RTVSPost2010PropOp39
 70
     1
102
RTVSPost2010Prop40
 90
        0
102
RTVSPost2010PropOp40
 70
     1
102
RTVSPost2010Prop41ColorIndex
 90
       18
102
RTVSPost2010Prop41ColorRGB
 90
        0
102
RTVSPost2010PropOp41
 70
     1
102
RTVSPost2010Prop42
 90
       50
102
RTVSPost2010PropOp42
 70
     1
102
RTVSPost2010Prop43
 90
        3
102
RTVSPost2010PropOp43
 70
     1
102
RTVSPost2010Prop44ColorIndex
 90
        5
102
RTVSPost2010Prop44ColorRGB
 90
      255
102
RTVSPost2010PropOp44
 70
     1
102
RTVSPost2010Prop45
280
     0
102
RTVSPost2010PropOp45
 70
     1
102
RTVSPost2010Prop46
 90
       50
102
RTVSPost2010PropOp46
 70
     1
102
RTVSPost2010Prop47
 90
       50
102
RTVSPost2010PropOp47
 70
     1
102
RTVSPost2010Prop48
 90
       50
102
RTVSPost2010PropOp48
 70
     1
102
RTVSPost2010Prop49
280
     0
102
RTVSPost2010PropOp49
 70
     1
102
RTVSPost2010Prop50
 90
       50
102
RTVSPost2010PropOp50
 70
     1
102
RTVSPost2010Prop51ColorIndex
 90
      256
102
RTVSPost2010Prop51ColorRGB
 90
-16777216
102
RTVSPost2010PropOp51
 70
     0
102
RTVSPost2010Prop52
140
1.0
102
RTVSPost2010PropOp52
 70
     0
102
RTVSPost2010Prop53
 90
        2
102
RTVSPost2010PropOp53
 70
     1
102
RTVSPost2010Prop54
  1
strokes_ogs.tif
102
RTVSPost2010PropOp54
 70
     1
102
RTVSPost2010Prop55
280
     0
102
RTVSPost2010PropOp55
 70
     1
102
RTVSPost2010Prop56
140
1.0
102
RTVSPost2010PropOp56
 70
     1
102
RTVSPost2010Prop57
140
1.0
102
RTVSPost2010PropOp57
 70
     1
  0
XRECORD
  5
123
102
{ACAD_REACTORS
330
122
102
}
330
122
100
AcDbXrecord
280
     1
102
RTVSPost2010Prop28
280
     0
102
RTVSPost2010PropOp28
 70
     0
102
RTVSPost2010Prop29
280
     1
102
RTVSPost2010PropOp29
 70
     0
102
RTVSPost2010Prop30
280
     1
102
RTVSPost2010PropOp30
 70
     0
102
RTVSPost2010Prop31
280
     0
102
RTVSPost2010PropOp31
 70
     0
102
RTVSPost2010Prop32
280
     0
102
RTVSPost2010PropOp32
 70
     0
102
RTVSPost2010Prop33
280
     0
102
RTVSPost2010PropOp33
 70
     0
102
RTVSPost2010Prop34
280
     0
102
RTVSPost2010PropOp34
 70
     0
102
RTVSPost2010Prop35
280
     0
102
RTVSPost2010PropOp35
 70
     0
102
RTVSPost2010Prop36
280
     0
102
RTVSPost2010PropOp36
 70
     0
102
RTVSPost2010Prop37
 90
       50
102
RTVSPost2010PropOp37
 70
     0
102
RTVSPost2010Prop38
140
0.0
102
RTVSPost2010PropOp38
 70
     0
102
RTVSPost2010Prop39
140
1.0
102
RTVSPost2010PropOp39
 70
     0
102
RTVSPost2010Prop40
 90
        0
102
RTVSPost2010PropOp40
 70
     0
102
RTVSPost2010Prop41ColorIndex
 90
       18
102
RTVSPost2010Prop41ColorRGB
 90
        0
102
RTVSPost2010PropOp41
 70
     0
102
RTVSPost2010Prop42
 90
       50
102
RTVSPost2010PropOp42
 70
     0
102
RTVSPost2010Prop43
 90
        3
102
RTVSPost2010PropOp43
 70
     0
102
RTVSPost2010Prop44ColorIndex
 90
        5
102
RTVSPost2010Prop44ColorRGB
 90
      255
102
RTVSPost2010PropOp44
 70
     0
102
RTVSPost2010Prop45
280
     0
102
RTVSPost2010PropOp45
 70
     0
102
RTVSPost2010Prop46
 90
       50
102
RTVSPost2010PropOp46
 70
     0
102
RTVSPost2010Prop47
 90
       50
102
RTVSPost2010PropOp47
 70
     0
102
RTVSPost2010Prop48
 90
       50
102
RTVSPost2010PropOp48
 70
     0
102
RTVSPost2010Prop49
280
     0
102
RTVSPost2010PropOp49
 70
     0
102
RTVSPost2010Prop50
 90
       50
102
RTVSPost2010PropOp50
 70
     0
102
RTVSPost2010Prop51ColorIndex
 90
      256
102
RTVSPost2010Prop51ColorRGB
 90
-16777216
102
RTVSPost2010PropOp51
 70
     0
102
RTVSPost2010Prop52
140
1.0
102
RTVSPost2010PropOp52
 70
     0
102
RTVSPost2010Prop53
 90
        2
102
RTVSPost2010PropOp53
 70
     0
102
RTVSPost2010Prop54
  1
strokes_ogs.tif
102
RTVSPost2010PropOp54
 70
     0
102
RTVSPost2010Prop55
280
     0
102
RTVSPost2010PropOp55
 70
     0
102
RTVSPost2010Prop56
140
1.0
102
RTVSPost2010PropOp56
 70
     0
102
RTVSPost2010Prop57
140
1.0
102
RTVSPost2010PropOp57
 70
     0
  0
XRECORD
  5
111
102
{ACAD_REACTORS
330
110
102
}
330
110
100
AcDbXrecord
280
     1
102
RTVSPost2010Prop28
280
     0
102
RTVSPost2010PropOp28
 70
     1
102
RTVSPost2010Prop29
280
     1
102
RTVSPost2010PropOp29
 70
     1
102
RTVSPost2010Prop30
280
     1
102
RTVSPost2010PropOp30
 70
     1
102
RTVSPost2010Prop31
280
     0
102
RTVSPost2010PropOp31
 70
     1
102
RTVSPost2010Prop32
280
     0
102
RTVSPost2010PropOp32
 70
     1
102
RTVSPost2010Prop33
280
     0
102
RTVSPost2010PropOp33
 70
     1
102
RTVSPost2010Prop34
280
     0
102
RTVSPost2010PropOp34
 70
     1
102
RTVSPost2010Prop35
280
     0
102
RTVSPost2010PropOp35
 70
     1
102
RTVSPost2010Prop36
280
     0
102
RTVSPost2010PropOp36
 70
     1
102
RTVSPost2010Prop37
 90
       50
102
RTVSPost2010PropOp37
 70
     1
102
RTVSPost2010Prop38
140
0.0
102
RTVSPost2010PropOp38
 70
     1
102
RTVSPost2010Prop39
140
1.0
102
RTVSPost2010PropOp39
 70
     1
102
RTVSPost2010Prop40
 90
        0
102
RTVSPost2010PropOp40
 70
     1
102
RTVSPost2010Prop41ColorIndex
 90
       18
102
RTVSPost2010Prop41ColorRGB
 90
        0
102
RTVSPost2010PropOp41
 70
     1
102
RTVSPost2010Prop42
 90
       50
102
RTVSPost2010PropOp42
 70
     1
102
RTVSPost2010Prop43
 90
        3
102
RTVSPost2010PropOp43
 70
     1
102
RTVSPost2010Prop44ColorIndex
 90
        5
102
RTVSPost2010Prop44ColorRGB
 90
      255
102
RTVSPost2010PropOp44
 70
     1
102
RTVSPost2010Prop45
280
     0
102
RTVSPost2010PropOp45
 70
     1
102
RTVSPost2010Prop46
 90
       50
102
RTVSPost2010PropOp46
 70
     1
102
RTVSPost2010Prop47
 90
       50
102
RTVSPost2010PropOp47
 70
     1
102
RTVSPost2010Prop48
 90
       50
102
RTVSPost2010PropOp48
 70
     1
102
RTVSPost2010Prop49
280
     0
102
RTVSPost2010PropOp49
 70
     1
102
RTVSPost2010Prop50
 90
       50
102
RTVSPost2010PropOp50
 70
     1
102
RTVSPost2010Prop51ColorIndex
 90
      256
102
RTVSPost2010Prop51ColorRGB
 90
-16777216
102
RTVSPost2010PropOp51
 70
     0
102
RTVSPost2010Prop52
140
1.0
102
RTVSPost2010PropOp52
 70
     0
102
RTVSPost2010Prop53
 90
        2
102
RTVSPost2010PropOp53
 70
     1
102
RTVSPost2010Prop54
  1
strokes_ogs.tif
102
RTVSPost2010PropOp54
 70
     1
102
RTVSPost2010Prop55
280
     0
102
RTVSPost2010PropOp55
 70
     1
102
RTVSPost2010Prop56
140
1.0
102
RTVSPost2010PropOp56
 70
     1
102
RTVSPost2010Prop57
140
1.0
102
RTVSPost2010PropOp57
 70
     1
  0
XRECORD
  5
F5
102
{ACAD_REACTORS
330
F4
102
}
330
F4
100
AcDbXrecord
280
     1
102
RTVSPost2010Prop28
280
     0
102
RTVSPost2010PropOp28
 70
     1
102
RTVSPost2010Prop29
280
     1
102
RTVSPost2010PropOp29
 70
     1
102
RTVSPost2010Prop30
280
     1
102
RTVSPost2010PropOp30
 70
     1
102
RTVSPost2010Prop31
280
     0
102
RTVSPost2010PropOp31
 70
     1
102
RTVSPost2010Prop32
280
     0
102
RTVSPost2010PropOp32
 70
     1
102
RTVSPost2010Prop33
280
     0
102
RTVSPost2010PropOp33
 70
     1
102
RTVSPost2010Prop34
280
     0
102
RTVSPost2010PropOp34
 70
     1
102
RTVSPost2010Prop35
280
     0
102
RTVSPost2010PropOp35
 70
     1
102
RTVSPost2010Prop36
280
     0
102
RTVSPost2010PropOp36
 70
     1
102
RTVSPost2010Prop37
 90
       50
102
RTVSPost2010PropOp37
 70
     1
102
RTVSPost2010Prop38
140
0.0
102
RTVSPost2010PropOp38
 70
     1
102
RTVSPost2010Prop39
140
1.0
102
RTVSPost2010PropOp39
 70
     1
102
RTVSPost2010Prop40
 90
        0
102
RTVSPost2010PropOp40
 70
     1
102
RTVSPost2010Prop41ColorIndex
 90
       18
102
RTVSPost2010Prop41ColorRGB
 90
        0
102
RTVSPost2010PropOp41
 70
     1
102
RTVSPost2010Prop42
 90
       50
102
RTVSPost2010PropOp42
 70
     1
102
RTVSPost2010Prop43
 90
        3
102
RTVSPost2010PropOp43
 70
     1
102
RTVSPost2010Prop44ColorIndex
 90
        5
102
RTVSPost2010Prop44ColorRGB
 90
      255
102
RTVSPost2010PropOp44
 70
     1
102
RTVSPost2010Prop45
280
     0
102
RTVSPost2010PropOp45
 70
     1
102
RTVSPost2010Prop46
 90
       50
102
RTVSPost2010PropOp46
 70
     1
102
RTVSPost2010Prop47
 90
       50
102
RTVSPost2010PropOp47
 70
     1
102
RTVSPost2010Prop48
 90
       50
102
RTVSPost2010PropOp48
 70
     1
102
RTVSPost2010Prop49
280
     0
102
RTVSPost2010PropOp49
 70
     1
102
RTVSPost2010Prop50
 90
       50
102
RTVSPost2010PropOp50
 70
     1
102
RTVSPost2010Prop51ColorIndex
 90
      256
102
RTVSPost2010Prop51ColorRGB
 90
-16777216
102
RTVSPost2010PropOp51
 70
     0
102
RTVSPost2010Prop52
140
1.0
102
RTVSPost2010PropOp52
 70
     0
102
RTVSPost2010Prop53
 90
        2
102
RTVSPost2010PropOp53
 70
     1
102
RTVSPost2010Prop54
  1
strokes_ogs.tif
102
RTVSPost2010PropOp54
 70
     1
102
RTVSPost2010Prop55
280
     0
102
RTVSPost2010PropOp55
 70
     1
102
RTVSPost2010Prop56
140
1.0
102
RTVSPost2010PropOp56
 70
     1
102
RTVSPost2010Prop57
140
1.0
102
RTVSPost2010PropOp57
 70
     1
  0
XRECORD
  5
F7
102
{ACAD_REACTORS
330
F6
102
}
330
F6
100
AcDbXrecord
280
     1
102
RTVSPost2010Prop28
280
     0
102
RTVSPost2010PropOp28
 70
     1
102
RTVSPost2010Prop29
280
     1
102
RTVSPost2010PropOp29
 70
     1
102
RTVSPost2010Prop30
280
     1
102
RTVSPost2010PropOp30
 70
     1
102
RTVSPost2010Prop31
280
     0
102
RTVSPost2010PropOp31
 70
     1
102
RTVSPost2010Prop32
280
     0
102
RTVSPost2010PropOp32
 70
     1
102
RTVSPost2010Prop33
280
     0
102
RTVSPost2010PropOp33
 70
     1
102
RTVSPost2010Prop34
280
     0
102
RTVSPost2010PropOp34
 70
     1
102
RTVSPost2010Prop35
280
     0
102
RTVSPost2010PropOp35
 70
     1
102
RTVSPost2010Prop36
280
     0
102
RTVSPost2010PropOp36
 70
     1
102
RTVSPost2010Prop37
 90
       50
102
RTVSPost2010PropOp37
 70
     1
102
RTVSPost2010Prop38
140
0.0
102
RTVSPost2010PropOp38
 70
     1
102
RTVSPost2010Prop39
140
1.0
102
RTVSPost2010PropOp39
 70
     1
102
RTVSPost2010Prop40
 90
        0
102
RTVSPost2010PropOp40
 70
     1
102
RTVSPost2010Prop41ColorIndex
 90
       18
102
RTVSPost2010Prop41ColorRGB
 90
        0
102
RTVSPost2010PropOp41
 70
     1
102
RTVSPost2010Prop42
 90
       50
102
RTVSPost2010PropOp42
 70
     1
102
RTVSPost2010Prop43
 90
        3
102
RTVSPost2010PropOp43
 70
     1
102
RTVSPost2010Prop44ColorIndex
 90
        5
102
RTVSPost2010Prop44ColorRGB
 90
      255
102
RTVSPost2010PropOp44
 70
     1
102
RTVSPost2010Prop45
280
     0
102
RTVSPost2010PropOp45
 70
     1
102
RTVSPost2010Prop46
 90
       50
102
RTVSPost2010PropOp46
 70
     1
102
RTVSPost2010Prop47
 90
       50
102
RTVSPost2010PropOp47
 70
     1
102
RTVSPost2010Prop48
 90
       50
102
RTVSPost2010PropOp48
 70
     1
102
RTVSPost2010Prop49
280
     0
102
RTVSPost2010PropOp49
 70
     1
102
RTVSPost2010Prop50
 90
       50
102
RTVSPost2010PropOp50
 70
     1
102
RTVSPost2010Prop51ColorIndex
 90
      256
102
RTVSPost2010Prop51ColorRGB
 90
-16777216
102
RTVSPost2010PropOp51
 70
     0
102
RTVSPost2010Prop52
140
1.0
102
RTVSPost2010PropOp52
 70
     0
102
RTVSPost2010Prop53
 90
        2
102
RTVSPost2010PropOp53
 70
     1
102
RTVSPost2010Prop54
  1
strokes_ogs.tif
102
RTVSPost2010PropOp54
 70
     1
102
RTVSPost2010Prop55
280
     0
102
RTVSPost2010PropOp55
 70
     1
102
RTVSPost2010Prop56
140
1.0
102
RTVSPost2010PropOp56
 70
     1
102
RTVSPost2010Prop57
140
1.0
102
RTVSPost2010PropOp57
 70
     1
  0
XRECORD
  5
F9
102
{ACAD_REACTORS
330
F8
102
}
330
F8
100
AcDbXrecord
280
     1
102
RTVSPost2010Prop28
280
     0
102
RTVSPost2010PropOp28
 70
     1
102
RTVSPost2010Prop29
280
     1
102
RTVSPost2010PropOp29
 70
     1
102
RTVSPost2010Prop30
280
     1
102
RTVSPost2010PropOp30
 70
     1
102
RTVSPost2010Prop31
280
     0
102
RTVSPost2010PropOp31
 70
     1
102
RTVSPost2010Prop32
280
     0
102
RTVSPost2010PropOp32
 70
     1
102
RTVSPost2010Prop33
280
     0
102
RTVSPost2010PropOp33
 70
     1
102
RTVSPost2010Prop34
280
     0
102
RTVSPost2010PropOp34
 70
     1
102
RTVSPost2010Prop35
280
     0
102
RTVSPost2010PropOp35
 70
     1
102
RTVSPost2010Prop36
280
     0
102
RTVSPost2010PropOp36
 70
     1
102
RTVSPost2010Prop37
 90
       50
102
RTVSPost2010PropOp37
 70
     1
102
RTVSPost2010Prop38
140
0.0
102
RTVSPost2010PropOp38
 70
     1
102
RTVSPost2010Prop39
140
1.0
102
RTVSPost2010PropOp39
 70
     1
102
RTVSPost2010Prop40
 90
        0
102
RTVSPost2010PropOp40
 70
     1
102
RTVSPost2010Prop41ColorIndex
 90
       18
102
RTVSPost2010Prop41ColorRGB
 90
        0
102
RTVSPost2010PropOp41
 70
     1
102
RTVSPost2010Prop42
 90
       50
102
RTVSPost2010PropOp42
 70
     1
102
RTVSPost2010Prop43
 90
        3
102
RTVSPost2010PropOp43
 70
     1
102
RTVSPost2010Prop44ColorIndex
 90
        5
102
RTVSPost2010Prop44ColorRGB
 90
      255
102
RTVSPost2010PropOp44
 70
     1
102
RTVSPost2010Prop45
280
     0
102
RTVSPost2010PropOp45
 70
     1
102
RTVSPost2010Prop46
 90
       50
102
RTVSPost2010PropOp46
 70
     1
102
RTVSPost2010Prop47
 90
       50
102
RTVSPost2010PropOp47
 70
     1
102
RTVSPost2010Prop48
 90
       50
102
RTVSPost2010PropOp48
 70
     1
102
RTVSPost2010Prop49
280
     0
102
RTVSPost2010PropOp49
 70
     1
102
RTVSPost2010Prop50
 90
       50
102
RTVSPost2010PropOp50
 70
     1
102
RTVSPost2010Prop51ColorIndex
 90
      256
102
RTVSPost2010Prop51ColorRGB
 90
-16777216
102
RTVSPost2010PropOp51
 70
     0
102
RTVSPost2010Prop52
140
1.0
102
RTVSPost2010PropOp52
 70
     0
102
RTVSPost2010Prop53
 90
        2
102
RTVSPost2010PropOp53
 70
     1
102
RTVSPost2010Prop54
  1
strokes_ogs.tif
102
RTVSPost2010PropOp54
 70
     1
102
RTVSPost2010Prop55
280
     0
102
RTVSPost2010PropOp55
 70
     1
102
RTVSPost2010Prop56
140
1.0
102
RTVSPost2010PropOp56
 70
     1
102
RTVSPost2010Prop57
140
1.0
102
RTVSPost2010PropOp57
 70
     1
  0
XRECORD
  5
FB
102
{ACAD_REACTORS
330
FA
102
}
330
FA
100
AcDbXrecord
280
     1
102
RTVSPost2010Prop28
280
     0
102
RTVSPost2010PropOp28
 70
     1
102
RTVSPost2010Prop29
280
     1
102
RTVSPost2010PropOp29
 70
     1
102
RTVSPost2010Prop30
280
     1
102
RTVSPost2010PropOp30
 70
     1
102
RTVSPost2010Prop31
280
     0
102
RTVSPost2010PropOp31
 70
     1
102
RTVSPost2010Prop32
280
     0
102
RTVSPost2010PropOp32
 70
     1
102
RTVSPost2010Prop33
280
     0
102
RTVSPost2010PropOp33
 70
     1
102
RTVSPost2010Prop34
280
     0
102
RTVSPost2010PropOp34
 70
     1
102
RTVSPost2010Prop35
280
     0
102
RTVSPost2010PropOp35
 70
     1
102
RTVSPost2010Prop36
280
     0
102
RTVSPost2010PropOp36
 70
     1
102
RTVSPost2010Prop37
 90
       50
102
RTVSPost2010PropOp37
 70
     1
102
RTVSPost2010Prop38
140
0.0
102
RTVSPost2010PropOp38
 70
     1
102
RTVSPost2010Prop39
140
1.0
102
RTVSPost2010PropOp39
 70
     1
102
RTVSPost2010Prop40
 90
        0
102
RTVSPost2010PropOp40
 70
     1
102
RTVSPost2010Prop41ColorIndex
 90
       18
102
RTVSPost2010Prop41ColorRGB
 90
        0
102
RTVSPost2010PropOp41
 70
     1
102
RTVSPost2010Prop42
 90
       50
102
RTVSPost2010PropOp42
 70
     1
102
RTVSPost2010Prop43
 90
        3
102
RTVSPost2010PropOp43
 70
     1
102
RTVSPost2010Prop44ColorIndex
 90
        5
102
RTVSPost2010Prop44ColorRGB
 90
      255
102
RTVSPost2010PropOp44
 70
     1
102
RTVSPost2010Prop45
280
     0
102
RTVSPost2010PropOp45
 70
     1
102
RTVSPost2010Prop46
 90
       50
102
RTVSPost2010PropOp46
 70
     1
102
RTVSPost2010Prop47
 90
       50
102
RTVSPost2010PropOp47
 70
     1
102
RTVSPost2010Prop48
 90
       50
102
RTVSPost2010PropOp48
 70
     1
102
RTVSPost2010Prop49
280
     0
102
RTVSPost2010PropOp49
 70
     1
102
RTVSPost2010Prop50
 90
       50
102
RTVSPost2010PropOp50
 70
     1
102
RTVSPost2010Prop51ColorIndex
 90
      256
102
RTVSPost2010Prop51ColorRGB
 90
-16777216
102
RTVSPost2010PropOp51
 70
     0
102
RTVSPost2010Prop52
140
1.0
102
RTVSPost2010PropOp52
 70
     0
102
RTVSPost2010Prop53
 90
        2
102
RTVSPost2010PropOp53
 70
     1
102
RTVSPost2010Prop54
  1
strokes_ogs.tif
102
RTVSPost2010PropOp54
 70
     1
102
RTVSPost2010Prop55
280
     0
102
RTVSPost2010PropOp55
 70
     1
102
RTVSPost2010Prop56
140
1.0
102
RTVSPost2010PropOp56
 70
     1
102
RTVSPost2010Prop57
140
1.0
102
RTVSPost2010PropOp57
 70
     1
  0
XRECORD
  5
103
102
{ACAD_REACTORS
330
102
102
}
330
102
100
AcDbXrecord
280
     1
102
RTVSPost2010Prop28
280
     0
102
RTVSPost2010PropOp28
 70
     1
102
RTVSPost2010Prop29
280
     1
102
RTVSPost2010PropOp29
 70
     1
102
RTVSPost2010Prop30
280
     1
102
RTVSPost2010PropOp30
 70
     1
102
RTVSPost2010Prop31
280
     0
102
RTVSPost2010PropOp31
 70
     1
102
RTVSPost2010Prop32
280
     0
102
RTVSPost2010PropOp32
 70
     1
102
RTVSPost2010Prop33
280
     0
102
RTVSPost2010PropOp33
 70
     1
102
RTVSPost2010Prop34
280
     0
102
RTVSPost2010PropOp34
 70
     1
102
RTVSPost2010Prop35
280
     0
102
RTVSPost2010PropOp35
 70
     1
102
RTVSPost2010Prop36
280
     0
102
RTVSPost2010PropOp36
 70
     1
102
RTVSPost2010Prop37
 90
       50
102
RTVSPost2010PropOp37
 70
     1
102
RTVSPost2010Prop38
140
0.0
102
RTVSPost2010PropOp38
 70
     1
102
RTVSPost2010Prop39
140
1.0
102
RTVSPost2010PropOp39
 70
     1
102
RTVSPost2010Prop40
 90
        0
102
RTVSPost2010PropOp40
 70
     1
102
RTVSPost2010Prop41ColorIndex
 90
       18
102
RTVSPost2010Prop41ColorRGB
 90
        0
102
RTVSPost2010PropOp41
 70
     1
102
RTVSPost2010Prop42
 90
       50
102
RTVSPost2010PropOp42
 70
     1
102
RTVSPost2010Prop43
 90
        3
102
RTVSPost2010PropOp43
 70
     1
102
RTVSPost2010Prop44ColorIndex
 90
        5
102
RTVSPost2010Prop44ColorRGB
 90
      255
102
RTVSPost2010PropOp44
 70
     1
102
RTVSPost2010Prop45
280
     0
102
RTVSPost2010PropOp45
 70
     1
102
RTVSPost2010Prop46
 90
       50
102
RTVSPost2010PropOp46
 70
     1
102
RTVSPost2010Prop47
 90
       50
102
RTVSPost2010PropOp47
 70
     1
102
RTVSPost2010Prop48
 90
       50
102
RTVSPost2010PropOp48
 70
     1
102
RTVSPost2010Prop49
280
     0
102
RTVSPost2010PropOp49
 70
     1
102
RTVSPost2010Prop50
 90
       50
102
RTVSPost2010PropOp50
 70
     1
102
RTVSPost2010Prop51ColorIndex
 90
      256
102
RTVSPost2010Prop51ColorRGB
 90
-16777216
102
RTVSPost2010PropOp51
 70
     0
102
RTVSPost2010Prop52
140
1.0
102
RTVSPost2010PropOp52
 70
     0
102
RTVSPost2010Prop53
 90
        2
102
RTVSPost2010PropOp53
 70
     1
102
RTVSPost2010Prop54
  1
strokes_ogs.tif
102
RTVSPost2010PropOp54
 70
     1
102
RTVSPost2010Prop55
280
     0
102
RTVSPost2010PropOp55
 70
     1
102
RTVSPost2010Prop56
140
1.0
102
RTVSPost2010PropOp56
 70
     1
102
RTVSPost2010Prop57
140
1.0
102
RTVSPost2010PropOp57
 70
     1
  0
XRECORD
  5
11F
102
{ACAD_REACTORS
330
11E
102
}
330
11E
100
AcDbXrecord
280
     1
102
RTVSPost2010Prop28
280
     0
102
RTVSPost2010PropOp28
 70
     0
102
RTVSPost2010Prop29
280
     1
102
RTVSPost2010PropOp29
 70
     0
102
RTVSPost2010Prop30
280
     1
102
RTVSPost2010PropOp30
 70
     0
102
RTVSPost2010Prop31
280
     0
102
RTVSPost2010PropOp31
 70
     0
102
RTVSPost2010Prop32
280
     0
102
RTVSPost2010PropOp32
 70
     0
102
RTVSPost2010Prop33
280
     0
102
RTVSPost2010PropOp33
 70
     0
102
RTVSPost2010Prop34
280
     0
102
RTVSPost2010PropOp34
 70
     0
102
RTVSPost2010Prop35
280
     0
102
RTVSPost2010PropOp35
 70
     0
102
RTVSPost2010Prop36
280
     0
102
RTVSPost2010PropOp36
 70
     0
102
RTVSPost2010Prop37
 90
       50
102
RTVSPost2010PropOp37
 70
     0
102
RTVSPost2010Prop38
140
0.0
102
RTVSPost2010PropOp38
 70
     0
102
RTVSPost2010Prop39
140
1.0
102
RTVSPost2010PropOp39
 70
     0
102
RTVSPost2010Prop40
 90
        0
102
RTVSPost2010PropOp40
 70
     0
102
RTVSPost2010Prop41ColorIndex
 90
       18
102
RTVSPost2010Prop41ColorRGB
 90
        0
102
RTVSPost2010PropOp41
 70
     0
102
RTVSPost2010Prop42
 90
       50
102
RTVSPost2010PropOp42
 70
     0
102
RTVSPost2010Prop43
 90
        3
102
RTVSPost2010PropOp43
 70
     0
102
RTVSPost2010Prop44ColorIndex
 90
        5
102
RTVSPost2010Prop44ColorRGB
 90
      255
102
RTVSPost2010PropOp44
 70
     0
102
RTVSPost2010Prop45
280
     0
102
RTVSPost2010PropOp45
 70
     0
102
RTVSPost2010Prop46
 90
       50
102
RTVSPost2010PropOp46
 70
     0
102
RTVSPost2010Prop47
 90
       50
102
RTVSPost2010PropOp47
 70
     0
102
RTVSPost2010Prop48
 90
       50
102
RTVSPost2010PropOp48
 70
     0
102
RTVSPost2010Prop49
280
     0
102
RTVSPost2010PropOp49
 70
     0
102
RTVSPost2010Prop50
 90
       50
102
RTVSPost2010PropOp50
 70
     0
102
RTVSPost2010Prop51ColorIndex
 90
      256
102
RTVSPost2010Prop51ColorRGB
 90
-16777216
102
RTVSPost2010PropOp51
 70
     0
102
RTVSPost2010Prop52
140
1.0
102
RTVSPost2010PropOp52
 70
     0
102
RTVSPost2010Prop53
 90
        2
102
RTVSPost2010PropOp53
 70
     0
102
RTVSPost2010Prop54
  1
strokes_ogs.tif
102
RTVSPost2010PropOp54
 70
     0
102
RTVSPost2010Prop55
280
     0
102
RTVSPost2010PropOp55
 70
     0
102
RTVSPost2010Prop56
140
1.0
102
RTVSPost2010PropOp56
 70
     0
102
RTVSPost2010Prop57
140
1.0
102
RTVSPost2010PropOp57
 70
     0
  0
XRECORD
  5
10F
102
{ACAD_REACTORS
330
10E
102
}
330
10E
100
AcDbXrecord
280
     1
102
RTVSPost2010Prop28
280
     0
102
RTVSPost2010PropOp28
 70
     1
102
RTVSPost2010Prop29
280
     1
102
RTVSPost2010PropOp29
 70
     1
102
RTVSPost2010Prop30
280
     1
102
RTVSPost2010PropOp30
 70
     1
102
RTVSPost2010Prop31
280
     0
102
RTVSPost2010PropOp31
 70
     1
102
RTVSPost2010Prop32
280
     0
102
RTVSPost2010PropOp32
 70
     1
102
RTVSPost2010Prop33
280
     0
102
RTVSPost2010PropOp33
 70
     1
102
RTVSPost2010Prop34
280
     0
102
RTVSPost2010PropOp34
 70
     1
102
RTVSPost2010Prop35
280
     0
102
RTVSPost2010PropOp35
 70
     1
102
RTVSPost2010Prop36
280
     0
102
RTVSPost2010PropOp36
 70
     1
102
RTVSPost2010Prop37
 90
       50
102
RTVSPost2010PropOp37
 70
     1
102
RTVSPost2010Prop38
140
0.0
102
RTVSPost2010PropOp38
 70
     1
102
RTVSPost2010Prop39
140
1.0
102
RTVSPost2010PropOp39
 70
     1
102
RTVSPost2010Prop40
 90
        0
102
RTVSPost2010PropOp40
 70
     1
102
RTVSPost2010Prop41ColorIndex
 90
       18
102
RTVSPost2010Prop41ColorRGB
 90
        0
102
RTVSPost2010PropOp41
 70
     1
102
RTVSPost2010Prop42
 90
       50
102
RTVSPost2010PropOp42
 70
     1
102
RTVSPost2010Prop43
 90
        3
102
RTVSPost2010PropOp43
 70
     1
102
RTVSPost2010Prop44ColorIndex
 90
        5
102
RTVSPost2010Prop44ColorRGB
 90
      255
102
RTVSPost2010PropOp44
 70
     1
102
RTVSPost2010Prop45
280
     0
102
RTVSPost2010PropOp45
 70
     1
102
RTVSPost2010Prop46
 90
       50
102
RTVSPost2010PropOp46
 70
     1
102
RTVSPost2010Prop47
 90
       50
102
RTVSPost2010PropOp47
 70
     1
102
RTVSPost2010Prop48
 90
       50
102
RTVSPost2010PropOp48
 70
     1
102
RTVSPost2010Prop49
280
     0
102
RTVSPost2010PropOp49
 70
     1
102
RTVSPost2010Prop50
 90
       50
102
RTVSPost2010PropOp50
 70
     1
102
RTVSPost2010Prop51ColorIndex
 90
      256
102
RTVSPost2010Prop51ColorRGB
 90
-16777216
102
RTVSPost2010PropOp51
 70
     0
102
RTVSPost2010Prop52
140
1.0
102
RTVSPost2010PropOp52
 70
     0
102
RTVSPost2010Prop53
 90
        2
102
RTVSPost2010PropOp53
 70
     1
102
RTVSPost2010Prop54
  1
strokes_ogs.tif
102
RTVSPost2010PropOp54
 70
     1
102
RTVSPost2010Prop55
280
     0
102
RTVSPost2010PropOp55
 70
     1
102
RTVSPost2010Prop56
140
1.0
102
RTVSPost2010PropOp56
 70
     1
102
RTVSPost2010Prop57
140
1.0
102
RTVSPost2010PropOp57
 70
     1
  0
XRECORD
  5
121
102
{ACAD_REACTORS
330
120
102
}
330
120
100
AcDbXrecord
280
     1
102
RTVSPost2010Prop28
280
     0
102
RTVSPost2010PropOp28
 70
     0
102
RTVSPost2010Prop29
280
     1
102
RTVSPost2010PropOp29
 70
     0
102
RTVSPost2010Prop30
280
     1
102
RTVSPost2010PropOp30
 70
     0
102
RTVSPost2010Prop31
280
     0
102
RTVSPost2010PropOp31
 70
     0
102
RTVSPost2010Prop32
280
     0
102
RTVSPost2010PropOp32
 70
     0
102
RTVSPost2010Prop33
280
     0
102
RTVSPost2010PropOp33
 70
     0
102
RTVSPost2010Prop34
280
     0
102
RTVSPost2010PropOp34
 70
     0
102
RTVSPost2010Prop35
280
     0
102
RTVSPost2010PropOp35
 70
     0
102
RTVSPost2010Prop36
280
     0
102
RTVSPost2010PropOp36
 70
     0
102
RTVSPost2010Prop37
 90
       50
102
RTVSPost2010PropOp37
 70
     0
102
RTVSPost2010Prop38
140
0.0
102
RTVSPost2010PropOp38
 70
     0
102
RTVSPost2010Prop39
140
1.0
102
RTVSPost2010PropOp39
 70
     0
102
RTVSPost2010Prop40
 90
        0
102
RTVSPost2010PropOp40
 70
     0
102
RTVSPost2010Prop41ColorIndex
 90
       18
102
RTVSPost2010Prop41ColorRGB
 90
        0
102
RTVSPost2010PropOp41
 70
     0
102
RTVSPost2010Prop42
 90
       50
102
RTVSPost2010PropOp42
 70
     0
102
RTVSPost2010Prop43
 90
        3
102
RTVSPost2010PropOp43
 70
     0
102
RTVSPost2010Prop44ColorIndex
 90
        5
102
RTVSPost2010Prop44ColorRGB
 90
      255
102
RTVSPost2010PropOp44
 70
     0
102
RTVSPost2010Prop45
280
     0
102
RTVSPost2010PropOp45
 70
     0
102
RTVSPost2010Prop46
 90
       50
102
RTVSPost2010PropOp46
 70
     0
102
RTVSPost2010Prop47
 90
       50
102
RTVSPost2010PropOp47
 70
     0
102
RTVSPost2010Prop48
 90
       50
102
RTVSPost2010PropOp48
 70
     0
102
RTVSPost2010Prop49
280
     0
102
RTVSPost2010PropOp49
 70
     0
102
RTVSPost2010Prop50
 90
       50
102
RTVSPost2010PropOp50
 70
     0
102
RTVSPost2010Prop51ColorIndex
 90
      256
102
RTVSPost2010Prop51ColorRGB
 90
-16777216
102
RTVSPost2010PropOp51
 70
     0
102
RTVSPost2010Prop52
140
1.0
102
RTVSPost2010PropOp52
 70
     0
102
RTVSPost2010Prop53
 90
        2
102
RTVSPost2010PropOp53
 70
     0
102
RTVSPost2010Prop54
  1
strokes_ogs.tif
102
RTVSPost2010PropOp54
 70
     0
102
RTVSPost2010Prop55
280
     0
102
RTVSPost2010PropOp55
 70
     0
102
RTVSPost2010Prop56
140
1.0
102
RTVSPost2010PropOp56
 70
     0
102
RTVSPost2010Prop57
140
1.0
102
RTVSPost2010PropOp57
 70
     0
  0
XRECORD
  5
107
102
{ACAD_REACTORS
330
106
102
}
330
106
100
AcDbXrecord
280
     1
102
RTVSPost2010Prop28
280
     0
102
RTVSPost2010PropOp28
 70
     1
102
RTVSPost2010Prop29
280
     1
102
RTVSPost2010PropOp29
 70
     1
102
RTVSPost2010Prop30
280
     1
102
RTVSPost2010PropOp30
 70
     1
102
RTVSPost2010Prop31
280
     0
102
RTVSPost2010PropOp31
 70
     1
102
RTVSPost2010Prop32
280
     0
102
RTVSPost2010PropOp32
 70
     1
102
RTVSPost2010Prop33
280
     0
102
RTVSPost2010PropOp33
 70
     1
102
RTVSPost2010Prop34
280
     0
102
RTVSPost2010PropOp34
 70
     1
102
RTVSPost2010Prop35
280
     0
102
RTVSPost2010PropOp35
 70
     1
102
RTVSPost2010Prop36
280
     0
102
RTVSPost2010PropOp36
 70
     1
102
RTVSPost2010Prop37
 90
       50
102
RTVSPost2010PropOp37
 70
     1
102
RTVSPost2010Prop38
140
0.0
102
RTVSPost2010PropOp38
 70
     1
102
RTVSPost2010Prop39
140
1.0
102
RTVSPost2010PropOp39
 70
     1
102
RTVSPost2010Prop40
 90
        0
102
RTVSPost2010PropOp40
 70
     1
102
RTVSPost2010Prop41ColorIndex
 90
       18
102
RTVSPost2010Prop41ColorRGB
 90
        0
102
RTVSPost2010PropOp41
 70
     1
102
RTVSPost2010Prop42
 90
       50
102
RTVSPost2010PropOp42
 70
     1
102
RTVSPost2010Prop43
 90
        3
102
RTVSPost2010PropOp43
 70
     1
102
RTVSPost2010Prop44ColorIndex
 90
        5
102
RTVSPost2010Prop44ColorRGB
 90
      255
102
RTVSPost2010PropOp44
 70
     1
102
RTVSPost2010Prop45
280
     0
102
RTVSPost2010PropOp45
 70
     1
102
RTVSPost2010Prop46
 90
       50
102
RTVSPost2010PropOp46
 70
     1
102
RTVSPost2010Prop47
 90
       50
102
RTVSPost2010PropOp47
 70
     1
102
RTVSPost2010Prop48
 90
       50
102
RTVSPost2010PropOp48
 70
     1
102
RTVSPost2010Prop49
280
     0
102
RTVSPost2010PropOp49
 70
     1
102
RTVSPost2010Prop50
 90
       50
102
RTVSPost2010PropOp50
 70
     1
102
RTVSPost2010Prop51ColorIndex
 90
      256
102
RTVSPost2010Prop51ColorRGB
 90
-16777216
102
RTVSPost2010PropOp51
 70
     0
102
RTVSPost2010Prop52
140
1.0
102
RTVSPost2010PropOp52
 70
     0
102
RTVSPost2010Prop53
 90
        2
102
RTVSPost2010PropOp53
 70
     1
102
RTVSPost2010Prop54
  1
strokes_ogs.tif
102
RTVSPost2010PropOp54
 70
     1
102
RTVSPost2010Prop55
280
     0
102
RTVSPost2010PropOp55
 70
     1
102
RTVSPost2010Prop56
140
1.0
102
RTVSPost2010PropOp56
 70
     1
102
RTVSPost2010Prop57
140
1.0
102
RTVSPost2010PropOp57
 70
     1
  0
XRECORD
  5
11D
102
{ACAD_REACTORS
330
11C
102
}
330
11C
100
AcDbXrecord
280
     1
102
RTVSPost2010Prop28
280
     0
102
RTVSPost2010PropOp28
 70
     1
102
RTVSPost2010Prop29
280
     1
102
RTVSPost2010PropOp29
 70
     1
102
RTVSPost2010Prop30
280
     1
102
RTVSPost2010PropOp30
 70
     1
102
RTVSPost2010Prop31
280
     0
102
RTVSPost2010PropOp31
 70
     1
102
RTVSPost2010Prop32
280
     0
102
RTVSPost2010PropOp32
 70
     1
102
RTVSPost2010Prop33
280
     0
102
RTVSPost2010PropOp33
 70
     1
102
RTVSPost2010Prop34
280
     0
102
RTVSPost2010PropOp34
 70
     1
102
RTVSPost2010Prop35
280
     0
102
RTVSPost2010PropOp35
 70
     1
102
RTVSPost2010Prop36
280
     0
102
RTVSPost2010PropOp36
 70
     1
102
RTVSPost2010Prop37
 90
       50
102
RTVSPost2010PropOp37
 70
     1
102
RTVSPost2010Prop38
140
0.0
102
RTVSPost2010PropOp38
 70
     1
102
RTVSPost2010Prop39
140
1.0
102
RTVSPost2010PropOp39
 70
     1
102
RTVSPost2010Prop40
 90
        0
102
RTVSPost2010PropOp40
 70
     1
102
RTVSPost2010Prop41ColorIndex
 90
       18
102
RTVSPost2010Prop41ColorRGB
 90
        0
102
RTVSPost2010PropOp41
 70
     1
102
RTVSPost2010Prop42
 90
       50
102
RTVSPost2010PropOp42
 70
     1
102
RTVSPost2010Prop43
 90
        3
102
RTVSPost2010PropOp43
 70
     1
102
RTVSPost2010Prop44ColorIndex
 90
        5
102
RTVSPost2010Prop44ColorRGB
 90
      255
102
RTVSPost2010PropOp44
 70
     1
102
RTVSPost2010Prop45
280
     0
102
RTVSPost2010PropOp45
 70
     1
102
RTVSPost2010Prop46
 90
       50
102
RTVSPost2010PropOp46
 70
     1
102
RTVSPost2010Prop47
 90
       50
102
RTVSPost2010PropOp47
 70
     1
102
RTVSPost2010Prop48
 90
       50
102
RTVSPost2010PropOp48
 70
     1
102
RTVSPost2010Prop49
280
     0
102
RTVSPost2010PropOp49
 70
     1
102
RTVSPost2010Prop50
 90
       50
102
RTVSPost2010PropOp50
 70
     1
102
RTVSPost2010Prop51ColorIndex
 90
      256
102
RTVSPost2010Prop51ColorRGB
 90
-16777216
102
RTVSPost2010PropOp51
 70
     0
102
RTVSPost2010Prop52
140
1.0
102
RTVSPost2010PropOp52
 70
     0
102
RTVSPost2010Prop53
 90
        2
102
RTVSPost2010PropOp53
 70
     1
102
RTVSPost2010Prop54
  1
strokes_ogs.tif
102
RTVSPost2010PropOp54
 70
     1
102
RTVSPost2010Prop55
280
     0
102
RTVSPost2010PropOp55
 70
     1
102
RTVSPost2010Prop56
140
1.0
102
RTVSPost2010PropOp56
 70
     1
102
RTVSPost2010Prop57
140
1.0
102
RTVSPost2010PropOp57
 70
     1
  0
XRECORD
  5
11B
102
{ACAD_REACTORS
330
11A
102
}
330
11A
100
AcDbXrecord
280
     1
102
RTVSPost2010Prop28
280
     0
102
RTVSPost2010PropOp28
 70
     1
102
RTVSPost2010Prop29
280
     1
102
RTVSPost2010PropOp29
 70
     1
102
RTVSPost2010Prop30
280
     1
102
RTVSPost2010PropOp30
 70
     1
102
RTVSPost2010Prop31
280
     0
102
RTVSPost2010PropOp31
 70
     1
102
RTVSPost2010Prop32
280
     0
102
RTVSPost2010PropOp32
 70
     1
102
RTVSPost2010Prop33
280
     0
102
RTVSPost2010PropOp33
 70
     1
102
RTVSPost2010Prop34
280
     0
102
RTVSPost2010PropOp34
 70
     1
102
RTVSPost2010Prop35
280
     0
102
RTVSPost2010PropOp35
 70
     1
102
RTVSPost2010Prop36
280
     0
102
RTVSPost2010PropOp36
 70
     1
102
RTVSPost2010Prop37
 90
       50
102
RTVSPost2010PropOp37
 70
     1
102
RTVSPost2010Prop38
140
0.0
102
RTVSPost2010PropOp38
 70
     1
102
RTVSPost2010Prop39
140
1.0
102
RTVSPost2010PropOp39
 70
     1
102
RTVSPost2010Prop40
 90
        0
102
RTVSPost2010PropOp40
 70
     1
102
RTVSPost2010Prop41ColorIndex
 90
       18
102
RTVSPost2010Prop41ColorRGB
 90
        0
102
RTVSPost2010PropOp41
 70
     1
102
RTVSPost2010Prop42
 90
       50
102
RTVSPost2010PropOp42
 70
     1
102
RTVSPost2010Prop43
 90
        3
102
RTVSPost2010PropOp43
 70
     1
102
RTVSPost2010Prop44ColorIndex
 90
        5
102
RTVSPost2010Prop44ColorRGB
 90
      255
102
RTVSPost2010PropOp44
 70
     1
102
RTVSPost2010Prop45
280
     0
102
RTVSPost2010PropOp45
 70
     1
102
RTVSPost2010Prop46
 90
       50
102
RTVSPost2010PropOp46
 70
     1
102
RTVSPost2010Prop47
 90
       50
102
RTVSPost2010PropOp47
 70
     1
102
RTVSPost2010Prop48
 90
       50
102
RTVSPost2010PropOp48
 70
     1
102
RTVSPost2010Prop49
280
     0
102
RTVSPost2010PropOp49
 70
     1
102
RTVSPost2010Prop50
 90
       50
102
RTVSPost2010PropOp50
 70
     1
102
RTVSPost2010Prop51ColorIndex
 90
      256
102
RTVSPost2010Prop51ColorRGB
 90
-16777216
102
RTVSPost2010PropOp51
 70
     0
102
RTVSPost2010Prop52
140
1.0
102
RTVSPost2010PropOp52
 70
     0
102
RTVSPost2010Prop53
 90
        2
102
RTVSPost2010PropOp53
 70
     1
102
RTVSPost2010Prop54
  1
strokes_ogs.tif
102
RTVSPost2010PropOp54
 70
     1
102
RTVSPost2010Prop55
280
     0
102
RTVSPost2010PropOp55
 70
     1
102
RTVSPost2010Prop56
140
1.0
102
RTVSPost2010PropOp56
 70
     1
102
RTVSPost2010Prop57
140
1.0
102
RTVSPost2010PropOp57
 70
     1
  0
XRECORD
  5
115
102
{ACAD_REACTORS
330
114
102
}
330
114
100
AcDbXrecord
280
     1
102
RTVSPost2010Prop28
280
     0
102
RTVSPost2010PropOp28
 70
     1
102
RTVSPost2010Prop29
280
     1
102
RTVSPost2010PropOp29
 70
     1
102
RTVSPost2010Prop30
280
     1
102
RTVSPost2010PropOp30
 70
     1
102
RTVSPost2010Prop31
280
     0
102
RTVSPost2010PropOp31
 70
     1
102
RTVSPost2010Prop32
280
     0
102
RTVSPost2010PropOp32
 70
     1
102
RTVSPost2010Prop33
280
     0
102
RTVSPost2010PropOp33
 70
     1
102
RTVSPost2010Prop34
280
     0
102
RTVSPost2010PropOp34
 70
     1
102
RTVSPost2010Prop35
280
     0
102
RTVSPost2010PropOp35
 70
     1
102
RTVSPost2010Prop36
280
     0
102
RTVSPost2010PropOp36
 70
     1
102
RTVSPost2010Prop37
 90
       50
102
RTVSPost2010PropOp37
 70
     1
102
RTVSPost2010Prop38
140
0.0
102
RTVSPost2010PropOp38
 70
     1
102
RTVSPost2010Prop39
140
1.0
102
RTVSPost2010PropOp39
 70
     1
102
RTVSPost2010Prop40
 90
        0
102
RTVSPost2010PropOp40
 70
     1
102
RTVSPost2010Prop41ColorIndex
 90
       18
102
RTVSPost2010Prop41ColorRGB
 90
        0
102
RTVSPost2010PropOp41
 70
     1
102
RTVSPost2010Prop42
 90
       50
102
RTVSPost2010PropOp42
 70
     1
102
RTVSPost2010Prop43
 90
        3
102
RTVSPost2010PropOp43
 70
     1
102
RTVSPost2010Prop44ColorIndex
 90
        5
102
RTVSPost2010Prop44ColorRGB
 90
      255
102
RTVSPost2010PropOp44
 70
     1
102
RTVSPost2010Prop45
280
     0
102
RTVSPost2010PropOp45
 70
     1
102
RTVSPost2010Prop46
 90
       50
102
RTVSPost2010PropOp46
 70
     1
102
RTVSPost2010Prop47
 90
       50
102
RTVSPost2010PropOp47
 70
     1
102
RTVSPost2010Prop48
 90
       50
102
RTVSPost2010PropOp48
 70
     1
102
RTVSPost2010Prop49
280
     0
102
RTVSPost2010PropOp49
 70
     1
102
RTVSPost2010Prop50
 90
       50
102
RTVSPost2010PropOp50
 70
     1
102
RTVSPost2010Prop51ColorIndex
 90
      256
102
RTVSPost2010Prop51ColorRGB
 90
-16777216
102
RTVSPost2010PropOp51
 70
     0
102
RTVSPost2010Prop52
140
1.0
102
RTVSPost2010PropOp52
 70
     0
102
RTVSPost2010Prop53
 90
        2
102
RTVSPost2010PropOp53
 70
     1
102
RTVSPost2010Prop54
  1
strokes_ogs.tif
102
RTVSPost2010PropOp54
 70
     1
102
RTVSPost2010Prop55
280
     0
102
RTVSPost2010PropOp55
 70
     1
102
RTVSPost2010Prop56
140
1.0
102
RTVSPost2010PropOp56
 70
     1
102
RTVSPost2010Prop57
140
1.0
102
RTVSPost2010PropOp57
 70
     1
  0
XRECORD
  5
117
102
{ACAD_REACTORS
330
116
102
}
330
116
100
AcDbXrecord
280
     1
102
RTVSPost2010Prop28
280
     0
102
RTVSPost2010PropOp28
 70
     1
102
RTVSPost2010Prop29
280
     1
102
RTVSPost2010PropOp29
 70
     1
102
RTVSPost2010Prop30
280
     1
102
RTVSPost2010PropOp30
 70
     1
102
RTVSPost2010Prop31
280
     0
102
RTVSPost2010PropOp31
 70
     1
102
RTVSPost2010Prop32
280
     0
102
RTVSPost2010PropOp32
 70
     1
102
RTVSPost2010Prop33
280
     0
102
RTVSPost2010PropOp33
 70
     1
102
RTVSPost2010Prop34
280
     0
102
RTVSPost2010PropOp34
 70
     1
102
RTVSPost2010Prop35
280
     0
102
RTVSPost2010PropOp35
 70
     1
102
RTVSPost2010Prop36
280
     0
102
RTVSPost2010PropOp36
 70
     1
102
RTVSPost2010Prop37
 90
       50
102
RTVSPost2010PropOp37
 70
     1
102
RTVSPost2010Prop38
140
0.0
102
RTVSPost2010PropOp38
 70
     1
102
RTVSPost2010Prop39
140
1.0
102
RTVSPost2010PropOp39
 70
     1
102
RTVSPost2010Prop40
 90
        0
102
RTVSPost2010PropOp40
 70
     1
102
RTVSPost2010Prop41ColorIndex
 90
       18
102
RTVSPost2010Prop41ColorRGB
 90
        0
102
RTVSPost2010PropOp41
 70
     1
102
RTVSPost2010Prop42
 90
       50
102
RTVSPost2010PropOp42
 70
     1
102
RTVSPost2010Prop43
 90
        3
102
RTVSPost2010PropOp43
 70
     1
102
RTVSPost2010Prop44ColorIndex
 90
        5
102
RTVSPost2010Prop44ColorRGB
 90
      255
102
RTVSPost2010PropOp44
 70
     1
102
RTVSPost2010Prop45
280
     0
102
RTVSPost2010PropOp45
 70
     1
102
RTVSPost2010Prop46
 90
       50
102
RTVSPost2010PropOp46
 70
     1
102
RTVSPost2010Prop47
 90
       50
102
RTVSPost2010PropOp47
 70
     1
102
RTVSPost2010Prop48
 90
       50
102
RTVSPost2010PropOp48
 70
     1
102
RTVSPost2010Prop49
280
     0
102
RTVSPost2010PropOp49
 70
     1
102
RTVSPost2010Prop50
 90
       50
102
RTVSPost2010PropOp50
 70
     1
102
RTVSPost2010Prop51ColorIndex
 90
      256
102
RTVSPost2010Prop51ColorRGB
 90
-16777216
102
RTVSPost2010PropOp51
 70
     0
102
RTVSPost2010Prop52
140
1.0
102
RTVSPost2010PropOp52
 70
     0
102
RTVSPost2010Prop53
 90
        2
102
RTVSPost2010PropOp53
 70
     1
102
RTVSPost2010Prop54
  1
strokes_ogs.tif
102
RTVSPost2010PropOp54
 70
     1
102
RTVSPost2010Prop55
280
     0
102
RTVSPost2010PropOp55
 70
     1
102
RTVSPost2010Prop56
140
1.0
102
RTVSPost2010PropOp56
 70
     1
102
RTVSPost2010Prop57
140
1.0
102
RTVSPost2010PropOp57
 70
     1
  0
XRECORD
  5
10D
102
{ACAD_REACTORS
330
10C
102
}
330
10C
100
AcDbXrecord
280
     1
102
RTVSPost2010Prop28
280
     0
102
RTVSPost2010PropOp28
 70
     1
102
RTVSPost2010Prop29
280
     1
102
RTVSPost2010PropOp29
 70
     1
102
RTVSPost2010Prop30
280
     1
102
RTVSPost2010PropOp30
 70
     1
102
RTVSPost2010Prop31
280
     0
102
RTVSPost2010PropOp31
 70
     1
102
RTVSPost2010Prop32
280
     0
102
RTVSPost2010PropOp32
 70
     1
102
RTVSPost2010Prop33
280
     0
102
RTVSPost2010PropOp33
 70
     1
102
RTVSPost2010Prop34
280
     0
102
RTVSPost2010PropOp34
 70
     1
102
RTVSPost2010Prop35
280
     0
102
RTVSPost2010PropOp35
 70
     1
102
RTVSPost2010Prop36
280
     0
102
RTVSPost2010PropOp36
 70
     1
102
RTVSPost2010Prop37
 90
       50
102
RTVSPost2010PropOp37
 70
     1
102
RTVSPost2010Prop38
140
0.0
102
RTVSPost2010PropOp38
 70
     1
102
RTVSPost2010Prop39
140
1.0
102
RTVSPost2010PropOp39
 70
     1
102
RTVSPost2010Prop40
 90
        0
102
RTVSPost2010PropOp40
 70
     1
102
RTVSPost2010Prop41ColorIndex
 90
       18
102
RTVSPost2010Prop41ColorRGB
 90
        0
102
RTVSPost2010PropOp41
 70
     1
102
RTVSPost2010Prop42
 90
       50
102
RTVSPost2010PropOp42
 70
     1
102
RTVSPost2010Prop43
 90
        3
102
RTVSPost2010PropOp43
 70
     1
102
RTVSPost2010Prop44ColorIndex
 90
        5
102
RTVSPost2010Prop44ColorRGB
 90
      255
102
RTVSPost2010PropOp44
 70
     1
102
RTVSPost2010Prop45
280
     0
102
RTVSPost2010PropOp45
 70
     1
102
RTVSPost2010Prop46
 90
       50
102
RTVSPost2010PropOp46
 70
     1
102
RTVSPost2010Prop47
 90
       50
102
RTVSPost2010PropOp47
 70
     1
102
RTVSPost2010Prop48
 90
       50
102
RTVSPost2010PropOp48
 70
     1
102
RTVSPost2010Prop49
280
     0
102
RTVSPost2010PropOp49
 70
     1
102
RTVSPost2010Prop50
 90
       50
102
RTVSPost2010PropOp50
 70
     1
102
RTVSPost2010Prop51ColorIndex
 90
      256
102
RTVSPost2010Prop51ColorRGB
 90
-16777216
102
RTVSPost2010PropOp51
 70
     0
102
RTVSPost2010Prop52
140
1.0
102
RTVSPost2010PropOp52
 70
     0
102
RTVSPost2010Prop53
 90
        2
102
RTVSPost2010PropOp53
 70
     1
102
RTVSPost2010Prop54
  1
strokes_ogs.tif
102
RTVSPost2010PropOp54
 70
     1
102
RTVSPost2010Prop55
280
     0
102
RTVSPost2010PropOp55
 70
     1
102
RTVSPost2010Prop56
140
1.0
102
RTVSPost2010PropOp56
 70
     1
102
RTVSPost2010Prop57
140
1.0
102
RTVSPost2010PropOp57
 70
     1
  0
XRECORD
  5
101
102
{ACAD_REACTORS
330
100
102
}
330
100
100
AcDbXrecord
280
     1
102
RTVSPost2010Prop28
280
     0
102
RTVSPost2010PropOp28
 70
     1
102
RTVSPost2010Prop29
280
     1
102
RTVSPost2010PropOp29
 70
     1
102
RTVSPost2010Prop30
280
     1
102
RTVSPost2010PropOp30
 70
     1
102
RTVSPost2010Prop31
280
     0
102
RTVSPost2010PropOp31
 70
     1
102
RTVSPost2010Prop32
280
     0
102
RTVSPost2010PropOp32
 70
     1
102
RTVSPost2010Prop33
280
     0
102
RTVSPost2010PropOp33
 70
     1
102
RTVSPost2010Prop34
280
     0
102
RTVSPost2010PropOp34
 70
     1
102
RTVSPost2010Prop35
280
     0
102
RTVSPost2010PropOp35
 70
     1
102
RTVSPost2010Prop36
280
     0
102
RTVSPost2010PropOp36
 70
     1
102
RTVSPost2010Prop37
 90
       50
102
RTVSPost2010PropOp37
 70
     1
102
RTVSPost2010Prop38
140
0.0
102
RTVSPost2010PropOp38
 70
     1
102
RTVSPost2010Prop39
140
1.0
102
RTVSPost2010PropOp39
 70
     1
102
RTVSPost2010Prop40
 90
        0
102
RTVSPost2010PropOp40
 70
     1
102
RTVSPost2010Prop41ColorIndex
 90
       18
102
RTVSPost2010Prop41ColorRGB
 90
        0
102
RTVSPost2010PropOp41
 70
     1
102
RTVSPost2010Prop42
 90
       50
102
RTVSPost2010PropOp42
 70
     1
102
RTVSPost2010Prop43
 90
        3
102
RTVSPost2010PropOp43
 70
     1
102
RTVSPost2010Prop44ColorIndex
 90
        5
102
RTVSPost2010Prop44ColorRGB
 90
      255
102
RTVSPost2010PropOp44
 70
     1
102
RTVSPost2010Prop45
280
     0
102
RTVSPost2010PropOp45
 70
     1
102
RTVSPost2010Prop46
 90
       50
102
RTVSPost2010PropOp46
 70
     1
102
RTVSPost2010Prop47
 90
       50
102
RTVSPost2010PropOp47
 70
     1
102
RTVSPost2010Prop48
 90
       50
102
RTVSPost2010PropOp48
 70
     1
102
RTVSPost2010Prop49
280
     0
102
RTVSPost2010PropOp49
 70
     1
102
RTVSPost2010Prop50
 90
       50
102
RTVSPost2010PropOp50
 70
     1
102
RTVSPost2010Prop51ColorIndex
 90
      256
102
RTVSPost2010Prop51ColorRGB
 90
-16777216
102
RTVSPost2010PropOp51
 70
     0
102
RTVSPost2010Prop52
140
1.0
102
RTVSPost2010PropOp52
 70
     0
102
RTVSPost2010Prop53
 90
        2
102
RTVSPost2010PropOp53
 70
     1
102
RTVSPost2010Prop54
  1
strokes_ogs.tif
102
RTVSPost2010PropOp54
 70
     1
102
RTVSPost2010Prop55
280
     0
102
RTVSPost2010PropOp55
 70
     1
102
RTVSPost2010Prop56
140
1.0
102
RTVSPost2010PropOp56
 70
     1
102
RTVSPost2010Prop57
140
1.0
102
RTVSPost2010PropOp57
 70
     1
  0
XRECORD
  5
119
102
{ACAD_REACTORS
330
118
102
}
330
118
100
AcDbXrecord
280
     1
102
RTVSPost2010Prop28
280
     0
102
RTVSPost2010PropOp28
 70
     1
102
RTVSPost2010Prop29
280
     1
102
RTVSPost2010PropOp29
 70
     1
102
RTVSPost2010Prop30
280
     1
102
RTVSPost2010PropOp30
 70
     1
102
RTVSPost2010Prop31
280
     0
102
RTVSPost2010PropOp31
 70
     1
102
RTVSPost2010Prop32
280
     0
102
RTVSPost2010PropOp32
 70
     1
102
RTVSPost2010Prop33
280
     0
102
RTVSPost2010PropOp33
 70
     1
102
RTVSPost2010Prop34
280
     0
102
RTVSPost2010PropOp34
 70
     1
102
RTVSPost2010Prop35
280
     0
102
RTVSPost2010PropOp35
 70
     1
102
RTVSPost2010Prop36
280
     0
102
RTVSPost2010PropOp36
 70
     1
102
RTVSPost2010Prop37
 90
       50
102
RTVSPost2010PropOp37
 70
     1
102
RTVSPost2010Prop38
140
0.0
102
RTVSPost2010PropOp38
 70
     1
102
RTVSPost2010Prop39
140
1.0
102
RTVSPost2010PropOp39
 70
     1
102
RTVSPost2010Prop40
 90
        0
102
RTVSPost2010PropOp40
 70
     1
102
RTVSPost2010Prop41ColorIndex
 90
       18
102
RTVSPost2010Prop41ColorRGB
 90
        0
102
RTVSPost2010PropOp41
 70
     1
102
RTVSPost2010Prop42
 90
       50
102
RTVSPost2010PropOp42
 70
     1
102
RTVSPost2010Prop43
 90
        3
102
RTVSPost2010PropOp43
 70
     1
102
RTVSPost2010Prop44ColorIndex
 90
        5
102
RTVSPost2010Prop44ColorRGB
 90
      255
102
RTVSPost2010PropOp44
 70
     1
102
RTVSPost2010Prop45
280
     0
102
RTVSPost2010PropOp45
 70
     1
102
RTVSPost2010Prop46
 90
       50
102
RTVSPost2010PropOp46
 70
     1
102
RTVSPost2010Prop47
 90
       50
102
RTVSPost2010PropOp47
 70
     1
102
RTVSPost2010Prop48
 90
       50
102
RTVSPost2010PropOp48
 70
     1
102
RTVSPost2010Prop49
280
     0
102
RTVSPost2010PropOp49
 70
     1
102
RTVSPost2010Prop50
 90
       50
102
RTVSPost2010PropOp50
 70
     1
102
RTVSPost2010Prop51ColorIndex
 90
      256
102
RTVSPost2010Prop51ColorRGB
 90
-16777216
102
RTVSPost2010PropOp51
 70
     0
102
RTVSPost2010Prop52
140
1.0
102
RTVSPost2010PropOp52
 70
     0
102
RTVSPost2010Prop53
 90
        2
102
RTVSPost2010PropOp53
 70
     1
102
RTVSPost2010Prop54
  1
strokes_ogs.tif
102
RTVSPost2010PropOp54
 70
     1
102
RTVSPost2010Prop55
280
     0
102
RTVSPost2010PropOp55
 70
     1
102
RTVSPost2010Prop56
140
1.0
102
RTVSPost2010PropOp56
 70
     1
102
RTVSPost2010Prop57
140
1.0
102
RTVSPost2010PropOp57
 70
     1
  0
ENDSEC
  0
EOF
