  0
SECTION
  2
HEADER
  9
$ACADVER
  1
AC1024
  9
$ACADMAINTVER
 70
   226
  9
$DWGCODEPAGE
  3
ANSI_932
  9
$INSBASE
 10
0.0
 20
0.0
 30
0.0
  9
$EXTMIN
 10
1.000000000000000E+20
 20
1.000000000000000E+20
 30
1.000000000000000E+20
  9
$EXTMAX
 10
-1.000000000000000E+20
 20
-1.000000000000000E+20
 30
-1.000000000000000E+20
  9
$LIMMIN
 10
0.0
 20
0.0
  9
$LIMMAX
 10
12.0
 20
9.0
  9
$ORTHOMODE
 70
     0
  9
$REGENMODE
 70
     1
  9
$FILLMODE
 70
     1
  9
$QTEXTMODE
 70
     0
  9
$MIRRTEXT
 70
     0
  9
$LTSCALE
 40
1.0
  9
$ATTMODE
 70
     1
  9
$TEXTSIZE
 40
0.2
  9
$TRACEWID
 40
0.05
  9
$TEXTSTYLE
  7
Standard
  9
$CLAYER
  8
0
  9
$CELTYPE
  6
ByLayer
  9
$CECOLOR
 62
   256
  9
$CELTSCALE
 40
1.0
  9
$DISPSILH
 70
     0
  9
$DIMSCALE
 40
1.0
  9
$DIMASZ
 40
0.18
  9
$DIMEXO
 40
0.0625
  9
$DIMDLI
 40
0.38
  9
$DIMRND
 40
0.0
  9
$DIMDLE
 40
0.0
  9
$DIMEXE
 40
0.18
  9
$DIMTP
 40
0.0
  9
$DIMTM
 40
0.0
  9
$DIMTXT
 40
0.18
  9
$DIMCEN
 40
0.09
  9
$DIMTSZ
 40
0.0
  9
$DIMTOL
 70
     0
  9
$DIMLIM
 70
     0
  9
$DIMTIH
 70
     1
  9
$DIMTOH
 70
     1
  9
$DIMSE1
 70
     0
  9
$DIMSE2
 70
     0
  9
$DIMTAD
 70
     0
  9
$DIMZIN
 70
     0
  9
$DIMBLK
  1

  9
$DIMASO
 70
     1
  9
$DIMSHO
 70
     1
  9
$DIMPOST
  1

  9
$DIMAPOST
  1

  9
$DIMALT
 70
     0
  9
$DIMALTD
 70
     2
  9
$DIMALTF
 40
25.4
  9
$DIMLFAC
 40
1.0
  9
$DIMTOFL
 70
     0
  9
$DIMTVP
 40
0.0
  9
$DIMTIX
 70
     0
  9
$DIMSOXD
 70
     0
  9
$DIMSAH
 70
     0
  9
$DIMBLK1
  1

  9
$DIMBLK2
  1

  9
$DIMSTYLE
  2
Standard
  9
$DIMCLRD
 70
     0
  9
$DIMCLRE
 70
     0
  9
$DIMCLRT
 70
     0
  9
$DIMTFAC
 40
1.0
  9
$DIMGAP
 40
0.09
  9
$DIMJUST
 70
     0
  9
$DIMSD1
 70
     0
  9
$DIMSD2
 70
     0
  9
$DIMTOLJ
 70
     1
  9
$DIMTZIN
 70
     0
  9
$DIMALTZ
 70
     0
  9
$DIMALTTZ
 70
     0
  9
$DIMUPT
 70
     0
  9
$DIMDEC
 70
     4
  9
$DIMTDEC
 70
     4
  9
$DIMALTU
 70
     2
  9
$DIMALTTD
 70
     2
  9
$DIMTXSTY
  7
Standard
  9
$DIMAUNIT
 70
     0
  9
$DIMADEC
 70
     0
  9
$DIMALTRND
 40
0.0
  9
$DIMAZIN
 70
     0
  9
$DIMDSEP
 70
    46
  9
$DIMATFIT
 70
     3
  9
$DIMFRAC
 70
     0
  9
$DIMLDRBLK
  1

  9
$DIMLUNIT
 70
     2
  9
$DIMLWD
 70
    -2
  9
$DIMLWE
 70
    -2
  9
$DIMTMOVE
 70
     0
  9
$DIMFXL
 40
1.0
  9
$DIMFXLON
 70
     0
  9
$DIMJOGANG
 40
0.7853981633974483
  9
$DIMTFILL
 70
     0
  9
$DIMTFILLCLR
 70
     0
  9
$DIMARCSYM
 70
     0
  9
$DIMLTYPE
  6

  9
$DIMLTEX1
  6

  9
$DIMLTEX2
  6

  9
$DIMTXTDIRECTION
 70
     0
  9
$LUNITS
 70
     2
  9
$LUPREC
 70
     4
  9
$SKETCHINC
 40
0.1
  9
$FILLETRAD
 40
0.0
  9
$AUNITS
 70
     0
  9
$AUPREC
 70
     0
  9
$MENU
  1
.
  9
$ELEVATION
 40
0.0
  9
$PELEVATION
 40
0.0
  9
$THICKNESS
 40
0.0
  9
$LIMCHECK
 70
     0
  9
$CHAMFERA
 40
0.0
  9
$CHAMFERB
 40
0.0
  9
$CHAMFERC
 40
0.0
  9
$CHAMFERD
 40
0.0
  9
$SKPOLY
 70
     0
  9
$TDCREATE
 40
2459569.488854167
  9
$TDUCREATE
 40
2459569.113854167
  9
$TDUPDATE
 40
2459569.488854167
  9
$TDUUPDATE
 40
2459569.113854167
  9
$TDINDWG
 40
0.0000000000
  9
$TDUSRTIMER
 40
0.0000000000
  9
$USRTIMER
 70
     1
  9
$ANGBASE
 50
0.0
  9
$ANGDIR
 70
     0
  9
$PDMODE
 70
     0
  9
$PDSIZE
 40
0.0
  9
$PLINEWID
 40
0.0
  9
$SPLFRAME
 70
     0
  9
$SPLINETYPE
 70
     6
  9
$SPLINESEGS
 70
     8
  9
$HANDSEED
  5
128
  9
$SURFTAB1
 70
     6
  9
$SURFTAB2
 70
     6
  9
$SURFTYPE
 70
     6
  9
$SURFU
 70
     6
  9
$SURFV
 70
     6
  9
$UCSBASE
  2

  9
$UCSNAME
  2

  9
$UCSORG
 10
0.0
 20
0.0
 30
0.0
  9
$UCSXDIR
 10
1.0
 20
0.0
 30
0.0
  9
$UCSYDIR
 10
0.0
 20
1.0
 30
0.0
  9
$UCSORTHOREF
  2

  9
$UCSORTHOVIEW
 70
     0
  9
$UCSORGTOP
 10
0.0
 20
0.0
 30
0.0
  9
$UCSORGBOTTOM
 10
0.0
 20
0.0
 30
0.0
  9
$UCSORGLEFT
 10
0.0
 20
0.0
 30
0.0
  9
$UCSORGRIGHT
 10
0.0
 20
0.0
 30
0.0
  9
$UCSORGFRONT
 10
0.0
 20
0.0
 30
0.0
  9
$UCSORGBACK
 10
0.0
 20
0.0
 30
0.0
  9
$PUCSBASE
  2

  9
$PUCSNAME
  2

  9
$PUCSORG
 10
0.0
 20
0.0
 30
0.0
  9
$PUCSXDIR
 10
1.0
 20
0.0
 30
0.0
  9
$PUCSYDIR
 10
0.0
 20
1.0
 30
0.0
  9
$PUCSORTHOREF
  2

  9
$PUCSORTHOVIEW
 70
     0
  9
$PUCSORGTOP
 10
0.0
 20
0.0
 30
0.0
  9
$PUCSORGBOTTOM
 10
0.0
 20
0.0
 30
0.0
  9
$PUCSORGLEFT
 10
0.0
 20
0.0
 30
0.0
  9
$PUCSORGRIGHT
 10
0.0
 20
0.0
 30
0.0
  9
$PUCSORGFRONT
 10
0.0
 20
0.0
 30
0.0
  9
$PUCSORGBACK
 10
0.0
 20
0.0
 30
0.0
  9
$USERI1
 70
     0
  9
$USERI2
 70
     0
  9
$USERI3
 70
     0
  9
$USERI4
 70
     0
  9
$USERI5
 70
     0
  9
$USERR1
 40
0.0
  9
$USERR2
 40
0.0
  9
$USERR3
 40
0.0
  9
$USERR4
 40
0.0
  9
$USERR5
 40
0.0
  9
$WORLDVIEW
 70
     1
  9
$SHADEDGE
 70
     3
  9
$SHADEDIF
 70
    70
  9
$TILEMODE
 70
     1
  9
$MAXACTVP
 70
    64
  9
$PINSBASE
 10
0.0
 20
0.0
 30
0.0
  9
$PLIMCHECK
 70
     0
  9
$PEXTMIN
 10
1.000000000000000E+20
 20
1.000000000000000E+20
 30
1.000000000000000E+20
  9
$PEXTMAX
 10
-1.000000000000000E+20
 20
-1.000000000000000E+20
 30
-1.000000000000000E+20
  9
$PLIMMIN
 10
0.0
 20
0.0
  9
$PLIMMAX
 10
12.0
 20
9.0
  9
$UNITMODE
 70
     0
  9
$VISRETAIN
 70
     1
  9
$PLINEGEN
 70
     0
  9
$PSLTSCALE
 70
     1
  9
$TREEDEPTH
 70
  3020
  9
$CMLSTYLE
  2
Standard
  9
$CMLJUST
 70
     0
  9
$CMLSCALE
 40
1.0
  9
$PROXYGRAPHICS
 70
     1
  9
$MEASUREMENT
 70
     0
  9
$CELWEIGHT
370
    -1
  9
$ENDCAPS
280
     0
  9
$JOINSTYLE
280
     0
  9
$LWDISPLAY
290
     1
  9
$INSUNITS
 70
     4
  9
$HYPERLINKBASE
  1

  9
$STYLESHEET
  1

  9
$XEDIT
290
     1
  9
$CEPSNTYPE
380
     0
  9
$PSTYLEMODE
290
     1
  9
$FINGERPRINTGUID
  2
{26DAEC84-74AC-A940-8F96-82FE2D4BD6FB}
  9
$VERSIONGUID
  2
{C6F3A91E-00C3-B34B-A03F-ABA1884F6119}
  9
$EXTNAMES
290
     1
  9
$PSVPSCALE
 40
0.0
  9
$OLESTARTUP
290
     0
  9
$SORTENTS
280
   127
  9
$INDEXCTL
280
     0
  9
$HIDETEXT
280
     1
  9
$XCLIPFRAME
280
     2
  9
$HALOGAP
280
     0
  9
$OBSCOLOR
 70
   257
  9
$OBSLTYPE
280
     0
  9
$INTERSECTIONDISPLAY
280
     0
  9
$INTERSECTIONCOLOR
 70
   257
  9
$DIMASSOC
280
     2
  9
$PROJECTNAME
  1

  9
$CAMERADISPLAY
290
     0
  9
$LENSLENGTH
 40
50.0
  9
$CAMERAHEIGHT
 40
0.0
  9
$STEPSPERSEC
 40
2.0
  9
$STEPSIZE
 40
6.0
  9
$3DDWFPREC
 40
2.0
  9
$PSOLWIDTH
 40
0.25
  9
$PSOLHEIGHT
 40
4.0
  9
$LOFTANG1
 40
1.570796326794896
  9
$LOFTANG2
 40
1.570796326794896
  9
$LOFTMAG1
 40
0.0
  9
$LOFTMAG2
 40
0.0
  9
$LOFTPARAM
 70
     7
  9
$LOFTNORMALS
280
     1
  9
$LATITUDE
 40
37.795
  9
$LONGITUDE
 40
-122.394
  9
$NORTHDIRECTION
 40
0.0
  9
$TIMEZONE
 70
 -8000
  9
$LIGHTGLYPHDISPLAY
280
     1
  9
$TILEMODELIGHTSYNCH
280
     1
  9
$CMATERIAL
347
11
  9
$SOLIDHIST
280
     0
  9
$SHOWHIST
280
     1
  9
$DWFFRAME
280
     2
  9
$DGNFRAME
280
     0
  9
$REALWORLDSCALE
290
     1
  9
$INTERFERECOLOR
 62
     1
  9
$INTERFEREOBJVS
345
33
  9
$INTERFEREVPVS
346
30
  9
$CSHADOW
280
     0
  9
$SHADOWPLANELOCATION
 40
0.0
  0
ENDSEC
  0
SECTION
  2
CLASSES
  0
CLASS
  1
ACDBDICTIONARYWDFLT
  2
AcDbDictionaryWithDefault
  3
ObjectDBX Classes
 90
        0
 91
        1
280
     0
281
     0
  0
CLASS
  1
MATERIAL
  2
AcDbMaterial
  3
ObjectDBX Classes
 90
     1153
 91
        3
280
     0
281
     0
  0
CLASS
  1
VISUALSTYLE
  2
AcDbVisualStyle
  3
ObjectDBX Classes
 90
     4095
 91
       24
280
     0
281
     0
  0
CLASS
  1
SCALE
  2
AcDbScale
  3
ObjectDBX Classes
 90
     1153
 91
       17
280
     0
281
     0
  0
CLASS
  1
TABLESTYLE
  2
AcDbTableStyle
  3
ObjectDBX Classes
 90
     4095
 91
        1
280
     0
281
     0
  0
CLASS
  1
MLEADERSTYLE
  2
AcDbMLeaderStyle
  3
ACDB_MLEADERSTYLE_CLASS
 90
     4095
 91
        1
280
     0
281
     0
  0
CLASS
  1
ACDBSECTIONVIEWSTYLE
  2
AcDbSectionViewStyle
  3
ObjectDBX Classes
 90
     1025
 91
        1
280
     0
281
     0
  0
CLASS
  1
ACDBDETAILVIEWSTYLE
  2
AcDbDetailViewStyle
  3
ObjectDBX Classes
 90
     1025
 91
        1
280
     0
281
     0
  0
CLASS
  1
DICTIONARYVAR
  2
AcDbDictionaryVar
  3
ObjectDBX Classes
 90
        0
 91
        5
280
     0
281
     0
  0
CLASS
  1
CELLSTYLEMAP
  2
AcDbCellStyleMap
  3
ObjectDBX Classes
 90
     1152
 91
        1
280
     0
281
     0
  0
ENDSEC
  0
SECTION
  2
TABLES
  0
TABLE
  2
VPORT
  5
8
330
0
100
AcDbSymbolTable
 70
     1
  0
VPORT
  5
57
330
8
100
AcDbSymbolTableRecord
100
AcDbViewportTableRecord
  2
*Active
 70
     0
 10
0.0
 20
0.0
 11
1.0
 21
1.0
 12
0.0
 22
0.0
 13
0.0
 23
0.0
 14
1.0
 24
1.0
 15
0.0
 25
0.0
 16
0.0
 26
0.0
 36
1.0
 17
104.9999999737534
 27
-148.4999999628701
 37
0.0
 40
302.939999924255
 41
0.7070707070707534
 42
50.0
 43
0.0
 44
0.0
 50
0.0
 51
0.0
 71
     0
 72
   100
 73
     1
 74
     0
 75
     1
 76
     0
 77
     0
 78
     0
281
     0
 65
     1
110
0.0
120
0.0
130
0.0
111
1.0
121
0.0
131
0.0
112
0.0
122
1.0
132
0.0
 79
     0
146
0.0
 60
     3
 61
     5
292
     1
282
     1
141
0.0
142
0.0
 63
   250
421
  3355443
  0
ENDTAB
  0
TABLE
  2
LTYPE
  5
5
330
0
100
AcDbSymbolTable
 70
     2
  0
LTYPE
  5
5B
330
5
100
AcDbSymbolTableRecord
100
AcDbLinetypeTableRecord
  2
ByBlock
 70
     0
  3

 72
    65
 73
     0
 40
0.0
  0
LTYPE
  5
5C
330
5
100
AcDbSymbolTableRecord
100
AcDbLinetypeTableRecord
  2
ByLayer
 70
     0
  3

 72
    65
 73
     0
 40
0.0
  0
LTYPE
  5
5D
330
5
100
AcDbSymbolTableRecord
100
AcDbLinetypeTableRecord
  2
Continuous
 70
     0
  3
Solid line
 72
    65
 73
     0
 40
0.0
  0
LTYPE
  5
CC
330
5
100
AcDbSymbolTableRecord
100
AcDbLinetypeTableRecord
  2
AI-Linetype-0
 70
     0
  3
Adobe Illustrator Linetype No. 0
 72
    65
 73
     2
 40
1.411111110758333
 49
0.7055555553791667
 74
     0
 49
-0.7055555553791667
 74
     0
  0
ENDTAB
  0
TABLE
  2
LAYER
  5
2
330
0
100
AcDbSymbolTable
 70
     2
  0
LAYER
  5
54
330
2
100
AcDbSymbolTableRecord
100
AcDbLayerTableRecord
  2
0
 70
     0
 62
     7
  6
Continuous
370
    -3
390
F
347
21
  0
LAYER
  5
78
330
2
100
AcDbSymbolTableRecord
100
AcDbLayerTableRecord
  2
レイヤー 1
 70
     0
 62
     7
  6
Continuous
370
     0
390
F
347
21
  0
ENDTAB
  0
TABLE
  2
STYLE
  5
3
330
0
100
AcDbSymbolTable
 70
     2
  0
STYLE
  5
55
330
3
100
AcDbSymbolTableRecord
100
AcDbTextStyleTableRecord
  2
Standard
 70
     0
 40
0.0
 41
1.0
 50
0.0
 71
     0
 42
0.2
  3
txt
  4

  0
STYLE
  5
5A
330
3
100
AcDbSymbolTableRecord
100
AcDbTextStyleTableRecord
  2
Annotative
 70
     0
 40
0.0
 41
1.0
 50
0.0
 71
     0
 42
0.2
  3
txt
  4

1001
AcadAnnotative
1000
AnnotativeData
1002
{
1070
     1
1070
     1
1002
}
  0
ENDTAB
  0
TABLE
  2
VIEW
  5
6
330
0
100
AcDbSymbolTable
 70
     0
  0
ENDTAB
  0
TABLE
  2
UCS
  5
7
330
0
100
AcDbSymbolTable
 70
     0
  0
ENDTAB
  0
TABLE
  2
APPID
  5
9
330
0
100
AcDbSymbolTable
 70
     2
  0
APPID
  5
56
330
9
100
AcDbSymbolTableRecord
100
AcDbRegAppTableRecord
  2
ACAD
 70
     0
  0
APPID
  5
5E
330
9
100
AcDbSymbolTableRecord
100
AcDbRegAppTableRecord
  2
AcadAnnotative
 70
     0
  0
ENDTAB
  0
TABLE
  2
DIMSTYLE
  5
A
330
0
100
AcDbSymbolTable
 70
     2
100
AcDbDimStyleTable
 71
     0
  0
DIMSTYLE
105
58
330
A
100
AcDbSymbolTableRecord
100
AcDbDimStyleTableRecord
  2
Standard
 70
     0
340
55
  0
DIMSTYLE
105
59
330
A
100
AcDbSymbolTableRecord
100
AcDbDimStyleTableRecord
  2
Annotative
 70
     0
340
55
1001
AcadAnnotative
1000
AnnotativeData
1002
{
1070
     1
1070
     1
1002
}
  0
ENDTAB
  0
TABLE
  2
BLOCK_RECORD
  5
1
330
0
100
AcDbSymbolTable
 70
    12
  0
BLOCK_RECORD
  5
70
330
1
100
AcDbSymbolTableRecord
100
AcDbBlockTableRecord
  2
*Model_Space
340
73
 70
     0
280
     1
281
     0
  0
BLOCK_RECORD
  5
6C
330
1
100
AcDbSymbolTableRecord
100
AcDbBlockTableRecord
  2
*Paper_Space
340
6F
 70
     0
280
     1
281
     0
  0
BLOCK_RECORD
  5
74
330
1
100
AcDbSymbolTableRecord
100
AcDbBlockTableRecord
  2
*Paper_Space0
340
77
 70
     0
280
     1
281
     0
  0
BLOCK_RECORD
  5
81
330
1
100
AcDbSymbolTableRecord
100
AcDbBlockTableRecord
  2
Block_0
340
0
102
{BLKREFS
331
82
102
}
 70
     0
280
     1
281
     0
  0
BLOCK_RECORD
  5
85
330
1
100
AcDbSymbolTableRecord
100
AcDbBlockTableRecord
  2
Block_1
340
0
102
{BLKREFS
331
86
102
}
 70
     0
280
     1
281
     0
  0
BLOCK_RECORD
  5
91
330
1
100
AcDbSymbolTableRecord
100
AcDbBlockTableRecord
  2
Block_2
340
0
102
{BLKREFS
331
92
102
}
 70
     0
280
     1
281
     0
  0
BLOCK_RECORD
  5
95
330
1
100
AcDbSymbolTableRecord
100
AcDbBlockTableRecord
  2
Block_3
340
0
102
{BLKREFS
331
96
102
}
 70
     0
280
     1
281
     0
  0
BLOCK_RECORD
  5
A0
330
1
100
AcDbSymbolTableRecord
100
AcDbBlockTableRecord
  2
Block_4
340
0
102
{BLKREFS
331
A1
102
}
 70
     0
280
     1
281
     0
  0
BLOCK_RECORD
  5
A6
330
1
100
AcDbSymbolTableRecord
100
AcDbBlockTableRecord
  2
Block_5
340
0
102
{BLKREFS
331
A7
102
}
 70
     0
280
     1
281
     0
  0
BLOCK_RECORD
  5
BB
330
1
100
AcDbSymbolTableRecord
100
AcDbBlockTableRecord
  2
Block_6
340
0
102
{BLKREFS
331
BC
102
}
 70
     0
280
     1
281
     0
  0
BLOCK_RECORD
  5
BF
330
1
100
AcDbSymbolTableRecord
100
AcDbBlockTableRecord
  2
Block_7
340
0
102
{BLKREFS
331
C0
102
}
 70
     0
280
     1
281
     0
  0
BLOCK_RECORD
  5
C7
330
1
100
AcDbSymbolTableRecord
100
AcDbBlockTableRecord
  2
Block_8
340
0
102
{BLKREFS
331
C8
102
}
 70
     0
280
     1
281
     0
  0
BLOCK_RECORD
  5
CF
330
1
100
AcDbSymbolTableRecord
100
AcDbBlockTableRecord
  2
Block_9
340
0
102
{BLKREFS
331
D0
102
}
 70
     0
280
     1
281
     0
  0
BLOCK_RECORD
  5
D3
330
1
100
AcDbSymbolTableRecord
100
AcDbBlockTableRecord
  2
Block_10
340
0
102
{BLKREFS
331
D4
102
}
 70
     0
280
     1
281
     0
  0
ENDTAB
  0
ENDSEC
  0
SECTION
  2
BLOCKS
  0
BLOCK
  5
71
330
70
100
AcDbEntity
  8
0
100
AcDbBlockBegin
  2
*Model_Space
 70
     0
 10
0.0
 20
0.0
 30
0.0
  3
*Model_Space
  1

  0
ENDBLK
  5
72
330
70
100
AcDbEntity
  8
0
100
AcDbBlockEnd
  0
BLOCK
  5
6D
330
6C
100
AcDbEntity
 67
     1
  8
0
100
AcDbBlockBegin
  2
*Paper_Space
 70
     0
 10
0.0
 20
0.0
 30
0.0
  3
*Paper_Space
  1

  0
ENDBLK
  5
6E
330
6C
100
AcDbEntity
 67
     1
  8
0
100
AcDbBlockEnd
  0
BLOCK
  5
75
330
74
100
AcDbEntity
 67
     1
  8
0
100
AcDbBlockBegin
  2
*Paper_Space0
 70
     0
 10
0.0
 20
0.0
 30
0.0
  3
*Paper_Space0
  1

  0
ENDBLK
  5
76
330
74
100
AcDbEntity
 67
     1
  8
0
100
AcDbBlockEnd
  0
BLOCK
  5
83
330
81
100
AcDbEntity
  8
0
100
AcDbBlockBegin
  2
Block_0
 70
     0
 10
0.0
 20
0.0
 30
0.0
  3
Block_0
  1

  0
INSERT
  5
86
330
81
100
AcDbEntity
  8
レイヤー 1
100
AcDbBlockReference
  2
Block_1
 10
0.0
 20
0.0
 30
0.0
  0
ENDBLK
  5
84
330
81
100
AcDbEntity
  8
0
100
AcDbBlockEnd
  0
BLOCK
  5
87
330
85
100
AcDbEntity
  8
0
100
AcDbBlockBegin
  2
Block_1
 70
     0
 10
0.0
 20
0.0
 30
0.0
  3
Block_1
  1

  0
SPLINE
  5
89
330
85
100
AcDbEntity
  8
レイヤー 1
100
AcDbSpline
210
0.0
220
0.0
230
1.0
 70
    11
 71
     3
 72
    26
 73
    22
 74
     0
 42
0.0000000001
 43
0.0000000001
 40
0.0
 40
0.0
 40
0.0
 40
0.0
 40
1.0
 40
1.0
 40
1.0
 40
2.0
 40
2.0
 40
2.0
 40
3.0
 40
3.0
 40
3.0
 40
4.0
 40
4.0
 40
4.0
 40
5.0
 40
5.0
 40
5.0
 40
6.0
 40
6.0
 40
6.0
 40
7.0
 40
7.0
 40
7.0
 40
7.0
 10
95.76400822258678
 20
-159.0776285409598
 30
0.0
 10
95.76400822258678
 20
-159.0776285409598
 30
0.0
 10
95.76400822258678
 20
-157.9734754379372
 30
0.0
 10
95.76400822258678
 20
-157.9734754379372
 30
0.0
 10
95.76400822258678
 20
-157.9734754379372
 30
0.0
 10
95.43396807509983
 20
-157.9734754379372
 30
0.0
 10
95.43396807509983
 20
-157.9734754379372
 30
0.0
 10
95.43396807509983
 20
-157.9734754379372
 30
0.0
 10
95.43396807509983
 20
-157.8253363320714
 30
0.0
 10
95.43396807509983
 20
-157.8253363320714
 30
0.0
 10
95.76607527987793
 20
-157.8105224214849
 30
0.0
 10
95.8125840689288
 20
-157.6475694050325
 30
0.0
 10
95.84221189010195
 20
-157.5331922349223
 30
0.0
 10
95.84221189010195
 20
-157.5331922349223
 30
0.0
 10
95.98828393867654
 20
-157.5331922349223
 30
0.0
 10
95.98828393867654
 20
-157.5331922349223
 30
0.0
 10
95.98828393867654
 20
-157.5331922349223
 30
0.0
 10
95.98828393867654
 20
-159.0776285409598
 30
0.0
 10
95.98828393867654
 20
-159.0776285409598
 30
0.0
 10
95.98828393867654
 20
-159.0776285409598
 30
0.0
 10
95.76400822258678
 20
-159.0776285409598
 30
0.0
 10
95.76400822258678
 20
-159.0776285409598
 30
0.0
  0
HATCH
  5
8A
330
85
100
AcDbEntity
  8
レイヤー 1
 62
   250
420
  2299925
440
 33554687
100
AcDbHatch
 10
0.0
 20
0.0
 30
0.0
210
0.0
220
0.0
230
1.0
  2
SOLID
 70
     1
 71
     1
 91
        1
 92
        1
 93
        1
 72
     4
 94
        3
 73
     0
 74
     0
 95
       26
 96
       22
 40
0.0
 40
0.0
 40
0.0
 40
0.0
 40
1.0
 40
1.0
 40
1.0
 40
2.0
 40
2.0
 40
2.0
 40
3.0
 40
3.0
 40
3.0
 40
4.0
 40
4.0
 40
4.0
 40
5.0
 40
5.0
 40
5.0
 40
6.0
 40
6.0
 40
6.0
 40
7.0
 40
7.0
 40
7.0
 40
7.0
 10
95.76400822258678
 20
-159.0776285409598
 10
95.76400822258678
 20
-159.0776285409598
 10
95.76400822258678
 20
-157.9734754379372
 10
95.76400822258678
 20
-157.9734754379372
 10
95.76400822258678
 20
-157.9734754379372
 10
95.43396807509983
 20
-157.9734754379372
 10
95.43396807509983
 20
-157.9734754379372
 10
95.43396807509983
 20
-157.9734754379372
 10
95.43396807509983
 20
-157.8253363320714
 10
95.43396807509983
 20
-157.8253363320714
 10
95.76607527987793
 20
-157.8105224214849
 10
95.8125840689288
 20
-157.6475694050325
 10
95.84221189010195
 20
-157.5331922349223
 10
95.84221189010195
 20
-157.5331922349223
 10
95.98828393867654
 20
-157.5331922349223
 10
95.98828393867654
 20
-157.5331922349223
 10
95.98828393867654
 20
-157.5331922349223
 10
95.98828393867654
 20
-159.0776285409598
 10
95.98828393867654
 20
-159.0776285409598
 10
95.98828393867654
 20
-159.0776285409598
 10
95.76400822258678
 20
-159.0776285409598
 10
95.76400822258678
 20
-159.0776285409598
 97
        0
 97
        1
330
89
 75
     2
 76
     1
 98
        1
 10
0.0
 20
0.0
450
        0
451
        0
460
0.0
461
0.0
452
        0
462
0.0
453
        0
470

  0
SPLINE
  5
8B
330
85
100
AcDbEntity
  8
レイヤー 1
100
AcDbSpline
210
0.0
220
0.0
230
1.0
 70
     9
 71
     3
 72
    17
 73
    13
 74
     0
 42
0.0000000001
 43
0.0000000001
 40
0.0
 40
0.0
 40
0.0
 40
0.0
 40
1.0
 40
1.0
 40
1.0
 40
2.0
 40
2.0
 40
2.0
 40
3.0
 40
3.0
 40
3.0
 40
4.0
 40
4.0
 40
4.0
 40
4.0
 10
96.98942868669014
 20
-157.6771972262057
 30
0.0
 10
96.74000377355806
 20
-157.6771972262057
 30
0.0
 10
96.69315047495866
 20
-157.9607285846418
 30
0.0
 10
96.69315047495866
 20
-158.3055826427153
 30
0.0
 10
96.69315047495866
 20
-158.6249429941979
 30
0.0
 10
96.7293239775538
 20
-158.9336235496763
 30
0.0
 10
96.98942868669014
 20
-158.9336235496763
 30
0.0
 10
97.23713105207961
 20
-158.9336235496763
 30
0.0
 10
97.28570689842165
 20
-158.6525037580799
 30
0.0
 10
97.28570689842165
 20
-158.3055826427153
 30
0.0
 10
97.28570689842165
 20
-157.9858777816841
 30
0.0
 10
97.24746633853536
 20
-157.6771972262057
 30
0.0
 10
96.98942868669014
 20
-157.6771972262057
 30
0.0
  0
SPLINE
  5
8C
330
85
100
AcDbEntity
  8
レイヤー 1
100
AcDbSpline
210
0.0
220
0.0
230
1.0
 70
     9
 71
     3
 72
    29
 73
    25
 74
     0
 42
0.0000000001
 43
0.0000000001
 40
0.0
 40
0.0
 40
0.0
 40
0.0
 40
1.0
 40
1.0
 40
1.0
 40
2.0
 40
2.0
 40
2.0
 40
3.0
 40
3.0
 40
3.0
 40
4.0
 40
4.0
 40
4.0
 40
5.0
 40
5.0
 40
5.0
 40
6.0
 40
6.0
 40
6.0
 40
7.0
 40
7.0
 40
7.0
 40
8.0
 40
8.0
 40
8.0
 40
8.0
 10
97.38733721523651
 20
-158.8998616139209
 30
0.0
 10
97.27916121699966
 20
-159.109323419424
 30
0.0
 10
97.1058729140916
 20
-159.1282714445929
 30
0.0
 10
96.98942868669014
 20
-159.1282714445929
 30
0.0
 10
96.82854272752898
 20
-159.1282714445929
 30
0.0
 10
96.68694930308522
 20
-159.081762655542
 30
0.0
 10
96.59186466769233
 20
-158.8998616139209
 30
0.0
 10
96.4881672935863
 20
-158.7052137190042
 30
0.0
 10
96.46921926841741
 20
-158.4685356591676
 30
0.0
 10
96.46921926841741
 20
-158.3055826427153
 30
0.0
 10
96.46921926841741
 20
-158.1615776514318
 30
0.0
 10
96.48610023629515
 20
-157.9097411714601
 30
0.0
 10
96.59186466769233
 20
-157.7109591619611
 30
0.0
 10
96.69969615638065
 20
-157.5080430378799
 30
0.0
 10
96.86058211554181
 20
-157.4846163885802
 30
0.0
 10
96.98942868669014
 20
-157.4846163885802
 30
0.0
 10
97.14824758856018
 20
-157.4846163885802
 30
0.0
 10
97.29190807029509
 20
-157.5290581203399
 30
0.0
 10
97.38733721523651
 20
-157.7109591619611
 30
0.0
 10
97.48655596521169
 20
-157.9035399995866
 30
0.0
 10
97.5099826145114
 20
-158.1319498302587
 30
0.0
 10
97.5099826145114
 20
-158.3055826427153
 30
0.0
 10
97.5099826145114
 20
-158.4768038883322
 30
0.0
 10
97.48862302250286
 20
-158.7072807762954
 30
0.0
 10
97.38733721523651
 20
-158.8998616139209
 30
0.0
  0
HATCH
  5
8D
330
85
100
AcDbEntity
  8
レイヤー 1
 62
   250
420
  2299925
440
 33554687
100
AcDbHatch
 10
0.0
 20
0.0
 30
0.0
210
0.0
220
0.0
230
1.0
  2
SOLID
 70
     1
 71
     1
 91
        2
 92
        1
 93
        1
 72
     4
 94
        3
 73
     0
 74
     0
 95
       17
 96
       13
 40
0.0
 40
0.0
 40
0.0
 40
0.0
 40
1.0
 40
1.0
 40
1.0
 40
2.0
 40
2.0
 40
2.0
 40
3.0
 40
3.0
 40
3.0
 40
4.0
 40
4.0
 40
4.0
 40
4.0
 10
96.98942868669014
 20
-157.6771972262057
 10
96.74000377355806
 20
-157.6771972262057
 10
96.69315047495866
 20
-157.9607285846418
 10
96.69315047495866
 20
-158.3055826427153
 10
96.69315047495866
 20
-158.6249429941979
 10
96.7293239775538
 20
-158.9336235496763
 10
96.98942868669014
 20
-158.9336235496763
 10
97.23713105207961
 20
-158.9336235496763
 10
97.28570689842165
 20
-158.6525037580799
 10
97.28570689842165
 20
-158.3055826427153
 10
97.28570689842165
 20
-157.9858777816841
 10
97.24746633853536
 20
-157.6771972262057
 10
96.98942868669014
 20
-157.6771972262057
 97
        0
 97
        1
330
8B
 92
        1
 93
        1
 72
     4
 94
        3
 73
     0
 74
     0
 95
       29
 96
       25
 40
0.0
 40
0.0
 40
0.0
 40
0.0
 40
1.0
 40
1.0
 40
1.0
 40
2.0
 40
2.0
 40
2.0
 40
3.0
 40
3.0
 40
3.0
 40
4.0
 40
4.0
 40
4.0
 40
5.0
 40
5.0
 40
5.0
 40
6.0
 40
6.0
 40
6.0
 40
7.0
 40
7.0
 40
7.0
 40
8.0
 40
8.0
 40
8.0
 40
8.0
 10
97.38733721523651
 20
-158.8998616139209
 10
97.27916121699966
 20
-159.109323419424
 10
97.1058729140916
 20
-159.1282714445929
 10
96.98942868669014
 20
-159.1282714445929
 10
96.82854272752898
 20
-159.1282714445929
 10
96.68694930308522
 20
-159.081762655542
 10
96.59186466769233
 20
-158.8998616139209
 10
96.4881672935863
 20
-158.7052137190042
 10
96.46921926841741
 20
-158.4685356591676
 10
96.46921926841741
 20
-158.3055826427153
 10
96.46921926841741
 20
-158.1615776514318
 10
96.48610023629515
 20
-157.9097411714601
 10
96.59186466769233
 20
-157.7109591619611
 10
96.69969615638065
 20
-157.5080430378799
 10
96.86058211554181
 20
-157.4846163885802
 10
96.98942868669014
 20
-157.4846163885802
 10
97.14824758856018
 20
-157.4846163885802
 10
97.29190807029509
 20
-157.5290581203399
 10
97.38733721523651
 20
-157.7109591619611
 10
97.48655596521169
 20
-157.9035399995866
 10
97.5099826145114
 20
-158.1319498302587
 10
97.5099826145114
 20
-158.3055826427153
 10
97.5099826145114
 20
-158.4768038883322
 10
97.48862302250286
 20
-158.7072807762954
 10
97.38733721523651
 20
-158.8998616139209
 97
        0
 97
        1
330
8C
 75
     2
 76
     1
 98
        1
 10
0.0
 20
0.0
450
        0
451
        0
460
0.0
461
0.0
452
        0
462
0.0
453
        0
470

  0
ENDBLK
  5
88
330
85
100
AcDbEntity
  8
0
100
AcDbBlockEnd
  0
BLOCK
  5
93
330
91
100
AcDbEntity
  8
0
100
AcDbBlockBegin
  2
Block_2
 70
     0
 10
0.0
 20
0.0
 30
0.0
  3
Block_2
  1

  0
INSERT
  5
96
330
91
100
AcDbEntity
  8
レイヤー 1
100
AcDbBlockReference
  2
Block_3
 10
0.0
 20
0.0
 30
0.0
  0
ENDBLK
  5
94
330
91
100
AcDbEntity
  8
0
100
AcDbBlockEnd
  0
BLOCK
  5
97
330
95
100
AcDbEntity
  8
0
100
AcDbBlockBegin
  2
Block_3
 70
     0
 10
0.0
 20
0.0
 30
0.0
  3
Block_3
  1

  0
SPLINE
  5
99
330
95
100
AcDbEntity
  8
レイヤー 1
100
AcDbSpline
210
0.0
220
0.0
230
1.0
 70
     9
 71
     3
 72
    17
 73
    13
 74
     0
 42
0.0000000001
 43
0.0000000001
 40
0.0
 40
0.0
 40
0.0
 40
0.0
 40
1.0
 40
1.0
 40
1.0
 40
2.0
 40
2.0
 40
2.0
 40
3.0
 40
3.0
 40
3.0
 40
4.0
 40
4.0
 40
4.0
 40
4.0
 10
116.126934107253
 20
-150.3708387210878
 30
0.0
 10
116.126934107253
 20
-150.6330104875154
 30
0.0
 10
116.3384629700473
 20
-150.6712510474016
 30
0.0
 10
116.4545626879002
 20
-150.6712510474016
 30
0.0
 10
116.630262557648
 20
-150.6712510474016
 30
0.0
 10
116.7932155741003
 20
-150.5758219024602
 30
0.0
 10
116.7932155741003
 20
-150.3918538035479
 30
0.0
 10
116.7932155741003
 20
-150.2712754615641
 30
0.0
 10
116.733959931754
 20
-150.0955755918164
 30
0.0
 10
116.4483615160268
 20
-150.0955755918164
 30
0.0
 10
116.224085799937
 20
-150.0955755918164
 30
0.0
 10
116.126934107253
 20
-150.235101958969
 30
0.0
 10
116.126934107253
 20
-150.3708387210878
 30
0.0
  0
SPLINE
  5
9A
330
95
100
AcDbEntity
  8
レイヤー 1
100
AcDbSpline
210
0.0
220
0.0
230
1.0
 70
     9
 71
     3
 72
    32
 73
    28
 74
     0
 42
0.0000000001
 43
0.0000000001
 40
0.0
 40
0.0
 40
0.0
 40
0.0
 40
1.0
 40
1.0
 40
1.0
 40
2.0
 40
2.0
 40
2.0
 40
3.0
 40
3.0
 40
3.0
 40
4.0
 40
4.0
 40
4.0
 40
5.0
 40
5.0
 40
5.0
 40
6.0
 40
6.0
 40
6.0
 40
7.0
 40
7.0
 40
7.0
 40
8.0
 40
8.0
 40
8.0
 40
9.0
 40
9.0
 40
9.0
 40
9.0
 10
116.9857964117257
 20
-150.387375179417
 30
0.0
 10
116.9857964117257
 20
-150.903794992656
 30
0.0
 10
116.4314805481491
 20
-150.9124077313691
 30
0.0
 10
116.2178846280636
 20
-150.9124077313691
 30
0.0
 10
115.9870632305518
 20
-150.9124077313691
 30
0.0
 10
115.3397297888734
 20
-150.8931151966517
 30
0.0
 10
115.3397297888734
 20
-150.3494791290793
 30
0.0
 10
115.3397297888734
 20
-150.1758463166227
 30
0.0
 10
115.409665227224
 20
-149.9305555180729
 30
0.0
 10
115.741772432002
 20
-149.8926594677351
 30
0.0
 10
115.741772432002
 20
-149.8926594677351
 30
0.0
 10
115.741772432002
 20
-150.1062553878206
 30
0.0
 10
115.741772432002
 20
-150.1062553878206
 30
0.0
 10
115.6845838469469
 20
-150.1165906742764
 30
0.0
 10
115.5364447410812
 20
-150.1482855527407
 30
0.0
 10
115.5364447410812
 20
-150.3515461863704
 30
0.0
 10
115.5364447410812
 20
-150.6436902835196
 30
0.0
 10
115.8644178312769
 20
-150.6836533911485
 30
0.0
 10
116.0697455221978
 20
-150.6964002444439
 30
0.0
 10
115.9915418546827
 20
-150.6033826663422
 30
0.0
 10
115.9322862123363
 20
-150.5355142852828
 30
0.0
 10
115.9322862123363
 20
-150.3536132436616
 30
0.0
 10
115.9322862123363
 20
-150.1737792593315
 30
0.0
 10
116.0401177010247
 20
-149.8712998757266
 30
0.0
 10
116.4462944587356
 20
-149.8712998757266
 30
0.0
 10
116.7656548102183
 20
-149.8712998757266
 30
0.0
 10
116.9857964117257
 20
-150.070426394774
 30
0.0
 10
116.9857964117257
 20
-150.387375179417
 30
0.0
  0
HATCH
  5
9B
330
95
100
AcDbEntity
  8
レイヤー 1
 62
   250
420
  2299925
440
 33554687
100
AcDbHatch
 10
0.0
 20
0.0
 30
0.0
210
0.0
220
0.0
230
1.0
  2
SOLID
 70
     1
 71
     1
 91
        2
 92
        1
 93
        1
 72
     4
 94
        3
 73
     0
 74
     0
 95
       17
 96
       13
 40
0.0
 40
0.0
 40
0.0
 40
0.0
 40
1.0
 40
1.0
 40
1.0
 40
2.0
 40
2.0
 40
2.0
 40
3.0
 40
3.0
 40
3.0
 40
4.0
 40
4.0
 40
4.0
 40
4.0
 10
116.126934107253
 20
-150.3708387210878
 10
116.126934107253
 20
-150.6330104875154
 10
116.3384629700473
 20
-150.6712510474016
 10
116.4545626879002
 20
-150.6712510474016
 10
116.630262557648
 20
-150.6712510474016
 10
116.7932155741003
 20
-150.5758219024602
 10
116.7932155741003
 20
-150.3918538035479
 10
116.7932155741003
 20
-150.2712754615641
 10
116.733959931754
 20
-150.0955755918164
 10
116.4483615160268
 20
-150.0955755918164
 10
116.224085799937
 20
-150.0955755918164
 10
116.126934107253
 20
-150.235101958969
 10
116.126934107253
 20
-150.3708387210878
 97
        0
 97
        1
330
99
 92
        1
 93
        1
 72
     4
 94
        3
 73
     0
 74
     0
 95
       32
 96
       28
 40
0.0
 40
0.0
 40
0.0
 40
0.0
 40
1.0
 40
1.0
 40
1.0
 40
2.0
 40
2.0
 40
2.0
 40
3.0
 40
3.0
 40
3.0
 40
4.0
 40
4.0
 40
4.0
 40
5.0
 40
5.0
 40
5.0
 40
6.0
 40
6.0
 40
6.0
 40
7.0
 40
7.0
 40
7.0
 40
8.0
 40
8.0
 40
8.0
 40
9.0
 40
9.0
 40
9.0
 40
9.0
 10
116.9857964117257
 20
-150.387375179417
 10
116.9857964117257
 20
-150.903794992656
 10
116.4314805481491
 20
-150.9124077313691
 10
116.2178846280636
 20
-150.9124077313691
 10
115.9870632305518
 20
-150.9124077313691
 10
115.3397297888734
 20
-150.8931151966517
 10
115.3397297888734
 20
-150.3494791290793
 10
115.3397297888734
 20
-150.1758463166227
 10
115.409665227224
 20
-149.9305555180729
 10
115.741772432002
 20
-149.8926594677351
 10
115.741772432002
 20
-149.8926594677351
 10
115.741772432002
 20
-150.1062553878206
 10
115.741772432002
 20
-150.1062553878206
 10
115.6845838469469
 20
-150.1165906742764
 10
115.5364447410812
 20
-150.1482855527407
 10
115.5364447410812
 20
-150.3515461863704
 10
115.5364447410812
 20
-150.6436902835196
 10
115.8644178312769
 20
-150.6836533911485
 10
116.0697455221978
 20
-150.6964002444439
 10
115.9915418546827
 20
-150.6033826663422
 10
115.9322862123363
 20
-150.5355142852828
 10
115.9322862123363
 20
-150.3536132436616
 10
115.9322862123363
 20
-150.1737792593315
 10
116.0401177010247
 20
-149.8712998757266
 10
116.4462944587356
 20
-149.8712998757266
 10
116.7656548102183
 20
-149.8712998757266
 10
116.9857964117257
 20
-150.070426394774
 10
116.9857964117257
 20
-150.387375179417
 97
        0
 97
        1
330
9A
 75
     2
 76
     1
 98
        1
 10
0.0
 20
0.0
450
        0
451
        0
460
0.0
461
0.0
452
        0
462
0.0
453
        0
470

  0
SPLINE
  5
9C
330
95
100
AcDbEntity
  8
レイヤー 1
100
AcDbSpline
210
0.0
220
0.0
230
1.0
 70
    11
 71
     3
 72
    17
 73
    13
 74
     0
 42
0.0000000001
 43
0.0000000001
 40
0.0
 40
0.0
 40
0.0
 40
0.0
 40
1.0
 40
1.0
 40
1.0
 40
2.0
 40
2.0
 40
2.0
 40
3.0
 40
3.0
 40
3.0
 40
4.0
 40
4.0
 40
4.0
 40
4.0
 10
116.9348089985441
 20
-149.6549478792529
 30
0.0
 10
116.9348089985441
 20
-149.6549478792529
 30
0.0
 10
116.6833170281208
 20
-149.6549478792529
 30
0.0
 10
116.6833170281208
 20
-149.6549478792529
 30
0.0
 10
116.6833170281208
 20
-149.6549478792529
 30
0.0
 10
116.6833170281208
 20
-149.4034559088297
 30
0.0
 10
116.6833170281208
 20
-149.4034559088297
 30
0.0
 10
116.6833170281208
 20
-149.4034559088297
 30
0.0
 10
116.9348089985441
 20
-149.4034559088297
 30
0.0
 10
116.9348089985441
 20
-149.4034559088297
 30
0.0
 10
116.9348089985441
 20
-149.4034559088297
 30
0.0
 10
116.9348089985441
 20
-149.6549478792529
 30
0.0
 10
116.9348089985441
 20
-149.6549478792529
 30
0.0
  0
HATCH
  5
9D
330
95
100
AcDbEntity
  8
レイヤー 1
 62
   250
420
  2299925
440
 33554687
100
AcDbHatch
 10
0.0
 20
0.0
 30
0.0
210
0.0
220
0.0
230
1.0
  2
SOLID
 70
     1
 71
     1
 91
        1
 92
        1
 93
        1
 72
     4
 94
        3
 73
     0
 74
     0
 95
       17
 96
       13
 40
0.0
 40
0.0
 40
0.0
 40
0.0
 40
1.0
 40
1.0
 40
1.0
 40
2.0
 40
2.0
 40
2.0
 40
3.0
 40
3.0
 40
3.0
 40
4.0
 40
4.0
 40
4.0
 40
4.0
 10
116.9348089985441
 20
-149.6549478792529
 10
116.9348089985441
 20
-149.6549478792529
 10
116.6833170281208
 20
-149.6549478792529
 10
116.6833170281208
 20
-149.6549478792529
 10
116.6833170281208
 20
-149.6549478792529
 10
116.6833170281208
 20
-149.4034559088297
 10
116.6833170281208
 20
-149.4034559088297
 10
116.6833170281208
 20
-149.4034559088297
 10
116.9348089985441
 20
-149.4034559088297
 10
116.9348089985441
 20
-149.4034559088297
 10
116.9348089985441
 20
-149.4034559088297
 10
116.9348089985441
 20
-149.6549478792529
 10
116.9348089985441
 20
-149.6549478792529
 97
        0
 97
        1
330
9C
 75
     2
 76
     1
 98
        1
 10
0.0
 20
0.0
450
        0
451
        0
460
0.0
461
0.0
452
        0
462
0.0
453
        0
470

  0
SPLINE
  5
9E
330
95
100
AcDbEntity
  8
レイヤー 1
100
AcDbSpline
210
0.0
220
0.0
230
1.0
 70
     9
 71
     3
 72
    62
 73
    58
 74
     0
 42
0.0000000001
 43
0.0000000001
 40
0.0
 40
0.0
 40
0.0
 40
0.0
 40
1.0
 40
1.0
 40
1.0
 40
2.0
 40
2.0
 40
2.0
 40
3.0
 40
3.0
 40
3.0
 40
4.0
 40
4.0
 40
4.0
 40
5.0
 40
5.0
 40
5.0
 40
6.0
 40
6.0
 40
6.0
 40
7.0
 40
7.0
 40
7.0
 40
8.0
 40
8.0
 40
8.0
 40
9.0
 40
9.0
 40
9.0
 40
10.0
 40
10.0
 40
10.0
 40
11.0
 40
11.0
 40
11.0
 40
12.0
 40
12.0
 40
12.0
 40
13.0
 40
13.0
 40
13.0
 40
14.0
 40
14.0
 40
14.0
 40
15.0
 40
15.0
 40
15.0
 40
16.0
 40
16.0
 40
16.0
 40
17.0
 40
17.0
 40
17.0
 40
18.0
 40
18.0
 40
18.0
 40
19.0
 40
19.0
 40
19.0
 40
19.0
 10
116.9857964117257
 20
-148.6751627232479
 30
0.0
 10
116.9857964117257
 20
-148.770419613415
 30
0.0
 10
116.9644368197172
 20
-148.9883219028571
 30
0.0
 10
116.7784016635137
 20
-149.1130343594231
 30
0.0
 10
116.6660915506946
 20
-149.187103912356
 30
0.0
 10
116.5668728007194
 20
-149.1912380269383
 30
0.0
 10
116.4821234517822
 20
-149.1953721415206
 30
0.0
 10
116.4821234517822
 20
-149.1953721415206
 30
0.0
 10
116.4821234517822
 20
-148.9755750495616
 30
0.0
 10
116.4821234517822
 20
-148.9755750495616
 30
0.0
 10
116.5561930047151
 20
-148.9735079922705
 30
0.0
 10
116.7911485168091
 20
-148.9628281962662
 30
0.0
 10
116.7911485168091
 20
-148.6792968378302
 30
0.0
 10
116.7911485168091
 20
-148.5418375279687
 30
0.0
 10
116.7212130784586
 20
-148.3895643075206
 30
0.0
 10
116.4928032477865
 20
-148.3895643075206
 30
0.0
 10
116.3763590203851
 20
-148.3895643075206
 30
0.0
 10
116.327783174043
 20
-148.4276326126327
 30
0.0
 10
116.2960882955787
 20
-148.4593274910969
 30
0.0
 10
116.2220187426459
 20
-148.5333970440298
 30
0.0
 10
116.2092718893504
 20
-148.6498412714313
 30
0.0
 10
116.2092718893504
 20
-148.704790544421
 30
0.0
 10
116.2092718893504
 20
-148.7237385695899
 30
0.0
 10
116.2113389466416
 20
-148.7597398174107
 30
0.0
 10
116.2154730612239
 20
-148.7873005812927
 30
0.0
 10
116.2154730612239
 20
-148.7873005812927
 30
0.0
 10
116.0211696758558
 20
-148.7873005812927
 30
0.0
 10
116.0211696758558
 20
-148.7873005812927
 30
0.0
 10
116.0273708477292
 20
-148.7492322761807
 30
0.0
 10
116.0294379050204
 20
-148.7068576017122
 30
0.0
 10
116.0294379050204
 20
-148.7004841750644
 30
0.0
 10
116.0294379050204
 20
-148.6350273608447
 30
0.0
 10
116.0084228225604
 20
-148.4360730965715
 30
0.0
 10
115.7714002531752
 20
-148.4360730965715
 30
0.0
 10
115.5936333261363
 20
-148.4360730965715
 30
0.0
 10
115.5385117983723
 20
-148.5673312345595
 30
0.0
 10
115.5385117983723
 20
-148.677229780539
 30
0.0
 10
115.5385117983723
 20
-148.9418131138062
 30
0.0
 10
115.7714002531752
 20
-148.9500813429708
 30
0.0
 10
115.8434027488169
 20
-148.9542154575531
 30
0.0
 10
115.8434027488169
 20
-148.9542154575531
 30
0.0
 10
115.8434027488169
 20
-149.1574760911829
 30
0.0
 10
115.8434027488169
 20
-149.1574760911829
 30
0.0
 10
115.7183457827023
 20
-149.1492078620183
 30
0.0
 10
115.3417968461645
 20
-149.1216470981362
 30
0.0
 10
115.3417968461645
 20
-148.6646551820179
 30
0.0
 10
115.3417968461645
 20
-148.4403794659281
 30
0.0
 10
115.4689208695703
 20
-148.1992227819606
 30
0.0
 10
115.7648545717532
 20
-148.1992227819606
 30
0.0
 10
115.9512342375052
 20
-148.1992227819606
 30
0.0
 10
116.0335720196027
 20
-148.2943074173535
 30
0.0
 10
116.0948947192401
 20
-148.3938706768772
 30
0.0
 10
116.1224554831221
 20
-148.3323757224655
 30
0.0
 10
116.203070717477
 20
-148.1504746808443
 30
0.0
 10
116.4800563944911
 20
-148.1504746808443
 30
0.0
 10
116.8187092806912
 20
-148.1504746808443
 30
0.0
 10
116.9857964117257
 20
-148.3980047914595
 30
0.0
 10
116.9857964117257
 20
-148.6751627232479
 30
0.0
  0
HATCH
  5
9F
330
95
100
AcDbEntity
  8
レイヤー 1
 62
   250
420
  2299925
440
 33554687
100
AcDbHatch
 10
0.0
 20
0.0
 30
0.0
210
0.0
220
0.0
230
1.0
  2
SOLID
 70
     1
 71
     1
 91
        1
 92
        1
 93
        1
 72
     4
 94
        3
 73
     0
 74
     0
 95
       62
 96
       58
 40
0.0
 40
0.0
 40
0.0
 40
0.0
 40
1.0
 40
1.0
 40
1.0
 40
2.0
 40
2.0
 40
2.0
 40
3.0
 40
3.0
 40
3.0
 40
4.0
 40
4.0
 40
4.0
 40
5.0
 40
5.0
 40
5.0
 40
6.0
 40
6.0
 40
6.0
 40
7.0
 40
7.0
 40
7.0
 40
8.0
 40
8.0
 40
8.0
 40
9.0
 40
9.0
 40
9.0
 40
10.0
 40
10.0
 40
10.0
 40
11.0
 40
11.0
 40
11.0
 40
12.0
 40
12.0
 40
12.0
 40
13.0
 40
13.0
 40
13.0
 40
14.0
 40
14.0
 40
14.0
 40
15.0
 40
15.0
 40
15.0
 40
16.0
 40
16.0
 40
16.0
 40
17.0
 40
17.0
 40
17.0
 40
18.0
 40
18.0
 40
18.0
 40
19.0
 40
19.0
 40
19.0
 40
19.0
 10
116.9857964117257
 20
-148.6751627232479
 10
116.9857964117257
 20
-148.770419613415
 10
116.9644368197172
 20
-148.9883219028571
 10
116.7784016635137
 20
-149.1130343594231
 10
116.6660915506946
 20
-149.187103912356
 10
116.5668728007194
 20
-149.1912380269383
 10
116.4821234517822
 20
-149.1953721415206
 10
116.4821234517822
 20
-149.1953721415206
 10
116.4821234517822
 20
-148.9755750495616
 10
116.4821234517822
 20
-148.9755750495616
 10
116.5561930047151
 20
-148.9735079922705
 10
116.7911485168091
 20
-148.9628281962662
 10
116.7911485168091
 20
-148.6792968378302
 10
116.7911485168091
 20
-148.5418375279687
 10
116.7212130784586
 20
-148.3895643075206
 10
116.4928032477865
 20
-148.3895643075206
 10
116.3763590203851
 20
-148.3895643075206
 10
116.327783174043
 20
-148.4276326126327
 10
116.2960882955787
 20
-148.4593274910969
 10
116.2220187426459
 20
-148.5333970440298
 10
116.2092718893504
 20
-148.6498412714313
 10
116.2092718893504
 20
-148.704790544421
 10
116.2092718893504
 20
-148.7237385695899
 10
116.2113389466416
 20
-148.7597398174107
 10
116.2154730612239
 20
-148.7873005812927
 10
116.2154730612239
 20
-148.7873005812927
 10
116.0211696758558
 20
-148.7873005812927
 10
116.0211696758558
 20
-148.7873005812927
 10
116.0273708477292
 20
-148.7492322761807
 10
116.0294379050204
 20
-148.7068576017122
 10
116.0294379050204
 20
-148.7004841750644
 10
116.0294379050204
 20
-148.6350273608447
 10
116.0084228225604
 20
-148.4360730965715
 10
115.7714002531752
 20
-148.4360730965715
 10
115.5936333261363
 20
-148.4360730965715
 10
115.5385117983723
 20
-148.5673312345595
 10
115.5385117983723
 20
-148.677229780539
 10
115.5385117983723
 20
-148.9418131138062
 10
115.7714002531752
 20
-148.9500813429708
 10
115.8434027488169
 20
-148.9542154575531
 10
115.8434027488169
 20
-148.9542154575531
 10
115.8434027488169
 20
-149.1574760911829
 10
115.8434027488169
 20
-149.1574760911829
 10
115.7183457827023
 20
-149.1492078620183
 10
115.3417968461645
 20
-149.1216470981362
 10
115.3417968461645
 20
-148.6646551820179
 10
115.3417968461645
 20
-148.4403794659281
 10
115.4689208695703
 20
-148.1992227819606
 10
115.7648545717532
 20
-148.1992227819606
 10
115.9512342375052
 20
-148.1992227819606
 10
116.0335720196027
 20
-148.2943074173535
 10
116.0948947192401
 20
-148.3938706768772
 10
116.1224554831221
 20
-148.3323757224655
 10
116.203070717477
 20
-148.1504746808443
 10
116.4800563944911
 20
-148.1504746808443
 10
116.8187092806912
 20
-148.1504746808443
 10
116.9857964117257
 20
-148.3980047914595
 10
116.9857964117257
 20
-148.6751627232479
 97
        0
 97
        1
330
9E
 75
     2
 76
     1
 98
        1
 10
0.0
 20
0.0
450
        0
451
        0
460
0.0
461
0.0
452
        0
462
0.0
453
        0
470

  0
ENDBLK
  5
98
330
95
100
AcDbEntity
  8
0
100
AcDbBlockEnd
  0
BLOCK
  5
A2
330
A0
100
AcDbEntity
  8
0
100
AcDbBlockBegin
  2
Block_4
 70
     0
 10
0.0
 20
0.0
 30
0.0
  3
Block_4
  1

  0
SPLINE
  5
A4
330
A0
100
AcDbEntity
  8
レイヤー 1
100
AcDbSpline
210
0.0
220
0.0
230
1.0
 70
     9
 71
     3
 72
    62
 73
    58
 74
     0
 42
0.0000000001
 43
0.0000000001
 40
0.0
 40
0.0
 40
0.0
 40
0.0
 40
1.0
 40
1.0
 40
1.0
 40
2.0
 40
2.0
 40
2.0
 40
3.0
 40
3.0
 40
3.0
 40
4.0
 40
4.0
 40
4.0
 40
5.0
 40
5.0
 40
5.0
 40
6.0
 40
6.0
 40
6.0
 40
7.0
 40
7.0
 40
7.0
 40
8.0
 40
8.0
 40
8.0
 40
9.0
 40
9.0
 40
9.0
 40
10.0
 40
10.0
 40
10.0
 40
11.0
 40
11.0
 40
11.0
 40
12.0
 40
12.0
 40
12.0
 40
13.0
 40
13.0
 40
13.0
 40
14.0
 40
14.0
 40
14.0
 40
15.0
 40
15.0
 40
15.0
 40
16.0
 40
16.0
 40
16.0
 40
17.0
 40
17.0
 40
17.0
 40
18.0
 40
18.0
 40
18.0
 40
19.0
 40
19.0
 40
19.0
 40
19.0
 10
116.9857964117257
 20
-154.1793917800315
 30
0.0
 10
116.9857964117257
 20
-154.2748209249729
 30
0.0
 10
116.9644368197172
 20
-154.4925509596407
 30
0.0
 10
116.7784016635137
 20
-154.6172634162068
 30
0.0
 10
116.6660915506946
 20
-154.6913329691396
 30
0.0
 10
116.5668728007194
 20
-154.6958115932705
 30
0.0
 10
116.4821234517822
 20
-154.6999457078528
 30
0.0
 10
116.4821234517822
 20
-154.6999457078528
 30
0.0
 10
116.4821234517822
 20
-154.4798041063453
 30
0.0
 10
116.4821234517822
 20
-154.4798041063453
 30
0.0
 10
116.5561930047151
 20
-154.4777370490542
 30
0.0
 10
116.7911485168091
 20
-154.4670572530499
 30
0.0
 10
116.7911485168091
 20
-154.1835258946138
 30
0.0
 10
116.7911485168091
 20
-154.0460665847523
 30
0.0
 10
116.7212130784586
 20
-153.8937933643043
 30
0.0
 10
116.4928032477865
 20
-153.8937933643043
 30
0.0
 10
116.3763590203851
 20
-153.8937933643043
 30
0.0
 10
116.327783174043
 20
-153.9316894146421
 30
0.0
 10
116.2960882955787
 20
-153.9633842931064
 30
0.0
 10
116.2220187426459
 20
-154.0377983555877
 30
0.0
 10
116.2092718893504
 20
-154.1542425829892
 30
0.0
 10
116.2092718893504
 20
-154.2090196012047
 30
0.0
 10
116.2092718893504
 20
-154.2279676263736
 30
0.0
 10
116.2113389466416
 20
-154.2637966194201
 30
0.0
 10
116.2154730612239
 20
-154.2913573833021
 30
0.0
 10
116.2154730612239
 20
-154.2913573833021
 30
0.0
 10
116.0211696758558
 20
-154.2913573833021
 30
0.0
 10
116.0211696758558
 20
-154.2913573833021
 30
0.0
 10
116.0273708477292
 20
-154.2534613329644
 30
0.0
 10
116.0294379050204
 20
-154.2110866584958
 30
0.0
 10
116.0294379050204
 20
-154.2045409770738
 30
0.0
 10
116.0294379050204
 20
-154.1390841628541
 30
0.0
 10
116.0084228225604
 20
-153.9403021533552
 30
0.0
 10
115.7714002531752
 20
-153.9403021533552
 30
0.0
 10
115.5936333261363
 20
-153.9403021533552
 30
0.0
 10
115.5385117983723
 20
-154.0715602913432
 30
0.0
 10
115.5385117983723
 20
-154.1814588373227
 30
0.0
 10
115.5385117983723
 20
-154.4456976610413
 30
0.0
 10
115.7714002531752
 20
-154.4543103997545
 30
0.0
 10
115.8434027488169
 20
-154.4587890238853
 30
0.0
 10
115.8434027488169
 20
-154.4587890238853
 30
0.0
 10
115.8434027488169
 20
-154.6617051479665
 30
0.0
 10
115.8434027488169
 20
-154.6617051479665
 30
0.0
 10
115.7183457827023
 20
-154.6530924092534
 30
0.0
 10
115.3417968461645
 20
-154.6255316453714
 30
0.0
 10
115.3417968461645
 20
-154.1687119840273
 30
0.0
 10
115.3417968461645
 20
-153.944780777486
 30
0.0
 10
115.4689208695703
 20
-153.7036240935185
 30
0.0
 10
115.7648545717532
 20
-153.7036240935185
 30
0.0
 10
115.9512342375052
 20
-153.7036240935185
 30
0.0
 10
116.0335720196027
 20
-153.7987087289114
 30
0.0
 10
116.0948947192401
 20
-153.8979274788866
 30
0.0
 10
116.1224554831221
 20
-153.8366047792492
 30
0.0
 10
116.203070717477
 20
-153.654703737628
 30
0.0
 10
116.4800563944911
 20
-153.654703737628
 30
0.0
 10
116.8187092806912
 20
-153.654703737628
 30
0.0
 10
116.9857964117257
 20
-153.9020615934689
 30
0.0
 10
116.9857964117257
 20
-154.1793917800315
 30
0.0
  0
HATCH
  5
A5
330
A0
100
AcDbEntity
  8
レイヤー 1
 62
   250
420
  2299925
440
 33554687
100
AcDbHatch
 10
0.0
 20
0.0
 30
0.0
210
0.0
220
0.0
230
1.0
  2
SOLID
 70
     1
 71
     1
 91
        1
 92
        1
 93
        1
 72
     4
 94
        3
 73
     0
 74
     0
 95
       62
 96
       58
 40
0.0
 40
0.0
 40
0.0
 40
0.0
 40
1.0
 40
1.0
 40
1.0
 40
2.0
 40
2.0
 40
2.0
 40
3.0
 40
3.0
 40
3.0
 40
4.0
 40
4.0
 40
4.0
 40
5.0
 40
5.0
 40
5.0
 40
6.0
 40
6.0
 40
6.0
 40
7.0
 40
7.0
 40
7.0
 40
8.0
 40
8.0
 40
8.0
 40
9.0
 40
9.0
 40
9.0
 40
10.0
 40
10.0
 40
10.0
 40
11.0
 40
11.0
 40
11.0
 40
12.0
 40
12.0
 40
12.0
 40
13.0
 40
13.0
 40
13.0
 40
14.0
 40
14.0
 40
14.0
 40
15.0
 40
15.0
 40
15.0
 40
16.0
 40
16.0
 40
16.0
 40
17.0
 40
17.0
 40
17.0
 40
18.0
 40
18.0
 40
18.0
 40
19.0
 40
19.0
 40
19.0
 40
19.0
 10
116.9857964117257
 20
-154.1793917800315
 10
116.9857964117257
 20
-154.2748209249729
 10
116.9644368197172
 20
-154.4925509596407
 10
116.7784016635137
 20
-154.6172634162068
 10
116.6660915506946
 20
-154.6913329691396
 10
116.5668728007194
 20
-154.6958115932705
 10
116.4821234517822
 20
-154.6999457078528
 10
116.4821234517822
 20
-154.6999457078528
 10
116.4821234517822
 20
-154.4798041063453
 10
116.4821234517822
 20
-154.4798041063453
 10
116.5561930047151
 20
-154.4777370490542
 10
116.7911485168091
 20
-154.4670572530499
 10
116.7911485168091
 20
-154.1835258946138
 10
116.7911485168091
 20
-154.0460665847523
 10
116.7212130784586
 20
-153.8937933643043
 10
116.4928032477865
 20
-153.8937933643043
 10
116.3763590203851
 20
-153.8937933643043
 10
116.327783174043
 20
-153.9316894146421
 10
116.2960882955787
 20
-153.9633842931064
 10
116.2220187426459
 20
-154.0377983555877
 10
116.2092718893504
 20
-154.1542425829892
 10
116.2092718893504
 20
-154.2090196012047
 10
116.2092718893504
 20
-154.2279676263736
 10
116.2113389466416
 20
-154.2637966194201
 10
116.2154730612239
 20
-154.2913573833021
 10
116.2154730612239
 20
-154.2913573833021
 10
116.0211696758558
 20
-154.2913573833021
 10
116.0211696758558
 20
-154.2913573833021
 10
116.0273708477292
 20
-154.2534613329644
 10
116.0294379050204
 20
-154.2110866584958
 10
116.0294379050204
 20
-154.2045409770738
 10
116.0294379050204
 20
-154.1390841628541
 10
116.0084228225604
 20
-153.9403021533552
 10
115.7714002531752
 20
-153.9403021533552
 10
115.5936333261363
 20
-153.9403021533552
 10
115.5385117983723
 20
-154.0715602913432
 10
115.5385117983723
 20
-154.1814588373227
 10
115.5385117983723
 20
-154.4456976610413
 10
115.7714002531752
 20
-154.4543103997545
 10
115.8434027488169
 20
-154.4587890238853
 10
115.8434027488169
 20
-154.4587890238853
 10
115.8434027488169
 20
-154.6617051479665
 10
115.8434027488169
 20
-154.6617051479665
 10
115.7183457827023
 20
-154.6530924092534
 10
115.3417968461645
 20
-154.6255316453714
 10
115.3417968461645
 20
-154.1687119840273
 10
115.3417968461645
 20
-153.944780777486
 10
115.4689208695703
 20
-153.7036240935185
 10
115.7648545717532
 20
-153.7036240935185
 10
115.9512342375052
 20
-153.7036240935185
 10
116.0335720196027
 20
-153.7987087289114
 10
116.0948947192401
 20
-153.8979274788866
 10
116.1224554831221
 20
-153.8366047792492
 10
116.203070717477
 20
-153.654703737628
 10
116.4800563944911
 20
-153.654703737628
 10
116.8187092806912
 20
-153.654703737628
 10
116.9857964117257
 20
-153.9020615934689
 10
116.9857964117257
 20
-154.1793917800315
 97
        0
 97
        1
330
A4
 75
     2
 76
     1
 98
        1
 10
0.0
 20
0.0
450
        0
451
        0
460
0.0
461
0.0
452
        0
462
0.0
453
        0
470

  0
ENDBLK
  5
A3
330
A0
100
AcDbEntity
  8
0
100
AcDbBlockEnd
  0
BLOCK
  5
A8
330
A6
100
AcDbEntity
  8
0
100
AcDbBlockBegin
  2
Block_5
 70
     0
 10
0.0
 20
0.0
 30
0.0
  3
Block_5
  1

  0
SPLINE
  5
AA
330
A6
100
AcDbEntity
  8
レイヤー 1
100
AcDbSpline
210
0.0
220
0.0
230
1.0
 70
    11
 71
     3
 72
    26
 73
    22
 74
     0
 42
0.0000000001
 43
0.0000000001
 40
0.0
 40
0.0
 40
0.0
 40
0.0
 40
1.0
 40
1.0
 40
1.0
 40
2.0
 40
2.0
 40
2.0
 40
3.0
 40
3.0
 40
3.0
 40
4.0
 40
4.0
 40
4.0
 40
5.0
 40
5.0
 40
5.0
 40
6.0
 40
6.0
 40
6.0
 40
7.0
 40
7.0
 40
7.0
 40
7.0
 10
116.9348089985441
 20
-142.5568453962184
 30
0.0
 10
116.9348089985441
 20
-142.5568453962184
 30
0.0
 10
115.8306558955215
 20
-142.5568453962184
 30
0.0
 10
115.8306558955215
 20
-142.5568453962184
 30
0.0
 10
115.8306558955215
 20
-142.5568453962184
 30
0.0
 10
115.8306558955215
 20
-142.8868855437054
 30
0.0
 10
115.8306558955215
 20
-142.8868855437054
 30
0.0
 10
115.8306558955215
 20
-142.8868855437054
 30
0.0
 10
115.6825167896557
 20
-142.8868855437054
 30
0.0
 10
115.6825167896557
 20
-142.8868855437054
 30
0.0
 10
115.6677028790692
 20
-142.5547783389273
 30
0.0
 10
115.5047498626168
 20
-142.5082695498764
 30
0.0
 10
115.3907172020551
 20
-142.4786417287032
 30
0.0
 10
115.3907172020551
 20
-142.4786417287032
 30
0.0
 10
115.3907172020551
 20
-142.3325696801287
 30
0.0
 10
115.3907172020551
 20
-142.3325696801287
 30
0.0
 10
115.3907172020551
 20
-142.3325696801287
 30
0.0
 10
116.9348089985441
 20
-142.3325696801287
 30
0.0
 10
116.9348089985441
 20
-142.3325696801287
 30
0.0
 10
116.9348089985441
 20
-142.3325696801287
 30
0.0
 10
116.9348089985441
 20
-142.5568453962184
 30
0.0
 10
116.9348089985441
 20
-142.5568453962184
 30
0.0
  0
HATCH
  5
AB
330
A6
100
AcDbEntity
  8
レイヤー 1
 62
   250
420
  2299925
440
 33554687
100
AcDbHatch
 10
0.0
 20
0.0
 30
0.0
210
0.0
220
0.0
230
1.0
  2
SOLID
 70
     1
 71
     1
 91
        1
 92
        1
 93
        1
 72
     4
 94
        3
 73
     0
 74
     0
 95
       26
 96
       22
 40
0.0
 40
0.0
 40
0.0
 40
0.0
 40
1.0
 40
1.0
 40
1.0
 40
2.0
 40
2.0
 40
2.0
 40
3.0
 40
3.0
 40
3.0
 40
4.0
 40
4.0
 40
4.0
 40
5.0
 40
5.0
 40
5.0
 40
6.0
 40
6.0
 40
6.0
 40
7.0
 40
7.0
 40
7.0
 40
7.0
 10
116.9348089985441
 20
-142.5568453962184
 10
116.9348089985441
 20
-142.5568453962184
 10
115.8306558955215
 20
-142.5568453962184
 10
115.8306558955215
 20
-142.5568453962184
 10
115.8306558955215
 20
-142.5568453962184
 10
115.8306558955215
 20
-142.8868855437054
 10
115.8306558955215
 20
-142.8868855437054
 10
115.8306558955215
 20
-142.8868855437054
 10
115.6825167896557
 20
-142.8868855437054
 10
115.6825167896557
 20
-142.8868855437054
 10
115.6677028790692
 20
-142.5547783389273
 10
115.5047498626168
 20
-142.5082695498764
 10
115.3907172020551
 20
-142.4786417287032
 10
115.3907172020551
 20
-142.4786417287032
 10
115.3907172020551
 20
-142.3325696801287
 10
115.3907172020551
 20
-142.3325696801287
 10
115.3907172020551
 20
-142.3325696801287
 10
116.9348089985441
 20
-142.3325696801287
 10
116.9348089985441
 20
-142.3325696801287
 10
116.9348089985441
 20
-142.3325696801287
 10
116.9348089985441
 20
-142.5568453962184
 10
116.9348089985441
 20
-142.5568453962184
 97
        0
 97
        1
330
AA
 75
     2
 76
     1
 98
        1
 10
0.0
 20
0.0
450
        0
451
        0
460
0.0
461
0.0
452
        0
462
0.0
453
        0
470

  0
ENDBLK
  5
A9
330
A6
100
AcDbEntity
  8
0
100
AcDbBlockEnd
  0
BLOCK
  5
BD
330
BB
100
AcDbEntity
  8
0
100
AcDbBlockBegin
  2
Block_6
 70
     0
 10
0.0
 20
0.0
 30
0.0
  3
Block_6
  1

  0
INSERT
  5
C0
330
BB
100
AcDbEntity
  8
レイヤー 1
100
AcDbBlockReference
  2
Block_7
 10
0.0
 20
0.0
 30
0.0
  0
ENDBLK
  5
BE
330
BB
100
AcDbEntity
  8
0
100
AcDbBlockEnd
  0
BLOCK
  5
C1
330
BF
100
AcDbEntity
  8
0
100
AcDbBlockBegin
  2
Block_7
 70
     0
 10
0.0
 20
0.0
 30
0.0
  3
Block_7
  1

  0
SPLINE
  5
C3
330
BF
100
AcDbEntity
  8
レイヤー 1
100
AcDbSpline
210
0.0
220
0.0
230
1.0
 70
     9
 71
     3
 72
    44
 73
    40
 74
     0
 42
0.0000000001
 43
0.0000000001
 40
0.0
 40
0.0
 40
0.0
 40
0.0
 40
1.0
 40
1.0
 40
1.0
 40
2.0
 40
2.0
 40
2.0
 40
3.0
 40
3.0
 40
3.0
 40
4.0
 40
4.0
 40
4.0
 40
5.0
 40
5.0
 40
5.0
 40
6.0
 40
6.0
 40
6.0
 40
7.0
 40
7.0
 40
7.0
 40
8.0
 40
8.0
 40
8.0
 40
9.0
 40
9.0
 40
9.0
 40
10.0
 40
10.0
 40
10.0
 40
11.0
 40
11.0
 40
11.0
 40
12.0
 40
12.0
 40
12.0
 40
13.0
 40
13.0
 40
13.0
 40
13.0
 10
102.4516275785537
 20
-141.0199883002485
 30
0.0
 10
102.2337252891117
 20
-141.1788072021185
 30
0.0
 10
102.1405354562357
 20
-141.2528767550513
 30
0.0
 10
102.0919596098937
 20
-141.3965372367863
 30
0.0
 10
102.0919596098937
 20
-141.3965372367863
 30
0.0
 10
102.8703789347858
 20
-141.3965372367863
 30
0.0
 10
102.8703789347858
 20
-141.3965372367863
 30
0.0
 10
102.8703789347858
 20
-141.3965372367863
 30
0.0
 10
102.8703789347858
 20
-141.6018649277071
 30
0.0
 10
102.8703789347858
 20
-141.6018649277071
 30
0.0
 10
102.8703789347858
 20
-141.6018649277071
 30
0.0
 10
101.8423624419873
 20
-141.6018649277071
 30
0.0
 10
101.8423624419873
 20
-141.6018649277071
 30
0.0
 10
101.8740573204516
 20
-141.2442640163382
 30
0.0
 10
101.9396863894456
 20
-141.166060348823
 30
0.0
 10
102.3246758099223
 20
-140.8677150798004
 30
0.0
 10
102.5806464044763
 20
-140.6689330703015
 30
0.0
 10
102.6461032186961
 20
-140.6010646892421
 30
0.0
 10
102.6461032186961
 20
-140.4636053793806
 30
0.0
 10
102.6461032186961
 20
-140.345094094688
 30
0.0
 10
102.5742729778286
 20
-140.2141804662485
 30
0.0
 10
102.3775580256209
 20
-140.2141804662485
 30
0.0
 10
102.1172810617102
 20
-140.2141804662485
 30
0.0
 10
102.1088405777714
 20
-140.4446573542117
 30
0.0
 10
102.1045342084148
 20
-140.5611015816132
 30
0.0
 10
102.1045342084148
 20
-140.5611015816132
 30
0.0
 10
101.8804307470993
 20
-140.5611015816132
 30
0.0
 10
101.8804307470993
 20
-140.5611015816132
 30
0.0
 10
101.8888712310382
 20
-140.4339775582075
 30
0.0
 10
101.8993787722682
 20
-140.3220119549368
 30
0.0
 10
101.9798217518488
 20
-140.2035006702442
 30
0.0
 10
102.0897202978282
 20
-140.0426147110831
 30
0.0
 10
102.275927708806
 20
-140.0088527753276
 30
0.0
 10
102.3923719362074
 20
-140.0088527753276
 30
0.0
 10
102.6695298679958
 20
-140.0088527753276
 30
0.0
 10
102.8767523614336
 20
-140.19282087424
 30
0.0
 10
102.8767523614336
 20
-140.4656724366718
 30
0.0
 10
102.8767523614336
 20
-140.6944267768924
 30
0.0
 10
102.7604803888064
 20
-140.7936455268675
 30
0.0
 10
102.4516275785537
 20
-141.0199883002485
 30
0.0
  0
HATCH
  5
C4
330
BF
100
AcDbEntity
  8
レイヤー 1
 62
   250
420
  2299925
440
 33554687
100
AcDbHatch
 10
0.0
 20
0.0
 30
0.0
210
0.0
220
0.0
230
1.0
  2
SOLID
 70
     1
 71
     1
 91
        1
 92
        1
 93
        1
 72
     4
 94
        3
 73
     0
 74
     0
 95
       44
 96
       40
 40
0.0
 40
0.0
 40
0.0
 40
0.0
 40
1.0
 40
1.0
 40
1.0
 40
2.0
 40
2.0
 40
2.0
 40
3.0
 40
3.0
 40
3.0
 40
4.0
 40
4.0
 40
4.0
 40
5.0
 40
5.0
 40
5.0
 40
6.0
 40
6.0
 40
6.0
 40
7.0
 40
7.0
 40
7.0
 40
8.0
 40
8.0
 40
8.0
 40
9.0
 40
9.0
 40
9.0
 40
10.0
 40
10.0
 40
10.0
 40
11.0
 40
11.0
 40
11.0
 40
12.0
 40
12.0
 40
12.0
 40
13.0
 40
13.0
 40
13.0
 40
13.0
 10
102.4516275785537
 20
-141.0199883002485
 10
102.2337252891117
 20
-141.1788072021185
 10
102.1405354562357
 20
-141.2528767550513
 10
102.0919596098937
 20
-141.3965372367863
 10
102.0919596098937
 20
-141.3965372367863
 10
102.8703789347858
 20
-141.3965372367863
 10
102.8703789347858
 20
-141.3965372367863
 10
102.8703789347858
 20
-141.3965372367863
 10
102.8703789347858
 20
-141.6018649277071
 10
102.8703789347858
 20
-141.6018649277071
 10
102.8703789347858
 20
-141.6018649277071
 10
101.8423624419873
 20
-141.6018649277071
 10
101.8423624419873
 20
-141.6018649277071
 10
101.8740573204516
 20
-141.2442640163382
 10
101.9396863894456
 20
-141.166060348823
 10
102.3246758099223
 20
-140.8677150798004
 10
102.5806464044763
 20
-140.6689330703015
 10
102.6461032186961
 20
-140.6010646892421
 10
102.6461032186961
 20
-140.4636053793806
 10
102.6461032186961
 20
-140.345094094688
 10
102.5742729778286
 20
-140.2141804662485
 10
102.3775580256209
 20
-140.2141804662485
 10
102.1172810617102
 20
-140.2141804662485
 10
102.1088405777714
 20
-140.4446573542117
 10
102.1045342084148
 20
-140.5611015816132
 10
102.1045342084148
 20
-140.5611015816132
 10
101.8804307470993
 20
-140.5611015816132
 10
101.8804307470993
 20
-140.5611015816132
 10
101.8888712310382
 20
-140.4339775582075
 10
101.8993787722682
 20
-140.3220119549368
 10
101.9798217518488
 20
-140.2035006702442
 10
102.0897202978282
 20
-140.0426147110831
 10
102.275927708806
 20
-140.0088527753276
 10
102.3923719362074
 20
-140.0088527753276
 10
102.6695298679958
 20
-140.0088527753276
 10
102.8767523614336
 20
-140.19282087424
 10
102.8767523614336
 20
-140.4656724366718
 10
102.8767523614336
 20
-140.6944267768924
 10
102.7604803888064
 20
-140.7936455268675
 10
102.4516275785537
 20
-141.0199883002485
 97
        0
 97
        1
330
C3
 75
     2
 76
     1
 98
        1
 10
0.0
 20
0.0
450
        0
451
        0
460
0.0
461
0.0
452
        0
462
0.0
453
        0
470

  0
SPLINE
  5
C5
330
BF
100
AcDbEntity
  8
レイヤー 1
100
AcDbSpline
210
0.0
220
0.0
230
1.0
 70
    11
 71
     3
 72
    26
 73
    22
 74
     0
 42
0.0000000001
 43
0.0000000001
 40
0.0
 40
0.0
 40
0.0
 40
0.0
 40
1.0
 40
1.0
 40
1.0
 40
2.0
 40
2.0
 40
2.0
 40
3.0
 40
3.0
 40
3.0
 40
4.0
 40
4.0
 40
4.0
 40
5.0
 40
5.0
 40
5.0
 40
6.0
 40
6.0
 40
6.0
 40
7.0
 40
7.0
 40
7.0
 40
7.0
 10
103.4867065170971
 20
-141.6018649277071
 30
0.0
 10
103.4867065170971
 20
-141.6018649277071
 30
0.0
 10
103.4867065170971
 20
-140.4977118246846
 30
0.0
 10
103.4867065170971
 20
-140.4977118246846
 30
0.0
 10
103.4867065170971
 20
-140.4977118246846
 30
0.0
 10
103.1566663696101
 20
-140.4977118246846
 30
0.0
 10
103.1566663696101
 20
-140.4977118246846
 30
0.0
 10
103.1566663696101
 20
-140.4977118246846
 30
0.0
 10
103.1566663696101
 20
-140.3495727188188
 30
0.0
 10
103.1566663696101
 20
-140.3495727188188
 30
0.0
 10
103.4887735743882
 20
-140.3347588082323
 30
0.0
 10
103.5352823634391
 20
-140.1718057917799
 30
0.0
 10
103.5649101846122
 20
-140.0574286216697
 30
0.0
 10
103.5649101846122
 20
-140.0574286216697
 30
0.0
 10
103.7109822331868
 20
-140.0574286216697
 30
0.0
 10
103.7109822331868
 20
-140.0574286216697
 30
0.0
 10
103.7109822331868
 20
-140.0574286216697
 30
0.0
 10
103.7109822331868
 20
-141.6018649277071
 30
0.0
 10
103.7109822331868
 20
-141.6018649277071
 30
0.0
 10
103.7109822331868
 20
-141.6018649277071
 30
0.0
 10
103.4867065170971
 20
-141.6018649277071
 30
0.0
 10
103.4867065170971
 20
-141.6018649277071
 30
0.0
  0
HATCH
  5
C6
330
BF
100
AcDbEntity
  8
レイヤー 1
 62
   250
420
  2299925
440
 33554687
100
AcDbHatch
 10
0.0
 20
0.0
 30
0.0
210
0.0
220
0.0
230
1.0
  2
SOLID
 70
     1
 71
     1
 91
        1
 92
        1
 93
        1
 72
     4
 94
        3
 73
     0
 74
     0
 95
       26
 96
       22
 40
0.0
 40
0.0
 40
0.0
 40
0.0
 40
1.0
 40
1.0
 40
1.0
 40
2.0
 40
2.0
 40
2.0
 40
3.0
 40
3.0
 40
3.0
 40
4.0
 40
4.0
 40
4.0
 40
5.0
 40
5.0
 40
5.0
 40
6.0
 40
6.0
 40
6.0
 40
7.0
 40
7.0
 40
7.0
 40
7.0
 10
103.4867065170971
 20
-141.6018649277071
 10
103.4867065170971
 20
-141.6018649277071
 10
103.4867065170971
 20
-140.4977118246846
 10
103.4867065170971
 20
-140.4977118246846
 10
103.4867065170971
 20
-140.4977118246846
 10
103.1566663696101
 20
-140.4977118246846
 10
103.1566663696101
 20
-140.4977118246846
 10
103.1566663696101
 20
-140.4977118246846
 10
103.1566663696101
 20
-140.3495727188188
 10
103.1566663696101
 20
-140.3495727188188
 10
103.4887735743882
 20
-140.3347588082323
 10
103.5352823634391
 20
-140.1718057917799
 10
103.5649101846122
 20
-140.0574286216697
 10
103.5649101846122
 20
-140.0574286216697
 10
103.7109822331868
 20
-140.0574286216697
 10
103.7109822331868
 20
-140.0574286216697
 10
103.7109822331868
 20
-140.0574286216697
 10
103.7109822331868
 20
-141.6018649277071
 10
103.7109822331868
 20
-141.6018649277071
 10
103.7109822331868
 20
-141.6018649277071
 10
103.4867065170971
 20
-141.6018649277071
 10
103.4867065170971
 20
-141.6018649277071
 97
        0
 97
        1
330
C5
 75
     2
 76
     1
 98
        1
 10
0.0
 20
0.0
450
        0
451
        0
460
0.0
461
0.0
452
        0
462
0.0
453
        0
470

  0
ENDBLK
  5
C2
330
BF
100
AcDbEntity
  8
0
100
AcDbBlockEnd
  0
BLOCK
  5
C9
330
C7
100
AcDbEntity
  8
0
100
AcDbBlockBegin
  2
Block_8
 70
     0
 10
0.0
 20
0.0
 30
0.0
  3
Block_8
  1

  0
LINE
  5
CB
330
C7
100
AcDbEntity
  8
レイヤー 1
  6
AI-Linetype-0
 62
   154
420
    23468
370
    25
100
AcDbLine
 10
112.3993620618458
 20
-144.5977242314534
 30
0.0
 11
93.40294317951812
 21
-144.5977242314534
 31
0.0
  0
LINE
  5
CD
330
C7
100
AcDbEntity
  8
レイヤー 1
 62
   250
420
  2299925
370
     9
100
AcDbLine
 10
104.3438272515268
 20
-144.0165886282595
 30
0.0
 11
108.6824778617552
 21
-139.6779661435001
 31
0.0
  0
LWPOLYLINE
  5
CE
330
C7
100
AcDbEntity
  8
レイヤー 1
 62
   250
420
  2299925
370
     9
100
AcDbPolyline
 90
        3
 70
     0
 43
0.0
 10
104.8440661277315
 20
-143.1504839281784
 10
104.3438272515268
 20
-144.0165886282595
 10
105.2099338148407
 20
-143.5163497522105
  0
INSERT
  5
D0
330
C7
100
AcDbEntity
  8
レイヤー 1
100
AcDbBlockReference
  2
Block_9
 10
0.0
 20
0.0
 30
0.0
  0
ENDBLK
  5
CA
330
C7
100
AcDbEntity
  8
0
100
AcDbBlockEnd
  0
BLOCK
  5
D1
330
CF
100
AcDbEntity
  8
0
100
AcDbBlockBegin
  2
Block_9
 70
     0
 10
0.0
 20
0.0
 30
0.0
  3
Block_9
  1

  0
INSERT
  5
D4
330
CF
100
AcDbEntity
  8
レイヤー 1
100
AcDbBlockReference
  2
Block_10
 10
0.0
 20
0.0
 30
0.0
  0
ENDBLK
  5
D2
330
CF
100
AcDbEntity
  8
0
100
AcDbBlockEnd
  0
BLOCK
  5
D5
330
D3
100
AcDbEntity
  8
0
100
AcDbBlockBegin
  2
Block_10
 70
     0
 10
0.0
 20
0.0
 30
0.0
  3
Block_10
  1

  0
SPLINE
  5
D7
330
D3
100
AcDbEntity
  8
レイヤー 1
100
AcDbSpline
210
0.0
220
0.0
230
1.0
 70
     9
 71
     3
 72
    17
 73
    13
 74
     0
 42
0.0000000001
 43
0.0000000001
 40
0.0
 40
0.0
 40
0.0
 40
0.0
 40
1.0
 40
1.0
 40
1.0
 40
2.0
 40
2.0
 40
2.0
 40
3.0
 40
3.0
 40
3.0
 40
4.0
 40
4.0
 40
4.0
 40
4.0
 10
107.2802734106799
 20
-138.2422078104915
 30
0.0
 10
107.2633924428022
 20
-138.2716633768904
 30
0.0
 10
107.212749539169
 20
-138.3648532097664
 30
0.0
 10
107.2020697431647
 20
-138.3838012349353
 30
0.0
 10
107.3925835234991
 20
-138.4430568772816
 30
0.0
 10
107.4135986059591
 20
-138.4494303039293
 30
0.0
 10
107.4856011016008
 20
-138.4769910678113
 30
0.0
 10
107.5407226293648
 20
-138.390174661583
 30
0.0
 10
107.563804769116
 20
-138.3161051086501
 30
0.0
 10
107.5786186797025
 20
-138.2422078104915
 30
0.0
 10
107.5786186797025
 20
-138.2422078104915
 30
0.0
 10
107.2802734106799
 20
-138.2422078104915
 30
0.0
 10
107.2802734106799
 20
-138.2422078104915
 30
0.0
  0
SPLINE
  5
D8
330
D3
100
AcDbEntity
  8
レイヤー 1
100
AcDbSpline
210
0.0
220
0.0
230
1.0
 70
    11
 71
     3
 72
    20
 73
    16
 74
     0
 42
0.0000000001
 43
0.0000000001
 40
0.0
 40
0.0
 40
0.0
 40
0.0
 40
1.0
 40
1.0
 40
1.0
 40
2.0
 40
2.0
 40
2.0
 40
3.0
 40
3.0
 40
3.0
 40
4.0
 40
4.0
 40
4.0
 40
5.0
 40
5.0
 40
5.0
 40
5.0
 10
107.2168836537513
 20
-137.3917859899576
 30
0.0
 10
107.2168836537513
 20
-137.3917859899576
 30
0.0
 10
107.185188775287
 20
-137.3917859899576
 30
0.0
 10
107.185188775287
 20
-137.3917859899576
 30
0.0
 10
107.2316975643379
 20
-137.491176994707
 30
0.0
 10
107.2633924428022
 20
-137.5714477195134
 30
0.0
 10
107.2971543785576
 20
-137.6983994881448
 30
0.0
 10
107.2971543785576
 20
-137.6983994881448
 30
0.0
 10
107.5045491267697
 20
-137.6983994881448
 30
0.0
 10
107.5045491267697
 20
-137.6983994881448
 30
0.0
 10
107.536244005234
 20
-137.6053819100431
 30
0.0
 10
107.5596706545337
 20
-137.5208048158802
 30
0.0
 10
107.5827527942848
 20
-137.3917859899576
 30
0.0
 10
107.5827527942848
 20
-137.3917859899576
 30
0.0
 10
107.2168836537513
 20
-137.3917859899576
 30
0.0
 10
107.2168836537513
 20
-137.3917859899576
 30
0.0
  0
SPLINE
  5
D9
330
D3
100
AcDbEntity
  8
レイヤー 1
100
AcDbSpline
210
0.0
220
0.0
230
1.0
 70
     9
 71
     3
 72
   242
 73
   238
 74
     0
 42
0.0000000001
 43
0.0000000001
 40
0.0
 40
0.0
 40
0.0
 40
0.0
 40
1.0
 40
1.0
 40
1.0
 40
2.0
 40
2.0
 40
2.0
 40
3.0
 40
3.0
 40
3.0
 40
4.0
 40
4.0
 40
4.0
 40
5.0
 40
5.0
 40
5.0
 40
6.0
 40
6.0
 40
6.0
 40
7.0
 40
7.0
 40
7.0
 40
8.0
 40
8.0
 40
8.0
 40
9.0
 40
9.0
 40
9.0
 40
10.0
 40
10.0
 40
10.0
 40
11.0
 40
11.0
 40
11.0
 40
12.0
 40
12.0
 40
12.0
 40
13.0
 40
13.0
 40
13.0
 40
14.0
 40
14.0
 40
14.0
 40
15.0
 40
15.0
 40
15.0
 40
16.0
 40
16.0
 40
16.0
 40
17.0
 40
17.0
 40
17.0
 40
18.0
 40
18.0
 40
18.0
 40
19.0
 40
19.0
 40
19.0
 40
20.0
 40
20.0
 40
20.0
 40
21.0
 40
21.0
 40
21.0
 40
22.0
 40
22.0
 40
22.0
 40
23.0
 40
23.0
 40
23.0
 40
24.0
 40
24.0
 40
24.0
 40
25.0
 40
25.0
 40
25.0
 40
26.0
 40
26.0
 40
26.0
 40
27.0
 40
27.0
 40
27.0
 40
28.0
 40
28.0
 40
28.0
 40
29.0
 40
29.0
 40
29.0
 40
30.0
 40
30.0
 40
30.0
 40
31.0
 40
31.0
 40
31.0
 40
32.0
 40
32.0
 40
32.0
 40
33.0
 40
33.0
 40
33.0
 40
34.0
 40
34.0
 40
34.0
 40
35.0
 40
35.0
 40
35.0
 40
36.0
 40
36.0
 40
36.0
 40
37.0
 40
37.0
 40
37.0
 40
38.0
 40
38.0
 40
38.0
 40
39.0
 40
39.0
 40
39.0
 40
40.0
 40
40.0
 40
40.0
 40
41.0
 40
41.0
 40
41.0
 40
42.0
 40
42.0
 40
42.0
 40
43.0
 40
43.0
 40
43.0
 40
44.0
 40
44.0
 40
44.0
 40
45.0
 40
45.0
 40
45.0
 40
46.0
 40
46.0
 40
46.0
 40
47.0
 40
47.0
 40
47.0
 40
48.0
 40
48.0
 40
48.0
 40
49.0
 40
49.0
 40
49.0
 40
50.0
 40
50.0
 40
50.0
 40
51.0
 40
51.0
 40
51.0
 40
52.0
 40
52.0
 40
52.0
 40
53.0
 40
53.0
 40
53.0
 40
54.0
 40
54.0
 40
54.0
 40
55.0
 40
55.0
 40
55.0
 40
56.0
 40
56.0
 40
56.0
 40
57.0
 40
57.0
 40
57.0
 40
58.0
 40
58.0
 40
58.0
 40
59.0
 40
59.0
 40
59.0
 40
60.0
 40
60.0
 40
60.0
 40
61.0
 40
61.0
 40
61.0
 40
62.0
 40
62.0
 40
62.0
 40
63.0
 40
63.0
 40
63.0
 40
64.0
 40
64.0
 40
64.0
 40
65.0
 40
65.0
 40
65.0
 40
66.0
 40
66.0
 40
66.0
 40
67.0
 40
67.0
 40
67.0
 40
68.0
 40
68.0
 40
68.0
 40
69.0
 40
69.0
 40
69.0
 40
70.0
 40
70.0
 40
70.0
 40
71.0
 40
71.0
 40
71.0
 40
72.0
 40
72.0
 40
72.0
 40
73.0
 40
73.0
 40
73.0
 40
74.0
 40
74.0
 40
74.0
 40
75.0
 40
75.0
 40
75.0
 40
76.0
 40
76.0
 40
76.0
 40
77.0
 40
77.0
 40
77.0
 40
78.0
 40
78.0
 40
78.0
 40
79.0
 40
79.0
 40
79.0
 40
79.0
 10
107.8452690702609
 20
-137.8570461352406
 30
0.0
 10
107.8452690702609
 20
-137.8570461352406
 30
0.0
 10
107.591365532998
 20
-137.8570461352406
 30
0.0
 10
107.591365532998
 20
-137.8570461352406
 30
0.0
 10
107.591365532998
 20
-137.8570461352406
 30
0.0
 10
107.3143798559839
 20
-137.8570461352406
 30
0.0
 10
107.3143798559839
 20
-137.8570461352406
 30
0.0
 10
107.3143798559839
 20
-137.8570461352406
 30
0.0
 10
107.4411593698411
 20
-137.8994208097092
 30
0.0
 10
107.4411593698411
 20
-137.8994208097092
 30
0.0
 10
107.4518391658454
 20
-137.9037271790657
 30
0.0
 10
107.4645860191408
 20
-137.9099283509392
 30
0.0
 10
107.4645860191408
 20
-137.9226752042346
 30
0.0
 10
107.4645860191408
 20
-137.9438625414689
 30
0.0
 10
107.432546631128
 20
-137.9502359681166
 30
0.0
 10
107.4115315486679
 20
-137.9543700826989
 30
0.0
 10
107.4008517526637
 20
-137.9776244772243
 30
0.0
 10
107.3712239314905
 20
-138.0432535462183
 30
0.0
 10
107.3522759063216
 20
-138.0876952779781
 30
0.0
 10
107.3522759063216
 20
-138.0876952779781
 30
0.0
 10
107.6230604114623
 20
-138.0876952779781
 30
0.0
 10
107.6230604114623
 20
-138.0876952779781
 30
0.0
 10
107.7140109322729
 20
-138.0876952779781
 30
0.0
 10
107.9107258844806
 20
-138.0833889086215
 30
0.0
 10
108.0526638184729
 20
-138.0749484246826
 30
0.0
 10
108.0526638184729
 20
-138.0749484246826
 30
0.0
 10
108.0526638184729
 20
-138.2527153517215
 30
0.0
 10
108.0526638184729
 20
-138.2527153517215
 30
0.0
 10
107.9699815268269
 20
-138.248408982365
 30
0.0
 10
107.9489664443669
 20
-138.248408982365
 30
0.0
 10
107.7691324600369
 20
-138.2442748677827
 30
0.0
 10
107.7374375815726
 20
-138.3986151455219
 30
0.0
 10
107.6929958498128
 20
-138.4790581251024
 30
0.0
 10
107.6485541180531
 20
-138.5488213086788
 30
0.0
 10
107.7691324600369
 20
-138.6080769510251
 30
0.0
 10
107.874896891434
 20
-138.6757730773102
 30
0.0
 10
107.9785942655401
 20
-138.7582831141819
 30
0.0
 10
107.9785942655401
 20
-138.7582831141819
 30
0.0
 10
107.8600829808475
 20
-138.9253702452166
 30
0.0
 10
107.8600829808475
 20
-138.9253702452166
 30
0.0
 10
107.8366563315478
 20
-138.9064222200477
 30
0.0
 10
107.8239094782523
 20
-138.8979817361088
 30
0.0
 10
107.7119438749817
 20
-138.8132323871717
 30
0.0
 10
107.6633680286397
 20
-138.7751640820597
 30
0.0
 10
107.6041123862934
 20
-138.7393350890131
 30
0.0
 10
107.5234971519385
 20
-138.6948933572533
 30
0.0
 10
107.3119682891442
 20
-138.8811007682311
 30
0.0
 10
107.1069851077719
 20
-138.9043551627565
 30
0.0
 10
106.8169080679138
 20
-138.9339829839297
 30
0.0
 10
106.8169080679138
 20
-138.9339829839297
 30
0.0
 10
106.7135552033563
 20
-138.7541489995996
 30
0.0
 10
106.7135552033563
 20
-138.7541489995996
 30
0.0
 10
107.0308484975478
 20
-138.7498426302431
 30
0.0
 10
107.206203857747
 20
-138.7245211784265
 30
0.0
 10
107.3584770781951
 20
-138.6144503776728
 30
0.0
 10
107.240310303051
 20
-138.5636352192653
 30
0.0
 10
107.1514268395316
 20
-138.5362467101576
 30
0.0
 10
107.1152533369365
 20
-138.5234998568622
 30
0.0
 10
107.0963053117676
 20
-138.5510606207442
 30
0.0
 10
107.081491401181
 20
-138.570008645913
 30
0.0
 10
107.053930637299
 20
-138.6039428364427
 30
0.0
 10
107.053930637299
 20
-138.6039428364427
 30
0.0
 10
106.8572156850912
 20
-138.521432799571
 30
0.0
 10
106.8572156850912
 20
-138.521432799571
 30
0.0
 10
106.9398979767372
 20
-138.4409898199904
 30
0.0
 10
107.0012206763747
 20
-138.3457329298233
 30
0.0
 10
107.0580647518813
 20
-138.2442748677827
 30
0.0
 10
106.8678954810955
 20
-138.248408982365
 30
0.0
 10
106.846535889087
 20
-138.248408982365
 30
0.0
 10
106.7641981069895
 20
-138.2527153517215
 30
0.0
 10
106.7641981069895
 20
-138.2527153517215
 30
0.0
 10
106.7641981069895
 20
-138.0749484246826
 30
0.0
 10
106.7641981069895
 20
-138.0749484246826
 30
0.0
 10
106.9037244741421
 20
-138.0813218513303
 30
0.0
 10
107.1131862796453
 20
-138.0856282206869
 30
0.0
 10
107.1386799862361
 20
-138.0856282206869
 30
0.0
 10
107.1555609541139
 20
-138.0516940301572
 30
0.0
 10
107.2106824818779
 20
-137.9311156881734
 30
0.0
 10
107.2296305070467
 20
-137.8570461352406
 30
0.0
 10
107.2106824818779
 20
-137.8570461352406
 30
0.0
 10
107.032915554839
 20
-137.8634195618883
 30
0.0
 10
106.8382676599224
 20
-137.8761664151837
 30
0.0
 10
106.8382676599224
 20
-137.8761664151837
 30
0.0
 10
106.8382676599224
 20
-138.0094916104629
 30
0.0
 10
106.8382676599224
 20
-138.0094916104629
 30
0.0
 10
106.7896918135803
 20
-138.0348130622795
 30
0.0
 10
106.730436171234
 20
-138.0665079407438
 30
0.0
 10
106.5971109759549
 20
-138.1321370097378
 30
0.0
 10
106.5971109759549
 20
-138.1321370097378
 30
0.0
 10
106.5971109759549
 20
-138.2780368035381
 30
0.0
 10
106.5971109759549
 20
-138.2780368035381
 30
0.0
 10
106.5971109759549
 20
-138.2780368035381
 30
0.0
 10
106.5971109759549
 20
-138.7457085156608
 30
0.0
 10
106.5971109759549
 20
-138.7457085156608
 30
0.0
 10
106.5971109759549
 20
-138.872488029518
 30
0.0
 10
106.5609374733597
 20
-138.9317436718643
 30
0.0
 10
106.2777506244722
 20
-138.9233031879254
 30
0.0
 10
106.2777506244722
 20
-138.9233031879254
 30
0.0
 10
106.1740532503662
 20
-138.7160806944876
 30
0.0
 10
106.1740532503662
 20
-138.7160806944876
 30
0.0
 10
106.2374430072948
 20
-138.7286552930088
 30
0.0
 10
106.2860188536368
 20
-138.7329616623653
 30
0.0
 10
106.3263264708142
 20
-138.7329616623653
 30
0.0
 10
106.4024630810383
 20
-138.7329616623653
 30
0.0
 10
106.4131428770425
 20
-138.7097072678399
 30
0.0
 10
106.4131428770425
 20
-138.6440781988459
 30
0.0
 10
106.4131428770425
 20
-138.6440781988459
 30
0.0
 10
106.4131428770425
 20
-138.2146470466095
 30
0.0
 10
106.4131428770425
 20
-138.2146470466095
 30
0.0
 10
106.31564667481
 20
-138.2547824090127
 30
0.0
 10
106.2987657069322
 20
-138.2611558356604
 30
0.0
 10
106.2522569178814
 20
-138.2802761156035
 30
0.0
 10
106.2481228032991
 20
-138.3012911980636
 30
0.0
 10
106.2436441791682
 20
-138.3309190192367
 30
0.0
 10
106.2246961539994
 20
-138.3309190192367
 30
0.0
 10
106.2164279248348
 20
-138.3309190192367
 30
0.0
 10
106.2057481288305
 20
-138.3267849046544
 30
0.0
 10
106.1992024474085
 20
-138.303530510129
 30
0.0
 10
106.1992024474085
 20
-138.303530510129
 30
0.0
 10
106.1464924864842
 20
-138.1109496725035
 30
0.0
 10
106.1464924864842
 20
-138.1109496725035
 30
0.0
 10
106.2925645350588
 20
-138.0644408834526
 30
0.0
 10
106.3580213492785
 20
-138.0411864889272
 30
0.0
 10
106.4131428770425
 20
-138.0199991516929
 30
0.0
 10
106.4131428770425
 20
-138.0199991516929
 30
0.0
 10
106.4131428770425
 20
-137.6074489673342
 30
0.0
 10
106.4131428770425
 20
-137.6074489673342
 30
0.0
 10
106.4131428770425
 20
-137.6074489673342
 30
0.0
 10
106.3600884065697
 20
-137.6074489673342
 30
0.0
 10
106.3600884065697
 20
-137.6074489673342
 30
0.0
 10
106.3600884065697
 20
-137.6074489673342
 30
0.0
 10
106.2818847390545
 20
-137.6074489673342
 30
0.0
 10
106.2818847390545
 20
-137.6074489673342
 30
0.0
 10
106.2140163579951
 20
-137.6074489673342
 30
0.0
 10
106.2057481288305
 20
-137.6074489673342
 30
0.0
 10
106.1695746262354
 20
-137.6138223939819
 30
0.0
 10
106.1695746262354
 20
-137.6138223939819
 30
0.0
 10
106.1695746262354
 20
-137.4191744990653
 30
0.0
 10
106.1695746262354
 20
-137.4191744990653
 30
0.0
 10
106.1971353901174
 20
-137.425547925713
 30
0.0
 10
106.2057481288305
 20
-137.425547925713
 30
0.0
 10
106.2753390576325
 20
-137.425547925713
 30
0.0
 10
106.2753390576325
 20
-137.425547925713
 30
0.0
 10
106.4086642529117
 20
-137.425547925713
 30
0.0
 10
106.4086642529117
 20
-137.425547925713
 30
0.0
 10
106.4086642529117
 20
-137.3557847421367
 30
0.0
 10
106.4086642529117
 20
-137.273274705265
 30
0.0
 10
106.4065971956206
 20
-137.2689683359084
 30
0.0
 10
106.398328966456
 20
-137.0891343515784
 30
0.0
 10
106.398328966456
 20
-137.0701863264095
 30
0.0
 10
106.3959173996163
 20
-137.0236775373587
 30
0.0
 10
106.3959173996163
 20
-137.0236775373587
 30
0.0
 10
106.6119248865414
 20
-137.0321180212975
 30
0.0
 10
106.6119248865414
 20
-137.0321180212975
 30
0.0
 10
106.6226046825457
 20
-137.0321180212975
 30
0.0
 10
106.6436197650057
 20
-137.0341850785887
 30
0.0
 10
106.6436197650057
 20
-137.0510660464664
 30
0.0
 10
106.6436197650057
 20
-137.0701863264095
 30
0.0
 10
106.6288058544192
 20
-137.0806938676395
 30
0.0
 10
106.6033121478283
 20
-137.0998141475827
 30
0.0
 10
106.6033121478283
 20
-137.1504570512158
 30
0.0
 10
106.5971109759549
 20
-137.3790391366622
 30
0.0
 10
106.599178033246
 20
-137.425547925713
 30
0.0
 10
106.7283691139429
 20
-137.425547925713
 30
0.0
 10
106.7407714576898
 20
-137.425547925713
 30
0.0
 10
106.8382676599224
 20
-137.4171074417742
 30
0.0
 10
106.8382676599224
 20
-137.4171074417742
 30
0.0
 10
106.8382676599224
 20
-137.6117553366908
 30
0.0
 10
106.8382676599224
 20
-137.6117553366908
 30
0.0
 10
106.8000271000361
 20
-137.6095160246254
 30
0.0
 10
106.7325032285252
 20
-137.6053819100431
 30
0.0
 10
106.5971109759549
 20
-137.6074489673342
 30
0.0
 10
106.5971109759549
 20
-137.6074489673342
 30
0.0
 10
106.5971109759549
 20
-137.94592959876
 30
0.0
 10
106.5971109759549
 20
-137.94592959876
 30
0.0
 10
106.6522325037189
 20
-137.9226752042346
 30
0.0
 10
106.7176893179386
 20
-137.8951144403526
 30
0.0
 10
106.7662651642806
 20
-137.8718600458272
 30
0.0
 10
106.7662651642806
 20
-137.8718600458272
 30
0.0
 10
106.7662651642806
 20
-137.6942653735625
 30
0.0
 10
106.7662651642806
 20
-137.6942653735625
 30
0.0
 10
106.8806423343909
 20
-137.7068399720837
 30
0.0
 10
106.9991536190835
 20
-137.7068399720837
 30
0.0
 10
107.1152533369365
 20
-137.7068399720837
 30
0.0
 10
107.0921711971853
 20
-137.6117553366908
 30
0.0
 10
107.0646104333033
 20
-137.5292452998191
 30
0.0
 10
107.0012206763747
 20
-137.3959201045399
 30
0.0
 10
106.956778944615
 20
-137.397987161831
 30
0.0
 10
106.874096652969
 20
-137.4022935311876
 30
0.0
 10
106.8362006026312
 20
-137.4043605884788
 30
0.0
 10
106.8362006026312
 20
-137.4043605884788
 30
0.0
 10
106.8362006026312
 20
-137.2245266041487
 30
0.0
 10
106.8362006026312
 20
-137.2245266041487
 30
0.0
 10
106.9609130591973
 20
-137.2329670880876
 30
0.0
 10
107.1345458716538
 20
-137.2372734574441
 30
0.0
 10
107.2168836537513
 20
-137.2372734574441
 30
0.0
 10
107.2168836537513
 20
-137.2372734574441
 30
0.0
 10
107.2995659453973
 20
-137.2372734574441
 30
0.0
 10
107.2995659453973
 20
-137.2372734574441
 30
0.0
 10
107.2995659453973
 20
-137.0743204409918
 30
0.0
 10
107.2995659453973
 20
-137.0638128997618
 30
0.0
 10
107.2971543785576
 20
-137.0088636267721
 30
0.0
 10
107.2971543785576
 20
-137.0088636267721
 30
0.0
 10
107.5214300946474
 20
-137.0341850785887
 30
0.0
 10
107.5214300946474
 20
-137.0341850785887
 30
0.0
 10
107.5259087187782
 20
-137.0341850785887
 30
0.0
 10
107.5469238012383
 20
-137.0362521358798
 30
0.0
 10
107.5469238012383
 20
-137.0531331037575
 30
0.0
 10
107.5469238012383
 20
-137.0679470143441
 30
0.0
 10
107.536244005234
 20
-137.0765597530573
 30
0.0
 10
107.508683241352
 20
-137.0913736636438
 30
0.0
 10
107.5024820694785
 20
-137.1568304778636
 30
0.0
 10
107.5004150121874
 20
-137.1780178150978
 30
0.0
 10
107.5004150121874
 20
-137.2372734574441
 30
0.0
 10
107.5004150121874
 20
-137.2372734574441
 30
0.0
 10
107.5954996475803
 20
-137.2372734574441
 30
0.0
 10
107.5954996475803
 20
-137.2372734574441
 30
0.0
 10
107.6781819392263
 20
-137.2372734574441
 30
0.0
 10
107.8514702421343
 20
-137.2329670880876
 30
0.0
 10
107.9765272082489
 20
-137.2245266041487
 30
0.0
 10
107.9765272082489
 20
-137.2245266041487
 30
0.0
 10
107.9765272082489
 20
-137.4043605884788
 30
0.0
 10
107.9765272082489
 20
-137.4043605884788
 30
0.0
 10
107.9468993870758
 20
-137.4022935311876
 30
0.0
 10
107.8283881023832
 20
-137.397987161831
 30
0.0
 10
107.7880804852057
 20
-137.3959201045399
 30
0.0
 10
107.7732665746192
 20
-137.4467352629473
 30
0.0
 10
107.7395046388637
 20
-137.5588731209922
 30
0.0
 10
107.6737033150954
 20
-137.6983994881448
 30
0.0
 10
107.716077989564
 20
-137.6983994881448
 30
0.0
 10
107.9934081761266
 20
-137.6794514629759
 30
0.0
 10
108.0547308757641
 20
-137.6772121509105
 30
0.0
 10
108.0547308757641
 20
-137.6772121509105
 30
0.0
 10
108.0547308757641
 20
-137.8613525045971
 30
0.0
 10
108.0547308757641
 20
-137.8613525045971
 30
0.0
 10
108.0251030545909
 20
-137.8613525045971
 30
0.0
 10
108.0082220867132
 20
-137.8570461352406
 30
0.0
 10
107.8452690702609
 20
-137.8570461352406
 30
0.0
  0
HATCH
  5
DA
330
D3
100
AcDbEntity
  8
レイヤー 1
 62
   250
420
  2299925
440
 33554687
100
AcDbHatch
 10
0.0
 20
0.0
 30
0.0
210
0.0
220
0.0
230
1.0
  2
SOLID
 70
     1
 71
     1
 91
        3
 92
        1
 93
        1
 72
     4
 94
        3
 73
     0
 74
     0
 95
       17
 96
       13
 40
0.0
 40
0.0
 40
0.0
 40
0.0
 40
1.0
 40
1.0
 40
1.0
 40
2.0
 40
2.0
 40
2.0
 40
3.0
 40
3.0
 40
3.0
 40
4.0
 40
4.0
 40
4.0
 40
4.0
 10
107.2802734106799
 20
-138.2422078104915
 10
107.2633924428022
 20
-138.2716633768904
 10
107.212749539169
 20
-138.3648532097664
 10
107.2020697431647
 20
-138.3838012349353
 10
107.3925835234991
 20
-138.4430568772816
 10
107.4135986059591
 20
-138.4494303039293
 10
107.4856011016008
 20
-138.4769910678113
 10
107.5407226293648
 20
-138.390174661583
 10
107.563804769116
 20
-138.3161051086501
 10
107.5786186797025
 20
-138.2422078104915
 10
107.5786186797025
 20
-138.2422078104915
 10
107.2802734106799
 20
-138.2422078104915
 10
107.2802734106799
 20
-138.2422078104915
 97
        0
 97
        1
330
D7
 92
        1
 93
        1
 72
     4
 94
        3
 73
     0
 74
     0
 95
       20
 96
       16
 40
0.0
 40
0.0
 40
0.0
 40
0.0
 40
1.0
 40
1.0
 40
1.0
 40
2.0
 40
2.0
 40
2.0
 40
3.0
 40
3.0
 40
3.0
 40
4.0
 40
4.0
 40
4.0
 40
5.0
 40
5.0
 40
5.0
 40
5.0
 10
107.2168836537513
 20
-137.3917859899576
 10
107.2168836537513
 20
-137.3917859899576
 10
107.185188775287
 20
-137.3917859899576
 10
107.185188775287
 20
-137.3917859899576
 10
107.2316975643379
 20
-137.491176994707
 10
107.2633924428022
 20
-137.5714477195134
 10
107.2971543785576
 20
-137.6983994881448
 10
107.2971543785576
 20
-137.6983994881448
 10
107.5045491267697
 20
-137.6983994881448
 10
107.5045491267697
 20
-137.6983994881448
 10
107.536244005234
 20
-137.6053819100431
 10
107.5596706545337
 20
-137.5208048158802
 10
107.5827527942848
 20
-137.3917859899576
 10
107.5827527942848
 20
-137.3917859899576
 10
107.2168836537513
 20
-137.3917859899576
 10
107.2168836537513
 20
-137.3917859899576
 97
        0
 97
        1
330
D8
 92
        1
 93
        1
 72
     4
 94
        3
 73
     0
 74
     0
 95
      242
 96
      238
 40
0.0
 40
0.0
 40
0.0
 40
0.0
 40
1.0
 40
1.0
 40
1.0
 40
2.0
 40
2.0
 40
2.0
 40
3.0
 40
3.0
 40
3.0
 40
4.0
 40
4.0
 40
4.0
 40
5.0
 40
5.0
 40
5.0
 40
6.0
 40
6.0
 40
6.0
 40
7.0
 40
7.0
 40
7.0
 40
8.0
 40
8.0
 40
8.0
 40
9.0
 40
9.0
 40
9.0
 40
10.0
 40
10.0
 40
10.0
 40
11.0
 40
11.0
 40
11.0
 40
12.0
 40
12.0
 40
12.0
 40
13.0
 40
13.0
 40
13.0
 40
14.0
 40
14.0
 40
14.0
 40
15.0
 40
15.0
 40
15.0
 40
16.0
 40
16.0
 40
16.0
 40
17.0
 40
17.0
 40
17.0
 40
18.0
 40
18.0
 40
18.0
 40
19.0
 40
19.0
 40
19.0
 40
20.0
 40
20.0
 40
20.0
 40
21.0
 40
21.0
 40
21.0
 40
22.0
 40
22.0
 40
22.0
 40
23.0
 40
23.0
 40
23.0
 40
24.0
 40
24.0
 40
24.0
 40
25.0
 40
25.0
 40
25.0
 40
26.0
 40
26.0
 40
26.0
 40
27.0
 40
27.0
 40
27.0
 40
28.0
 40
28.0
 40
28.0
 40
29.0
 40
29.0
 40
29.0
 40
30.0
 40
30.0
 40
30.0
 40
31.0
 40
31.0
 40
31.0
 40
32.0
 40
32.0
 40
32.0
 40
33.0
 40
33.0
 40
33.0
 40
34.0
 40
34.0
 40
34.0
 40
35.0
 40
35.0
 40
35.0
 40
36.0
 40
36.0
 40
36.0
 40
37.0
 40
37.0
 40
37.0
 40
38.0
 40
38.0
 40
38.0
 40
39.0
 40
39.0
 40
39.0
 40
40.0
 40
40.0
 40
40.0
 40
41.0
 40
41.0
 40
41.0
 40
42.0
 40
42.0
 40
42.0
 40
43.0
 40
43.0
 40
43.0
 40
44.0
 40
44.0
 40
44.0
 40
45.0
 40
45.0
 40
45.0
 40
46.0
 40
46.0
 40
46.0
 40
47.0
 40
47.0
 40
47.0
 40
48.0
 40
48.0
 40
48.0
 40
49.0
 40
49.0
 40
49.0
 40
50.0
 40
50.0
 40
50.0
 40
51.0
 40
51.0
 40
51.0
 40
52.0
 40
52.0
 40
52.0
 40
53.0
 40
53.0
 40
53.0
 40
54.0
 40
54.0
 40
54.0
 40
55.0
 40
55.0
 40
55.0
 40
56.0
 40
56.0
 40
56.0
 40
57.0
 40
57.0
 40
57.0
 40
58.0
 40
58.0
 40
58.0
 40
59.0
 40
59.0
 40
59.0
 40
60.0
 40
60.0
 40
60.0
 40
61.0
 40
61.0
 40
61.0
 40
62.0
 40
62.0
 40
62.0
 40
63.0
 40
63.0
 40
63.0
 40
64.0
 40
64.0
 40
64.0
 40
65.0
 40
65.0
 40
65.0
 40
66.0
 40
66.0
 40
66.0
 40
67.0
 40
67.0
 40
67.0
 40
68.0
 40
68.0
 40
68.0
 40
69.0
 40
69.0
 40
69.0
 40
70.0
 40
70.0
 40
70.0
 40
71.0
 40
71.0
 40
71.0
 40
72.0
 40
72.0
 40
72.0
 40
73.0
 40
73.0
 40
73.0
 40
74.0
 40
74.0
 40
74.0
 40
75.0
 40
75.0
 40
75.0
 40
76.0
 40
76.0
 40
76.0
 40
77.0
 40
77.0
 40
77.0
 40
78.0
 40
78.0
 40
78.0
 40
79.0
 40
79.0
 40
79.0
 40
79.0
 10
107.8452690702609
 20
-137.8570461352406
 10
107.8452690702609
 20
-137.8570461352406
 10
107.591365532998
 20
-137.8570461352406
 10
107.591365532998
 20
-137.8570461352406
 10
107.591365532998
 20
-137.8570461352406
 10
107.3143798559839
 20
-137.8570461352406
 10
107.3143798559839
 20
-137.8570461352406
 10
107.3143798559839
 20
-137.8570461352406
 10
107.4411593698411
 20
-137.8994208097092
 10
107.4411593698411
 20
-137.8994208097092
 10
107.4518391658454
 20
-137.9037271790657
 10
107.4645860191408
 20
-137.9099283509392
 10
107.4645860191408
 20
-137.9226752042346
 10
107.4645860191408
 20
-137.9438625414689
 10
107.432546631128
 20
-137.9502359681166
 10
107.4115315486679
 20
-137.9543700826989
 10
107.4008517526637
 20
-137.9776244772243
 10
107.3712239314905
 20
-138.0432535462183
 10
107.3522759063216
 20
-138.0876952779781
 10
107.3522759063216
 20
-138.0876952779781
 10
107.6230604114623
 20
-138.0876952779781
 10
107.6230604114623
 20
-138.0876952779781
 10
107.7140109322729
 20
-138.0876952779781
 10
107.9107258844806
 20
-138.0833889086215
 10
108.0526638184729
 20
-138.0749484246826
 10
108.0526638184729
 20
-138.0749484246826
 10
108.0526638184729
 20
-138.2527153517215
 10
108.0526638184729
 20
-138.2527153517215
 10
107.9699815268269
 20
-138.248408982365
 10
107.9489664443669
 20
-138.248408982365
 10
107.7691324600369
 20
-138.2442748677827
 10
107.7374375815726
 20
-138.3986151455219
 10
107.6929958498128
 20
-138.4790581251024
 10
107.6485541180531
 20
-138.5488213086788
 10
107.7691324600369
 20
-138.6080769510251
 10
107.874896891434
 20
-138.6757730773102
 10
107.9785942655401
 20
-138.7582831141819
 10
107.9785942655401
 20
-138.7582831141819
 10
107.8600829808475
 20
-138.9253702452166
 10
107.8600829808475
 20
-138.9253702452166
 10
107.8366563315478
 20
-138.9064222200477
 10
107.8239094782523
 20
-138.8979817361088
 10
107.7119438749817
 20
-138.8132323871717
 10
107.6633680286397
 20
-138.7751640820597
 10
107.6041123862934
 20
-138.7393350890131
 10
107.5234971519385
 20
-138.6948933572533
 10
107.3119682891442
 20
-138.8811007682311
 10
107.1069851077719
 20
-138.9043551627565
 10
106.8169080679138
 20
-138.9339829839297
 10
106.8169080679138
 20
-138.9339829839297
 10
106.7135552033563
 20
-138.7541489995996
 10
106.7135552033563
 20
-138.7541489995996
 10
107.0308484975478
 20
-138.7498426302431
 10
107.206203857747
 20
-138.7245211784265
 10
107.3584770781951
 20
-138.6144503776728
 10
107.240310303051
 20
-138.5636352192653
 10
107.1514268395316
 20
-138.5362467101576
 10
107.1152533369365
 20
-138.5234998568622
 10
107.0963053117676
 20
-138.5510606207442
 10
107.081491401181
 20
-138.570008645913
 10
107.053930637299
 20
-138.6039428364427
 10
107.053930637299
 20
-138.6039428364427
 10
106.8572156850912
 20
-138.521432799571
 10
106.8572156850912
 20
-138.521432799571
 10
106.9398979767372
 20
-138.4409898199904
 10
107.0012206763747
 20
-138.3457329298233
 10
107.0580647518813
 20
-138.2442748677827
 10
106.8678954810955
 20
-138.248408982365
 10
106.846535889087
 20
-138.248408982365
 10
106.7641981069895
 20
-138.2527153517215
 10
106.7641981069895
 20
-138.2527153517215
 10
106.7641981069895
 20
-138.0749484246826
 10
106.7641981069895
 20
-138.0749484246826
 10
106.9037244741421
 20
-138.0813218513303
 10
107.1131862796453
 20
-138.0856282206869
 10
107.1386799862361
 20
-138.0856282206869
 10
107.1555609541139
 20
-138.0516940301572
 10
107.2106824818779
 20
-137.9311156881734
 10
107.2296305070467
 20
-137.8570461352406
 10
107.2106824818779
 20
-137.8570461352406
 10
107.032915554839
 20
-137.8634195618883
 10
106.8382676599224
 20
-137.8761664151837
 10
106.8382676599224
 20
-137.8761664151837
 10
106.8382676599224
 20
-138.0094916104629
 10
106.8382676599224
 20
-138.0094916104629
 10
106.7896918135803
 20
-138.0348130622795
 10
106.730436171234
 20
-138.0665079407438
 10
106.5971109759549
 20
-138.1321370097378
 10
106.5971109759549
 20
-138.1321370097378
 10
106.5971109759549
 20
-138.2780368035381
 10
106.5971109759549
 20
-138.2780368035381
 10
106.5971109759549
 20
-138.2780368035381
 10
106.5971109759549
 20
-138.7457085156608
 10
106.5971109759549
 20
-138.7457085156608
 10
106.5971109759549
 20
-138.872488029518
 10
106.5609374733597
 20
-138.9317436718643
 10
106.2777506244722
 20
-138.9233031879254
 10
106.2777506244722
 20
-138.9233031879254
 10
106.1740532503662
 20
-138.7160806944876
 10
106.1740532503662
 20
-138.7160806944876
 10
106.2374430072948
 20
-138.7286552930088
 10
106.2860188536368
 20
-138.7329616623653
 10
106.3263264708142
 20
-138.7329616623653
 10
106.4024630810383
 20
-138.7329616623653
 10
106.4131428770425
 20
-138.7097072678399
 10
106.4131428770425
 20
-138.6440781988459
 10
106.4131428770425
 20
-138.6440781988459
 10
106.4131428770425
 20
-138.2146470466095
 10
106.4131428770425
 20
-138.2146470466095
 10
106.31564667481
 20
-138.2547824090127
 10
106.2987657069322
 20
-138.2611558356604
 10
106.2522569178814
 20
-138.2802761156035
 10
106.2481228032991
 20
-138.3012911980636
 10
106.2436441791682
 20
-138.3309190192367
 10
106.2246961539994
 20
-138.3309190192367
 10
106.2164279248348
 20
-138.3309190192367
 10
106.2057481288305
 20
-138.3267849046544
 10
106.1992024474085
 20
-138.303530510129
 10
106.1992024474085
 20
-138.303530510129
 10
106.1464924864842
 20
-138.1109496725035
 10
106.1464924864842
 20
-138.1109496725035
 10
106.2925645350588
 20
-138.0644408834526
 10
106.3580213492785
 20
-138.0411864889272
 10
106.4131428770425
 20
-138.0199991516929
 10
106.4131428770425
 20
-138.0199991516929
 10
106.4131428770425
 20
-137.6074489673342
 10
106.4131428770425
 20
-137.6074489673342
 10
106.4131428770425
 20
-137.6074489673342
 10
106.3600884065697
 20
-137.6074489673342
 10
106.3600884065697
 20
-137.6074489673342
 10
106.3600884065697
 20
-137.6074489673342
 10
106.2818847390545
 20
-137.6074489673342
 10
106.2818847390545
 20
-137.6074489673342
 10
106.2140163579951
 20
-137.6074489673342
 10
106.2057481288305
 20
-137.6074489673342
 10
106.1695746262354
 20
-137.6138223939819
 10
106.1695746262354
 20
-137.6138223939819
 10
106.1695746262354
 20
-137.4191744990653
 10
106.1695746262354
 20
-137.4191744990653
 10
106.1971353901174
 20
-137.425547925713
 10
106.2057481288305
 20
-137.425547925713
 10
106.2753390576325
 20
-137.425547925713
 10
106.2753390576325
 20
-137.425547925713
 10
106.4086642529117
 20
-137.425547925713
 10
106.4086642529117
 20
-137.425547925713
 10
106.4086642529117
 20
-137.3557847421367
 10
106.4086642529117
 20
-137.273274705265
 10
106.4065971956206
 20
-137.2689683359084
 10
106.398328966456
 20
-137.0891343515784
 10
106.398328966456
 20
-137.0701863264095
 10
106.3959173996163
 20
-137.0236775373587
 10
106.3959173996163
 20
-137.0236775373587
 10
106.6119248865414
 20
-137.0321180212975
 10
106.6119248865414
 20
-137.0321180212975
 10
106.6226046825457
 20
-137.0321180212975
 10
106.6436197650057
 20
-137.0341850785887
 10
106.6436197650057
 20
-137.0510660464664
 10
106.6436197650057
 20
-137.0701863264095
 10
106.6288058544192
 20
-137.0806938676395
 10
106.6033121478283
 20
-137.0998141475827
 10
106.6033121478283
 20
-137.1504570512158
 10
106.5971109759549
 20
-137.3790391366622
 10
106.599178033246
 20
-137.425547925713
 10
106.7283691139429
 20
-137.425547925713
 10
106.7407714576898
 20
-137.425547925713
 10
106.8382676599224
 20
-137.4171074417742
 10
106.8382676599224
 20
-137.4171074417742
 10
106.8382676599224
 20
-137.6117553366908
 10
106.8382676599224
 20
-137.6117553366908
 10
106.8000271000361
 20
-137.6095160246254
 10
106.7325032285252
 20
-137.6053819100431
 10
106.5971109759549
 20
-137.6074489673342
 10
106.5971109759549
 20
-137.6074489673342
 10
106.5971109759549
 20
-137.94592959876
 10
106.5971109759549
 20
-137.94592959876
 10
106.6522325037189
 20
-137.9226752042346
 10
106.7176893179386
 20
-137.8951144403526
 10
106.7662651642806
 20
-137.8718600458272
 10
106.7662651642806
 20
-137.8718600458272
 10
106.7662651642806
 20
-137.6942653735625
 10
106.7662651642806
 20
-137.6942653735625
 10
106.8806423343909
 20
-137.7068399720837
 10
106.9991536190835
 20
-137.7068399720837
 10
107.1152533369365
 20
-137.7068399720837
 10
107.0921711971853
 20
-137.6117553366908
 10
107.0646104333033
 20
-137.5292452998191
 10
107.0012206763747
 20
-137.3959201045399
 10
106.956778944615
 20
-137.397987161831
 10
106.874096652969
 20
-137.4022935311876
 10
106.8362006026312
 20
-137.4043605884788
 10
106.8362006026312
 20
-137.4043605884788
 10
106.8362006026312
 20
-137.2245266041487
 10
106.8362006026312
 20
-137.2245266041487
 10
106.9609130591973
 20
-137.2329670880876
 10
107.1345458716538
 20
-137.2372734574441
 10
107.2168836537513
 20
-137.2372734574441
 10
107.2168836537513
 20
-137.2372734574441
 10
107.2995659453973
 20
-137.2372734574441
 10
107.2995659453973
 20
-137.2372734574441
 10
107.2995659453973
 20
-137.0743204409918
 10
107.2995659453973
 20
-137.0638128997618
 10
107.2971543785576
 20
-137.0088636267721
 10
107.2971543785576
 20
-137.0088636267721
 10
107.5214300946474
 20
-137.0341850785887
 10
107.5214300946474
 20
-137.0341850785887
 10
107.5259087187782
 20
-137.0341850785887
 10
107.5469238012383
 20
-137.0362521358798
 10
107.5469238012383
 20
-137.0531331037575
 10
107.5469238012383
 20
-137.0679470143441
 10
107.536244005234
 20
-137.0765597530573
 10
107.508683241352
 20
-137.0913736636438
 10
107.5024820694785
 20
-137.1568304778636
 10
107.5004150121874
 20
-137.1780178150978
 10
107.5004150121874
 20
-137.2372734574441
 10
107.5004150121874
 20
-137.2372734574441
 10
107.5954996475803
 20
-137.2372734574441
 10
107.5954996475803
 20
-137.2372734574441
 10
107.6781819392263
 20
-137.2372734574441
 10
107.8514702421343
 20
-137.2329670880876
 10
107.9765272082489
 20
-137.2245266041487
 10
107.9765272082489
 20
-137.2245266041487
 10
107.9765272082489
 20
-137.4043605884788
 10
107.9765272082489
 20
-137.4043605884788
 10
107.9468993870758
 20
-137.4022935311876
 10
107.8283881023832
 20
-137.397987161831
 10
107.7880804852057
 20
-137.3959201045399
 10
107.7732665746192
 20
-137.4467352629473
 10
107.7395046388637
 20
-137.5588731209922
 10
107.6737033150954
 20
-137.6983994881448
 10
107.716077989564
 20
-137.6983994881448
 10
107.9934081761266
 20
-137.6794514629759
 10
108.0547308757641
 20
-137.6772121509105
 10
108.0547308757641
 20
-137.6772121509105
 10
108.0547308757641
 20
-137.8613525045971
 10
108.0547308757641
 20
-137.8613525045971
 10
108.0251030545909
 20
-137.8613525045971
 10
108.0082220867132
 20
-137.8570461352406
 10
107.8452690702609
 20
-137.8570461352406
 97
        0
 97
        1
330
D9
 75
     2
 76
     1
 98
        1
 10
0.0
 20
0.0
450
        0
451
        0
460
0.0
461
0.0
452
        0
462
0.0
453
        0
470

  0
SPLINE
  5
DB
330
D3
100
AcDbEntity
  8
レイヤー 1
100
AcDbSpline
210
0.0
220
0.0
230
1.0
 70
    11
 71
     3
 72
    17
 73
    13
 74
     0
 42
0.0000000001
 43
0.0000000001
 40
0.0
 40
0.0
 40
0.0
 40
0.0
 40
1.0
 40
1.0
 40
1.0
 40
2.0
 40
2.0
 40
2.0
 40
3.0
 40
3.0
 40
3.0
 40
4.0
 40
4.0
 40
4.0
 40
4.0
 10
109.701831027262
 20
-138.6568250521413
 30
0.0
 10
109.701831027262
 20
-138.6568250521413
 30
0.0
 10
108.9952419432373
 20
-138.6568250521413
 30
0.0
 10
108.9952419432373
 20
-138.6568250521413
 30
0.0
 10
108.9952419432373
 20
-138.6568250521413
 30
0.0
 10
108.9952419432373
 20
-138.7710299674774
 30
0.0
 10
108.9952419432373
 20
-138.7710299674774
 30
0.0
 10
108.9952419432373
 20
-138.7710299674774
 30
0.0
 10
109.701831027262
 20
-138.7710299674774
 30
0.0
 10
109.701831027262
 20
-138.7710299674774
 30
0.0
 10
109.701831027262
 20
-138.7710299674774
 30
0.0
 10
109.701831027262
 20
-138.6568250521413
 30
0.0
 10
109.701831027262
 20
-138.6568250521413
 30
0.0
  0
SPLINE
  5
DC
330
D3
100
AcDbEntity
  8
レイヤー 1
100
AcDbSpline
210
0.0
220
0.0
230
1.0
 70
    11
 71
     3
 72
    17
 73
    13
 74
     0
 42
0.0000000001
 43
0.0000000001
 40
0.0
 40
0.0
 40
0.0
 40
0.0
 40
1.0
 40
1.0
 40
1.0
 40
2.0
 40
2.0
 40
2.0
 40
3.0
 40
3.0
 40
3.0
 40
4.0
 40
4.0
 40
4.0
 40
4.0
 10
109.701831027262
 20
-138.4134290561084
 30
0.0
 10
109.701831027262
 20
-138.4134290561084
 30
0.0
 10
108.9952419432373
 20
-138.4134290561084
 30
0.0
 10
108.9952419432373
 20
-138.4134290561084
 30
0.0
 10
108.9952419432373
 20
-138.4134290561084
 30
0.0
 10
108.9952419432373
 20
-138.5278062262187
 30
0.0
 10
108.9952419432373
 20
-138.5278062262187
 30
0.0
 10
108.9952419432373
 20
-138.5278062262187
 30
0.0
 10
109.701831027262
 20
-138.5278062262187
 30
0.0
 10
109.701831027262
 20
-138.5278062262187
 30
0.0
 10
109.701831027262
 20
-138.5278062262187
 30
0.0
 10
109.701831027262
 20
-138.4134290561084
 30
0.0
 10
109.701831027262
 20
-138.4134290561084
 30
0.0
  0
SPLINE
  5
DD
330
D3
100
AcDbEntity
  8
レイヤー 1
100
AcDbSpline
210
0.0
220
0.0
230
1.0
 70
    11
 71
     3
 72
    17
 73
    13
 74
     0
 42
0.0000000001
 43
0.0000000001
 40
0.0
 40
0.0
 40
0.0
 40
0.0
 40
1.0
 40
1.0
 40
1.0
 40
2.0
 40
2.0
 40
2.0
 40
3.0
 40
3.0
 40
3.0
 40
4.0
 40
4.0
 40
4.0
 40
4.0
 10
109.701831027262
 20
-138.1807128560798
 30
0.0
 10
109.701831027262
 20
-138.1807128560798
 30
0.0
 10
108.9952419432373
 20
-138.1807128560798
 30
0.0
 10
108.9952419432373
 20
-138.1807128560798
 30
0.0
 10
108.9952419432373
 20
-138.1807128560798
 30
0.0
 10
108.9952419432373
 20
-138.2887165995424
 30
0.0
 10
108.9952419432373
 20
-138.2887165995424
 30
0.0
 10
108.9952419432373
 20
-138.2887165995424
 30
0.0
 10
109.701831027262
 20
-138.2887165995424
 30
0.0
 10
109.701831027262
 20
-138.2887165995424
 30
0.0
 10
109.701831027262
 20
-138.2887165995424
 30
0.0
 10
109.701831027262
 20
-138.1807128560798
 30
0.0
 10
109.701831027262
 20
-138.1807128560798
 30
0.0
  0
SPLINE
  5
DE
330
D3
100
AcDbEntity
  8
レイヤー 1
100
AcDbSpline
210
0.0
220
0.0
230
1.0
 70
     9
 71
     3
 72
   203
 73
   199
 74
     0
 42
0.0000000001
 43
0.0000000001
 40
0.0
 40
0.0
 40
0.0
 40
0.0
 40
1.0
 40
1.0
 40
1.0
 40
2.0
 40
2.0
 40
2.0
 40
3.0
 40
3.0
 40
3.0
 40
4.0
 40
4.0
 40
4.0
 40
5.0
 40
5.0
 40
5.0
 40
6.0
 40
6.0
 40
6.0
 40
7.0
 40
7.0
 40
7.0
 40
8.0
 40
8.0
 40
8.0
 40
9.0
 40
9.0
 40
9.0
 40
10.0
 40
10.0
 40
10.0
 40
11.0
 40
11.0
 40
11.0
 40
12.0
 40
12.0
 40
12.0
 40
13.0
 40
13.0
 40
13.0
 40
14.0
 40
14.0
 40
14.0
 40
15.0
 40
15.0
 40
15.0
 40
16.0
 40
16.0
 40
16.0
 40
17.0
 40
17.0
 40
17.0
 40
18.0
 40
18.0
 40
18.0
 40
19.0
 40
19.0
 40
19.0
 40
20.0
 40
20.0
 40
20.0
 40
21.0
 40
21.0
 40
21.0
 40
22.0
 40
22.0
 40
22.0
 40
23.0
 40
23.0
 40
23.0
 40
24.0
 40
24.0
 40
24.0
 40
25.0
 40
25.0
 40
25.0
 40
26.0
 40
26.0
 40
26.0
 40
27.0
 40
27.0
 40
27.0
 40
28.0
 40
28.0
 40
28.0
 40
29.0
 40
29.0
 40
29.0
 40
30.0
 40
30.0
 40
30.0
 40
31.0
 40
31.0
 40
31.0
 40
32.0
 40
32.0
 40
32.0
 40
33.0
 40
33.0
 40
33.0
 40
34.0
 40
34.0
 40
34.0
 40
35.0
 40
35.0
 40
35.0
 40
36.0
 40
36.0
 40
36.0
 40
37.0
 40
37.0
 40
37.0
 40
38.0
 40
38.0
 40
38.0
 40
39.0
 40
39.0
 40
39.0
 40
40.0
 40
40.0
 40
40.0
 40
41.0
 40
41.0
 40
41.0
 40
42.0
 40
42.0
 40
42.0
 40
43.0
 40
43.0
 40
43.0
 40
44.0
 40
44.0
 40
44.0
 40
45.0
 40
45.0
 40
45.0
 40
46.0
 40
46.0
 40
46.0
 40
47.0
 40
47.0
 40
47.0
 40
48.0
 40
48.0
 40
48.0
 40
49.0
 40
49.0
 40
49.0
 40
50.0
 40
50.0
 40
50.0
 40
51.0
 40
51.0
 40
51.0
 40
52.0
 40
52.0
 40
52.0
 40
53.0
 40
53.0
 40
53.0
 40
54.0
 40
54.0
 40
54.0
 40
55.0
 40
55.0
 40
55.0
 40
56.0
 40
56.0
 40
56.0
 40
57.0
 40
57.0
 40
57.0
 40
58.0
 40
58.0
 40
58.0
 40
59.0
 40
59.0
 40
59.0
 40
60.0
 40
60.0
 40
60.0
 40
61.0
 40
61.0
 40
61.0
 40
62.0
 40
62.0
 40
62.0
 40
63.0
 40
63.0
 40
63.0
 40
64.0
 40
64.0
 40
64.0
 40
65.0
 40
65.0
 40
65.0
 40
66.0
 40
66.0
 40
66.0
 40
66.0
 10
109.5368109535186
 20
-137.9247422615258
 30
0.0
 10
109.5368109535186
 20
-137.9247422615258
 30
0.0
 10
108.978016465811
 20
-137.9247422615258
 30
0.0
 10
108.978016465811
 20
-137.9247422615258
 30
0.0
 10
108.9676811793553
 20
-137.9691839932855
 30
0.0
 10
108.9590684406422
 20
-138.0008788717498
 30
0.0
 10
108.9463215873467
 20
-138.039119431636
 30
0.0
 10
108.9718152939376
 20
-138.039119431636
 30
0.0
 10
108.9866292045241
 20
-138.0411864889272
 30
0.0
 10
108.9928303763976
 20
-138.0411864889272
 30
0.0
 10
108.9928303763976
 20
-138.0411864889272
 30
0.0
 10
109.1812770994408
 20
-138.0411864889272
 30
0.0
 10
109.1812770994408
 20
-138.0411864889272
 30
0.0
 10
109.1812770994408
 20
-138.0411864889272
 30
0.0
 10
109.5557589786874
 20
-138.0411864889272
 30
0.0
 10
109.5557589786874
 20
-138.0411864889272
 30
0.0
 10
109.6064018823206
 20
-138.0411864889272
 30
0.0
 10
109.8899332407567
 20
-138.0284396356318
 30
0.0
 10
109.921628119221
 20
-138.0284396356318
 30
0.0
 10
109.9195610619298
 20
-138.0560003995138
 30
0.0
 10
109.9174940046387
 20
-138.0749484246826
 30
0.0
 10
109.9174940046387
 20
-138.1045762458558
 30
0.0
 10
109.9154269473475
 20
-138.1362711243201
 30
0.0
 10
109.9154269473475
 20
-138.2716633768904
 30
0.0
 10
109.9154269473475
 20
-138.2992241407724
 30
0.0
 10
109.9154269473475
 20
-138.2992241407724
 30
0.0
 10
109.9154269473475
 20
-138.5446871940964
 30
0.0
 10
109.9154269473475
 20
-138.5446871940964
 30
0.0
 10
109.9154269473475
 20
-138.5891289258562
 30
0.0
 10
109.9195610619298
 20
-138.7858438780639
 30
0.0
 10
109.9236951765121
 20
-138.938117098512
 30
0.0
 10
109.9236951765121
 20
-138.938117098512
 30
0.0
 10
109.6973524031312
 20
-138.938117098512
 30
0.0
 10
109.6973524031312
 20
-138.938117098512
 30
0.0
 10
109.6973524031312
 20
-138.938117098512
 30
0.0
 10
109.6994194604224
 20
-138.9043551627565
 30
0.0
 10
109.6994194604224
 20
-138.9043551627565
 30
0.0
 10
109.6994194604224
 20
-138.9043551627565
 30
0.0
 10
108.9973090005284
 20
-138.9043551627565
 30
0.0
 10
108.9973090005284
 20
-138.9043551627565
 30
0.0
 10
108.9973090005284
 20
-138.9043551627565
 30
0.0
 10
108.9993760578196
 20
-138.938117098512
 30
0.0
 10
108.9993760578196
 20
-138.938117098512
 30
0.0
 10
108.9993760578196
 20
-138.938117098512
 30
0.0
 10
108.7813015136033
 20
-138.938117098512
 30
0.0
 10
108.7813015136033
 20
-138.938117098512
 30
0.0
 10
108.7857801377341
 20
-138.8831678255222
 30
0.0
 10
108.7857801377341
 20
-138.8704209722268
 30
0.0
 10
108.7919813096075
 20
-138.7562160568908
 30
0.0
 10
108.7940483668987
 20
-138.7286552930088
 30
0.0
 10
108.7961154241898
 20
-138.5955023525039
 30
0.0
 10
108.7961154241898
 20
-138.5763820725607
 30
0.0
 10
108.7961154241898
 20
-138.5763820725607
 30
0.0
 10
108.7961154241898
 20
-138.3732936937053
 30
0.0
 10
108.7961154241898
 20
-138.3732936937053
 30
0.0
 10
108.6565890570372
 20
-138.6228908616116
 30
0.0
 10
108.4874348687115
 20
-138.7541489995996
 30
0.0
 10
108.3816704373143
 20
-138.8196058138194
 30
0.0
 10
108.3816704373143
 20
-138.8196058138194
 30
0.0
 10
108.2080376248577
 20
-138.6800794466668
 30
0.0
 10
108.2080376248577
 20
-138.6800794466668
 30
0.0
 10
108.2969210883771
 20
-138.6292642882593
 30
0.0
 10
108.4409260796606
 20
-138.542447882031
 30
0.0
 10
108.578385389522
 20
-138.3479722418887
 30
0.0
 10
108.6693359103326
 20
-138.2210204732572
 30
0.0
 10
108.7347927245524
 20
-138.0771877367481
 30
0.0
 10
108.7688991698564
 20
-137.9247422615258
 30
0.0
 10
108.5401448296358
 20
-137.9269815735912
 30
0.0
 10
108.3603108453057
 20
-137.9333550002389
 30
0.0
 10
108.2652262099129
 20
-137.93542205753
 30
0.0
 10
108.2652262099129
 20
-137.93542205753
 30
0.0
 10
108.2652262099129
 20
-137.7576551304911
 30
0.0
 10
108.2652262099129
 20
-137.7576551304911
 30
0.0
 10
108.4619411621206
 20
-137.7640285571388
 30
0.0
 10
108.7454725205567
 20
-137.7683349264954
 30
0.0
 10
108.8956786837136
 20
-137.7683349264954
 30
0.0
 10
108.8956786837136
 20
-137.7683349264954
 30
0.0
 10
109.1092746037991
 20
-137.7683349264954
 30
0.0
 10
109.1092746037991
 20
-137.7683349264954
 30
0.0
 10
109.1092746037991
 20
-137.7683349264954
 30
0.0
 10
109.1092746037991
 20
-137.6603311830328
 30
0.0
 10
109.1092746037991
 20
-137.6603311830328
 30
0.0
 10
109.1092746037991
 20
-137.6603311830328
 30
0.0
 10
108.9632025552245
 20
-137.6603311830328
 30
0.0
 10
108.9632025552245
 20
-137.6603311830328
 30
0.0
 10
108.7940483668987
 20
-137.6603311830328
 30
0.0
 10
108.6248941785729
 20
-137.6646375523894
 30
0.0
 10
108.4578070475383
 20
-137.6710109790371
 30
0.0
 10
108.4578070475383
 20
-137.6710109790371
 30
0.0
 10
108.4578070475383
 20
-137.4996174786459
 30
0.0
 10
108.4578070475383
 20
-137.4996174786459
 30
0.0
 10
108.6121473252775
 20
-137.5101250198759
 30
0.0
 10
108.798182481481
 20
-137.5101250198759
 30
0.0
 10
108.9632025552245
 20
-137.5101250198759
 30
0.0
 10
108.9632025552245
 20
-137.5101250198759
 30
0.0
 10
109.1092746037991
 20
-137.5101250198759
 30
0.0
 10
109.1092746037991
 20
-137.5101250198759
 30
0.0
 10
109.1092746037991
 20
-137.5101250198759
 30
0.0
 10
109.1092746037991
 20
-137.3917859899576
 30
0.0
 10
109.1092746037991
 20
-137.3917859899576
 30
0.0
 10
109.1092746037991
 20
-137.3917859899576
 30
0.0
 10
108.978016465811
 20
-137.3917859899576
 30
0.0
 10
108.978016465811
 20
-137.3917859899576
 30
0.0
 10
108.9315076767602
 20
-137.3917859899576
 30
0.0
 10
108.7285915526789
 20
-137.4002264738965
 30
0.0
 10
108.6862168782104
 20
-137.4002264738965
 30
0.0
 10
108.4833007541291
 20
-137.4043605884788
 30
0.0
 10
108.4068196343566
 20
-137.4064276457699
 30
0.0
 10
108.3286159668414
 20
-137.4086669578353
 30
0.0
 10
108.3286159668414
 20
-137.4086669578353
 30
0.0
 10
108.3286159668414
 20
-137.2245266041487
 30
0.0
 10
108.3286159668414
 20
-137.2245266041487
 30
0.0
 10
108.4429931369517
 20
-137.2329670880876
 30
0.0
 10
108.4874348687115
 20
-137.2329670880876
 30
0.0
 10
108.8701849771227
 20
-137.2415798268007
 30
0.0
 10
108.8067952201941
 20
-137.1463229366336
 30
0.0
 10
108.7792344563121
 20
-137.1187621727515
 30
0.0
 10
108.7434054632655
 20
-137.0827609249307
 30
0.0
 10
108.7434054632655
 20
-137.0827609249307
 30
0.0
 10
108.9187608234647
 20
-137.0002508880589
 30
0.0
 10
108.9187608234647
 20
-137.0002508880589
 30
0.0
 10
108.9590684406422
 20
-137.0362521358798
 30
0.0
 10
109.0035101724019
 20
-137.0786268103484
 30
0.0
 10
109.0775797253348
 20
-137.1885253563279
 30
0.0
 10
109.0775797253348
 20
-137.1885253563279
 30
0.0
 10
108.9632025552245
 20
-137.2436468840918
 30
0.0
 10
108.9632025552245
 20
-137.2436468840918
 30
0.0
 10
108.9632025552245
 20
-137.2436468840918
 30
0.0
 10
108.9738823512287
 20
-137.2436468840918
 30
0.0
 10
108.9738823512287
 20
-137.2436468840918
 30
0.0
 10
108.9738823512287
 20
-137.2436468840918
 30
0.0
 10
109.4965033363411
 20
-137.2436468840918
 30
0.0
 10
109.4965033363411
 20
-137.2436468840918
 30
0.0
 10
109.4965033363411
 20
-137.2436468840918
 30
0.0
 10
109.4014187009482
 20
-137.1992051523321
 30
0.0
 10
109.4014187009482
 20
-137.1992051523321
 30
0.0
 10
109.4286349552817
 20
-137.1611368472201
 30
0.0
 10
109.4858235403369
 20
-137.0806938676395
 30
0.0
 10
109.5006374509234
 20
-137.0066243147066
 30
0.0
 10
109.5006374509234
 20
-137.0066243147066
 30
0.0
 10
109.7142333710089
 20
-137.0701863264095
 30
0.0
 10
109.7142333710089
 20
-137.0701863264095
 30
0.0
 10
109.722846109722
 20
-137.0722533837007
 30
0.0
 10
109.7438611921821
 20
-137.0827609249307
 30
0.0
 10
109.7438611921821
 20
-137.103948262165
 30
0.0
 10
109.7438611921821
 20
-137.142016567277
 30
0.0
 10
109.6784043779623
 20
-137.142016567277
 30
0.0
 10
109.6594563527935
 20
-137.142016567277
 30
0.0
 10
109.6487765567892
 20
-137.1611368472201
 30
0.0
 10
109.6253499074895
 20
-137.2012722096233
 30
0.0
 10
109.5957220863163
 20
-137.2415798268007
 30
0.0
 10
109.9956976721538
 20
-137.235206400153
 30
0.0
 10
110.025325493327
 20
-137.2329670880876
 30
0.0
 10
110.101462103551
 20
-137.2267659162141
 30
0.0
 10
110.101462103551
 20
-137.2267659162141
 30
0.0
 10
110.101462103551
 20
-137.4086669578353
 30
0.0
 10
110.101462103551
 20
-137.4086669578353
 30
0.0
 10
110.0825140783821
 20
-137.4086669578353
 30
0.0
 10
110.0570203717913
 20
-137.4064276457699
 30
0.0
 10
109.8372232798324
 20
-137.397987161831
 30
0.0
 10
109.7862358666507
 20
-137.3959201045399
 30
0.0
 10
109.5664387746917
 20
-137.3917859899576
 30
0.0
 10
109.521997042932
 20
-137.3917859899576
 30
0.0
 10
109.521997042932
 20
-137.3917859899576
 30
0.0
 10
109.3059895560068
 20
-137.3917859899576
 30
0.0
 10
109.3059895560068
 20
-137.3917859899576
 30
0.0
 10
109.3059895560068
 20
-137.3917859899576
 30
0.0
 10
109.3059895560068
 20
-137.5101250198759
 30
0.0
 10
109.3059895560068
 20
-137.5101250198759
 30
0.0
 10
109.3059895560068
 20
-137.5101250198759
 30
0.0
 10
109.4796223684634
 20
-137.5101250198759
 30
0.0
 10
109.4796223684634
 20
-137.5101250198759
 30
0.0
 10
109.6425753849157
 20
-137.5101250198759
 30
0.0
 10
109.8327446557015
 20
-137.5101250198759
 30
0.0
 10
109.9894965002804
 20
-137.4996174786459
 30
0.0
 10
109.9894965002804
 20
-137.4996174786459
 30
0.0
 10
109.9894965002804
 20
-137.6710109790371
 30
0.0
 10
109.9894965002804
 20
-137.6710109790371
 30
0.0
 10
109.7800346947772
 20
-137.6625704950982
 30
0.0
 10
109.5833197425694
 20
-137.6603311830328
 30
0.0
 10
109.4796223684634
 20
-137.6603311830328
 30
0.0
 10
109.4796223684634
 20
-137.6603311830328
 30
0.0
 10
109.3059895560068
 20
-137.6603311830328
 30
0.0
 10
109.3059895560068
 20
-137.6603311830328
 30
0.0
 10
109.3059895560068
 20
-137.6603311830328
 30
0.0
 10
109.3059895560068
 20
-137.7683349264954
 30
0.0
 10
109.3059895560068
 20
-137.7683349264954
 30
0.0
 10
109.3059895560068
 20
-137.7683349264954
 30
0.0
 10
109.5368109535186
 20
-137.7683349264954
 30
0.0
 10
109.5368109535186
 20
-137.7683349264954
 30
0.0
 10
109.6697916392492
 20
-137.7683349264954
 30
0.0
 10
109.9578016218161
 20
-137.7640285571388
 30
0.0
 10
110.1669189177707
 20
-137.7576551304911
 30
0.0
 10
110.1669189177707
 20
-137.7576551304911
 30
0.0
 10
110.1669189177707
 20
-137.93542205753
 30
0.0
 10
110.1669189177707
 20
-137.93542205753
 30
0.0
 10
109.9746825896938
 20
-137.9290486308823
 30
0.0
 10
109.6615234100846
 20
-137.9247422615258
 30
0.0
 10
109.5368109535186
 20
-137.9247422615258
 30
0.0
  0
HATCH
  5
DF
330
D3
100
AcDbEntity
  8
レイヤー 1
 62
   250
420
  2299925
440
 33554687
100
AcDbHatch
 10
0.0
 20
0.0
 30
0.0
210
0.0
220
0.0
230
1.0
  2
SOLID
 70
     1
 71
     1
 91
        4
 92
        1
 93
        1
 72
     4
 94
        3
 73
     0
 74
     0
 95
       17
 96
       13
 40
0.0
 40
0.0
 40
0.0
 40
0.0
 40
1.0
 40
1.0
 40
1.0
 40
2.0
 40
2.0
 40
2.0
 40
3.0
 40
3.0
 40
3.0
 40
4.0
 40
4.0
 40
4.0
 40
4.0
 10
109.701831027262
 20
-138.6568250521413
 10
109.701831027262
 20
-138.6568250521413
 10
108.9952419432373
 20
-138.6568250521413
 10
108.9952419432373
 20
-138.6568250521413
 10
108.9952419432373
 20
-138.6568250521413
 10
108.9952419432373
 20
-138.7710299674774
 10
108.9952419432373
 20
-138.7710299674774
 10
108.9952419432373
 20
-138.7710299674774
 10
109.701831027262
 20
-138.7710299674774
 10
109.701831027262
 20
-138.7710299674774
 10
109.701831027262
 20
-138.7710299674774
 10
109.701831027262
 20
-138.6568250521413
 10
109.701831027262
 20
-138.6568250521413
 97
        0
 97
        1
330
DB
 92
        1
 93
        1
 72
     4
 94
        3
 73
     0
 74
     0
 95
       17
 96
       13
 40
0.0
 40
0.0
 40
0.0
 40
0.0
 40
1.0
 40
1.0
 40
1.0
 40
2.0
 40
2.0
 40
2.0
 40
3.0
 40
3.0
 40
3.0
 40
4.0
 40
4.0
 40
4.0
 40
4.0
 10
109.701831027262
 20
-138.4134290561084
 10
109.701831027262
 20
-138.4134290561084
 10
108.9952419432373
 20
-138.4134290561084
 10
108.9952419432373
 20
-138.4134290561084
 10
108.9952419432373
 20
-138.4134290561084
 10
108.9952419432373
 20
-138.5278062262187
 10
108.9952419432373
 20
-138.5278062262187
 10
108.9952419432373
 20
-138.5278062262187
 10
109.701831027262
 20
-138.5278062262187
 10
109.701831027262
 20
-138.5278062262187
 10
109.701831027262
 20
-138.5278062262187
 10
109.701831027262
 20
-138.4134290561084
 10
109.701831027262
 20
-138.4134290561084
 97
        0
 97
        1
330
DC
 92
        1
 93
        1
 72
     4
 94
        3
 73
     0
 74
     0
 95
       17
 96
       13
 40
0.0
 40
0.0
 40
0.0
 40
0.0
 40
1.0
 40
1.0
 40
1.0
 40
2.0
 40
2.0
 40
2.0
 40
3.0
 40
3.0
 40
3.0
 40
4.0
 40
4.0
 40
4.0
 40
4.0
 10
109.701831027262
 20
-138.1807128560798
 10
109.701831027262
 20
-138.1807128560798
 10
108.9952419432373
 20
-138.1807128560798
 10
108.9952419432373
 20
-138.1807128560798
 10
108.9952419432373
 20
-138.1807128560798
 10
108.9952419432373
 20
-138.2887165995424
 10
108.9952419432373
 20
-138.2887165995424
 10
108.9952419432373
 20
-138.2887165995424
 10
109.701831027262
 20
-138.2887165995424
 10
109.701831027262
 20
-138.2887165995424
 10
109.701831027262
 20
-138.2887165995424
 10
109.701831027262
 20
-138.1807128560798
 10
109.701831027262
 20
-138.1807128560798
 97
        0
 97
        1
330
DD
 92
        1
 93
        1
 72
     4
 94
        3
 73
     0
 74
     0
 95
      203
 96
      199
 40
0.0
 40
0.0
 40
0.0
 40
0.0
 40
1.0
 40
1.0
 40
1.0
 40
2.0
 40
2.0
 40
2.0
 40
3.0
 40
3.0
 40
3.0
 40
4.0
 40
4.0
 40
4.0
 40
5.0
 40
5.0
 40
5.0
 40
6.0
 40
6.0
 40
6.0
 40
7.0
 40
7.0
 40
7.0
 40
8.0
 40
8.0
 40
8.0
 40
9.0
 40
9.0
 40
9.0
 40
10.0
 40
10.0
 40
10.0
 40
11.0
 40
11.0
 40
11.0
 40
12.0
 40
12.0
 40
12.0
 40
13.0
 40
13.0
 40
13.0
 40
14.0
 40
14.0
 40
14.0
 40
15.0
 40
15.0
 40
15.0
 40
16.0
 40
16.0
 40
16.0
 40
17.0
 40
17.0
 40
17.0
 40
18.0
 40
18.0
 40
18.0
 40
19.0
 40
19.0
 40
19.0
 40
20.0
 40
20.0
 40
20.0
 40
21.0
 40
21.0
 40
21.0
 40
22.0
 40
22.0
 40
22.0
 40
23.0
 40
23.0
 40
23.0
 40
24.0
 40
24.0
 40
24.0
 40
25.0
 40
25.0
 40
25.0
 40
26.0
 40
26.0
 40
26.0
 40
27.0
 40
27.0
 40
27.0
 40
28.0
 40
28.0
 40
28.0
 40
29.0
 40
29.0
 40
29.0
 40
30.0
 40
30.0
 40
30.0
 40
31.0
 40
31.0
 40
31.0
 40
32.0
 40
32.0
 40
32.0
 40
33.0
 40
33.0
 40
33.0
 40
34.0
 40
34.0
 40
34.0
 40
35.0
 40
35.0
 40
35.0
 40
36.0
 40
36.0
 40
36.0
 40
37.0
 40
37.0
 40
37.0
 40
38.0
 40
38.0
 40
38.0
 40
39.0
 40
39.0
 40
39.0
 40
40.0
 40
40.0
 40
40.0
 40
41.0
 40
41.0
 40
41.0
 40
42.0
 40
42.0
 40
42.0
 40
43.0
 40
43.0
 40
43.0
 40
44.0
 40
44.0
 40
44.0
 40
45.0
 40
45.0
 40
45.0
 40
46.0
 40
46.0
 40
46.0
 40
47.0
 40
47.0
 40
47.0
 40
48.0
 40
48.0
 40
48.0
 40
49.0
 40
49.0
 40
49.0
 40
50.0
 40
50.0
 40
50.0
 40
51.0
 40
51.0
 40
51.0
 40
52.0
 40
52.0
 40
52.0
 40
53.0
 40
53.0
 40
53.0
 40
54.0
 40
54.0
 40
54.0
 40
55.0
 40
55.0
 40
55.0
 40
56.0
 40
56.0
 40
56.0
 40
57.0
 40
57.0
 40
57.0
 40
58.0
 40
58.0
 40
58.0
 40
59.0
 40
59.0
 40
59.0
 40
60.0
 40
60.0
 40
60.0
 40
61.0
 40
61.0
 40
61.0
 40
62.0
 40
62.0
 40
62.0
 40
63.0
 40
63.0
 40
63.0
 40
64.0
 40
64.0
 40
64.0
 40
65.0
 40
65.0
 40
65.0
 40
66.0
 40
66.0
 40
66.0
 40
66.0
 10
109.5368109535186
 20
-137.9247422615258
 10
109.5368109535186
 20
-137.9247422615258
 10
108.978016465811
 20
-137.9247422615258
 10
108.978016465811
 20
-137.9247422615258
 10
108.9676811793553
 20
-137.9691839932855
 10
108.9590684406422
 20
-138.0008788717498
 10
108.9463215873467
 20
-138.039119431636
 10
108.9718152939376
 20
-138.039119431636
 10
108.9866292045241
 20
-138.0411864889272
 10
108.9928303763976
 20
-138.0411864889272
 10
108.9928303763976
 20
-138.0411864889272
 10
109.1812770994408
 20
-138.0411864889272
 10
109.1812770994408
 20
-138.0411864889272
 10
109.1812770994408
 20
-138.0411864889272
 10
109.5557589786874
 20
-138.0411864889272
 10
109.5557589786874
 20
-138.0411864889272
 10
109.6064018823206
 20
-138.0411864889272
 10
109.8899332407567
 20
-138.0284396356318
 10
109.921628119221
 20
-138.0284396356318
 10
109.9195610619298
 20
-138.0560003995138
 10
109.9174940046387
 20
-138.0749484246826
 10
109.9174940046387
 20
-138.1045762458558
 10
109.9154269473475
 20
-138.1362711243201
 10
109.9154269473475
 20
-138.2716633768904
 10
109.9154269473475
 20
-138.2992241407724
 10
109.9154269473475
 20
-138.2992241407724
 10
109.9154269473475
 20
-138.5446871940964
 10
109.9154269473475
 20
-138.5446871940964
 10
109.9154269473475
 20
-138.5891289258562
 10
109.9195610619298
 20
-138.7858438780639
 10
109.9236951765121
 20
-138.938117098512
 10
109.9236951765121
 20
-138.938117098512
 10
109.6973524031312
 20
-138.938117098512
 10
109.6973524031312
 20
-138.938117098512
 10
109.6973524031312
 20
-138.938117098512
 10
109.6994194604224
 20
-138.9043551627565
 10
109.6994194604224
 20
-138.9043551627565
 10
109.6994194604224
 20
-138.9043551627565
 10
108.9973090005284
 20
-138.9043551627565
 10
108.9973090005284
 20
-138.9043551627565
 10
108.9973090005284
 20
-138.9043551627565
 10
108.9993760578196
 20
-138.938117098512
 10
108.9993760578196
 20
-138.938117098512
 10
108.9993760578196
 20
-138.938117098512
 10
108.7813015136033
 20
-138.938117098512
 10
108.7813015136033
 20
-138.938117098512
 10
108.7857801377341
 20
-138.8831678255222
 10
108.7857801377341
 20
-138.8704209722268
 10
108.7919813096075
 20
-138.7562160568908
 10
108.7940483668987
 20
-138.7286552930088
 10
108.7961154241898
 20
-138.5955023525039
 10
108.7961154241898
 20
-138.5763820725607
 10
108.7961154241898
 20
-138.5763820725607
 10
108.7961154241898
 20
-138.3732936937053
 10
108.7961154241898
 20
-138.3732936937053
 10
108.6565890570372
 20
-138.6228908616116
 10
108.4874348687115
 20
-138.7541489995996
 10
108.3816704373143
 20
-138.8196058138194
 10
108.3816704373143
 20
-138.8196058138194
 10
108.2080376248577
 20
-138.6800794466668
 10
108.2080376248577
 20
-138.6800794466668
 10
108.2969210883771
 20
-138.6292642882593
 10
108.4409260796606
 20
-138.542447882031
 10
108.578385389522
 20
-138.3479722418887
 10
108.6693359103326
 20
-138.2210204732572
 10
108.7347927245524
 20
-138.0771877367481
 10
108.7688991698564
 20
-137.9247422615258
 10
108.5401448296358
 20
-137.9269815735912
 10
108.3603108453057
 20
-137.9333550002389
 10
108.2652262099129
 20
-137.93542205753
 10
108.2652262099129
 20
-137.93542205753
 10
108.2652262099129
 20
-137.7576551304911
 10
108.2652262099129
 20
-137.7576551304911
 10
108.4619411621206
 20
-137.7640285571388
 10
108.7454725205567
 20
-137.7683349264954
 10
108.8956786837136
 20
-137.7683349264954
 10
108.8956786837136
 20
-137.7683349264954
 10
109.1092746037991
 20
-137.7683349264954
 10
109.1092746037991
 20
-137.7683349264954
 10
109.1092746037991
 20
-137.7683349264954
 10
109.1092746037991
 20
-137.6603311830328
 10
109.1092746037991
 20
-137.6603311830328
 10
109.1092746037991
 20
-137.6603311830328
 10
108.9632025552245
 20
-137.6603311830328
 10
108.9632025552245
 20
-137.6603311830328
 10
108.7940483668987
 20
-137.6603311830328
 10
108.6248941785729
 20
-137.6646375523894
 10
108.4578070475383
 20
-137.6710109790371
 10
108.4578070475383
 20
-137.6710109790371
 10
108.4578070475383
 20
-137.4996174786459
 10
108.4578070475383
 20
-137.4996174786459
 10
108.6121473252775
 20
-137.5101250198759
 10
108.798182481481
 20
-137.5101250198759
 10
108.9632025552245
 20
-137.5101250198759
 10
108.9632025552245
 20
-137.5101250198759
 10
109.1092746037991
 20
-137.5101250198759
 10
109.1092746037991
 20
-137.5101250198759
 10
109.1092746037991
 20
-137.5101250198759
 10
109.1092746037991
 20
-137.3917859899576
 10
109.1092746037991
 20
-137.3917859899576
 10
109.1092746037991
 20
-137.3917859899576
 10
108.978016465811
 20
-137.3917859899576
 10
108.978016465811
 20
-137.3917859899576
 10
108.9315076767602
 20
-137.3917859899576
 10
108.7285915526789
 20
-137.4002264738965
 10
108.6862168782104
 20
-137.4002264738965
 10
108.4833007541291
 20
-137.4043605884788
 10
108.4068196343566
 20
-137.4064276457699
 10
108.3286159668414
 20
-137.4086669578353
 10
108.3286159668414
 20
-137.4086669578353
 10
108.3286159668414
 20
-137.2245266041487
 10
108.3286159668414
 20
-137.2245266041487
 10
108.4429931369517
 20
-137.2329670880876
 10
108.4874348687115
 20
-137.2329670880876
 10
108.8701849771227
 20
-137.2415798268007
 10
108.8067952201941
 20
-137.1463229366336
 10
108.7792344563121
 20
-137.1187621727515
 10
108.7434054632655
 20
-137.0827609249307
 10
108.7434054632655
 20
-137.0827609249307
 10
108.9187608234647
 20
-137.0002508880589
 10
108.9187608234647
 20
-137.0002508880589
 10
108.9590684406422
 20
-137.0362521358798
 10
109.0035101724019
 20
-137.0786268103484
 10
109.0775797253348
 20
-137.1885253563279
 10
109.0775797253348
 20
-137.1885253563279
 10
108.9632025552245
 20
-137.2436468840918
 10
108.9632025552245
 20
-137.2436468840918
 10
108.9632025552245
 20
-137.2436468840918
 10
108.9738823512287
 20
-137.2436468840918
 10
108.9738823512287
 20
-137.2436468840918
 10
108.9738823512287
 20
-137.2436468840918
 10
109.4965033363411
 20
-137.2436468840918
 10
109.4965033363411
 20
-137.2436468840918
 10
109.4965033363411
 20
-137.2436468840918
 10
109.4014187009482
 20
-137.1992051523321
 10
109.4014187009482
 20
-137.1992051523321
 10
109.4286349552817
 20
-137.1611368472201
 10
109.4858235403369
 20
-137.0806938676395
 10
109.5006374509234
 20
-137.0066243147066
 10
109.5006374509234
 20
-137.0066243147066
 10
109.7142333710089
 20
-137.0701863264095
 10
109.7142333710089
 20
-137.0701863264095
 10
109.722846109722
 20
-137.0722533837007
 10
109.7438611921821
 20
-137.0827609249307
 10
109.7438611921821
 20
-137.103948262165
 10
109.7438611921821
 20
-137.142016567277
 10
109.6784043779623
 20
-137.142016567277
 10
109.6594563527935
 20
-137.142016567277
 10
109.6487765567892
 20
-137.1611368472201
 10
109.6253499074895
 20
-137.2012722096233
 10
109.5957220863163
 20
-137.2415798268007
 10
109.9956976721538
 20
-137.235206400153
 10
110.025325493327
 20
-137.2329670880876
 10
110.101462103551
 20
-137.2267659162141
 10
110.101462103551
 20
-137.2267659162141
 10
110.101462103551
 20
-137.4086669578353
 10
110.101462103551
 20
-137.4086669578353
 10
110.0825140783821
 20
-137.4086669578353
 10
110.0570203717913
 20
-137.4064276457699
 10
109.8372232798324
 20
-137.397987161831
 10
109.7862358666507
 20
-137.3959201045399
 10
109.5664387746917
 20
-137.3917859899576
 10
109.521997042932
 20
-137.3917859899576
 10
109.521997042932
 20
-137.3917859899576
 10
109.3059895560068
 20
-137.3917859899576
 10
109.3059895560068
 20
-137.3917859899576
 10
109.3059895560068
 20
-137.3917859899576
 10
109.3059895560068
 20
-137.5101250198759
 10
109.3059895560068
 20
-137.5101250198759
 10
109.3059895560068
 20
-137.5101250198759
 10
109.4796223684634
 20
-137.5101250198759
 10
109.4796223684634
 20
-137.5101250198759
 10
109.6425753849157
 20
-137.5101250198759
 10
109.8327446557015
 20
-137.5101250198759
 10
109.9894965002804
 20
-137.4996174786459
 10
109.9894965002804
 20
-137.4996174786459
 10
109.9894965002804
 20
-137.6710109790371
 10
109.9894965002804
 20
-137.6710109790371
 10
109.7800346947772
 20
-137.6625704950982
 10
109.5833197425694
 20
-137.6603311830328
 10
109.4796223684634
 20
-137.6603311830328
 10
109.4796223684634
 20
-137.6603311830328
 10
109.3059895560068
 20
-137.6603311830328
 10
109.3059895560068
 20
-137.6603311830328
 10
109.3059895560068
 20
-137.6603311830328
 10
109.3059895560068
 20
-137.7683349264954
 10
109.3059895560068
 20
-137.7683349264954
 10
109.3059895560068
 20
-137.7683349264954
 10
109.5368109535186
 20
-137.7683349264954
 10
109.5368109535186
 20
-137.7683349264954
 10
109.6697916392492
 20
-137.7683349264954
 10
109.9578016218161
 20
-137.7640285571388
 10
110.1669189177707
 20
-137.7576551304911
 10
110.1669189177707
 20
-137.7576551304911
 10
110.1669189177707
 20
-137.93542205753
 10
110.1669189177707
 20
-137.93542205753
 10
109.9746825896938
 20
-137.9290486308823
 10
109.6615234100846
 20
-137.9247422615258
 10
109.5368109535186
 20
-137.9247422615258
 97
        0
 97
        1
330
DE
 75
     2
 76
     1
 98
        1
 10
0.0
 20
0.0
450
        0
451
        0
460
0.0
461
0.0
452
        0
462
0.0
453
        0
470

  0
SPLINE
  5
E0
330
D3
100
AcDbEntity
  8
レイヤー 1
100
AcDbSpline
210
0.0
220
0.0
230
1.0
 70
     9
 71
     3
 72
    29
 73
    25
 74
     0
 42
0.0000000001
 43
0.0000000001
 40
0.0
 40
0.0
 40
0.0
 40
0.0
 40
1.0
 40
1.0
 40
1.0
 40
2.0
 40
2.0
 40
2.0
 40
3.0
 40
3.0
 40
3.0
 40
4.0
 40
4.0
 40
4.0
 40
5.0
 40
5.0
 40
5.0
 40
6.0
 40
6.0
 40
6.0
 40
7.0
 40
7.0
 40
7.0
 40
8.0
 40
8.0
 40
8.0
 40
8.0
 10
111.41197642614
 20
-137.3726657100144
 30
0.0
 10
111.41197642614
 20
-137.3726657100144
 30
0.0
 10
111.0585096293534
 20
-137.3726657100144
 30
0.0
 10
111.0585096293534
 20
-137.3726657100144
 30
0.0
 10
110.9465440260828
 20
-137.3726657100144
 30
0.0
 10
110.8070176589302
 20
-137.3790391366622
 30
0.0
 10
110.6991861702419
 20
-137.3917859899576
 30
0.0
 10
110.6991861702419
 20
-137.3917859899576
 30
0.0
 10
110.6991861702419
 20
-137.1568304778636
 30
0.0
 10
110.6991861702419
 20
-137.1568304778636
 30
0.0
 10
110.8173529453859
 20
-137.1716443884501
 30
0.0
 10
111.0016655538468
 20
-137.1759507578067
 30
0.0
 10
111.0585096293534
 20
-137.1759507578067
 30
0.0
 10
111.0585096293534
 20
-137.1759507578067
 30
0.0
 10
111.41197642614
 20
-137.1759507578067
 30
0.0
 10
111.41197642614
 20
-137.1759507578067
 30
0.0
 10
111.4309244513089
 20
-137.1759507578067
 30
0.0
 10
111.6341850849386
 20
-137.1759507578067
 30
0.0
 10
111.7757785093824
 20
-137.1568304778636
 30
0.0
 10
111.7757785093824
 20
-137.1568304778636
 30
0.0
 10
111.7757785093824
 20
-137.3917859899576
 30
0.0
 10
111.7757785093824
 20
-137.3917859899576
 30
0.0
 10
111.6193711743521
 20
-137.3726657100144
 30
0.0
 10
111.4288573940178
 20
-137.3726657100144
 30
0.0
 10
111.41197642614
 20
-137.3726657100144
 30
0.0
  0
SPLINE
  5
E1
330
D3
100
AcDbEntity
  8
レイヤー 1
100
AcDbSpline
210
0.0
220
0.0
230
1.0
 70
     9
 71
     3
 72
    47
 73
    43
 74
     0
 42
0.0000000001
 43
0.0000000001
 40
0.0
 40
0.0
 40
0.0
 40
0.0
 40
1.0
 40
1.0
 40
1.0
 40
2.0
 40
2.0
 40
2.0
 40
3.0
 40
3.0
 40
3.0
 40
4.0
 40
4.0
 40
4.0
 40
5.0
 40
5.0
 40
5.0
 40
6.0
 40
6.0
 40
6.0
 40
7.0
 40
7.0
 40
7.0
 40
8.0
 40
8.0
 40
8.0
 40
9.0
 40
9.0
 40
9.0
 40
10.0
 40
10.0
 40
10.0
 40
11.0
 40
11.0
 40
11.0
 40
12.0
 40
12.0
 40
12.0
 40
13.0
 40
13.0
 40
13.0
 40
14.0
 40
14.0
 40
14.0
 40
14.0
 10
111.5136067429549
 20
-137.9014878670003
 30
0.0
 10
111.5136067429549
 20
-137.9014878670003
 30
0.0
 10
111.41197642614
 20
-137.9014878670003
 30
0.0
 10
111.41197642614
 20
-137.9014878670003
 30
0.0
 10
111.41197642614
 20
-137.9883042732286
 30
0.0
 10
111.39096134368
 20
-138.3776000630618
 30
0.0
 10
111.1942463914723
 20
-138.597569409795
 30
0.0
 10
111.0416286614757
 20
-138.7667235981208
 30
0.0
 10
110.8345784228122
 20
-138.8366590364714
 30
0.0
 10
110.749829073875
 20
-138.8640475455791
 30
0.0
 10
110.749829073875
 20
-138.8640475455791
 30
0.0
 10
110.5551811789584
 20
-138.6969604145445
 30
0.0
 10
110.5551811789584
 20
-138.6969604145445
 30
0.0
 10
110.652677381191
 20
-138.6842135612491
 30
0.0
 10
110.8280327413902
 20
-138.6609591667236
 30
0.0
 10
111.0164794644334
 20
-138.4726846984547
 30
0.0
 10
111.0905490173662
 20
-138.4008544575873
 30
0.0
 10
111.1942463914723
 20
-138.2611558356604
 30
0.0
 10
111.1942463914723
 20
-137.9014878670003
 30
0.0
 10
111.1942463914723
 20
-137.9014878670003
 30
0.0
 10
110.9634249939605
 20
-137.9014878670003
 30
0.0
 10
110.9634249939605
 20
-137.9014878670003
 30
0.0
 10
110.777389837757
 20
-137.9014878670003
 30
0.0
 10
110.591010172005
 20
-137.9057942363569
 30
0.0
 10
110.4049750158015
 20
-137.9206081469434
 30
0.0
 10
110.4049750158015
 20
-137.9206081469434
 30
0.0
 10
110.4049750158015
 20
-137.7006388002103
 30
0.0
 10
110.4049750158015
 20
-137.7006388002103
 30
0.0
 10
110.5934217388447
 20
-137.7154527107968
 30
0.0
 10
110.8790201545719
 20
-137.7195868253791
 30
0.0
 10
110.9634249939605
 20
-137.7195868253791
 30
0.0
 10
110.9634249939605
 20
-137.7195868253791
 30
0.0
 10
111.5136067429549
 20
-137.7195868253791
 30
0.0
 10
111.5136067429549
 20
-137.7195868253791
 30
0.0
 10
111.5325547681238
 20
-137.7195868253791
 30
0.0
 10
111.8498480623153
 20
-137.7195868253791
 30
0.0
 10
112.0782578929873
 20
-137.7006388002103
 30
0.0
 10
112.0782578929873
 20
-137.7006388002103
 30
0.0
 10
112.0782578929873
 20
-137.9206081469434
 30
0.0
 10
112.0782578929873
 20
-137.9206081469434
 30
0.0
 10
111.8901556794927
 20
-137.9057942363569
 30
0.0
 10
111.7017089564495
 20
-137.9014878670003
 30
0.0
 10
111.5136067429549
 20
-137.9014878670003
 30
0.0
  0
HATCH
  5
E2
330
D3
100
AcDbEntity
  8
レイヤー 1
 62
   250
420
  2299925
440
 33554687
100
AcDbHatch
 10
0.0
 20
0.0
 30
0.0
210
0.0
220
0.0
230
1.0
  2
SOLID
 70
     1
 71
     1
 91
        2
 92
        1
 93
        1
 72
     4
 94
        3
 73
     0
 74
     0
 95
       29
 96
       25
 40
0.0
 40
0.0
 40
0.0
 40
0.0
 40
1.0
 40
1.0
 40
1.0
 40
2.0
 40
2.0
 40
2.0
 40
3.0
 40
3.0
 40
3.0
 40
4.0
 40
4.0
 40
4.0
 40
5.0
 40
5.0
 40
5.0
 40
6.0
 40
6.0
 40
6.0
 40
7.0
 40
7.0
 40
7.0
 40
8.0
 40
8.0
 40
8.0
 40
8.0
 10
111.41197642614
 20
-137.3726657100144
 10
111.41197642614
 20
-137.3726657100144
 10
111.0585096293534
 20
-137.3726657100144
 10
111.0585096293534
 20
-137.3726657100144
 10
110.9465440260828
 20
-137.3726657100144
 10
110.8070176589302
 20
-137.3790391366622
 10
110.6991861702419
 20
-137.3917859899576
 10
110.6991861702419
 20
-137.3917859899576
 10
110.6991861702419
 20
-137.1568304778636
 10
110.6991861702419
 20
-137.1568304778636
 10
110.8173529453859
 20
-137.1716443884501
 10
111.0016655538468
 20
-137.1759507578067
 10
111.0585096293534
 20
-137.1759507578067
 10
111.0585096293534
 20
-137.1759507578067
 10
111.41197642614
 20
-137.1759507578067
 10
111.41197642614
 20
-137.1759507578067
 10
111.4309244513089
 20
-137.1759507578067
 10
111.6341850849386
 20
-137.1759507578067
 10
111.7757785093824
 20
-137.1568304778636
 10
111.7757785093824
 20
-137.1568304778636
 10
111.7757785093824
 20
-137.3917859899576
 10
111.7757785093824
 20
-137.3917859899576
 10
111.6193711743521
 20
-137.3726657100144
 10
111.4288573940178
 20
-137.3726657100144
 10
111.41197642614
 20
-137.3726657100144
 97
        0
 97
        1
330
E0
 92
        1
 93
        1
 72
     4
 94
        3
 73
     0
 74
     0
 95
       47
 96
       43
 40
0.0
 40
0.0
 40
0.0
 40
0.0
 40
1.0
 40
1.0
 40
1.0
 40
2.0
 40
2.0
 40
2.0
 40
3.0
 40
3.0
 40
3.0
 40
4.0
 40
4.0
 40
4.0
 40
5.0
 40
5.0
 40
5.0
 40
6.0
 40
6.0
 40
6.0
 40
7.0
 40
7.0
 40
7.0
 40
8.0
 40
8.0
 40
8.0
 40
9.0
 40
9.0
 40
9.0
 40
10.0
 40
10.0
 40
10.0
 40
11.0
 40
11.0
 40
11.0
 40
12.0
 40
12.0
 40
12.0
 40
13.0
 40
13.0
 40
13.0
 40
14.0
 40
14.0
 40
14.0
 40
14.0
 10
111.5136067429549
 20
-137.9014878670003
 10
111.5136067429549
 20
-137.9014878670003
 10
111.41197642614
 20
-137.9014878670003
 10
111.41197642614
 20
-137.9014878670003
 10
111.41197642614
 20
-137.9883042732286
 10
111.39096134368
 20
-138.3776000630618
 10
111.1942463914723
 20
-138.597569409795
 10
111.0416286614757
 20
-138.7667235981208
 10
110.8345784228122
 20
-138.8366590364714
 10
110.749829073875
 20
-138.8640475455791
 10
110.749829073875
 20
-138.8640475455791
 10
110.5551811789584
 20
-138.6969604145445
 10
110.5551811789584
 20
-138.6969604145445
 10
110.652677381191
 20
-138.6842135612491
 10
110.8280327413902
 20
-138.6609591667236
 10
111.0164794644334
 20
-138.4726846984547
 10
111.0905490173662
 20
-138.4008544575873
 10
111.1942463914723
 20
-138.2611558356604
 10
111.1942463914723
 20
-137.9014878670003
 10
111.1942463914723
 20
-137.9014878670003
 10
110.9634249939605
 20
-137.9014878670003
 10
110.9634249939605
 20
-137.9014878670003
 10
110.777389837757
 20
-137.9014878670003
 10
110.591010172005
 20
-137.9057942363569
 10
110.4049750158015
 20
-137.9206081469434
 10
110.4049750158015
 20
-137.9206081469434
 10
110.4049750158015
 20
-137.7006388002103
 10
110.4049750158015
 20
-137.7006388002103
 10
110.5934217388447
 20
-137.7154527107968
 10
110.8790201545719
 20
-137.7195868253791
 10
110.9634249939605
 20
-137.7195868253791
 10
110.9634249939605
 20
-137.7195868253791
 10
111.5136067429549
 20
-137.7195868253791
 10
111.5136067429549
 20
-137.7195868253791
 10
111.5325547681238
 20
-137.7195868253791
 10
111.8498480623153
 20
-137.7195868253791
 10
112.0782578929873
 20
-137.7006388002103
 10
112.0782578929873
 20
-137.7006388002103
 10
112.0782578929873
 20
-137.9206081469434
 10
112.0782578929873
 20
-137.9206081469434
 10
111.8901556794927
 20
-137.9057942363569
 10
111.7017089564495
 20
-137.9014878670003
 10
111.5136067429549
 20
-137.9014878670003
 97
        0
 97
        1
330
E1
 75
     2
 76
     1
 98
        1
 10
0.0
 20
0.0
450
        0
451
        0
460
0.0
461
0.0
452
        0
462
0.0
453
        0
470

  0
SPLINE
  5
E3
330
D3
100
AcDbEntity
  8
レイヤー 1
100
AcDbSpline
210
0.0
220
0.0
230
1.0
 70
     9
 71
     3
 72
    29
 73
    25
 74
     0
 42
0.0000000001
 43
0.0000000001
 40
0.0
 40
0.0
 40
0.0
 40
0.0
 40
1.0
 40
1.0
 40
1.0
 40
2.0
 40
2.0
 40
2.0
 40
3.0
 40
3.0
 40
3.0
 40
4.0
 40
4.0
 40
4.0
 40
5.0
 40
5.0
 40
5.0
 40
6.0
 40
6.0
 40
6.0
 40
7.0
 40
7.0
 40
7.0
 40
8.0
 40
8.0
 40
8.0
 40
8.0
 10
113.3594889039518
 20
-138.0644408834526
 30
0.0
 10
113.3594889039518
 20
-138.0644408834526
 30
0.0
 10
112.8751084787257
 20
-138.0644408834526
 30
0.0
 10
112.8751084787257
 20
-138.0644408834526
 30
0.0
 10
112.8475477148436
 20
-138.0644408834526
 30
0.0
 10
112.5302544206521
 20
-138.0644408834526
 30
0.0
 10
112.3187255578578
 20
-138.0897623352692
 30
0.0
 10
112.3187255578578
 20
-138.0897623352692
 30
0.0
 10
112.3187255578578
 20
-137.859285447306
 30
0.0
 10
112.3187255578578
 20
-137.859285447306
 30
0.0
 10
112.4771999501793
 20
-137.8825398418314
 30
0.0
 10
112.6677137305136
 20
-137.8846068991226
 30
0.0
 10
112.8751084787257
 20
-137.8846068991226
 30
0.0
 10
112.8751084787257
 20
-137.8846068991226
 30
0.0
 10
113.3594889039518
 20
-137.8846068991226
 30
0.0
 10
113.3594889039518
 20
-137.8846068991226
 30
0.0
 10
113.5455240601553
 20
-137.8846068991226
 30
0.0
 10
113.7319037259073
 20
-137.8825398418314
 30
0.0
 10
113.9158718248196
 20
-137.859285447306
 30
0.0
 10
113.9158718248196
 20
-137.859285447306
 30
0.0
 10
113.9158718248196
 20
-138.0897623352692
 30
0.0
 10
113.9158718248196
 20
-138.0897623352692
 30
0.0
 10
113.7319037259073
 20
-138.0665079407438
 30
0.0
 10
113.4842013605178
 20
-138.0644408834526
 30
0.0
 10
113.3594889039518
 20
-138.0644408834526
 30
0.0
  0
HATCH
  5
E4
330
D3
100
AcDbEntity
  8
レイヤー 1
 62
   250
420
  2299925
440
 33554687
100
AcDbHatch
 10
0.0
 20
0.0
 30
0.0
210
0.0
220
0.0
230
1.0
  2
SOLID
 70
     1
 71
     1
 91
        1
 92
        1
 93
        1
 72
     4
 94
        3
 73
     0
 74
     0
 95
       29
 96
       25
 40
0.0
 40
0.0
 40
0.0
 40
0.0
 40
1.0
 40
1.0
 40
1.0
 40
2.0
 40
2.0
 40
2.0
 40
3.0
 40
3.0
 40
3.0
 40
4.0
 40
4.0
 40
4.0
 40
5.0
 40
5.0
 40
5.0
 40
6.0
 40
6.0
 40
6.0
 40
7.0
 40
7.0
 40
7.0
 40
8.0
 40
8.0
 40
8.0
 40
8.0
 10
113.3594889039518
 20
-138.0644408834526
 10
113.3594889039518
 20
-138.0644408834526
 10
112.8751084787257
 20
-138.0644408834526
 10
112.8751084787257
 20
-138.0644408834526
 10
112.8475477148436
 20
-138.0644408834526
 10
112.5302544206521
 20
-138.0644408834526
 10
112.3187255578578
 20
-138.0897623352692
 10
112.3187255578578
 20
-138.0897623352692
 10
112.3187255578578
 20
-137.859285447306
 10
112.3187255578578
 20
-137.859285447306
 10
112.4771999501793
 20
-137.8825398418314
 10
112.6677137305136
 20
-137.8846068991226
 10
112.8751084787257
 20
-137.8846068991226
 10
112.8751084787257
 20
-137.8846068991226
 10
113.3594889039518
 20
-137.8846068991226
 10
113.3594889039518
 20
-137.8846068991226
 10
113.5455240601553
 20
-137.8846068991226
 10
113.7319037259073
 20
-137.8825398418314
 10
113.9158718248196
 20
-137.859285447306
 10
113.9158718248196
 20
-137.859285447306
 10
113.9158718248196
 20
-138.0897623352692
 10
113.9158718248196
 20
-138.0897623352692
 10
113.7319037259073
 20
-138.0665079407438
 10
113.4842013605178
 20
-138.0644408834526
 10
113.3594889039518
 20
-138.0644408834526
 97
        0
 97
        1
330
E3
 75
     2
 76
     1
 98
        1
 10
0.0
 20
0.0
450
        0
451
        0
460
0.0
461
0.0
452
        0
462
0.0
453
        0
470

  0
SPLINE
  5
E5
330
D3
100
AcDbEntity
  8
レイヤー 1
100
AcDbSpline
210
0.0
220
0.0
230
1.0
 70
     9
 71
     3
 72
    17
 73
    13
 74
     0
 42
0.0000000001
 43
0.0000000001
 40
0.0
 40
0.0
 40
0.0
 40
0.0
 40
1.0
 40
1.0
 40
1.0
 40
2.0
 40
2.0
 40
2.0
 40
3.0
 40
3.0
 40
3.0
 40
4.0
 40
4.0
 40
4.0
 40
4.0
 10
115.7782904441457
 20
-137.0975748355173
 30
0.0
 10
115.7235134259302
 20
-137.0975748355173
 30
0.0
 10
115.6790716941705
 20
-137.142016567277
 30
0.0
 10
115.6790716941705
 20
-137.197138095041
 30
0.0
 10
115.6790716941705
 20
-137.2541544253218
 30
0.0
 10
115.7235134259302
 20
-137.3029025264381
 30
0.0
 10
115.782424558728
 20
-137.3029025264381
 30
0.0
 10
115.8416802010743
 20
-137.3029025264381
 30
0.0
 10
115.8819878182517
 20
-137.2520873680307
 30
0.0
 10
115.8819878182517
 20
-137.1992051523321
 30
0.0
 10
115.8819878182517
 20
-137.142016567277
 30
0.0
 10
115.8354790292008
 20
-137.0975748355173
 30
0.0
 10
115.7782904441457
 20
-137.0975748355173
 30
0.0
  0
SPLINE
  5
E6
330
D3
100
AcDbEntity
  8
レイヤー 1
100
AcDbSpline
210
0.0
220
0.0
230
1.0
 70
     9
 71
     3
 72
    17
 73
    13
 74
     0
 42
0.0000000001
 43
0.0000000001
 40
0.0
 40
0.0
 40
0.0
 40
0.0
 40
1.0
 40
1.0
 40
1.0
 40
2.0
 40
2.0
 40
2.0
 40
3.0
 40
3.0
 40
3.0
 40
4.0
 40
4.0
 40
4.0
 40
4.0
 10
115.7803575014368
 20
-137.4276149830042
 30
0.0
 10
115.6535779875796
 20
-137.4276149830042
 30
0.0
 10
115.5519476707648
 20
-137.3261569209636
 30
0.0
 10
115.5519476707648
 20
-137.1992051523321
 30
0.0
 10
115.5519476707648
 20
-137.0722533837007
 30
0.0
 10
115.6535779875796
 20
-136.9685560095946
 30
0.0
 10
115.7803575014368
 20
-136.9685560095946
 30
0.0
 10
115.9074815248426
 20
-136.9685560095946
 30
0.0
 10
116.0111788989486
 20
-137.0722533837007
 30
0.0
 10
116.0111788989486
 20
-137.1992051523321
 30
0.0
 10
116.0111788989486
 20
-137.3261569209636
 30
0.0
 10
115.9074815248426
 20
-137.4276149830042
 30
0.0
 10
115.7803575014368
 20
-137.4276149830042
 30
0.0
  0
SPLINE
  5
E7
330
D3
100
AcDbEntity
  8
レイヤー 1
100
AcDbSpline
210
0.0
220
0.0
230
1.0
 70
     9
 71
     3
 72
    44
 73
    40
 74
     0
 42
0.0000000001
 43
0.0000000001
 40
0.0
 40
0.0
 40
0.0
 40
0.0
 40
1.0
 40
1.0
 40
1.0
 40
2.0
 40
2.0
 40
2.0
 40
3.0
 40
3.0
 40
3.0
 40
4.0
 40
4.0
 40
4.0
 40
5.0
 40
5.0
 40
5.0
 40
6.0
 40
6.0
 40
6.0
 40
7.0
 40
7.0
 40
7.0
 40
8.0
 40
8.0
 40
8.0
 40
9.0
 40
9.0
 40
9.0
 40
10.0
 40
10.0
 40
10.0
 40
11.0
 40
11.0
 40
11.0
 40
12.0
 40
12.0
 40
12.0
 40
13.0
 40
13.0
 40
13.0
 40
13.0
 10
115.5708956959337
 20
-137.6265692472774
 30
0.0
 10
115.458930092663
 20
-137.9946776998763
 30
0.0
 10
115.4082871890299
 20
-138.1533243469721
 30
0.0
 10
115.2115722368221
 20
-138.4029215148784
 30
0.0
 10
115.0272596283612
 20
-138.6335706576159
 30
0.0
 10
114.7905815685246
 20
-138.8196058138194
 30
0.0
 10
114.5111843246708
 20
-138.9127956466954
 30
0.0
 10
114.5111843246708
 20
-138.9127956466954
 30
0.0
 10
114.3186034870453
 20
-138.7329616623653
 30
0.0
 10
114.3186034870453
 20
-138.7329616623653
 30
0.0
 10
114.9597357568503
 20
-138.5806884419173
 30
0.0
 10
115.2897759043373
 20
-138.0243055210495
 30
0.0
 10
115.3531656612658
 20
-137.5841945728088
 30
0.0
 10
115.3531656612658
 20
-137.5841945728088
 30
0.0
 10
114.5873209348948
 20
-137.5841945728088
 30
0.0
 10
114.5873209348948
 20
-137.5841945728088
 30
0.0
 10
114.4943033567931
 20
-137.5841945728088
 30
0.0
 10
114.3103352578807
 20
-137.5885009421654
 30
0.0
 10
114.1535834133019
 20
-137.6074489673342
 30
0.0
 10
114.1535834133019
 20
-137.6074489673342
 30
0.0
 10
114.1535834133019
 20
-137.387479620601
 30
0.0
 10
114.1535834133019
 20
-137.387479620601
 30
0.0
 10
114.2403998195302
 20
-137.4086669578353
 30
0.0
 10
114.4922362995019
 20
-137.4086669578353
 30
0.0
 10
114.5914550494771
 20
-137.4086669578353
 30
0.0
 10
114.5914550494771
 20
-137.4086669578353
 30
0.0
 10
115.0231255137789
 20
-137.4086669578353
 30
0.0
 10
115.0231255137789
 20
-137.4086669578353
 30
0.0
 10
115.0655001882475
 20
-137.4086669578353
 30
0.0
 10
115.300111190793
 20
-137.4064276457699
 30
0.0
 10
115.3383517506793
 20
-137.4002264738965
 30
0.0
 10
115.3807264251479
 20
-137.3938530472488
 30
0.0
 10
115.382793482439
 20
-137.3917859899576
 30
0.0
 10
115.4441161820765
 20
-137.3514783727802
 30
0.0
 10
115.4441161820765
 20
-137.3514783727802
 30
0.0
 10
115.6322183955711
 20
-137.5059909052936
 30
0.0
 10
115.6322183955711
 20
-137.5059909052936
 30
0.0
 10
115.6029350839465
 20
-137.5356187264668
 30
0.0
 10
115.5881211733599
 20
-137.5673136049311
 30
0.0
 10
115.5708956959337
 20
-137.6265692472774
 30
0.0
  0
HATCH
  5
E8
330
D3
100
AcDbEntity
  8
レイヤー 1
 62
   250
420
  2299925
440
 33554687
100
AcDbHatch
 10
0.0
 20
0.0
 30
0.0
210
0.0
220
0.0
230
1.0
  2
SOLID
 70
     1
 71
     1
 91
        3
 92
        1
 93
        1
 72
     4
 94
        3
 73
     0
 74
     0
 95
       17
 96
       13
 40
0.0
 40
0.0
 40
0.0
 40
0.0
 40
1.0
 40
1.0
 40
1.0
 40
2.0
 40
2.0
 40
2.0
 40
3.0
 40
3.0
 40
3.0
 40
4.0
 40
4.0
 40
4.0
 40
4.0
 10
115.7782904441457
 20
-137.0975748355173
 10
115.7235134259302
 20
-137.0975748355173
 10
115.6790716941705
 20
-137.142016567277
 10
115.6790716941705
 20
-137.197138095041
 10
115.6790716941705
 20
-137.2541544253218
 10
115.7235134259302
 20
-137.3029025264381
 10
115.782424558728
 20
-137.3029025264381
 10
115.8416802010743
 20
-137.3029025264381
 10
115.8819878182517
 20
-137.2520873680307
 10
115.8819878182517
 20
-137.1992051523321
 10
115.8819878182517
 20
-137.142016567277
 10
115.8354790292008
 20
-137.0975748355173
 10
115.7782904441457
 20
-137.0975748355173
 97
        0
 97
        1
330
E5
 92
        1
 93
        1
 72
     4
 94
        3
 73
     0
 74
     0
 95
       17
 96
       13
 40
0.0
 40
0.0
 40
0.0
 40
0.0
 40
1.0
 40
1.0
 40
1.0
 40
2.0
 40
2.0
 40
2.0
 40
3.0
 40
3.0
 40
3.0
 40
4.0
 40
4.0
 40
4.0
 40
4.0
 10
115.7803575014368
 20
-137.4276149830042
 10
115.6535779875796
 20
-137.4276149830042
 10
115.5519476707648
 20
-137.3261569209636
 10
115.5519476707648
 20
-137.1992051523321
 10
115.5519476707648
 20
-137.0722533837007
 10
115.6535779875796
 20
-136.9685560095946
 10
115.7803575014368
 20
-136.9685560095946
 10
115.9074815248426
 20
-136.9685560095946
 10
116.0111788989486
 20
-137.0722533837007
 10
116.0111788989486
 20
-137.1992051523321
 10
116.0111788989486
 20
-137.3261569209636
 10
115.9074815248426
 20
-137.4276149830042
 10
115.7803575014368
 20
-137.4276149830042
 97
        0
 97
        1
330
E6
 92
        1
 93
        1
 72
     4
 94
        3
 73
     0
 74
     0
 95
       44
 96
       40
 40
0.0
 40
0.0
 40
0.0
 40
0.0
 40
1.0
 40
1.0
 40
1.0
 40
2.0
 40
2.0
 40
2.0
 40
3.0
 40
3.0
 40
3.0
 40
4.0
 40
4.0
 40
4.0
 40
5.0
 40
5.0
 40
5.0
 40
6.0
 40
6.0
 40
6.0
 40
7.0
 40
7.0
 40
7.0
 40
8.0
 40
8.0
 40
8.0
 40
9.0
 40
9.0
 40
9.0
 40
10.0
 40
10.0
 40
10.0
 40
11.0
 40
11.0
 40
11.0
 40
12.0
 40
12.0
 40
12.0
 40
13.0
 40
13.0
 40
13.0
 40
13.0
 10
115.5708956959337
 20
-137.6265692472774
 10
115.458930092663
 20
-137.9946776998763
 10
115.4082871890299
 20
-138.1533243469721
 10
115.2115722368221
 20
-138.4029215148784
 10
115.0272596283612
 20
-138.6335706576159
 10
114.7905815685246
 20
-138.8196058138194
 10
114.5111843246708
 20
-138.9127956466954
 10
114.5111843246708
 20
-138.9127956466954
 10
114.3186034870453
 20
-138.7329616623653
 10
114.3186034870453
 20
-138.7329616623653
 10
114.9597357568503
 20
-138.5806884419173
 10
115.2897759043373
 20
-138.0243055210495
 10
115.3531656612658
 20
-137.5841945728088
 10
115.3531656612658
 20
-137.5841945728088
 10
114.5873209348948
 20
-137.5841945728088
 10
114.5873209348948
 20
-137.5841945728088
 10
114.4943033567931
 20
-137.5841945728088
 10
114.3103352578807
 20
-137.5885009421654
 10
114.1535834133019
 20
-137.6074489673342
 10
114.1535834133019
 20
-137.6074489673342
 10
114.1535834133019
 20
-137.387479620601
 10
114.1535834133019
 20
-137.387479620601
 10
114.2403998195302
 20
-137.4086669578353
 10
114.4922362995019
 20
-137.4086669578353
 10
114.5914550494771
 20
-137.4086669578353
 10
114.5914550494771
 20
-137.4086669578353
 10
115.0231255137789
 20
-137.4086669578353
 10
115.0231255137789
 20
-137.4086669578353
 10
115.0655001882475
 20
-137.4086669578353
 10
115.300111190793
 20
-137.4064276457699
 10
115.3383517506793
 20
-137.4002264738965
 10
115.3807264251479
 20
-137.3938530472488
 10
115.382793482439
 20
-137.3917859899576
 10
115.4441161820765
 20
-137.3514783727802
 10
115.4441161820765
 20
-137.3514783727802
 10
115.6322183955711
 20
-137.5059909052936
 10
115.6322183955711
 20
-137.5059909052936
 10
115.6029350839465
 20
-137.5356187264668
 10
115.5881211733599
 20
-137.5673136049311
 10
115.5708956959337
 20
-137.6265692472774
 97
        0
 97
        1
330
E7
 75
     2
 76
     1
 98
        1
 10
0.0
 20
0.0
450
        0
451
        0
460
0.0
461
0.0
452
        0
462
0.0
453
        0
470

  0
ENDBLK
  5
D6
330
D3
100
AcDbEntity
  8
0
100
AcDbBlockEnd
  0
ENDSEC
  0
SECTION
  2
ENTITIES
  0
LWPOLYLINE
  5
79
330
70
100
AcDbEntity
  8
レイヤー 1
 62
   250
420
  2299925
370
    25
100
AcDbPolyline
 90
        4
 70
     0
 43
0.0
 10
93.43141455132972
 20
-152.6746403137018
 10
101.4260996251461
 20
-152.6753458692393
 10
101.4260996251461
 20
-155.6743096816183
 10
91.42604932471307
 20
-155.6743096816183
  0
LWPOLYLINE
  5
7A
330
70
100
AcDbEntity
  8
レイヤー 1
 62
   250
420
  2299925
370
    25
100
AcDbPolyline
 90
        7
 70
     1
 43
0.0
 10
92.42924346578613
 20
-152.6736172581723
 10
92.9291295641441
 20
-153.6735658437726
 10
93.42919205138642
 20
-152.6736172581723
 10
93.42936844027082
 20
-146.3735707522332
 10
113.4291868189218
 20
-146.3735707522332
 10
113.4291868189218
 20
-145.3736221666329
 10
92.42924346578613
 20
-145.3736221666329
  0
LINE
  5
7B
330
70
100
AcDbEntity
  8
レイヤー 1
 62
   250
420
  2299925
370
    25
100
AcDbLine
 10
92.42924346578613
 20
-152.6736172581723
 30
0.0
 11
91.42604932471307
 21
-155.6743096816183
 31
0.0
  0
SPLINE
  5
7C
330
70
100
AcDbEntity
  8
レイヤー 1
 62
   250
420
  2299925
370
     9
100
AcDbSpline
210
0.0
220
0.0
230
1.0
 70
     9
 71
     3
 72
    17
 73
    13
 74
     0
 42
0.0000000001
 43
0.0000000001
 40
0.0
 40
0.0
 40
0.0
 40
0.0
 40
1.0
 40
1.0
 40
1.0
 40
2.0
 40
2.0
 40
2.0
 40
3.0
 40
3.0
 40
3.0
 40
4.0
 40
4.0
 40
4.0
 40
4.0
 10
101.5260085027431
 20
-159.6740334684657
 30
0.0
 10
101.5260085027431
 20
-159.6189295809826
 30
0.0
 10
101.481238790406
 20
-159.5741268043479
 30
0.0
 10
101.4260996251461
 20
-159.5741268043479
 30
0.0
 10
101.3713485154318
 20
-159.5741268043479
 30
0.0
 10
101.3261929610282
 20
-159.6189295809826
 30
0.0
 10
101.3261929610282
 20
-159.6740334684657
 30
0.0
 10
101.3261929610282
 20
-159.7291726337257
 30
0.0
 10
101.3713485154318
 20
-159.7739754103604
 30
0.0
 10
101.4260996251461
 20
-159.7739754103604
 30
0.0
 10
101.481238790406
 20
-159.7739754103604
 30
0.0
 10
101.5260085027431
 20
-159.7291726337257
 30
0.0
 10
101.5260085027431
 20
-159.6740334684657
 30
0.0
  0
SPLINE
  5
7D
330
70
100
AcDbEntity
  8
レイヤー 1
 62
   250
420
  2299925
370
     9
100
AcDbSpline
210
0.0
220
0.0
230
1.0
 70
     9
 71
     3
 72
    17
 73
    13
 74
     0
 42
0.0000000001
 43
0.0000000001
 40
0.0
 40
0.0
 40
0.0
 40
0.0
 40
1.0
 40
1.0
 40
1.0
 40
2.0
 40
2.0
 40
2.0
 40
3.0
 40
3.0
 40
3.0
 40
4.0
 40
4.0
 40
4.0
 40
4.0
 10
91.52662626659159
 20
-159.6740334684657
 30
0.0
 10
91.52662626659159
 20
-159.6189295809826
 30
0.0
 10
91.48185876773371
 20
-159.5741268043479
 30
0.0
 10
91.42604932471307
 20
-159.5741268043479
 30
0.0
 10
91.37091015945314
 20
-159.5741268043479
 30
0.0
 10
91.32614461640407
 20
-159.6189295809826
 30
0.0
 10
91.32614461640407
 20
-159.6740334684657
 30
0.0
 10
91.32614461640407
 20
-159.7291726337257
 30
0.0
 10
91.37091015945314
 20
-159.7739754103604
 30
0.0
 10
91.42604932471307
 20
-159.7739754103604
 30
0.0
 10
91.48185876773371
 20
-159.7739754103604
 30
0.0
 10
91.52662626659159
 20
-159.7291726337257
 30
0.0
 10
91.52662626659159
 20
-159.6740334684657
 30
0.0
  0
LINE
  5
7E
330
70
100
AcDbEntity
  8
レイヤー 1
 62
   250
420
  2299925
370
     9
100
AcDbLine
 10
91.42604932471307
 20
-159.6740334684657
 30
0.0
 11
101.4260996251461
 21
-159.6740334684657
 31
0.0
  0
LINE
  5
7F
330
70
100
AcDbEntity
  8
レイヤー 1
 62
   250
420
  2299925
370
     9
100
AcDbLine
 10
91.42604932471307
 20
-157.213549642349
 30
0.0
 11
91.42604932471307
 21
-160.6738056651816
 31
0.0
  0
LINE
  5
80
330
70
100
AcDbEntity
  8
レイヤー 1
 62
   250
420
  2299925
370
     9
100
AcDbLine
 10
101.4260996251461
 20
-157.213549642349
 30
0.0
 11
101.4260996251461
 21
-160.6738056651816
 31
0.0
  0
INSERT
  5
82
330
70
100
AcDbEntity
  8
レイヤー 1
100
AcDbBlockReference
  2
Block_0
 10
0.0
 20
0.0
 30
0.0
  0
LINE
  5
8E
330
70
100
AcDbEntity
  8
レイヤー 1
 62
   250
420
  2299925
370
     9
100
AcDbLine
 10
118.677779185019
 20
-152.6737936470567
 30
0.0
 11
102.5760845958075
 21
-152.6737936470567
 31
0.0
  0
LINE
  5
8F
330
70
100
AcDbEntity
  8
レイヤー 1
 62
   250
420
  2299925
370
     9
100
AcDbLine
 10
118.677779185019
 20
-146.3735707522332
 30
0.0
 11
114.6115215109801
 21
-146.3735707522332
 31
0.0
  0
LINE
  5
90
330
70
100
AcDbEntity
  8
レイヤー 1
 62
   250
420
  2299925
370
     9
100
AcDbLine
 10
118.677779185019
 20
-145.4323596651344
 30
0.0
 11
114.6115215109801
 21
-145.4323596651344
 31
0.0
  0
INSERT
  5
92
330
70
100
AcDbEntity
  8
レイヤー 1
100
AcDbBlockReference
  2
Block_2
 10
0.0
 20
0.0
 30
0.0
  0
INSERT
  5
A1
330
70
100
AcDbEntity
  8
レイヤー 1
100
AcDbBlockReference
  2
Block_4
 10
0.0
 20
0.0
 30
0.0
  0
INSERT
  5
A7
330
70
100
AcDbEntity
  8
レイヤー 1
100
AcDbBlockReference
  2
Block_5
 10
0.0
 20
0.0
 30
0.0
  0
SPLINE
  5
AC
330
70
100
AcDbEntity
  8
レイヤー 1
 62
   250
420
  2299925
370
     9
100
AcDbSpline
210
0.0
220
0.0
230
1.0
 70
     9
 71
     3
 72
    17
 73
    13
 74
     0
 42
0.0000000001
 43
0.0000000001
 40
0.0
 40
0.0
 40
0.0
 40
0.0
 40
1.0
 40
1.0
 40
1.0
 40
2.0
 40
2.0
 40
2.0
 40
3.0
 40
3.0
 40
3.0
 40
4.0
 40
4.0
 40
4.0
 40
4.0
 10
117.7775608746522
 20
-152.6648330917297
 30
0.0
 10
117.7775608746522
 20
-152.7199369792128
 30
0.0
 10
117.7327933757943
 20
-152.7647397558476
 30
0.0
 10
117.677654210535
 20
-152.7647397558476
 30
0.0
 10
117.6225529431637
 20
-152.7647397558476
 30
0.0
 10
117.5777501653969
 20
-152.7199369792128
 30
0.0
 10
117.5777501653969
 20
-152.6648330917297
 30
0.0
 10
117.5777501653969
 20
-152.6096877694317
 30
0.0
 10
117.6225529431637
 20
-152.5649264276119
 30
0.0
 10
117.677654210535
 20
-152.5649264276119
 30
0.0
 10
117.7327933757943
 20
-152.5649264276119
 30
0.0
 10
117.7775608746522
 20
-152.6096877694317
 30
0.0
 10
117.7775608746522
 20
-152.6648330917297
 30
0.0
  0
HATCH
  5
AD
330
70
100
AcDbEntity
  8
レイヤー 1
 62
   250
420
  2299925
440
 33554687
100
AcDbHatch
 10
0.0
 20
0.0
 30
0.0
210
0.0
220
0.0
230
1.0
  2
SOLID
 70
     1
 71
     1
 91
        1
 92
        1
 93
        1
 72
     4
 94
        3
 73
     0
 74
     0
 95
       17
 96
       13
 40
0.0
 40
0.0
 40
0.0
 40
0.0
 40
1.0
 40
1.0
 40
1.0
 40
2.0
 40
2.0
 40
2.0
 40
3.0
 40
3.0
 40
3.0
 40
4.0
 40
4.0
 40
4.0
 40
4.0
 10
117.7775608746522
 20
-152.6648330917297
 10
117.7775608746522
 20
-152.7199369792128
 10
117.7327933757943
 20
-152.7647397558476
 10
117.677654210535
 20
-152.7647397558476
 10
117.6225529431637
 20
-152.7647397558476
 10
117.5777501653969
 20
-152.7199369792128
 10
117.5777501653969
 20
-152.6648330917297
 10
117.5777501653969
 20
-152.6096877694317
 10
117.6225529431637
 20
-152.5649264276119
 10
117.677654210535
 20
-152.5649264276119
 10
117.7327933757943
 20
-152.5649264276119
 10
117.7775608746522
 20
-152.6096877694317
 10
117.7775608746522
 20
-152.6648330917297
 97
        0
 97
        1
330
AC
 75
     2
 76
     1
 98
        1
 10
0.0
 20
0.0
450
        0
451
        0
460
0.0
461
0.0
452
        0
462
0.0
453
        0
470

  0
LINE
  5
AE
330
70
100
AcDbEntity
  8
レイヤー 1
 62
   250
420
  2299925
370
     9
100
AcDbLine
 10
117.677654210535
 20
-155.6646435707538
 30
0.0
 11
117.677654210535
 21
-141.6620472613231
 31
0.0
  0
LINE
  5
AF
330
70
100
AcDbEntity
  8
レイヤー 1
 62
   250
420
  2299925
370
     9
100
AcDbLine
 10
118.677779185019
 20
-155.6736041260807
 30
0.0
 11
102.5760845958075
 21
-155.6736041260807
 31
0.0
  0
SPLINE
  5
B0
330
70
100
AcDbEntity
  8
レイヤー 1
 62
   250
420
  2299925
370
     9
100
AcDbSpline
210
0.0
220
0.0
230
1.0
 70
     9
 71
     3
 72
    17
 73
    13
 74
     0
 42
0.0000000001
 43
0.0000000001
 40
0.0
 40
0.0
 40
0.0
 40
0.0
 40
1.0
 40
1.0
 40
1.0
 40
2.0
 40
2.0
 40
2.0
 40
3.0
 40
3.0
 40
3.0
 40
4.0
 40
4.0
 40
4.0
 40
4.0
 10
117.7775608746522
 20
-155.6646435707538
 30
0.0
 10
117.7775608746522
 20
-155.7197766575433
 30
0.0
 10
117.7327933757943
 20
-155.7645502348716
 30
0.0
 10
117.677654210535
 20
-155.7645502348716
 30
0.0
 10
117.6225529431637
 20
-155.7645502348716
 30
0.0
 10
117.5777501653969
 20
-155.7197766575433
 30
0.0
 10
117.5777501653969
 20
-155.6646435707538
 30
0.0
 10
117.5777501653969
 20
-155.6095396832707
 30
0.0
 10
117.6225529431637
 20
-155.5647369066359
 30
0.0
 10
117.677654210535
 20
-155.5647369066359
 30
0.0
 10
117.7327933757943
 20
-155.5647369066359
 30
0.0
 10
117.7775608746522
 20
-155.6095396832707
 30
0.0
 10
117.7775608746522
 20
-155.6646435707538
 30
0.0
  0
HATCH
  5
B1
330
70
100
AcDbEntity
  8
レイヤー 1
 62
   250
420
  2299925
440
 33554687
100
AcDbHatch
 10
0.0
 20
0.0
 30
0.0
210
0.0
220
0.0
230
1.0
  2
SOLID
 70
     1
 71
     1
 91
        1
 92
        1
 93
        1
 72
     4
 94
        3
 73
     0
 74
     0
 95
       17
 96
       13
 40
0.0
 40
0.0
 40
0.0
 40
0.0
 40
1.0
 40
1.0
 40
1.0
 40
2.0
 40
2.0
 40
2.0
 40
3.0
 40
3.0
 40
3.0
 40
4.0
 40
4.0
 40
4.0
 40
4.0
 10
117.7775608746522
 20
-155.6646435707538
 10
117.7775608746522
 20
-155.7197766575433
 10
117.7327933757943
 20
-155.7645502348716
 10
117.677654210535
 20
-155.7645502348716
 10
117.6225529431637
 20
-155.7645502348716
 10
117.5777501653969
 20
-155.7197766575433
 10
117.5777501653969
 20
-155.6646435707538
 10
117.5777501653969
 20
-155.6095396832707
 10
117.6225529431637
 20
-155.5647369066359
 10
117.677654210535
 20
-155.5647369066359
 10
117.7327933757943
 20
-155.5647369066359
 10
117.7775608746522
 20
-155.6095396832707
 10
117.7775608746522
 20
-155.6646435707538
 97
        0
 97
        1
330
B0
 75
     2
 76
     1
 98
        1
 10
0.0
 20
0.0
450
        0
451
        0
460
0.0
461
0.0
452
        0
462
0.0
453
        0
470

  0
SPLINE
  5
B2
330
70
100
AcDbEntity
  8
レイヤー 1
 62
   250
420
  2299925
370
     9
100
AcDbSpline
210
0.0
220
0.0
230
1.0
 70
     9
 71
     3
 72
    17
 73
    13
 74
     0
 42
0.0000000001
 43
0.0000000001
 40
0.0
 40
0.0
 40
0.0
 40
0.0
 40
1.0
 40
1.0
 40
1.0
 40
2.0
 40
2.0
 40
2.0
 40
3.0
 40
3.0
 40
3.0
 40
4.0
 40
4.0
 40
4.0
 40
4.0
 10
117.7775608746522
 20
-146.3735707522332
 30
0.0
 10
117.7775608746522
 20
-146.4287099174932
 30
0.0
 10
117.7327933757943
 20
-146.473471104299
 30
0.0
 10
117.677654210535
 20
-146.473471104299
 30
0.0
 10
117.6225529431637
 20
-146.473471104299
 30
0.0
 10
117.5777501653969
 20
-146.4287099174932
 30
0.0
 10
117.5777501653969
 20
-146.3735707522332
 30
0.0
 10
117.5777501653969
 20
-146.3184668647502
 30
0.0
 10
117.6225529431637
 20
-146.2736640881154
 30
0.0
 10
117.677654210535
 20
-146.2736640881154
 30
0.0
 10
117.7327933757943
 20
-146.2736640881154
 30
0.0
 10
117.7775608746522
 20
-146.3184668647502
 30
0.0
 10
117.7775608746522
 20
-146.3735707522332
 30
0.0
  0
HATCH
  5
B3
330
70
100
AcDbEntity
  8
レイヤー 1
 62
   250
420
  2299925
440
 33554687
100
AcDbHatch
 10
0.0
 20
0.0
 30
0.0
210
0.0
220
0.0
230
1.0
  2
SOLID
 70
     1
 71
     1
 91
        1
 92
        1
 93
        1
 72
     4
 94
        3
 73
     0
 74
     0
 95
       17
 96
       13
 40
0.0
 40
0.0
 40
0.0
 40
0.0
 40
1.0
 40
1.0
 40
1.0
 40
2.0
 40
2.0
 40
2.0
 40
3.0
 40
3.0
 40
3.0
 40
4.0
 40
4.0
 40
4.0
 40
4.0
 10
117.7775608746522
 20
-146.3735707522332
 10
117.7775608746522
 20
-146.4287099174932
 10
117.7327933757943
 20
-146.473471104299
 10
117.677654210535
 20
-146.473471104299
 10
117.6225529431637
 20
-146.473471104299
 10
117.5777501653969
 20
-146.4287099174932
 10
117.5777501653969
 20
-146.3735707522332
 10
117.5777501653969
 20
-146.3184668647502
 10
117.6225529431637
 20
-146.2736640881154
 10
117.677654210535
 20
-146.2736640881154
 10
117.7327933757943
 20
-146.2736640881154
 10
117.7775608746522
 20
-146.3184668647502
 10
117.7775608746522
 20
-146.3735707522332
 97
        0
 97
        1
330
B2
 75
     2
 76
     1
 98
        1
 10
0.0
 20
0.0
450
        0
451
        0
460
0.0
461
0.0
452
        0
462
0.0
453
        0
470

  0
SPLINE
  5
B4
330
70
100
AcDbEntity
  8
レイヤー 1
 62
   250
420
  2299925
370
     9
100
AcDbSpline
210
0.0
220
0.0
230
1.0
 70
     9
 71
     3
 72
    17
 73
    13
 74
     0
 42
0.0000000001
 43
0.0000000001
 40
0.0
 40
0.0
 40
0.0
 40
0.0
 40
1.0
 40
1.0
 40
1.0
 40
2.0
 40
2.0
 40
2.0
 40
3.0
 40
3.0
 40
3.0
 40
4.0
 40
4.0
 40
4.0
 40
4.0
 10
117.7775608746522
 20
-145.4323596651344
 30
0.0
 10
117.7775608746522
 20
-145.4874988303943
 30
0.0
 10
117.7327933757943
 20
-145.5322599934233
 30
0.0
 10
117.677654210535
 20
-145.5322599934233
 30
0.0
 10
117.6225529431637
 20
-145.5322599934233
 30
0.0
 10
117.5777501653969
 20
-145.4874988303943
 30
0.0
 10
117.5777501653969
 20
-145.4323596651344
 30
0.0
 10
117.5777501653969
 20
-145.3772557776513
 30
0.0
 10
117.6225529431637
 20
-145.3324530010166
 30
0.0
 10
117.677654210535
 20
-145.3324530010166
 30
0.0
 10
117.7327933757943
 20
-145.3324530010166
 30
0.0
 10
117.7775608746522
 20
-145.3772557776513
 30
0.0
 10
117.7775608746522
 20
-145.4323596651344
 30
0.0
  0
HATCH
  5
B5
330
70
100
AcDbEntity
  8
レイヤー 1
 62
   250
420
  2299925
440
 33554687
100
AcDbHatch
 10
0.0
 20
0.0
 30
0.0
210
0.0
220
0.0
230
1.0
  2
SOLID
 70
     1
 71
     1
 91
        1
 92
        1
 93
        1
 72
     4
 94
        3
 73
     0
 74
     0
 95
       17
 96
       13
 40
0.0
 40
0.0
 40
0.0
 40
0.0
 40
1.0
 40
1.0
 40
1.0
 40
2.0
 40
2.0
 40
2.0
 40
3.0
 40
3.0
 40
3.0
 40
4.0
 40
4.0
 40
4.0
 40
4.0
 10
117.7775608746522
 20
-145.4323596651344
 10
117.7775608746522
 20
-145.4874988303943
 10
117.7327933757943
 20
-145.5322599934233
 10
117.677654210535
 20
-145.5322599934233
 10
117.6225529431637
 20
-145.5322599934233
 10
117.5777501653969
 20
-145.4874988303943
 10
117.5777501653969
 20
-145.4323596651344
 10
117.5777501653969
 20
-145.3772557776513
 10
117.6225529431637
 20
-145.3324530010166
 10
117.677654210535
 20
-145.3324530010166
 10
117.7327933757943
 20
-145.3324530010166
 10
117.7775608746522
 20
-145.3772557776513
 10
117.7775608746522
 20
-145.4323596651344
 97
        0
 97
        1
330
B4
 75
     2
 76
     1
 98
        1
 10
0.0
 20
0.0
450
        0
451
        0
460
0.0
461
0.0
452
        0
462
0.0
453
        0
470

  0
SPLINE
  5
B6
330
70
100
AcDbEntity
  8
レイヤー 1
 62
   250
420
  2299925
370
     9
100
AcDbSpline
210
0.0
220
0.0
230
1.0
 70
     9
 71
     3
 72
    17
 73
    13
 74
     0
 42
0.0000000001
 43
0.0000000001
 40
0.0
 40
0.0
 40
0.0
 40
0.0
 40
1.0
 40
1.0
 40
1.0
 40
2.0
 40
2.0
 40
2.0
 40
3.0
 40
3.0
 40
3.0
 40
4.0
 40
4.0
 40
4.0
 40
4.0
 10
92.52915012990397
 20
-142.1979519698732
 30
0.0
 10
92.52915012990397
 20
-142.1428128046133
 30
0.0
 10
92.48438263104608
 20
-142.0980453057554
 30
0.0
 10
92.42924346578613
 20
-142.0980453057554
 30
0.0
 10
92.37431596718744
 20
-142.0980453057554
 30
0.0
 10
92.32951319055269
 20
-142.1428128046133
 30
0.0
 10
92.32951319055269
 20
-142.1979519698732
 30
0.0
 10
92.32951319055269
 20
-142.2530558573563
 30
0.0
 10
92.37431596718744
 20
-142.2978586339911
 30
0.0
 10
92.42924346578613
 20
-142.2978586339911
 30
0.0
 10
92.48438263104608
 20
-142.2978586339911
 30
0.0
 10
92.52915012990397
 20
-142.2530558573563
 30
0.0
 10
92.52915012990397
 20
-142.1979519698732
 30
0.0
  0
LINE
  5
B7
330
70
100
AcDbEntity
  8
レイヤー 1
 62
   250
420
  2299925
370
     9
100
AcDbLine
 10
92.42924346578613
 20
-143.6579516605588
 30
0.0
 11
92.42924346578613
 21
-141.1981797731573
 31
0.0
  0
SPLINE
  5
B8
330
70
100
AcDbEntity
  8
レイヤー 1
 62
   250
420
  2299925
370
     9
100
AcDbSpline
210
0.0
220
0.0
230
1.0
 70
     9
 71
     3
 72
    17
 73
    13
 74
     0
 42
0.0000000001
 43
0.0000000001
 40
0.0
 40
0.0
 40
0.0
 40
0.0
 40
1.0
 40
1.0
 40
1.0
 40
2.0
 40
2.0
 40
2.0
 40
3.0
 40
3.0
 40
3.0
 40
4.0
 40
4.0
 40
4.0
 40
4.0
 10
113.5290934830403
 20
-142.1979519698732
 30
0.0
 10
113.5290934830403
 20
-142.1428128046133
 30
0.0
 10
113.4842907064049
 20
-142.0980453057554
 30
0.0
 10
113.4291868189218
 20
-142.0980453057554
 30
0.0
 10
113.3744029442259
 20
-142.0980453057554
 30
0.0
 10
113.3296001664592
 20
-142.1428128046133
 30
0.0
 10
113.3296001664592
 20
-142.1979519698732
 30
0.0
 10
113.3296001664592
 20
-142.2530558573563
 30
0.0
 10
113.3744029442259
 20
-142.2978586339911
 30
0.0
 10
113.4291868189218
 20
-142.2978586339911
 30
0.0
 10
113.4842907064049
 20
-142.2978586339911
 30
0.0
 10
113.5290934830403
 20
-142.2530558573563
 30
0.0
 10
113.5290934830403
 20
-142.1979519698732
 30
0.0
  0
LINE
  5
B9
330
70
100
AcDbEntity
  8
レイヤー 1
 62
   250
420
  2299925
370
     9
100
AcDbLine
 10
113.4291868189218
 20
-143.6579516605588
 30
0.0
 11
113.4291868189218
 21
-141.1981797731573
 31
0.0
  0
LINE
  5
BA
330
70
100
AcDbEntity
  8
レイヤー 1
 62
   250
420
  2299925
370
     9
100
AcDbLine
 10
92.42994902132368
 20
-142.1979519698732
 30
0.0
 11
113.4291868189218
 21
-142.1979519698732
 31
0.0
  0
INSERT
  5
BC
330
70
100
AcDbEntity
  8
レイヤー 1
100
AcDbBlockReference
  2
Block_6
 10
0.0
 20
0.0
 30
0.0
  0
INSERT
  5
C8
330
70
100
AcDbEntity
  8
レイヤー 1
100
AcDbBlockReference
  2
Block_8
 10
0.0
 20
0.0
 30
0.0
  0
ENDSEC
  0
SECTION
  2
OBJECTS
  0
DICTIONARY
  5
C
330
0
100
AcDbDictionary
281
     1
  3
ACAD_COLOR
350
63
  3
ACAD_DETAILVIEWSTYLE
350
6A
  3
ACAD_GROUP
350
D
  3
ACAD_LAYOUT
350
62
  3
ACAD_MATERIAL
350
10
  3
ACAD_MLEADERSTYLE
350
66
  3
ACAD_MLINESTYLE
350
5F
  3
ACAD_PLOTSETTINGS
350
61
  3
ACAD_PLOTSTYLENAME
350
E
  3
ACAD_SCALELIST
350
42
  3
ACAD_SECTIONVIEWSTYLE
350
68
  3
ACAD_TABLESTYLE
350
64
  3
ACAD_VISUALSTYLE
350
29
  3
ACDB_RECOMPOSE_DATA
350
F1
  3
AcDbVariableDictionary
350
E9
  0
DICTIONARY
  5
63
102
{ACAD_REACTORS
330
C
102
}
330
C
100
AcDbDictionary
281
     1
  0
DICTIONARY
  5
6A
102
{ACAD_REACTORS
330
C
102
}
330
C
100
AcDbDictionary
281
     1
  3
Imperial24
350
6B
  0
DICTIONARY
  5
D
102
{ACAD_REACTORS
330
C
102
}
330
C
100
AcDbDictionary
281
     1
  0
DICTIONARY
  5
62
102
{ACAD_REACTORS
330
C
102
}
330
C
100
AcDbDictionary
281
     1
  3
Layout1
350
6F
  3
Layout2
350
77
  3
Model
350
73
  0
DICTIONARY
  5
10
102
{ACAD_REACTORS
330
C
102
}
330
C
100
AcDbDictionary
281
     1
  3
ByBlock
350
19
  3
ByLayer
350
11
  3
Global
350
21
  0
DICTIONARY
  5
66
102
{ACAD_REACTORS
330
C
102
}
330
C
100
AcDbDictionary
281
     1
  3
Standard
350
67
  0
DICTIONARY
  5
5F
102
{ACAD_REACTORS
330
C
102
}
330
C
100
AcDbDictionary
281
     1
  3
Standard
350
60
  0
DICTIONARY
  5
61
102
{ACAD_REACTORS
330
C
102
}
330
C
100
AcDbDictionary
281
     1
  0
ACDBDICTIONARYWDFLT
  5
E
102
{ACAD_REACTORS
330
C
102
}
330
C
100
AcDbDictionary
281
     1
  3
Normal
350
F
100
AcDbDictionaryWithDefault
340
F
  0
DICTIONARY
  5
42
102
{ACAD_REACTORS
330
C
102
}
330
C
100
AcDbDictionary
281
     1
  3
A0
350
43
  3
A1
350
44
  3
A2
350
45
  3
A3
350
46
  3
A4
350
47
  3
A5
350
48
  3
A6
350
49
  3
A7
350
4A
  3
A8
350
4B
  3
A9
350
4C
  3
B0
350
4D
  3
B1
350
4E
  3
B2
350
4F
  3
B3
350
50
  3
B4
350
51
  3
B5
350
52
  3
B6
350
53
  0
DICTIONARY
  5
68
102
{ACAD_REACTORS
330
C
102
}
330
C
100
AcDbDictionary
281
     1
  3
Imperial24
350
69
  0
DICTIONARY
  5
64
102
{ACAD_REACTORS
330
C
102
}
330
C
100
AcDbDictionary
281
     1
  3
Standard
350
65
  0
DICTIONARY
  5
29
102
{ACAD_REACTORS
330
C
102
}
330
C
100
AcDbDictionary
281
     1
  3
2dWireframe
350
2F
  3
Basic
350
2E
  3
Brighten
350
35
  3
ColorChange
350
39
  3
Conceptual
350
32
  3
Dim
350
34
  3
EdgeColorOff
350
41
  3
Facepattern
350
38
  3
Flat
350
2A
  3
FlatWithEdges
350
2B
  3
Gouraud
350
2C
  3
GouraudWithEdges
350
2D
  3
Hidden
350
31
  3
JitterOff
350
3F
  3
Linepattern
350
37
  3
OverhangOff
350
40
  3
Realistic
350
33
  3
Shaded
350
3E
  3
Shaded with edges
350
3D
  3
Shades of Gray
350
3A
  3
Sketchy
350
3B
  3
Thicken
350
36
  3
Wireframe
350
30
  3
X-Ray
350
3C
  0
XRECORD
  5
F1
102
{ACAD_REACTORS
330
C
102
}
330
C
100
AcDbXrecord
280
     1
 90
        1
330
65
  0
DICTIONARY
  5
E9
102
{ACAD_REACTORS
330
C
102
}
330
C
100
AcDbDictionary
281
     1
  3
CANNOSCALE
350
EE
  3
CMLEADERSTYLE
350
EB
  3
CTABLESTYLE
350
EA
  3
CVIEWDETAILSTYLE
350
EC
  3
CVIEWSECTIONSTYLE
350
ED
  0
ACDBDETAILVIEWSTYLE
  5
6B
102
{ACAD_XDICTIONARY
360
126
102
}
102
{ACAD_REACTORS
330
6A
102
}
330
6A
100
AcDbModelDocViewStyle
 70
     0
  3
Imperial24
290
     0
100
AcDbDetailViewStyle
 70
     0
 71
     0
 90
        3
 71
     1
340
55
 62
   256
 40
0.24
340
0
 62
   256
 40
0.24
300

 40
0.36
280
     3
 71
     2
340
5D
 90
       25
 62
   256
 71
     3
340
55
 62
   256
 40
0.24
 90
        1
 40
0.75
 90
        1
300
%<\AcVar ViewType \f "%tc1">% %<\AcVar ViewDetailId>%\PSCALE %<\AcVar ViewScale \f "%sn">%
 71
     4
340
5D
 90
       25
 62
   256
340
5D
 90
       25
 62
   256
280
     0
  0
LAYOUT
  5
6F
102
{ACAD_REACTORS
330
62
102
}
330
62
100
AcDbPlotSettings
  1

  2

  4

  6

 40
0.0
 41
0.0
 42
0.0
 43
0.0
 44
0.0
 45
0.0
 46
0.0
 47
0.0
 48
0.0
 49
0.0
140
0.0
141
0.0
142
1.0
143
1.0
 70
   688
 72
     0
 73
     0
 74
     5
  7

 75
    16
147
1.0
 76
     0
 77
     2
 78
   300
148
0.0
149
0.0
100
AcDbLayout
  1
Layout1
 70
     1
 71
     1
 10
0.0
 20
0.0
 11
12.0
 21
9.0
 12
0.0
 22
0.0
 32
0.0
 14
0.0
 24
0.0
 34
0.0
 15
0.0
 25
0.0
 35
0.0
146
0.0
 13
0.0
 23
0.0
 33
0.0
 16
1.0
 26
0.0
 36
0.0
 17
0.0
 27
1.0
 37
0.0
 76
     0
330
6C
  0
LAYOUT
  5
77
102
{ACAD_REACTORS
330
62
102
}
330
62
100
AcDbPlotSettings
  1

  2

  4

  6

 40
0.0
 41
0.0
 42
0.0
 43
0.0
 44
0.0
 45
0.0
 46
0.0
 47
0.0
 48
0.0
 49
0.0
140
0.0
141
0.0
142
1.0
143
1.0
 70
   688
 72
     0
 73
     0
 74
     5
  7

 75
    16
147
1.0
 76
     0
 77
     2
 78
   300
148
0.0
149
0.0
100
AcDbLayout
  1
Layout2
 70
     1
 71
     2
 10
0.0
 20
0.0
 11
12.0
 21
9.0
 12
0.0
 22
0.0
 32
0.0
 14
0.0
 24
0.0
 34
0.0
 15
0.0
 25
0.0
 35
0.0
146
0.0
 13
0.0
 23
0.0
 33
0.0
 16
1.0
 26
0.0
 36
0.0
 17
0.0
 27
1.0
 37
0.0
 76
     0
330
74
  0
LAYOUT
  5
73
102
{ACAD_REACTORS
330
62
102
}
330
62
100
AcDbPlotSettings
  1

  2

  4

  6

 40
0.0
 41
0.0
 42
0.0
 43
0.0
 44
0.0
 45
0.0
 46
0.0
 47
0.0
 48
0.0
 49
0.0
140
0.0
141
0.0
142
1.0
143
1.0
 70
  1712
 72
     0
 73
     0
 74
     0
  7

 75
     0
147
1.0
 76
     0
 77
     2
 78
   300
148
0.0
149
0.0
100
AcDbLayout
  1
Model
 70
     1
 71
     0
 10
0.0
 20
0.0
 11
12.0
 21
9.0
 12
0.0
 22
0.0
 32
0.0
 14
0.0
 24
0.0
 34
0.0
 15
0.0
 25
0.0
 35
0.0
146
0.0
 13
0.0
 23
0.0
 33
0.0
 16
1.0
 26
0.0
 36
0.0
 17
0.0
 27
1.0
 37
0.0
 76
     0
330
70
  0
MATERIAL
  5
19
102
{ACAD_XDICTIONARY
360
1A
102
}
102
{ACAD_REACTORS
330
10
102
}
330
10
100
AcDbMaterial
  1
ByBlock
 72
     0
 43
0.0208333333333333
 43
0.0
 43
0.0
 43
0.0
 43
0.0
 43
0.0208333333333333
 43
0.0
 43
0.0
 43
0.0
 43
0.0
 43
1.0
 43
0.0
 43
0.0
 43
0.0
 43
0.0
 43
1.0
 77
     0
 47
0.0208333333333333
 47
0.0
 47
0.0
 47
0.0
 47
0.0
 47
0.0208333333333333
 47
0.0
 47
0.0
 47
0.0
 47
0.0
 47
1.0
 47
0.0
 47
0.0
 47
0.0
 47
0.0
 47
1.0
171
     0
 49
0.0208333333333333
 49
0.0
 49
0.0
 49
0.0
 49
0.0
 49
0.0208333333333333
 49
0.0
 49
0.0
 49
0.0
 49
0.0
 49
1.0
 49
0.0
 49
0.0
 49
0.0
 49
0.0
 49
1.0
175
     0
142
0.0208333333333333
142
0.0
142
0.0
142
0.0
142
0.0
142
0.0208333333333333
142
0.0
142
0.0
142
0.0
142
0.0
142
1.0
142
0.0
142
0.0
142
0.0
142
0.0
142
1.0
179
     0
144
0.0208333333333333
144
0.0
144
0.0
144
0.0
144
0.0
144
0.0208333333333333
144
0.0
144
0.0
144
0.0
144
0.0
144
1.0
144
0.0
144
0.0
144
0.0
144
0.0
144
1.0
147
0.0208333333333333
147
0.0
147
0.0
147
0.0
147
0.0
147
0.0208333333333333
147
0.0
147
0.0
147
0.0
147
0.0
147
1.0
147
0.0
147
0.0
147
0.0
147
0.0
147
1.0
  0
MATERIAL
  5
11
102
{ACAD_XDICTIONARY
360
12
102
}
102
{ACAD_REACTORS
330
10
102
}
330
10
100
AcDbMaterial
  1
ByLayer
 72
     0
 43
0.0208333333333333
 43
0.0
 43
0.0
 43
0.0
 43
0.0
 43
0.0208333333333333
 43
0.0
 43
0.0
 43
0.0
 43
0.0
 43
1.0
 43
0.0
 43
0.0
 43
0.0
 43
0.0
 43
1.0
 77
     0
 47
0.0208333333333333
 47
0.0
 47
0.0
 47
0.0
 47
0.0
 47
0.0208333333333333
 47
0.0
 47
0.0
 47
0.0
 47
0.0
 47
1.0
 47
0.0
 47
0.0
 47
0.0
 47
0.0
 47
1.0
171
     0
 49
0.0208333333333333
 49
0.0
 49
0.0
 49
0.0
 49
0.0
 49
0.0208333333333333
 49
0.0
 49
0.0
 49
0.0
 49
0.0
 49
1.0
 49
0.0
 49
0.0
 49
0.0
 49
0.0
 49
1.0
175
     0
142
0.0208333333333333
142
0.0
142
0.0
142
0.0
142
0.0
142
0.0208333333333333
142
0.0
142
0.0
142
0.0
142
0.0
142
1.0
142
0.0
142
0.0
142
0.0
142
0.0
142
1.0
179
     0
144
0.0208333333333333
144
0.0
144
0.0
144
0.0
144
0.0
144
0.0208333333333333
144
0.0
144
0.0
144
0.0
144
0.0
144
1.0
144
0.0
144
0.0
144
0.0
144
0.0
144
1.0
147
0.0208333333333333
147
0.0
147
0.0
147
0.0
147
0.0
147
0.0208333333333333
147
0.0
147
0.0
147
0.0
147
0.0
147
1.0
147
0.0
147
0.0
147
0.0
147
0.0
147
1.0
  0
MATERIAL
  5
21
102
{ACAD_XDICTIONARY
360
22
102
}
102
{ACAD_REACTORS
330
10
102
}
330
10
100
AcDbMaterial
  1
Global
 72
     0
 43
0.0208333333333333
 43
0.0
 43
0.0
 43
0.0
 43
0.0
 43
0.0208333333333333
 43
0.0
 43
0.0
 43
0.0
 43
0.0
 43
1.0
 43
0.0
 43
0.0
 43
0.0
 43
0.0
 43
1.0
 77
     0
 47
0.0208333333333333
 47
0.0
 47
0.0
 47
0.0
 47
0.0
 47
0.0208333333333333
 47
0.0
 47
0.0
 47
0.0
 47
0.0
 47
1.0
 47
0.0
 47
0.0
 47
0.0
 47
0.0
 47
1.0
171
     0
 49
0.0208333333333333
 49
0.0
 49
0.0
 49
0.0
 49
0.0
 49
0.0208333333333333
 49
0.0
 49
0.0
 49
0.0
 49
0.0
 49
1.0
 49
0.0
 49
0.0
 49
0.0
 49
0.0
 49
1.0
175
     0
142
0.0208333333333333
142
0.0
142
0.0
142
0.0
142
0.0
142
0.0208333333333333
142
0.0
142
0.0
142
0.0
142
0.0
142
1.0
142
0.0
142
0.0
142
0.0
142
0.0
142
1.0
179
     0
144
0.0208333333333333
144
0.0
144
0.0
144
0.0
144
0.0
144
0.0208333333333333
144
0.0
144
0.0
144
0.0
144
0.0
144
1.0
144
0.0
144
0.0
144
0.0
144
0.0
144
1.0
147
0.0208333333333333
147
0.0
147
0.0
147
0.0
147
0.0
147
0.0208333333333333
147
0.0
147
0.0
147
0.0
147
0.0
147
1.0
147
0.0
147
0.0
147
0.0
147
0.0
147
1.0
  0
MLEADERSTYLE
  5
67
102
{ACAD_XDICTIONARY
360
122
102
}
102
{ACAD_REACTORS
330
66
102
}
330
66
100
AcDbMLeaderStyle
179
     2
170
     2
171
     1
172
     0
 90
        2
 40
0.0
 41
0.0
173
     1
 91
-1056964608
340
5B
 92
       -2
290
     1
 42
0.09
291
     1
 43
0.36
  3
Standard
 44
0.18
300

342
55
174
     1
178
     6
175
     1
176
     0
 93
-1056964608
 45
0.18
292
     0
297
     0
 46
0.18
 94
-1056964608
 47
1.0
 49
1.0
140
1.0
293
     1
141
0.0
294
     1
177
     0
142
1.0
295
     0
296
     0
143
0.125
271
     0
272
     9
273
     9
  0
MLINESTYLE
  5
60
102
{ACAD_REACTORS
330
5F
102
}
330
5F
100
AcDbMlineStyle
  2
STANDARD
 70
     0
  3

 62
   256
 51
90.0
 52
90.0
 71
     2
 49
0.5
 62
   256
  6
BYLAYER
 49
-0.5
 62
   256
  6
BYLAYER
  0
ACDBPLACEHOLDER
  5
F
102
{ACAD_REACTORS
330
E
102
}
330
E
  0
SCALE
  5
43
102
{ACAD_REACTORS
330
42
102
}
330
42
100
AcDbScale
 70
     0
300
1:1
140
1.0
141
1.0
290
     1
  0
SCALE
  5
44
102
{ACAD_REACTORS
330
42
102
}
330
42
100
AcDbScale
 70
     0
300
1/128" = 1'-0"
140
0.0078125
141
12.0
290
     0
  0
SCALE
  5
45
102
{ACAD_REACTORS
330
42
102
}
330
42
100
AcDbScale
 70
     0
300
1/64" = 1'-0"
140
0.015625
141
12.0
290
     0
  0
SCALE
  5
46
102
{ACAD_REACTORS
330
42
102
}
330
42
100
AcDbScale
 70
     0
300
1/32" = 1'-0"
140
0.03125
141
12.0
290
     0
  0
SCALE
  5
47
102
{ACAD_REACTORS
330
42
102
}
330
42
100
AcDbScale
 70
     0
300
1/16" = 1'-0"
140
0.0625
141
12.0
290
     0
  0
SCALE
  5
48
102
{ACAD_REACTORS
330
42
102
}
330
42
100
AcDbScale
 70
     0
300
3/32" = 1'-0"
140
0.09375
141
12.0
290
     0
  0
SCALE
  5
49
102
{ACAD_REACTORS
330
42
102
}
330
42
100
AcDbScale
 70
     0
300
1/8" = 1'-0"
140
0.125
141
12.0
290
     0
  0
SCALE
  5
4A
102
{ACAD_REACTORS
330
42
102
}
330
42
100
AcDbScale
 70
     0
300
3/16" = 1'-0"
140
0.1875
141
12.0
290
     0
  0
SCALE
  5
4B
102
{ACAD_REACTORS
330
42
102
}
330
42
100
AcDbScale
 70
     0
300
1/4" = 1'-0"
140
0.25
141
12.0
290
     0
  0
SCALE
  5
4C
102
{ACAD_REACTORS
330
42
102
}
330
42
100
AcDbScale
 70
     0
300
3/8" = 1'-0"
140
0.375
141
12.0
290
     0
  0
SCALE
  5
4D
102
{ACAD_REACTORS
330
42
102
}
330
42
100
AcDbScale
 70
     0
300
1/2" = 1'-0"
140
0.5
141
12.0
290
     0
  0
SCALE
  5
4E
102
{ACAD_REACTORS
330
42
102
}
330
42
100
AcDbScale
 70
     0
300
3/4" = 1'-0"
140
0.75
141
12.0
290
     0
  0
SCALE
  5
4F
102
{ACAD_REACTORS
330
42
102
}
330
42
100
AcDbScale
 70
     0
300
1" = 1'-0"
140
1.0
141
12.0
290
     0
  0
SCALE
  5
50
102
{ACAD_REACTORS
330
42
102
}
330
42
100
AcDbScale
 70
     0
300
1-1/2" = 1'-0"
140
1.5
141
12.0
290
     0
  0
SCALE
  5
51
102
{ACAD_REACTORS
330
42
102
}
330
42
100
AcDbScale
 70
     0
300
3" = 1'-0"
140
3.0
141
12.0
290
     0
  0
SCALE
  5
52
102
{ACAD_REACTORS
330
42
102
}
330
42
100
AcDbScale
 70
     0
300
6" = 1'-0"
140
6.0
141
12.0
290
     0
  0
SCALE
  5
53
102
{ACAD_REACTORS
330
42
102
}
330
42
100
AcDbScale
 70
     0
300
1'-0" = 1'-0"
140
12.0
141
12.0
290
     0
  0
ACDBSECTIONVIEWSTYLE
  5
69
102
{ACAD_XDICTIONARY
360
124
102
}
102
{ACAD_REACTORS
330
68
102
}
330
68
100
AcDbModelDocViewStyle
 70
     0
  3
Imperial24
290
     0
100
AcDbSectionViewStyle
 70
     0
 71
     0
 90
       78
 71
     1
340
55
 62
   256
 40
0.24
340
0
340
0
 62
   256
 40
0.24
300
I, O, Q, S, X, Z
 40
0.48
 90
        3
 40
0.18
 90
        1
 71
     2
340
5D
 90
       25
 62
   256
340
5D
 90
       50
 62
   256
 40
0.24
 40
0.0
 40
0.24
 71
     3
340
55
 62
   256
 40
0.24
 90
        1
 40
0.75
 90
        1
300
%<\AcVar ViewType \f "%tc1">% %<\AcVar ViewSectionStartId>%-%<\AcVar ViewSectionEndId>%\PSCALE %<\AcVar ViewScale \f "%sn">%
 71
     4
 62
   256
 62
   257
300
ANSI31
 40
1.0
 90
        0
290
     0
290
     0
 90
        6
 40
0.0
 40
1.570796326794896
 40
0.2617993877991494
 40
1.308996938995747
 40
-0.2617993877991494
 40
1.832595714594046
  0
TABLESTYLE
  5
65
102
{ACAD_XDICTIONARY
360
EF
102
}
102
{ACAD_REACTORS
330
64
102
}
330
64
100
AcDbTableStyle
280
     0
  3
Standard
 70
     0
 71
     0
 40
0.06
 41
0.06
280
     0
281
     0
  7
Standard
140
0.18
170
     2
 62
     0
 63
     7
283
     0
 90
      512
 91
        0
  1

274
    -2
284
     1
 64
     0
275
    -2
285
     1
 65
     0
276
    -2
286
     1
 66
     0
277
    -2
287
     1
 67
     0
278
    -2
288
     1
 68
     0
279
    -2
289
     1
 69
     0
  7
Standard
140
0.25
170
     5
 62
     0
 63
     7
283
     0
 90
      512
 91
        0
  1

274
    -2
284
     1
 64
     0
275
    -2
285
     1
 65
     0
276
    -2
286
     1
 66
     0
277
    -2
287
     1
 67
     0
278
    -2
288
     1
 68
     0
279
    -2
289
     1
 69
     0
  7
Standard
140
0.18
170
     5
 62
     0
 63
     7
283
     0
 90
      512
 91
        0
  1

274
    -2
284
     1
 64
     0
275
    -2
285
     1
 65
     0
276
    -2
286
     1
 66
     0
277
    -2
287
     1
 67
     0
278
    -2
288
     1
 68
     0
279
    -2
289
     1
 69
     0
  0
VISUALSTYLE
  5
2F
102
{ACAD_XDICTIONARY
360
FC
102
}
102
{ACAD_REACTORS
330
29
102
}
330
29
100
AcDbVisualStyle
  2
2dWireframe
 70
     4
177
     2
291
     0
 71
     0
176
     1
 72
     2
176
     1
 73
     0
176
     1
 90
        0
176
     1
 40
0.6
176
     1
 41
30.0
176
     1
 63
     7
421
 16777215
176
     1
 74
     1
176
     1
 91
        4
176
     1
 64
     7
176
     1
 65
   257
176
     1
 75
     1
176
     1
175
     1
176
     1
 42
1.0
176
     1
 92
        0
176
     1
 66
   257
176
     1
 43
1.0
176
     1
 76
     1
176
     1
 77
     6
176
     1
 78
     2
176
     1
 67
     7
176
     1
 79
     5
176
     1
170
     0
176
     1
171
     0
176
     1
290
     0
176
     1
 93
        1
176
     1
 44
0.0
176
     1
173
     0
176
     1
1001
ACAD
1000
AcDbSavedByObjectVersion
1070
     0
  0
VISUALSTYLE
  5
2E
102
{ACAD_XDICTIONARY
360
FA
102
}
102
{ACAD_REACTORS
330
29
102
}
330
29
100
AcDbVisualStyle
  2
Basic
 70
     7
177
     2
291
     1
 71
     1
176
     1
 72
     0
176
     1
 73
     1
176
     1
 90
        0
176
     1
 40
0.6
176
     1
 41
30.0
176
     1
 63
     7
421
 16777215
176
     1
 74
     0
176
     1
 91
        4
176
     1
 64
     7
176
     1
 65
   257
176
     1
 75
     1
176
     1
175
     1
176
     1
 42
1.0
176
     1
 92
        8
176
     1
 66
     7
176
     1
 43
1.0
176
     1
 76
     1
176
     1
 77
     6
176
     1
 78
     2
176
     1
 67
     7
176
     1
 79
     5
176
     1
170
     0
176
     1
171
     0
176
     1
290
     0
176
     1
 93
        1
176
     1
 44
0.0
176
     1
173
     0
176
     1
1001
ACAD
1000
AcDbSavedByObjectVersion
1070
     0
  0
VISUALSTYLE
  5
35
102
{ACAD_XDICTIONARY
360
108
102
}
102
{ACAD_REACTORS
330
29
102
}
330
29
100
AcDbVisualStyle
  2
Brighten
 70
    12
177
     2
291
     1
 71
     2
176
     1
 72
     2
176
     1
 73
     0
176
     1
 90
        0
176
     1
 40
0.6
176
     1
 41
30.0
176
     1
 63
     7
421
 16777215
176
     1
 74
     1
176
     1
 91
        4
176
     1
 64
     7
176
     1
 65
   257
176
     1
 75
     1
176
     1
175
     1
176
     1
 42
1.0
176
     1
 92
        8
176
     1
 66
     7
176
     1
 43
1.0
176
     1
 76
     1
176
     1
 77
     6
176
     1
 78
     2
176
     1
 67
     7
176
     1
 79
     5
176
     1
170
     0
176
     1
171
     0
176
     1
290
     0
176
     1
 93
        1
176
     1
 44
50.0
176
     1
173
     0
176
     1
1001
ACAD
1000
AcDbSavedByObjectVersion
1070
     0
  0
VISUALSTYLE
  5
39
102
{ACAD_XDICTIONARY
360
110
102
}
102
{ACAD_REACTORS
330
29
102
}
330
29
100
AcDbVisualStyle
  2
ColorChange
 70
    16
177
     2
291
     1
 71
     2
176
     1
 72
     2
176
     1
 73
     3
176
     1
 90
        0
176
     1
 40
0.6
176
     1
 41
30.0
176
     1
 63
     8
421
  8421504
176
     1
 74
     1
176
     1
 91
        4
176
     1
 64
     7
176
     1
 65
   257
176
     1
 75
     1
176
     1
175
     1
176
     1
 42
1.0
176
     1
 92
        8
176
     1
 66
     8
424
  8421504
176
     1
 43
1.0
176
     1
 76
     1
176
     1
 77
     6
176
     1
 78
     2
176
     1
 67
     7
176
     1
 79
     5
176
     1
170
     0
176
     1
171
     0
176
     1
290
     0
176
     1
 93
        1
176
     1
 44
0.0
176
     1
173
     0
176
     1
1001
ACAD
1000
AcDbSavedByObjectVersion
1070
     0
  0
VISUALSTYLE
  5
32
102
{ACAD_XDICTIONARY
360
102
102
}
102
{ACAD_REACTORS
330
29
102
}
330
29
100
AcDbVisualStyle
  2
Conceptual
 70
     9
177
     2
291
     0
 71
     3
176
     1
 72
     2
176
     1
 73
     0
176
     1
 90
        0
176
     1
 40
0.6
176
     1
 41
30.0
176
     1
 63
     7
421
 16777215
176
     1
 74
     2
176
     1
 91
        2
176
     1
 64
     7
176
     1
 65
   257
176
     1
 75
     1
176
     1
175
     1
176
     1
 42
179.0
176
     1
 92
        8
176
     1
 66
     7
176
     1
 43
1.0
176
     1
 76
     1
176
     1
 77
     6
176
     1
 78
     2
176
     1
 67
     7
176
     1
 79
     3
176
     1
170
     0
176
     1
171
     0
176
     1
290
     0
176
     1
 93
        1
176
     1
 44
0.0
176
     1
173
     0
176
     1
1001
ACAD
1000
AcDbSavedByObjectVersion
1070
     0
  0
VISUALSTYLE
  5
34
102
{ACAD_XDICTIONARY
360
106
102
}
102
{ACAD_REACTORS
330
29
102
}
330
29
100
AcDbVisualStyle
  2
Dim
 70
    11
177
     2
291
     1
 71
     2
176
     1
 72
     2
176
     1
 73
     0
176
     1
 90
        0
176
     1
 40
0.6
176
     1
 41
30.0
176
     1
 63
     7
421
 16777215
176
     1
 74
     1
176
     1
 91
        4
176
     1
 64
     7
176
     1
 65
   257
176
     1
 75
     1
176
     1
175
     1
176
     1
 42
1.0
176
     1
 92
        8
176
     1
 66
     7
176
     1
 43
1.0
176
     1
 76
     1
176
     1
 77
     6
176
     1
 78
     2
176
     1
 67
     7
176
     1
 79
     5
176
     1
170
     0
176
     1
171
     0
176
     1
290
     0
176
     1
 93
        1
176
     1
 44
-50.0
176
     1
173
     0
176
     1
1001
ACAD
1000
AcDbSavedByObjectVersion
1070
     0
  0
VISUALSTYLE
  5
41
102
{ACAD_XDICTIONARY
360
120
102
}
102
{ACAD_REACTORS
330
29
102
}
330
29
100
AcDbVisualStyle
  2
EdgeColorOff
 70
    22
177
     2
291
     1
 71
     2
176
     0
 72
     2
176
     0
 73
     0
176
     0
 90
        0
176
     0
 40
0.6
176
     0
 41
30.0
176
     0
 63
     7
421
 16777215
176
     0
 74
     1
176
     0
 91
        4
176
     0
 64
     7
176
     0
 65
   257
176
     0
 75
     1
176
     0
175
     1
176
     0
 42
1.0
176
     0
 92
        8
176
     2
 66
     7
176
     0
 43
1.0
176
     0
 76
     1
176
     0
 77
     6
176
     0
 78
     2
176
     0
 67
     7
176
     0
 79
     5
176
     0
170
     0
176
     0
171
     0
176
     0
290
     0
176
     0
 93
        1
176
     0
 44
0.0
176
     0
173
     0
176
     0
1001
ACAD
1000
AcDbSavedByObjectVersion
1070
     0
  0
VISUALSTYLE
  5
38
102
{ACAD_XDICTIONARY
360
10E
102
}
102
{ACAD_REACTORS
330
29
102
}
330
29
100
AcDbVisualStyle
  2
Facepattern
 70
    15
177
     2
291
     1
 71
     2
176
     1
 72
     2
176
     1
 73
     0
176
     1
 90
        0
176
     1
 40
0.6
176
     1
 41
30.0
176
     1
 63
     7
421
 16777215
176
     1
 74
     1
176
     1
 91
        4
176
     1
 64
     7
176
     1
 65
   257
176
     1
 75
     1
176
     1
175
     1
176
     1
 42
1.0
176
     1
 92
        8
176
     1
 66
     7
176
     1
 43
1.0
176
     1
 76
     1
176
     1
 77
     6
176
     1
 78
     2
176
     1
 67
     7
176
     1
 79
     5
176
     1
170
     0
176
     1
171
     0
176
     1
290
     0
176
     1
 93
        1
176
     1
 44
0.0
176
     1
173
     0
176
     1
1001
ACAD
1000
AcDbSavedByObjectVersion
1070
     0
  0
VISUALSTYLE
  5
2A
102
{ACAD_XDICTIONARY
360
F2
102
}
102
{ACAD_REACTORS
330
29
102
}
330
29
100
AcDbVisualStyle
  2
Flat
 70
     0
177
     2
291
     1
 71
     2
176
     1
 72
     1
176
     1
 73
     1
176
     1
 90
        2
176
     1
 40
0.6
176
     1
 41
30.0
176
     1
 63
     7
421
 16777215
176
     1
 74
     0
176
     1
 91
        0
176
     1
 64
     7
176
     1
 65
   257
176
     1
 75
     1
176
     1
175
     1
176
     1
 42
1.0
176
     1
 92
        8
176
     1
 66
     7
176
     1
 43
1.0
176
     1
 76
     1
176
     1
 77
     6
176
     1
 78
     2
176
     1
 67
     7
176
     1
 79
     5
176
     1
170
     0
176
     1
171
     0
176
     1
290
     0
176
     1
 93
       13
176
     1
 44
0.0
176
     1
173
     0
176
     1
1001
ACAD
1000
AcDbSavedByObjectVersion
1070
     0
  0
VISUALSTYLE
  5
2B
102
{ACAD_XDICTIONARY
360
F4
102
}
102
{ACAD_REACTORS
330
29
102
}
330
29
100
AcDbVisualStyle
  2
FlatWithEdges
 70
     1
177
     2
291
     1
 71
     2
176
     1
 72
     1
176
     1
 73
     1
176
     1
 90
        2
176
     1
 40
0.6
176
     1
 41
30.0
176
     1
 63
     7
421
 16777215
176
     1
 74
     1
176
     1
 91
        0
176
     1
 64
     7
176
     1
 65
   257
176
     1
 75
     1
176
     1
175
     1
176
     1
 42
1.0
176
     1
 92
        0
176
     1
 66
   257
176
     1
 43
1.0
176
     1
 76
     1
176
     1
 77
     6
176
     1
 78
     2
176
     1
 67
     7
176
     1
 79
     5
176
     1
170
     0
176
     1
171
     0
176
     1
290
     0
176
     1
 93
       13
176
     1
 44
0.0
176
     1
173
     0
176
     1
1001
ACAD
1000
AcDbSavedByObjectVersion
1070
     0
  0
VISUALSTYLE
  5
2C
102
{ACAD_XDICTIONARY
360
F6
102
}
102
{ACAD_REACTORS
330
29
102
}
330
29
100
AcDbVisualStyle
  2
Gouraud
 70
     2
177
     2
291
     1
 71
     2
176
     1
 72
     2
176
     1
 73
     1
176
     1
 90
        2
176
     1
 40
0.6
176
     1
 41
30.0
176
     1
 63
     7
421
 16777215
176
     1
 74
     0
176
     1
 91
        0
176
     1
 64
     7
176
     1
 65
   257
176
     1
 75
     1
176
     1
175
     1
176
     1
 42
1.0
176
     1
 92
        0
176
     1
 66
     7
176
     1
 43
1.0
176
     1
 76
     1
176
     1
 77
     6
176
     1
 78
     2
176
     1
 67
     7
176
     1
 79
     5
176
     1
170
     0
176
     1
171
     0
176
     1
290
     0
176
     1
 93
       13
176
     1
 44
0.0
176
     1
173
     0
176
     1
1001
ACAD
1000
AcDbSavedByObjectVersion
1070
     0
  0
VISUALSTYLE
  5
2D
102
{ACAD_XDICTIONARY
360
F8
102
}
102
{ACAD_REACTORS
330
29
102
}
330
29
100
AcDbVisualStyle
  2
GouraudWithEdges
 70
     3
177
     2
291
     1
 71
     2
176
     1
 72
     2
176
     1
 73
     1
176
     1
 90
        2
176
     1
 40
0.6
176
     1
 41
30.0
176
     1
 63
     7
421
 16777215
176
     1
 74
     1
176
     1
 91
        0
176
     1
 64
     7
176
     1
 65
   257
176
     1
 75
     1
176
     1
175
     1
176
     1
 42
1.0
176
     1
 92
        0
176
     1
 66
   257
176
     1
 43
1.0
176
     1
 76
     1
176
     1
 77
     6
176
     1
 78
     2
176
     1
 67
     7
176
     1
 79
     5
176
     1
170
     0
176
     1
171
     0
176
     1
290
     0
176
     1
 93
       13
176
     1
 44
0.0
176
     1
173
     0
176
     1
1001
ACAD
1000
AcDbSavedByObjectVersion
1070
     0
  0
VISUALSTYLE
  5
31
102
{ACAD_XDICTIONARY
360
100
102
}
102
{ACAD_REACTORS
330
29
102
}
330
29
100
AcDbVisualStyle
  2
Hidden
 70
     6
177
     2
291
     0
 71
     1
176
     1
 72
     2
176
     1
 73
     2
176
     1
 90
        0
176
     1
 40
0.6
176
     1
 41
30.0
176
     1
 63
     7
421
 16777215
176
     1
 74
     2
176
     1
 91
        2
176
     1
 64
     7
176
     1
 65
   257
176
     1
 75
     2
176
     1
175
     1
176
     1
 42
40.0
176
     1
 92
        0
176
     1
 66
   257
176
     1
 43
1.0
176
     1
 76
     1
176
     1
 77
     6
176
     1
 78
     2
176
     1
 67
     7
176
     1
 79
     3
176
     1
170
     0
176
     1
171
     0
176
     1
290
     0
176
     1
 93
        1
176
     1
 44
0.0
176
     1
173
     0
176
     1
1001
ACAD
1000
AcDbSavedByObjectVersion
1070
     0
  0
VISUALSTYLE
  5
3F
102
{ACAD_XDICTIONARY
360
11C
102
}
102
{ACAD_REACTORS
330
29
102
}
330
29
100
AcDbVisualStyle
  2
JitterOff
 70
    20
177
     2
291
     1
 71
     2
176
     0
 72
     2
176
     0
 73
     0
176
     0
 90
        0
176
     0
 40
0.6
176
     0
 41
30.0
176
     0
 63
     7
421
 16777215
176
     0
 74
     1
176
     0
 91
        4
176
     0
 64
     7
176
     0
 65
   257
176
     0
 75
     1
176
     0
175
     1
176
     0
 42
1.0
176
     0
 92
       10
176
     2
 66
     7
176
     0
 43
1.0
176
     0
 76
     1
176
     0
 77
     6
176
     0
 78
     2
176
     0
 67
     7
176
     0
 79
     5
176
     0
170
     0
176
     0
171
     0
176
     0
290
     0
176
     0
 93
        1
176
     0
 44
0.0
176
     0
173
     0
176
     0
1001
ACAD
1000
AcDbSavedByObjectVersion
1070
     0
  0
VISUALSTYLE
  5
37
102
{ACAD_XDICTIONARY
360
10C
102
}
102
{ACAD_REACTORS
330
29
102
}
330
29
100
AcDbVisualStyle
  2
Linepattern
 70
    14
177
     2
291
     1
 71
     2
176
     1
 72
     2
176
     1
 73
     0
176
     1
 90
        0
176
     1
 40
0.6
176
     1
 41
30.0
176
     1
 63
     7
421
 16777215
176
     1
 74
     1
176
     1
 91
        4
176
     1
 64
     7
176
     1
 65
   257
176
     1
 75
     7
176
     1
175
     7
176
     1
 42
1.0
176
     1
 92
        8
176
     1
 66
     7
176
     1
 43
1.0
176
     1
 76
     1
176
     1
 77
     6
176
     1
 78
     2
176
     1
 67
     7
176
     1
 79
     5
176
     1
170
     0
176
     1
171
     0
176
     1
290
     0
176
     1
 93
        1
176
     1
 44
0.0
176
     1
173
     0
176
     1
1001
ACAD
1000
AcDbSavedByObjectVersion
1070
     0
  0
VISUALSTYLE
  5
40
102
{ACAD_XDICTIONARY
360
11E
102
}
102
{ACAD_REACTORS
330
29
102
}
330
29
100
AcDbVisualStyle
  2
OverhangOff
 70
    21
177
     2
291
     1
 71
     2
176
     0
 72
     2
176
     0
 73
     0
176
     0
 90
        0
176
     0
 40
0.6
176
     0
 41
30.0
176
     0
 63
     7
421
 16777215
176
     0
 74
     1
176
     0
 91
        4
176
     0
 64
     7
176
     0
 65
   257
176
     0
 75
     1
176
     0
175
     1
176
     0
 42
1.0
176
     0
 92
        9
176
     2
 66
     7
176
     0
 43
1.0
176
     0
 76
     1
176
     0
 77
     6
176
     0
 78
     2
176
     0
 67
     7
176
     0
 79
     5
176
     0
170
     0
176
     0
171
     0
176
     0
290
     0
176
     0
 93
        1
176
     0
 44
0.0
176
     0
173
     0
176
     0
1001
ACAD
1000
AcDbSavedByObjectVersion
1070
     0
  0
VISUALSTYLE
  5
33
102
{ACAD_XDICTIONARY
360
104
102
}
102
{ACAD_REACTORS
330
29
102
}
330
29
100
AcDbVisualStyle
  2
Realistic
 70
     8
177
     2
291
     0
 71
     2
176
     1
 72
     3
176
     1
 73
     0
176
     1
 90
        2
176
     1
 40
0.6
176
     1
 41
30.0
176
     1
 63
     7
421
 16777215
176
     1
 74
     0
176
     1
 91
        0
176
     1
 64
     7
176
     1
 65
   257
176
     1
 75
     1
176
     1
175
     1
176
     1
 42
1.0
176
     1
 92
        8
176
     1
 66
   257
176
     1
 43
1.0
176
     1
 76
     1
176
     1
 77
     6
176
     1
 78
     2
176
     1
 67
     7
176
     1
 79
     3
176
     1
170
     0
176
     1
171
     0
176
     1
290
     0
176
     1
 93
       13
176
     1
 44
0.0
176
     1
173
     0
176
     1
1001
ACAD
1000
AcDbSavedByObjectVersion
1070
     0
  0
VISUALSTYLE
  5
3E
102
{ACAD_XDICTIONARY
360
11A
102
}
102
{ACAD_REACTORS
330
29
102
}
330
29
100
AcDbVisualStyle
  2
Shaded
 70
    27
177
     2
291
     0
 71
     2
176
     1
 72
     2
176
     1
 73
     1
176
     1
 90
        2
176
     1
 40
0.6
176
     1
 41
30.0
176
     1
 63
     7
421
 16777215
176
     1
 74
     0
176
     1
 91
        4
176
     1
 64
     7
176
     1
 65
   257
176
     1
 75
     1
176
     1
175
     1
176
     1
 42
1.0
176
     1
 92
        8
176
     1
 66
   257
176
     1
 43
1.0
176
     1
 76
     1
176
     1
 77
     6
176
     1
 78
     2
176
     1
 67
     8
425
  7895160
176
     1
 79
     3
176
     1
170
     0
176
     1
171
     0
176
     1
290
     0
176
     1
 93
        5
176
     1
 44
0.0
176
     1
173
     0
176
     1
1001
ACAD
1000
AcDbSavedByObjectVersion
1070
     0
  0
VISUALSTYLE
  5
3D
102
{ACAD_XDICTIONARY
360
118
102
}
102
{ACAD_REACTORS
330
29
102
}
330
29
100
AcDbVisualStyle
  2
Shaded with edges
 70
    26
177
     2
291
     0
 71
     2
176
     1
 72
     2
176
     1
 73
     1
176
     1
 90
        2
176
     1
 40
0.6
176
     1
 41
30.0
176
     1
 63
     7
421
 16777215
176
     1
 74
     1
176
     1
 91
        2
176
     1
 64
     7
176
     1
 65
   257
176
     1
 75
     2
176
     1
175
     1
176
     1
 42
1.0
176
     1
 92
        8
176
     1
 66
   257
176
     1
 43
1.0
176
     1
 76
     1
176
     1
 77
     6
176
     1
 78
     2
176
     1
 67
     7
176
     1
 79
     3
176
     1
170
     0
176
     1
171
     0
176
     1
290
     0
176
     1
 93
        5
176
     1
 44
0.0
176
     1
173
     0
176
     1
1001
ACAD
1000
AcDbSavedByObjectVersion
1070
     0
  0
VISUALSTYLE
  5
3A
102
{ACAD_XDICTIONARY
360
112
102
}
102
{ACAD_REACTORS
330
29
102
}
330
29
100
AcDbVisualStyle
  2
Shades of Gray
 70
    23
177
     2
291
     0
 71
     2
176
     1
 72
     2
176
     1
 73
     3
176
     1
 90
        0
176
     1
 40
0.6
176
     1
 41
30.0
176
     1
 63
     7
421
 16777215
176
     1
 74
     2
176
     1
 91
        2
176
     1
 64
     7
176
     1
 65
     7
176
     1
 75
     1
176
     1
175
     1
176
     1
 42
40.0
176
     1
 92
        8
176
     1
 66
     7
176
     1
 43
1.0
176
     1
 76
     1
176
     1
 77
     6
176
     1
 78
     2
176
     1
 67
     7
176
     1
 79
     3
176
     1
170
     0
176
     1
171
     0
176
     1
290
     0
176
     1
 93
        1
176
     1
 44
0.0
176
     1
173
     0
176
     1
1001
ACAD
1000
AcDbSavedByObjectVersion
1070
     0
  0
VISUALSTYLE
  5
3B
102
{ACAD_XDICTIONARY
360
114
102
}
102
{ACAD_REACTORS
330
29
102
}
330
29
100
AcDbVisualStyle
  2
Sketchy
 70
    24
177
     2
291
     0
 71
     1
176
     1
 72
     2
176
     1
 73
     2
176
     1
 90
        0
176
     1
 40
0.6
176
     1
 41
30.0
176
     1
 63
     7
421
 16777215
176
     1
 74
     2
176
     1
 91
        2
176
     1
 64
     7
176
     1
 65
     7
176
     1
 75
     1
176
     1
175
     1
176
     1
 42
40.0
176
     1
 92
       11
176
     1
 66
     7
176
     1
 43
1.0
176
     1
 76
     1
176
     1
 77
     6
176
     1
 78
     2
176
     1
 67
     7
176
     1
 79
     6
176
     1
170
     0
176
     1
171
     0
176
     1
290
     0
176
     1
 93
        1
176
     1
 44
0.0
176
     1
173
     0
176
     1
1001
ACAD
1000
AcDbSavedByObjectVersion
1070
     0
  0
VISUALSTYLE
  5
36
102
{ACAD_XDICTIONARY
360
10A
102
}
102
{ACAD_REACTORS
330
29
102
}
330
29
100
AcDbVisualStyle
  2
Thicken
 70
    13
177
     2
291
     1
 71
     2
176
     1
 72
     2
176
     1
 73
     0
176
     1
 90
        0
176
     1
 40
0.6
176
     1
 41
30.0
176
     1
 63
     7
421
 16777215
176
     1
 74
     1
176
     1
 91
        4
176
     1
 64
     7
176
     1
 65
   257
176
     1
 75
     1
176
     1
175
     1
176
     1
 42
1.0
176
     1
 92
       12
176
     1
 66
     7
176
     1
 43
1.0
176
     1
 76
     1
176
     1
 77
     6
176
     1
 78
     2
176
     1
 67
     7
176
     1
 79
     5
176
     1
170
     0
176
     1
171
     0
176
     1
290
     0
176
     1
 93
        1
176
     1
 44
0.0
176
     1
173
     0
176
     1
1001
ACAD
1000
AcDbSavedByObjectVersion
1070
     0
  0
VISUALSTYLE
  5
30
102
{ACAD_XDICTIONARY
360
FE
102
}
102
{ACAD_REACTORS
330
29
102
}
330
29
100
AcDbVisualStyle
  2
Wireframe
 70
     5
177
     2
291
     0
 71
     0
176
     1
 72
     2
176
     1
 73
     0
176
     1
 90
        0
176
     1
 40
0.6
176
     1
 41
30.0
176
     1
 63
     7
421
 16777215
176
     1
 74
     1
176
     1
 91
        4
176
     1
 64
     7
176
     1
 65
   257
176
     1
 75
     1
176
     1
175
     1
176
     1
 42
1.0
176
     1
 92
        0
176
     1
 66
   257
176
     1
 43
1.0
176
     1
 76
     1
176
     1
 77
     6
176
     1
 78
     2
176
     1
 67
     7
176
     1
 79
     3
176
     1
170
     0
176
     1
171
     0
176
     1
290
     0
176
     1
 93
        1
176
     1
 44
0.0
176
     1
173
     0
176
     1
1001
ACAD
1000
AcDbSavedByObjectVersion
1070
     0
  0
VISUALSTYLE
  5
3C
102
{ACAD_XDICTIONARY
360
116
102
}
102
{ACAD_REACTORS
330
29
102
}
330
29
100
AcDbVisualStyle
  2
X-Ray
 70
    25
177
     2
291
     0
 71
     2
176
     1
 72
     2
176
     1
 73
     1
176
     1
 90
        1
176
     1
 40
0.5
176
     1
 41
30.0
176
     1
 63
     7
421
 16777215
176
     1
 74
     1
176
     1
 91
        0
176
     1
 64
     7
176
     1
 65
   257
176
     1
 75
     1
176
     1
175
     1
176
     1
 42
1.0
176
     1
 92
        8
176
     1
 66
     7
176
     1
 43
1.0
176
     1
 76
     1
176
     1
 77
     6
176
     1
 78
     2
176
     1
 67
     7
176
     1
 79
     3
176
     1
170
     0
176
     1
171
     0
176
     1
290
     0
176
     1
 93
       13
176
     1
 44
0.0
176
     1
173
     0
176
     1
1001
ACAD
1000
AcDbSavedByObjectVersion
1070
     0
  0
DICTIONARYVAR
  5
EE
102
{ACAD_REACTORS
330
E9
102
}
330
E9
100
DictionaryVariables
280
     0
  1
1:1
  0
DICTIONARYVAR
  5
EB
102
{ACAD_REACTORS
330
E9
102
}
330
E9
100
DictionaryVariables
280
     0
  1
STANDARD
  0
DICTIONARYVAR
  5
EA
102
{ACAD_REACTORS
330
E9
102
}
330
E9
100
DictionaryVariables
280
     0
  1
STANDARD
  0
DICTIONARYVAR
  5
EC
102
{ACAD_REACTORS
330
E9
102
}
330
E9
100
DictionaryVariables
280
     0
  1
Imperial24
  0
DICTIONARYVAR
  5
ED
102
{ACAD_REACTORS
330
E9
102
}
330
E9
100
DictionaryVariables
280
     0
  1
Imperial24
  0
DICTIONARY
  5
126
330
6B
100
AcDbDictionary
280
     1
281
     1
  3
ACAD_XREC_ROUNDTRIP
360
127
  0
DICTIONARY
  5
1A
330
19
100
AcDbDictionary
280
     1
281
     1
  3
BUMPTILE
360
1C
  3
DIFFUSETILE
360
1B
  3
OPACITYTILE
360
1F
  3
REFLECTIONTILE
360
1E
  3
REFRACTIONTILE
360
20
  3
SPECULARTILE
360
1D
  0
DICTIONARY
  5
12
330
11
100
AcDbDictionary
280
     1
281
     1
  3
BUMPTILE
360
14
  3
DIFFUSETILE
360
13
  3
OPACITYTILE
360
17
  3
REFLECTIONTILE
360
16
  3
REFRACTIONTILE
360
18
  3
SPECULARTILE
360
15
  0
DICTIONARY
  5
22
330
21
100
AcDbDictionary
280
     1
281
     1
  3
BUMPTILE
360
24
  3
DIFFUSETILE
360
23
  3
OPACITYTILE
360
27
  3
REFLECTIONTILE
360
26
  3
REFRACTIONTILE
360
28
  3
SPECULARTILE
360
25
  0
DICTIONARY
  5
122
330
67
100
AcDbDictionary
280
     1
281
     1
  3
ACAD_XREC_ROUNDTRIP
360
123
  0
DICTIONARY
  5
124
330
69
100
AcDbDictionary
280
     1
281
     1
  3
ACAD_XREC_ROUNDTRIP
360
125
  0
DICTIONARY
  5
EF
330
65
100
AcDbDictionary
280
     1
281
     1
  3
ACAD_ROUNDTRIP_2008_TABLESTYLE_CELLSTYLEMAP
360
F0
  0
DICTIONARY
  5
FC
330
2F
100
AcDbDictionary
280
     1
281
     1
  3
ACAD_XREC_ROUNDTRIP
360
FD
  0
DICTIONARY
  5
FA
330
2E
100
AcDbDictionary
280
     1
281
     1
  3
ACAD_XREC_ROUNDTRIP
360
FB
  0
DICTIONARY
  5
108
330
35
100
AcDbDictionary
280
     1
281
     1
  3
ACAD_XREC_ROUNDTRIP
360
109
  0
DICTIONARY
  5
110
330
39
100
AcDbDictionary
280
     1
281
     1
  3
ACAD_XREC_ROUNDTRIP
360
111
  0
DICTIONARY
  5
102
330
32
100
AcDbDictionary
280
     1
281
     1
  3
ACAD_XREC_ROUNDTRIP
360
103
  0
DICTIONARY
  5
106
330
34
100
AcDbDictionary
280
     1
281
     1
  3
ACAD_XREC_ROUNDTRIP
360
107
  0
DICTIONARY
  5
120
330
41
100
AcDbDictionary
280
     1
281
     1
  3
ACAD_XREC_ROUNDTRIP
360
121
  0
DICTIONARY
  5
10E
330
38
100
AcDbDictionary
280
     1
281
     1
  3
ACAD_XREC_ROUNDTRIP
360
10F
  0
DICTIONARY
  5
F2
330
2A
100
AcDbDictionary
280
     1
281
     1
  3
ACAD_XREC_ROUNDTRIP
360
F3
  0
DICTIONARY
  5
F4
330
2B
100
AcDbDictionary
280
     1
281
     1
  3
ACAD_XREC_ROUNDTRIP
360
F5
  0
DICTIONARY
  5
F6
330
2C
100
AcDbDictionary
280
     1
281
     1
  3
ACAD_XREC_ROUNDTRIP
360
F7
  0
DICTIONARY
  5
F8
330
2D
100
AcDbDictionary
280
     1
281
     1
  3
ACAD_XREC_ROUNDTRIP
360
F9
  0
DICTIONARY
  5
100
330
31
100
AcDbDictionary
280
     1
281
     1
  3
ACAD_XREC_ROUNDTRIP
360
101
  0
DICTIONARY
  5
11C
330
3F
100
AcDbDictionary
280
     1
281
     1
  3
ACAD_XREC_ROUNDTRIP
360
11D
  0
DICTIONARY
  5
10C
330
37
100
AcDbDictionary
280
     1
281
     1
  3
ACAD_XREC_ROUNDTRIP
360
10D
  0
DICTIONARY
  5
11E
330
40
100
AcDbDictionary
280
     1
281
     1
  3
ACAD_XREC_ROUNDTRIP
360
11F
  0
DICTIONARY
  5
104
330
33
100
AcDbDictionary
280
     1
281
     1
  3
ACAD_XREC_ROUNDTRIP
360
105
  0
DICTIONARY
  5
11A
330
3E
100
AcDbDictionary
280
     1
281
     1
  3
ACAD_XREC_ROUNDTRIP
360
11B
  0
DICTIONARY
  5
118
330
3D
100
AcDbDictionary
280
     1
281
     1
  3
ACAD_XREC_ROUNDTRIP
360
119
  0
DICTIONARY
  5
112
330
3A
100
AcDbDictionary
280
     1
281
     1
  3
ACAD_XREC_ROUNDTRIP
360
113
  0
DICTIONARY
  5
114
330
3B
100
AcDbDictionary
280
     1
281
     1
  3
ACAD_XREC_ROUNDTRIP
360
115
  0
DICTIONARY
  5
10A
330
36
100
AcDbDictionary
280
     1
281
     1
  3
ACAD_XREC_ROUNDTRIP
360
10B
  0
DICTIONARY
  5
FE
330
30
100
AcDbDictionary
280
     1
281
     1
  3
ACAD_XREC_ROUNDTRIP
360
FF
  0
DICTIONARY
  5
116
330
3C
100
AcDbDictionary
280
     1
281
     1
  3
ACAD_XREC_ROUNDTRIP
360
117
  0
XRECORD
  5
127
102
{ACAD_REACTORS
330
126
102
}
330
126
100
AcDbXrecord
280
     1
102
DISPLAYNAME
  1
Imperial24
102
FLAGS
 90
        0
  0
XRECORD
  5
1C
102
{ACAD_REACTORS
330
1A
102
}
330
1A
100
AcDbXrecord
280
     1
270
     1
271
     1
  0
XRECORD
  5
1B
102
{ACAD_REACTORS
330
1A
102
}
330
1A
100
AcDbXrecord
280
     1
270
     1
271
     1
  0
XRECORD
  5
1F
102
{ACAD_REACTORS
330
1A
102
}
330
1A
100
AcDbXrecord
280
     1
270
     1
271
     1
  0
XRECORD
  5
1E
102
{ACAD_REACTORS
330
1A
102
}
330
1A
100
AcDbXrecord
280
     1
270
     1
271
     1
  0
XRECORD
  5
20
102
{ACAD_REACTORS
330
1A
102
}
330
1A
100
AcDbXrecord
280
     1
270
     1
271
     1
  0
XRECORD
  5
1D
102
{ACAD_REACTORS
330
1A
102
}
330
1A
100
AcDbXrecord
280
     1
270
     1
271
     1
  0
XRECORD
  5
14
102
{ACAD_REACTORS
330
12
102
}
330
12
100
AcDbXrecord
280
     1
270
     1
271
     1
  0
XRECORD
  5
13
102
{ACAD_REACTORS
330
12
102
}
330
12
100
AcDbXrecord
280
     1
270
     1
271
     1
  0
XRECORD
  5
17
102
{ACAD_REACTORS
330
12
102
}
330
12
100
AcDbXrecord
280
     1
270
     1
271
     1
  0
XRECORD
  5
16
102
{ACAD_REACTORS
330
12
102
}
330
12
100
AcDbXrecord
280
     1
270
     1
271
     1
  0
XRECORD
  5
18
102
{ACAD_REACTORS
330
12
102
}
330
12
100
AcDbXrecord
280
     1
270
     1
271
     1
  0
XRECORD
  5
15
102
{ACAD_REACTORS
330
12
102
}
330
12
100
AcDbXrecord
280
     1
270
     1
271
     1
  0
XRECORD
  5
24
102
{ACAD_REACTORS
330
22
102
}
330
22
100
AcDbXrecord
280
     1
270
     1
271
     1
  0
XRECORD
  5
23
102
{ACAD_REACTORS
330
22
102
}
330
22
100
AcDbXrecord
280
     1
270
     1
271
     1
  0
XRECORD
  5
27
102
{ACAD_REACTORS
330
22
102
}
330
22
100
AcDbXrecord
280
     1
270
     1
271
     1
  0
XRECORD
  5
26
102
{ACAD_REACTORS
330
22
102
}
330
22
100
AcDbXrecord
280
     1
270
     1
271
     1
  0
XRECORD
  5
28
102
{ACAD_REACTORS
330
22
102
}
330
22
100
AcDbXrecord
280
     1
270
     1
271
     1
  0
XRECORD
  5
25
102
{ACAD_REACTORS
330
22
102
}
330
22
100
AcDbXrecord
280
     1
270
     1
271
     1
  0
XRECORD
  5
123
102
{ACAD_REACTORS
330
122
102
}
330
122
100
AcDbXrecord
280
     1
102
ACAD_ROUNDTRIP_2012_MLEADER_STYLE
298
     1
  0
XRECORD
  5
125
102
{ACAD_REACTORS
330
124
102
}
330
124
100
AcDbXrecord
280
     1
102
DISPLAYNAME
  1
Imperial24
102
FLAGS
 90
        0
  0
CELLSTYLEMAP
  5
F0
102
{ACAD_REACTORS
330
EF
102
}
330
EF
100
AcDbCellStyleMap
 90
        3
300
CELLSTYLE
  1
TABLEFORMAT_BEGIN
 90
        5
170
     1
 91
        0
 92
    32768
 62
   257
 93
        1
300
CONTENTFORMAT
  1
CONTENTFORMAT_BEGIN
 90
        0
 91
        0
 92
      512
 93
        0
300

 40
0.0
140
1.0
 94
        5
 62
     0
340
55
144
0.25
309
CONTENTFORMAT_END
171
     0
 94
        0
309
TABLEFORMAT_END
  1
CELLSTYLE_BEGIN
 90
        1
 91
        1
300
_TITLE
309
CELLSTYLE_END
300
CELLSTYLE
  1
TABLEFORMAT_BEGIN
 90
        5
170
     1
 91
        0
 92
        0
 62
   257
 93
        1
300
CONTENTFORMAT
  1
CONTENTFORMAT_BEGIN
 90
        0
 91
        0
 92
      512
 93
        0
300

 40
0.0
140
1.0
 94
        5
 62
     0
340
55
144
0.18
309
CONTENTFORMAT_END
171
     0
 94
        0
309
TABLEFORMAT_END
  1
CELLSTYLE_BEGIN
 90
        2
 91
        1
300
_HEADER
309
CELLSTYLE_END
300
CELLSTYLE
  1
TABLEFORMAT_BEGIN
 90
        5
170
     1
 91
        0
 92
        0
 62
   257
 93
        1
300
CONTENTFORMAT
  1
CONTENTFORMAT_BEGIN
 90
        0
 91
        0
 92
      512
 93
        0
300

 40
0.0
140
1.0
 94
        2
 62
     0
340
55
144
0.18
309
CONTENTFORMAT_END
171
     0
 94
        0
309
TABLEFORMAT_END
  1
CELLSTYLE_BEGIN
 90
        3
 91
        2
300
_DATA
309
CELLSTYLE_END
  0
XRECORD
  5
FD
102
{ACAD_REACTORS
330
FC
102
}
330
FC
100
AcDbXrecord
280
     1
102
RTVSPost2010Prop28
280
     1
102
RTVSPost2010PropOp28
 70
     1
102
RTVSPost2010Prop29
280
     1
102
RTVSPost2010PropOp29
 70
     1
102
RTVSPost2010Prop30
280
     0
102
RTVSPost2010PropOp30
 70
     1
102
RTVSPost2010Prop31
280
     0
102
RTVSPost2010PropOp31
 70
     1
102
RTVSPost2010Prop32
280
     0
102
RTVSPost2010PropOp32
 70
     1
102
RTVSPost2010Prop33
280
     0
102
RTVSPost2010PropOp33
 70
     1
102
RTVSPost2010Prop34
280
     0
102
RTVSPost2010PropOp34
 70
     1
102
RTVSPost2010Prop35
280
     0
102
RTVSPost2010PropOp35
 70
     1
102
RTVSPost2010Prop36
280
     0
102
RTVSPost2010PropOp36
 70
     1
102
RTVSPost2010Prop37
 90
       50
102
RTVSPost2010PropOp37
 70
     1
102
RTVSPost2010Prop38
140
0.0
102
RTVSPost2010PropOp38
 70
     1
102
RTVSPost2010Prop39
140
1.0
102
RTVSPost2010PropOp39
 70
     1
102
RTVSPost2010Prop40
 90
        0
102
RTVSPost2010PropOp40
 70
     1
102
RTVSPost2010Prop41ColorIndex
 90
       18
102
RTVSPost2010Prop41ColorRGB
 90
        0
102
RTVSPost2010PropOp41
 70
     1
102
RTVSPost2010Prop42
 90
       50
102
RTVSPost2010PropOp42
 70
     1
102
RTVSPost2010Prop43
 90
        3
102
RTVSPost2010PropOp43
 70
     1
102
RTVSPost2010Prop44ColorIndex
 90
        5
102
RTVSPost2010Prop44ColorRGB
 90
      255
102
RTVSPost2010PropOp44
 70
     1
102
RTVSPost2010Prop45
280
     0
102
RTVSPost2010PropOp45
 70
     1
102
RTVSPost2010Prop46
 90
       50
102
RTVSPost2010PropOp46
 70
     1
102
RTVSPost2010Prop47
 90
       50
102
RTVSPost2010PropOp47
 70
     1
102
RTVSPost2010Prop48
 90
       50
102
RTVSPost2010PropOp48
 70
     1
102
RTVSPost2010Prop49
280
     0
102
RTVSPost2010PropOp49
 70
     1
102
RTVSPost2010Prop50
 90
       50
102
RTVSPost2010PropOp50
 70
     1
102
RTVSPost2010Prop51ColorIndex
 90
      256
102
RTVSPost2010Prop51ColorRGB
 90
-16777216
102
RTVSPost2010PropOp51
 70
     0
102
RTVSPost2010Prop52
140
1.0
102
RTVSPost2010PropOp52
 70
     0
102
RTVSPost2010Prop53
 90
        2
102
RTVSPost2010PropOp53
 70
     1
102
RTVSPost2010Prop54
  1
strokes_ogs.tif
102
RTVSPost2010PropOp54
 70
     1
102
RTVSPost2010Prop55
280
     0
102
RTVSPost2010PropOp55
 70
     1
102
RTVSPost2010Prop56
140
1.0
102
RTVSPost2010PropOp56
 70
     1
102
RTVSPost2010Prop57
140
1.0
102
RTVSPost2010PropOp57
 70
     1
  0
XRECORD
  5
FB
102
{ACAD_REACTORS
330
FA
102
}
330
FA
100
AcDbXrecord
280
     1
102
RTVSPost2010Prop28
280
     0
102
RTVSPost2010PropOp28
 70
     1
102
RTVSPost2010Prop29
280
     1
102
RTVSPost2010PropOp29
 70
     1
102
RTVSPost2010Prop30
280
     1
102
RTVSPost2010PropOp30
 70
     1
102
RTVSPost2010Prop31
280
     0
102
RTVSPost2010PropOp31
 70
     1
102
RTVSPost2010Prop32
280
     0
102
RTVSPost2010PropOp32
 70
     1
102
RTVSPost2010Prop33
280
     0
102
RTVSPost2010PropOp33
 70
     1
102
RTVSPost2010Prop34
280
     0
102
RTVSPost2010PropOp34
 70
     1
102
RTVSPost2010Prop35
280
     0
102
RTVSPost2010PropOp35
 70
     1
102
RTVSPost2010Prop36
280
     0
102
RTVSPost2010PropOp36
 70
     1
102
RTVSPost2010Prop37
 90
       50
102
RTVSPost2010PropOp37
 70
     1
102
RTVSPost2010Prop38
140
0.0
102
RTVSPost2010PropOp38
 70
     1
102
RTVSPost2010Prop39
140
1.0
102
RTVSPost2010PropOp39
 70
     1
102
RTVSPost2010Prop40
 90
        0
102
RTVSPost2010PropOp40
 70
     1
102
RTVSPost2010Prop41ColorIndex
 90
       18
102
RTVSPost2010Prop41ColorRGB
 90
        0
102
RTVSPost2010PropOp41
 70
     1
102
RTVSPost2010Prop42
 90
       50
102
RTVSPost2010PropOp42
 70
     1
102
RTVSPost2010Prop43
 90
        3
102
RTVSPost2010PropOp43
 70
     1
102
RTVSPost2010Prop44ColorIndex
 90
        5
102
RTVSPost2010Prop44ColorRGB
 90
      255
102
RTVSPost2010PropOp44
 70
     1
102
RTVSPost2010Prop45
280
     0
102
RTVSPost2010PropOp45
 70
     1
102
RTVSPost2010Prop46
 90
       50
102
RTVSPost2010PropOp46
 70
     1
102
RTVSPost2010Prop47
 90
       50
102
RTVSPost2010PropOp47
 70
     1
102
RTVSPost2010Prop48
 90
       50
102
RTVSPost2010PropOp48
 70
     1
102
RTVSPost2010Prop49
280
     0
102
RTVSPost2010PropOp49
 70
     1
102
RTVSPost2010Prop50
 90
       50
102
RTVSPost2010PropOp50
 70
     1
102
RTVSPost2010Prop51ColorIndex
 90
      256
102
RTVSPost2010Prop51ColorRGB
 90
-16777216
102
RTVSPost2010PropOp51
 70
     0
102
RTVSPost2010Prop52
140
1.0
102
RTVSPost2010PropOp52
 70
     0
102
RTVSPost2010Prop53
 90
        2
102
RTVSPost2010PropOp53
 70
     1
102
RTVSPost2010Prop54
  1
strokes_ogs.tif
102
RTVSPost2010PropOp54
 70
     1
102
RTVSPost2010Prop55
280
     0
102
RTVSPost2010PropOp55
 70
     1
102
RTVSPost2010Prop56
140
1.0
102
RTVSPost2010PropOp56
 70
     1
102
RTVSPost2010Prop57
140
1.0
102
RTVSPost2010PropOp57
 70
     1
  0
XRECORD
  5
109
102
{ACAD_REACTORS
330
108
102
}
330
108
100
AcDbXrecord
280
     1
102
RTVSPost2010Prop28
280
     0
102
RTVSPost2010PropOp28
 70
     1
102
RTVSPost2010Prop29
280
     1
102
RTVSPost2010PropOp29
 70
     1
102
RTVSPost2010Prop30
280
     1
102
RTVSPost2010PropOp30
 70
     1
102
RTVSPost2010Prop31
280
     0
102
RTVSPost2010PropOp31
 70
     1
102
RTVSPost2010Prop32
280
     0
102
RTVSPost2010PropOp32
 70
     1
102
RTVSPost2010Prop33
280
     0
102
RTVSPost2010PropOp33
 70
     1
102
RTVSPost2010Prop34
280
     0
102
RTVSPost2010PropOp34
 70
     1
102
RTVSPost2010Prop35
280
     0
102
RTVSPost2010PropOp35
 70
     1
102
RTVSPost2010Prop36
280
     0
102
RTVSPost2010PropOp36
 70
     1
102
RTVSPost2010Prop37
 90
       50
102
RTVSPost2010PropOp37
 70
     1
102
RTVSPost2010Prop38
140
0.0
102
RTVSPost2010PropOp38
 70
     1
102
RTVSPost2010Prop39
140
1.0
102
RTVSPost2010PropOp39
 70
     1
102
RTVSPost2010Prop40
 90
        0
102
RTVSPost2010PropOp40
 70
     1
102
RTVSPost2010Prop41ColorIndex
 90
       18
102
RTVSPost2010Prop41ColorRGB
 90
        0
102
RTVSPost2010PropOp41
 70
     1
102
RTVSPost2010Prop42
 90
       50
102
RTVSPost2010PropOp42
 70
     1
102
RTVSPost2010Prop43
 90
        3
102
RTVSPost2010PropOp43
 70
     1
102
RTVSPost2010Prop44ColorIndex
 90
        5
102
RTVSPost2010Prop44ColorRGB
 90
      255
102
RTVSPost2010PropOp44
 70
     1
102
RTVSPost2010Prop45
280
     0
102
RTVSPost2010PropOp45
 70
     1
102
RTVSPost2010Prop46
 90
       50
102
RTVSPost2010PropOp46
 70
     1
102
RTVSPost2010Prop47
 90
       50
102
RTVSPost2010PropOp47
 70
     1
102
RTVSPost2010Prop48
 90
       50
102
RTVSPost2010PropOp48
 70
     1
102
RTVSPost2010Prop49
280
     0
102
RTVSPost2010PropOp49
 70
     1
102
RTVSPost2010Prop50
 90
       50
102
RTVSPost2010PropOp50
 70
     1
102
RTVSPost2010Prop51ColorIndex
 90
      256
102
RTVSPost2010Prop51ColorRGB
 90
-16777216
102
RTVSPost2010PropOp51
 70
     0
102
RTVSPost2010Prop52
140
1.0
102
RTVSPost2010PropOp52
 70
     0
102
RTVSPost2010Prop53
 90
        2
102
RTVSPost2010PropOp53
 70
     1
102
RTVSPost2010Prop54
  1
strokes_ogs.tif
102
RTVSPost2010PropOp54
 70
     1
102
RTVSPost2010Prop55
280
     0
102
RTVSPost2010PropOp55
 70
     1
102
RTVSPost2010Prop56
140
1.0
102
RTVSPost2010PropOp56
 70
     1
102
RTVSPost2010Prop57
140
1.0
102
RTVSPost2010PropOp57
 70
     1
  0
XRECORD
  5
111
102
{ACAD_REACTORS
330
110
102
}
330
110
100
AcDbXrecord
280
     1
102
RTVSPost2010Prop28
280
     0
102
RTVSPost2010PropOp28
 70
     1
102
RTVSPost2010Prop29
280
     1
102
RTVSPost2010PropOp29
 70
     1
102
RTVSPost2010Prop30
280
     1
102
RTVSPost2010PropOp30
 70
     1
102
RTVSPost2010Prop31
280
     0
102
RTVSPost2010PropOp31
 70
     1
102
RTVSPost2010Prop32
280
     0
102
RTVSPost2010PropOp32
 70
     1
102
RTVSPost2010Prop33
280
     0
102
RTVSPost2010PropOp33
 70
     1
102
RTVSPost2010Prop34
280
     0
102
RTVSPost2010PropOp34
 70
     1
102
RTVSPost2010Prop35
280
     0
102
RTVSPost2010PropOp35
 70
     1
102
RTVSPost2010Prop36
280
     0
102
RTVSPost2010PropOp36
 70
     1
102
RTVSPost2010Prop37
 90
       50
102
RTVSPost2010PropOp37
 70
     1
102
RTVSPost2010Prop38
140
0.0
102
RTVSPost2010PropOp38
 70
     1
102
RTVSPost2010Prop39
140
1.0
102
RTVSPost2010PropOp39
 70
     1
102
RTVSPost2010Prop40
 90
        0
102
RTVSPost2010PropOp40
 70
     1
102
RTVSPost2010Prop41ColorIndex
 90
       18
102
RTVSPost2010Prop41ColorRGB
 90
        0
102
RTVSPost2010PropOp41
 70
     1
102
RTVSPost2010Prop42
 90
       50
102
RTVSPost2010PropOp42
 70
     1
102
RTVSPost2010Prop43
 90
        3
102
RTVSPost2010PropOp43
 70
     1
102
RTVSPost2010Prop44ColorIndex
 90
        5
102
RTVSPost2010Prop44ColorRGB
 90
      255
102
RTVSPost2010PropOp44
 70
     1
102
RTVSPost2010Prop45
280
     0
102
RTVSPost2010PropOp45
 70
     1
102
RTVSPost2010Prop46
 90
       50
102
RTVSPost2010PropOp46
 70
     1
102
RTVSPost2010Prop47
 90
       50
102
RTVSPost2010PropOp47
 70
     1
102
RTVSPost2010Prop48
 90
       50
102
RTVSPost2010PropOp48
 70
     1
102
RTVSPost2010Prop49
280
     0
102
RTVSPost2010PropOp49
 70
     1
102
RTVSPost2010Prop50
 90
       50
102
RTVSPost2010PropOp50
 70
     1
102
RTVSPost2010Prop51ColorIndex
 90
      256
102
RTVSPost2010Prop51ColorRGB
 90
-16777216
102
RTVSPost2010PropOp51
 70
     0
102
RTVSPost2010Prop52
140
1.0
102
RTVSPost2010PropOp52
 70
     0
102
RTVSPost2010Prop53
 90
        2
102
RTVSPost2010PropOp53
 70
     1
102
RTVSPost2010Prop54
  1
strokes_ogs.tif
102
RTVSPost2010PropOp54
 70
     1
102
RTVSPost2010Prop55
280
     0
102
RTVSPost2010PropOp55
 70
     1
102
RTVSPost2010Prop56
140
1.0
102
RTVSPost2010PropOp56
 70
     1
102
RTVSPost2010Prop57
140
1.0
102
RTVSPost2010PropOp57
 70
     1
  0
XRECORD
  5
103
102
{ACAD_REACTORS
330
102
102
}
330
102
100
AcDbXrecord
280
     1
102
RTVSPost2010Prop28
280
     0
102
RTVSPost2010PropOp28
 70
     1
102
RTVSPost2010Prop29
280
     1
102
RTVSPost2010PropOp29
 70
     1
102
RTVSPost2010Prop30
280
     1
102
RTVSPost2010PropOp30
 70
     1
102
RTVSPost2010Prop31
280
     0
102
RTVSPost2010PropOp31
 70
     1
102
RTVSPost2010Prop32
280
     0
102
RTVSPost2010PropOp32
 70
     1
102
RTVSPost2010Prop33
280
     0
102
RTVSPost2010PropOp33
 70
     1
102
RTVSPost2010Prop34
280
     0
102
RTVSPost2010PropOp34
 70
     1
102
RTVSPost2010Prop35
280
     0
102
RTVSPost2010PropOp35
 70
     1
102
RTVSPost2010Prop36
280
     0
102
RTVSPost2010PropOp36
 70
     1
102
RTVSPost2010Prop37
 90
       50
102
RTVSPost2010PropOp37
 70
     1
102
RTVSPost2010Prop38
140
0.0
102
RTVSPost2010PropOp38
 70
     1
102
RTVSPost2010Prop39
140
1.0
102
RTVSPost2010PropOp39
 70
     1
102
RTVSPost2010Prop40
 90
        0
102
RTVSPost2010PropOp40
 70
     1
102
RTVSPost2010Prop41ColorIndex
 90
       18
102
RTVSPost2010Prop41ColorRGB
 90
        0
102
RTVSPost2010PropOp41
 70
     1
102
RTVSPost2010Prop42
 90
       50
102
RTVSPost2010PropOp42
 70
     1
102
RTVSPost2010Prop43
 90
        3
102
RTVSPost2010PropOp43
 70
     1
102
RTVSPost2010Prop44ColorIndex
 90
        5
102
RTVSPost2010Prop44ColorRGB
 90
      255
102
RTVSPost2010PropOp44
 70
     1
102
RTVSPost2010Prop45
280
     0
102
RTVSPost2010PropOp45
 70
     1
102
RTVSPost2010Prop46
 90
       50
102
RTVSPost2010PropOp46
 70
     1
102
RTVSPost2010Prop47
 90
       50
102
RTVSPost2010PropOp47
 70
     1
102
RTVSPost2010Prop48
 90
       50
102
RTVSPost2010PropOp48
 70
     1
102
RTVSPost2010Prop49
280
     0
102
RTVSPost2010PropOp49
 70
     1
102
RTVSPost2010Prop50
 90
       50
102
RTVSPost2010PropOp50
 70
     1
102
RTVSPost2010Prop51ColorIndex
 90
      256
102
RTVSPost2010Prop51ColorRGB
 90
-16777216
102
RTVSPost2010PropOp51
 70
     0
102
RTVSPost2010Prop52
140
1.0
102
RTVSPost2010PropOp52
 70
     0
102
RTVSPost2010Prop53
 90
        2
102
RTVSPost2010PropOp53
 70
     1
102
RTVSPost2010Prop54
  1
strokes_ogs.tif
102
RTVSPost2010PropOp54
 70
     1
102
RTVSPost2010Prop55
280
     0
102
RTVSPost2010PropOp55
 70
     1
102
RTVSPost2010Prop56
140
1.0
102
RTVSPost2010PropOp56
 70
     1
102
RTVSPost2010Prop57
140
1.0
102
RTVSPost2010PropOp57
 70
     1
  0
XRECORD
  5
107
102
{ACAD_REACTORS
330
106
102
}
330
106
100
AcDbXrecord
280
     1
102
RTVSPost2010Prop28
280
     0
102
RTVSPost2010PropOp28
 70
     1
102
RTVSPost2010Prop29
280
     1
102
RTVSPost2010PropOp29
 70
     1
102
RTVSPost2010Prop30
280
     1
102
RTVSPost2010PropOp30
 70
     1
102
RTVSPost2010Prop31
280
     0
102
RTVSPost2010PropOp31
 70
     1
102
RTVSPost2010Prop32
280
     0
102
RTVSPost2010PropOp32
 70
     1
102
RTVSPost2010Prop33
280
     0
102
RTVSPost2010PropOp33
 70
     1
102
RTVSPost2010Prop34
280
     0
102
RTVSPost2010PropOp34
 70
     1
102
RTVSPost2010Prop35
280
     0
102
RTVSPost2010PropOp35
 70
     1
102
RTVSPost2010Prop36
280
     0
102
RTVSPost2010PropOp36
 70
     1
102
RTVSPost2010Prop37
 90
       50
102
RTVSPost2010PropOp37
 70
     1
102
RTVSPost2010Prop38
140
0.0
102
RTVSPost2010PropOp38
 70
     1
102
RTVSPost2010Prop39
140
1.0
102
RTVSPost2010PropOp39
 70
     1
102
RTVSPost2010Prop40
 90
        0
102
RTVSPost2010PropOp40
 70
     1
102
RTVSPost2010Prop41ColorIndex
 90
       18
102
RTVSPost2010Prop41ColorRGB
 90
        0
102
RTVSPost2010PropOp41
 70
     1
102
RTVSPost2010Prop42
 90
       50
102
RTVSPost2010PropOp42
 70
     1
102
RTVSPost2010Prop43
 90
        3
102
RTVSPost2010PropOp43
 70
     1
102
RTVSPost2010Prop44ColorIndex
 90
        5
102
RTVSPost2010Prop44ColorRGB
 90
      255
102
RTVSPost2010PropOp44
 70
     1
102
RTVSPost2010Prop45
280
     0
102
RTVSPost2010PropOp45
 70
     1
102
RTVSPost2010Prop46
 90
       50
102
RTVSPost2010PropOp46
 70
     1
102
RTVSPost2010Prop47
 90
       50
102
RTVSPost2010PropOp47
 70
     1
102
RTVSPost2010Prop48
 90
       50
102
RTVSPost2010PropOp48
 70
     1
102
RTVSPost2010Prop49
280
     0
102
RTVSPost2010PropOp49
 70
     1
102
RTVSPost2010Prop50
 90
       50
102
RTVSPost2010PropOp50
 70
     1
102
RTVSPost2010Prop51ColorIndex
 90
      256
102
RTVSPost2010Prop51ColorRGB
 90
-16777216
102
RTVSPost2010PropOp51
 70
     0
102
RTVSPost2010Prop52
140
1.0
102
RTVSPost2010PropOp52
 70
     0
102
RTVSPost2010Prop53
 90
        2
102
RTVSPost2010PropOp53
 70
     1
102
RTVSPost2010Prop54
  1
strokes_ogs.tif
102
RTVSPost2010PropOp54
 70
     1
102
RTVSPost2010Prop55
280
     0
102
RTVSPost2010PropOp55
 70
     1
102
RTVSPost2010Prop56
140
1.0
102
RTVSPost2010PropOp56
 70
     1
102
RTVSPost2010Prop57
140
1.0
102
RTVSPost2010PropOp57
 70
     1
  0
XRECORD
  5
121
102
{ACAD_REACTORS
330
120
102
}
330
120
100
AcDbXrecord
280
     1
102
RTVSPost2010Prop28
280
     0
102
RTVSPost2010PropOp28
 70
     0
102
RTVSPost2010Prop29
280
     1
102
RTVSPost2010PropOp29
 70
     0
102
RTVSPost2010Prop30
280
     1
102
RTVSPost2010PropOp30
 70
     0
102
RTVSPost2010Prop31
280
     0
102
RTVSPost2010PropOp31
 70
     0
102
RTVSPost2010Prop32
280
     0
102
RTVSPost2010PropOp32
 70
     0
102
RTVSPost2010Prop33
280
     0
102
RTVSPost2010PropOp33
 70
     0
102
RTVSPost2010Prop34
280
     0
102
RTVSPost2010PropOp34
 70
     0
102
RTVSPost2010Prop35
280
     0
102
RTVSPost2010PropOp35
 70
     0
102
RTVSPost2010Prop36
280
     0
102
RTVSPost2010PropOp36
 70
     0
102
RTVSPost2010Prop37
 90
       50
102
RTVSPost2010PropOp37
 70
     0
102
RTVSPost2010Prop38
140
0.0
102
RTVSPost2010PropOp38
 70
     0
102
RTVSPost2010Prop39
140
1.0
102
RTVSPost2010PropOp39
 70
     0
102
RTVSPost2010Prop40
 90
        0
102
RTVSPost2010PropOp40
 70
     0
102
RTVSPost2010Prop41ColorIndex
 90
       18
102
RTVSPost2010Prop41ColorRGB
 90
        0
102
RTVSPost2010PropOp41
 70
     0
102
RTVSPost2010Prop42
 90
       50
102
RTVSPost2010PropOp42
 70
     0
102
RTVSPost2010Prop43
 90
        3
102
RTVSPost2010PropOp43
 70
     0
102
RTVSPost2010Prop44ColorIndex
 90
        5
102
RTVSPost2010Prop44ColorRGB
 90
      255
102
RTVSPost2010PropOp44
 70
     0
102
RTVSPost2010Prop45
280
     0
102
RTVSPost2010PropOp45
 70
     0
102
RTVSPost2010Prop46
 90
       50
102
RTVSPost2010PropOp46
 70
     0
102
RTVSPost2010Prop47
 90
       50
102
RTVSPost2010PropOp47
 70
     0
102
RTVSPost2010Prop48
 90
       50
102
RTVSPost2010PropOp48
 70
     0
102
RTVSPost2010Prop49
280
     0
102
RTVSPost2010PropOp49
 70
     0
102
RTVSPost2010Prop50
 90
       50
102
RTVSPost2010PropOp50
 70
     0
102
RTVSPost2010Prop51ColorIndex
 90
      256
102
RTVSPost2010Prop51ColorRGB
 90
-16777216
102
RTVSPost2010PropOp51
 70
     0
102
RTVSPost2010Prop52
140
1.0
102
RTVSPost2010PropOp52
 70
     0
102
RTVSPost2010Prop53
 90
        2
102
RTVSPost2010PropOp53
 70
     0
102
RTVSPost2010Prop54
  1
strokes_ogs.tif
102
RTVSPost2010PropOp54
 70
     0
102
RTVSPost2010Prop55
280
     0
102
RTVSPost2010PropOp55
 70
     0
102
RTVSPost2010Prop56
140
1.0
102
RTVSPost2010PropOp56
 70
     0
102
RTVSPost2010Prop57
140
1.0
102
RTVSPost2010PropOp57
 70
     0
  0
XRECORD
  5
10F
102
{ACAD_REACTORS
330
10E
102
}
330
10E
100
AcDbXrecord
280
     1
102
RTVSPost2010Prop28
280
     0
102
RTVSPost2010PropOp28
 70
     1
102
RTVSPost2010Prop29
280
     1
102
RTVSPost2010PropOp29
 70
     1
102
RTVSPost2010Prop30
280
     1
102
RTVSPost2010PropOp30
 70
     1
102
RTVSPost2010Prop31
280
     0
102
RTVSPost2010PropOp31
 70
     1
102
RTVSPost2010Prop32
280
     0
102
RTVSPost2010PropOp32
 70
     1
102
RTVSPost2010Prop33
280
     0
102
RTVSPost2010PropOp33
 70
     1
102
RTVSPost2010Prop34
280
     0
102
RTVSPost2010PropOp34
 70
     1
102
RTVSPost2010Prop35
280
     0
102
RTVSPost2010PropOp35
 70
     1
102
RTVSPost2010Prop36
280
     0
102
RTVSPost2010PropOp36
 70
     1
102
RTVSPost2010Prop37
 90
       50
102
RTVSPost2010PropOp37
 70
     1
102
RTVSPost2010Prop38
140
0.0
102
RTVSPost2010PropOp38
 70
     1
102
RTVSPost2010Prop39
140
1.0
102
RTVSPost2010PropOp39
 70
     1
102
RTVSPost2010Prop40
 90
        0
102
RTVSPost2010PropOp40
 70
     1
102
RTVSPost2010Prop41ColorIndex
 90
       18
102
RTVSPost2010Prop41ColorRGB
 90
        0
102
RTVSPost2010PropOp41
 70
     1
102
RTVSPost2010Prop42
 90
       50
102
RTVSPost2010PropOp42
 70
     1
102
RTVSPost2010Prop43
 90
        3
102
RTVSPost2010PropOp43
 70
     1
102
RTVSPost2010Prop44ColorIndex
 90
        5
102
RTVSPost2010Prop44ColorRGB
 90
      255
102
RTVSPost2010PropOp44
 70
     1
102
RTVSPost2010Prop45
280
     0
102
RTVSPost2010PropOp45
 70
     1
102
RTVSPost2010Prop46
 90
       50
102
RTVSPost2010PropOp46
 70
     1
102
RTVSPost2010Prop47
 90
       50
102
RTVSPost2010PropOp47
 70
     1
102
RTVSPost2010Prop48
 90
       50
102
RTVSPost2010PropOp48
 70
     1
102
RTVSPost2010Prop49
280
     0
102
RTVSPost2010PropOp49
 70
     1
102
RTVSPost2010Prop50
 90
       50
102
RTVSPost2010PropOp50
 70
     1
102
RTVSPost2010Prop51ColorIndex
 90
      256
102
RTVSPost2010Prop51ColorRGB
 90
-16777216
102
RTVSPost2010PropOp51
 70
     0
102
RTVSPost2010Prop52
140
1.0
102
RTVSPost2010PropOp52
 70
     0
102
RTVSPost2010Prop53
 90
        2
102
RTVSPost2010PropOp53
 70
     1
102
RTVSPost2010Prop54
  1
strokes_ogs.tif
102
RTVSPost2010PropOp54
 70
     1
102
RTVSPost2010Prop55
280
     0
102
RTVSPost2010PropOp55
 70
     1
102
RTVSPost2010Prop56
140
1.0
102
RTVSPost2010PropOp56
 70
     1
102
RTVSPost2010Prop57
140
1.0
102
RTVSPost2010PropOp57
 70
     1
  0
XRECORD
  5
F3
102
{ACAD_REACTORS
330
F2
102
}
330
F2
100
AcDbXrecord
280
     1
102
RTVSPost2010Prop28
280
     0
102
RTVSPost2010PropOp28
 70
     1
102
RTVSPost2010Prop29
280
     1
102
RTVSPost2010PropOp29
 70
     1
102
RTVSPost2010Prop30
280
     1
102
RTVSPost2010PropOp30
 70
     1
102
RTVSPost2010Prop31
280
     0
102
RTVSPost2010PropOp31
 70
     1
102
RTVSPost2010Prop32
280
     0
102
RTVSPost2010PropOp32
 70
     1
102
RTVSPost2010Prop33
280
     0
102
RTVSPost2010PropOp33
 70
     1
102
RTVSPost2010Prop34
280
     0
102
RTVSPost2010PropOp34
 70
     1
102
RTVSPost2010Prop35
280
     0
102
RTVSPost2010PropOp35
 70
     1
102
RTVSPost2010Prop36
280
     0
102
RTVSPost2010PropOp36
 70
     1
102
RTVSPost2010Prop37
 90
       50
102
RTVSPost2010PropOp37
 70
     1
102
RTVSPost2010Prop38
140
0.0
102
RTVSPost2010PropOp38
 70
     1
102
RTVSPost2010Prop39
140
1.0
102
RTVSPost2010PropOp39
 70
     1
102
RTVSPost2010Prop40
 90
        0
102
RTVSPost2010PropOp40
 70
     1
102
RTVSPost2010Prop41ColorIndex
 90
       18
102
RTVSPost2010Prop41ColorRGB
 90
        0
102
RTVSPost2010PropOp41
 70
     1
102
RTVSPost2010Prop42
 90
       50
102
RTVSPost2010PropOp42
 70
     1
102
RTVSPost2010Prop43
 90
        3
102
RTVSPost2010PropOp43
 70
     1
102
RTVSPost2010Prop44ColorIndex
 90
        5
102
RTVSPost2010Prop44ColorRGB
 90
      255
102
RTVSPost2010PropOp44
 70
     1
102
RTVSPost2010Prop45
280
     0
102
RTVSPost2010PropOp45
 70
     1
102
RTVSPost2010Prop46
 90
       50
102
RTVSPost2010PropOp46
 70
     1
102
RTVSPost2010Prop47
 90
       50
102
RTVSPost2010PropOp47
 70
     1
102
RTVSPost2010Prop48
 90
       50
102
RTVSPost2010PropOp48
 70
     1
102
RTVSPost2010Prop49
280
     0
102
RTVSPost2010PropOp49
 70
     1
102
RTVSPost2010Prop50
 90
       50
102
RTVSPost2010PropOp50
 70
     1
102
RTVSPost2010Prop51ColorIndex
 90
      256
102
RTVSPost2010Prop51ColorRGB
 90
-16777216
102
RTVSPost2010PropOp51
 70
     0
102
RTVSPost2010Prop52
140
1.0
102
RTVSPost2010PropOp52
 70
     0
102
RTVSPost2010Prop53
 90
        2
102
RTVSPost2010PropOp53
 70
     1
102
RTVSPost2010Prop54
  1
strokes_ogs.tif
102
RTVSPost2010PropOp54
 70
     1
102
RTVSPost2010Prop55
280
     0
102
RTVSPost2010PropOp55
 70
     1
102
RTVSPost2010Prop56
140
1.0
102
RTVSPost2010PropOp56
 70
     1
102
RTVSPost2010Prop57
140
1.0
102
RTVSPost2010PropOp57
 70
     1
  0
XRECORD
  5
F5
102
{ACAD_REACTORS
330
F4
102
}
330
F4
100
AcDbXrecord
280
     1
102
RTVSPost2010Prop28
280
     0
102
RTVSPost2010PropOp28
 70
     1
102
RTVSPost2010Prop29
280
     1
102
RTVSPost2010PropOp29
 70
     1
102
RTVSPost2010Prop30
280
     1
102
RTVSPost2010PropOp30
 70
     1
102
RTVSPost2010Prop31
280
     0
102
RTVSPost2010PropOp31
 70
     1
102
RTVSPost2010Prop32
280
     0
102
RTVSPost2010PropOp32
 70
     1
102
RTVSPost2010Prop33
280
     0
102
RTVSPost2010PropOp33
 70
     1
102
RTVSPost2010Prop34
280
     0
102
RTVSPost2010PropOp34
 70
     1
102
RTVSPost2010Prop35
280
     0
102
RTVSPost2010PropOp35
 70
     1
102
RTVSPost2010Prop36
280
     0
102
RTVSPost2010PropOp36
 70
     1
102
RTVSPost2010Prop37
 90
       50
102
RTVSPost2010PropOp37
 70
     1
102
RTVSPost2010Prop38
140
0.0
102
RTVSPost2010PropOp38
 70
     1
102
RTVSPost2010Prop39
140
1.0
102
RTVSPost2010PropOp39
 70
     1
102
RTVSPost2010Prop40
 90
        0
102
RTVSPost2010PropOp40
 70
     1
102
RTVSPost2010Prop41ColorIndex
 90
       18
102
RTVSPost2010Prop41ColorRGB
 90
        0
102
RTVSPost2010PropOp41
 70
     1
102
RTVSPost2010Prop42
 90
       50
102
RTVSPost2010PropOp42
 70
     1
102
RTVSPost2010Prop43
 90
        3
102
RTVSPost2010PropOp43
 70
     1
102
RTVSPost2010Prop44ColorIndex
 90
        5
102
RTVSPost2010Prop44ColorRGB
 90
      255
102
RTVSPost2010PropOp44
 70
     1
102
RTVSPost2010Prop45
280
     0
102
RTVSPost2010PropOp45
 70
     1
102
RTVSPost2010Prop46
 90
       50
102
RTVSPost2010PropOp46
 70
     1
102
RTVSPost2010Prop47
 90
       50
102
RTVSPost2010PropOp47
 70
     1
102
RTVSPost2010Prop48
 90
       50
102
RTVSPost2010PropOp48
 70
     1
102
RTVSPost2010Prop49
280
     0
102
RTVSPost2010PropOp49
 70
     1
102
RTVSPost2010Prop50
 90
       50
102
RTVSPost2010PropOp50
 70
     1
102
RTVSPost2010Prop51ColorIndex
 90
      256
102
RTVSPost2010Prop51ColorRGB
 90
-16777216
102
RTVSPost2010PropOp51
 70
     0
102
RTVSPost2010Prop52
140
1.0
102
RTVSPost2010PropOp52
 70
     0
102
RTVSPost2010Prop53
 90
        2
102
RTVSPost2010PropOp53
 70
     1
102
RTVSPost2010Prop54
  1
strokes_ogs.tif
102
RTVSPost2010PropOp54
 70
     1
102
RTVSPost2010Prop55
280
     0
102
RTVSPost2010PropOp55
 70
     1
102
RTVSPost2010Prop56
140
1.0
102
RTVSPost2010PropOp56
 70
     1
102
RTVSPost2010Prop57
140
1.0
102
RTVSPost2010PropOp57
 70
     1
  0
XRECORD
  5
F7
102
{ACAD_REACTORS
330
F6
102
}
330
F6
100
AcDbXrecord
280
     1
102
RTVSPost2010Prop28
280
     0
102
RTVSPost2010PropOp28
 70
     1
102
RTVSPost2010Prop29
280
     1
102
RTVSPost2010PropOp29
 70
     1
102
RTVSPost2010Prop30
280
     1
102
RTVSPost2010PropOp30
 70
     1
102
RTVSPost2010Prop31
280
     0
102
RTVSPost2010PropOp31
 70
     1
102
RTVSPost2010Prop32
280
     0
102
RTVSPost2010PropOp32
 70
     1
102
RTVSPost2010Prop33
280
     0
102
RTVSPost2010PropOp33
 70
     1
102
RTVSPost2010Prop34
280
     0
102
RTVSPost2010PropOp34
 70
     1
102
RTVSPost2010Prop35
280
     0
102
RTVSPost2010PropOp35
 70
     1
102
RTVSPost2010Prop36
280
     0
102
RTVSPost2010PropOp36
 70
     1
102
RTVSPost2010Prop37
 90
       50
102
RTVSPost2010PropOp37
 70
     1
102
RTVSPost2010Prop38
140
0.0
102
RTVSPost2010PropOp38
 70
     1
102
RTVSPost2010Prop39
140
1.0
102
RTVSPost2010PropOp39
 70
     1
102
RTVSPost2010Prop40
 90
        0
102
RTVSPost2010PropOp40
 70
     1
102
RTVSPost2010Prop41ColorIndex
 90
       18
102
RTVSPost2010Prop41ColorRGB
 90
        0
102
RTVSPost2010PropOp41
 70
     1
102
RTVSPost2010Prop42
 90
       50
102
RTVSPost2010PropOp42
 70
     1
102
RTVSPost2010Prop43
 90
        3
102
RTVSPost2010PropOp43
 70
     1
102
RTVSPost2010Prop44ColorIndex
 90
        5
102
RTVSPost2010Prop44ColorRGB
 90
      255
102
RTVSPost2010PropOp44
 70
     1
102
RTVSPost2010Prop45
280
     0
102
RTVSPost2010PropOp45
 70
     1
102
RTVSPost2010Prop46
 90
       50
102
RTVSPost2010PropOp46
 70
     1
102
RTVSPost2010Prop47
 90
       50
102
RTVSPost2010PropOp47
 70
     1
102
RTVSPost2010Prop48
 90
       50
102
RTVSPost2010PropOp48
 70
     1
102
RTVSPost2010Prop49
280
     0
102
RTVSPost2010PropOp49
 70
     1
102
RTVSPost2010Prop50
 90
       50
102
RTVSPost2010PropOp50
 70
     1
102
RTVSPost2010Prop51ColorIndex
 90
      256
102
RTVSPost2010Prop51ColorRGB
 90
-16777216
102
RTVSPost2010PropOp51
 70
     0
102
RTVSPost2010Prop52
140
1.0
102
RTVSPost2010PropOp52
 70
     0
102
RTVSPost2010Prop53
 90
        2
102
RTVSPost2010PropOp53
 70
     1
102
RTVSPost2010Prop54
  1
strokes_ogs.tif
102
RTVSPost2010PropOp54
 70
     1
102
RTVSPost2010Prop55
280
     0
102
RTVSPost2010PropOp55
 70
     1
102
RTVSPost2010Prop56
140
1.0
102
RTVSPost2010PropOp56
 70
     1
102
RTVSPost2010Prop57
140
1.0
102
RTVSPost2010PropOp57
 70
     1
  0
XRECORD
  5
F9
102
{ACAD_REACTORS
330
F8
102
}
330
F8
100
AcDbXrecord
280
     1
102
RTVSPost2010Prop28
280
     0
102
RTVSPost2010PropOp28
 70
     1
102
RTVSPost2010Prop29
280
     1
102
RTVSPost2010PropOp29
 70
     1
102
RTVSPost2010Prop30
280
     1
102
RTVSPost2010PropOp30
 70
     1
102
RTVSPost2010Prop31
280
     0
102
RTVSPost2010PropOp31
 70
     1
102
RTVSPost2010Prop32
280
     0
102
RTVSPost2010PropOp32
 70
     1
102
RTVSPost2010Prop33
280
     0
102
RTVSPost2010PropOp33
 70
     1
102
RTVSPost2010Prop34
280
     0
102
RTVSPost2010PropOp34
 70
     1
102
RTVSPost2010Prop35
280
     0
102
RTVSPost2010PropOp35
 70
     1
102
RTVSPost2010Prop36
280
     0
102
RTVSPost2010PropOp36
 70
     1
102
RTVSPost2010Prop37
 90
       50
102
RTVSPost2010PropOp37
 70
     1
102
RTVSPost2010Prop38
140
0.0
102
RTVSPost2010PropOp38
 70
     1
102
RTVSPost2010Prop39
140
1.0
102
RTVSPost2010PropOp39
 70
     1
102
RTVSPost2010Prop40
 90
        0
102
RTVSPost2010PropOp40
 70
     1
102
RTVSPost2010Prop41ColorIndex
 90
       18
102
RTVSPost2010Prop41ColorRGB
 90
        0
102
RTVSPost2010PropOp41
 70
     1
102
RTVSPost2010Prop42
 90
       50
102
RTVSPost2010PropOp42
 70
     1
102
RTVSPost2010Prop43
 90
        3
102
RTVSPost2010PropOp43
 70
     1
102
RTVSPost2010Prop44ColorIndex
 90
        5
102
RTVSPost2010Prop44ColorRGB
 90
      255
102
RTVSPost2010PropOp44
 70
     1
102
RTVSPost2010Prop45
280
     0
102
RTVSPost2010PropOp45
 70
     1
102
RTVSPost2010Prop46
 90
       50
102
RTVSPost2010PropOp46
 70
     1
102
RTVSPost2010Prop47
 90
       50
102
RTVSPost2010PropOp47
 70
     1
102
RTVSPost2010Prop48
 90
       50
102
RTVSPost2010PropOp48
 70
     1
102
RTVSPost2010Prop49
280
     0
102
RTVSPost2010PropOp49
 70
     1
102
RTVSPost2010Prop50
 90
       50
102
RTVSPost2010PropOp50
 70
     1
102
RTVSPost2010Prop51ColorIndex
 90
      256
102
RTVSPost2010Prop51ColorRGB
 90
-16777216
102
RTVSPost2010PropOp51
 70
     0
102
RTVSPost2010Prop52
140
1.0
102
RTVSPost2010PropOp52
 70
     0
102
RTVSPost2010Prop53
 90
        2
102
RTVSPost2010PropOp53
 70
     1
102
RTVSPost2010Prop54
  1
strokes_ogs.tif
102
RTVSPost2010PropOp54
 70
     1
102
RTVSPost2010Prop55
280
     0
102
RTVSPost2010PropOp55
 70
     1
102
RTVSPost2010Prop56
140
1.0
102
RTVSPost2010PropOp56
 70
     1
102
RTVSPost2010Prop57
140
1.0
102
RTVSPost2010PropOp57
 70
     1
  0
XRECORD
  5
101
102
{ACAD_REACTORS
330
100
102
}
330
100
100
AcDbXrecord
280
     1
102
RTVSPost2010Prop28
280
     0
102
RTVSPost2010PropOp28
 70
     1
102
RTVSPost2010Prop29
280
     1
102
RTVSPost2010PropOp29
 70
     1
102
RTVSPost2010Prop30
280
     1
102
RTVSPost2010PropOp30
 70
     1
102
RTVSPost2010Prop31
280
     0
102
RTVSPost2010PropOp31
 70
     1
102
RTVSPost2010Prop32
280
     0
102
RTVSPost2010PropOp32
 70
     1
102
RTVSPost2010Prop33
280
     0
102
RTVSPost2010PropOp33
 70
     1
102
RTVSPost2010Prop34
280
     0
102
RTVSPost2010PropOp34
 70
     1
102
RTVSPost2010Prop35
280
     0
102
RTVSPost2010PropOp35
 70
     1
102
RTVSPost2010Prop36
280
     0
102
RTVSPost2010PropOp36
 70
     1
102
RTVSPost2010Prop37
 90
       50
102
RTVSPost2010PropOp37
 70
     1
102
RTVSPost2010Prop38
140
0.0
102
RTVSPost2010PropOp38
 70
     1
102
RTVSPost2010Prop39
140
1.0
102
RTVSPost2010PropOp39
 70
     1
102
RTVSPost2010Prop40
 90
        0
102
RTVSPost2010PropOp40
 70
     1
102
RTVSPost2010Prop41ColorIndex
 90
       18
102
RTVSPost2010Prop41ColorRGB
 90
        0
102
RTVSPost2010PropOp41
 70
     1
102
RTVSPost2010Prop42
 90
       50
102
RTVSPost2010PropOp42
 70
     1
102
RTVSPost2010Prop43
 90
        3
102
RTVSPost2010PropOp43
 70
     1
102
RTVSPost2010Prop44ColorIndex
 90
        5
102
RTVSPost2010Prop44ColorRGB
 90
      255
102
RTVSPost2010PropOp44
 70
     1
102
RTVSPost2010Prop45
280
     0
102
RTVSPost2010PropOp45
 70
     1
102
RTVSPost2010Prop46
 90
       50
102
RTVSPost2010PropOp46
 70
     1
102
RTVSPost2010Prop47
 90
       50
102
RTVSPost2010PropOp47
 70
     1
102
RTVSPost2010Prop48
 90
       50
102
RTVSPost2010PropOp48
 70
     1
102
RTVSPost2010Prop49
280
     0
102
RTVSPost2010PropOp49
 70
     1
102
RTVSPost2010Prop50
 90
       50
102
RTVSPost2010PropOp50
 70
     1
102
RTVSPost2010Prop51ColorIndex
 90
      256
102
RTVSPost2010Prop51ColorRGB
 90
-16777216
102
RTVSPost2010PropOp51
 70
     0
102
RTVSPost2010Prop52
140
1.0
102
RTVSPost2010PropOp52
 70
     0
102
RTVSPost2010Prop53
 90
        2
102
RTVSPost2010PropOp53
 70
     1
102
RTVSPost2010Prop54
  1
strokes_ogs.tif
102
RTVSPost2010PropOp54
 70
     1
102
RTVSPost2010Prop55
280
     0
102
RTVSPost2010PropOp55
 70
     1
102
RTVSPost2010Prop56
140
1.0
102
RTVSPost2010PropOp56
 70
     1
102
RTVSPost2010Prop57
140
1.0
102
RTVSPost2010PropOp57
 70
     1
  0
XRECORD
  5
11D
102
{ACAD_REACTORS
330
11C
102
}
330
11C
100
AcDbXrecord
280
     1
102
RTVSPost2010Prop28
280
     0
102
RTVSPost2010PropOp28
 70
     0
102
RTVSPost2010Prop29
280
     1
102
RTVSPost2010PropOp29
 70
     0
102
RTVSPost2010Prop30
280
     1
102
RTVSPost2010PropOp30
 70
     0
102
RTVSPost2010Prop31
280
     0
102
RTVSPost2010PropOp31
 70
     0
102
RTVSPost2010Prop32
280
     0
102
RTVSPost2010PropOp32
 70
     0
102
RTVSPost2010Prop33
280
     0
102
RTVSPost2010PropOp33
 70
     0
102
RTVSPost2010Prop34
280
     0
102
RTVSPost2010PropOp34
 70
     0
102
RTVSPost2010Prop35
280
     0
102
RTVSPost2010PropOp35
 70
     0
102
RTVSPost2010Prop36
280
     0
102
RTVSPost2010PropOp36
 70
     0
102
RTVSPost2010Prop37
 90
       50
102
RTVSPost2010PropOp37
 70
     0
102
RTVSPost2010Prop38
140
0.0
102
RTVSPost2010PropOp38
 70
     0
102
RTVSPost2010Prop39
140
1.0
102
RTVSPost2010PropOp39
 70
     0
102
RTVSPost2010Prop40
 90
        0
102
RTVSPost2010PropOp40
 70
     0
102
RTVSPost2010Prop41ColorIndex
 90
       18
102
RTVSPost2010Prop41ColorRGB
 90
        0
102
RTVSPost2010PropOp41
 70
     0
102
RTVSPost2010Prop42
 90
       50
102
RTVSPost2010PropOp42
 70
     0
102
RTVSPost2010Prop43
 90
        3
102
RTVSPost2010PropOp43
 70
     0
102
RTVSPost2010Prop44ColorIndex
 90
        5
102
RTVSPost2010Prop44ColorRGB
 90
      255
102
RTVSPost2010PropOp44
 70
     0
102
RTVSPost2010Prop45
280
     0
102
RTVSPost2010PropOp45
 70
     0
102
RTVSPost2010Prop46
 90
       50
102
RTVSPost2010PropOp46
 70
     0
102
RTVSPost2010Prop47
 90
       50
102
RTVSPost2010PropOp47
 70
     0
102
RTVSPost2010Prop48
 90
       50
102
RTVSPost2010PropOp48
 70
     0
102
RTVSPost2010Prop49
280
     0
102
RTVSPost2010PropOp49
 70
     0
102
RTVSPost2010Prop50
 90
       50
102
RTVSPost2010PropOp50
 70
     0
102
RTVSPost2010Prop51ColorIndex
 90
      256
102
RTVSPost2010Prop51ColorRGB
 90
-16777216
102
RTVSPost2010PropOp51
 70
     0
102
RTVSPost2010Prop52
140
1.0
102
RTVSPost2010PropOp52
 70
     0
102
RTVSPost2010Prop53
 90
        2
102
RTVSPost2010PropOp53
 70
     0
102
RTVSPost2010Prop54
  1
strokes_ogs.tif
102
RTVSPost2010PropOp54
 70
     0
102
RTVSPost2010Prop55
280
     0
102
RTVSPost2010PropOp55
 70
     0
102
RTVSPost2010Prop56
140
1.0
102
RTVSPost2010PropOp56
 70
     0
102
RTVSPost2010Prop57
140
1.0
102
RTVSPost2010PropOp57
 70
     0
  0
XRECORD
  5
10D
102
{ACAD_REACTORS
330
10C
102
}
330
10C
100
AcDbXrecord
280
     1
102
RTVSPost2010Prop28
280
     0
102
RTVSPost2010PropOp28
 70
     1
102
RTVSPost2010Prop29
280
     1
102
RTVSPost2010PropOp29
 70
     1
102
RTVSPost2010Prop30
280
     1
102
RTVSPost2010PropOp30
 70
     1
102
RTVSPost2010Prop31
280
     0
102
RTVSPost2010PropOp31
 70
     1
102
RTVSPost2010Prop32
280
     0
102
RTVSPost2010PropOp32
 70
     1
102
RTVSPost2010Prop33
280
     0
102
RTVSPost2010PropOp33
 70
     1
102
RTVSPost2010Prop34
280
     0
102
RTVSPost2010PropOp34
 70
     1
102
RTVSPost2010Prop35
280
     0
102
RTVSPost2010PropOp35
 70
     1
102
RTVSPost2010Prop36
280
     0
102
RTVSPost2010PropOp36
 70
     1
102
RTVSPost2010Prop37
 90
       50
102
RTVSPost2010PropOp37
 70
     1
102
RTVSPost2010Prop38
140
0.0
102
RTVSPost2010PropOp38
 70
     1
102
RTVSPost2010Prop39
140
1.0
102
RTVSPost2010PropOp39
 70
     1
102
RTVSPost2010Prop40
 90
        0
102
RTVSPost2010PropOp40
 70
     1
102
RTVSPost2010Prop41ColorIndex
 90
       18
102
RTVSPost2010Prop41ColorRGB
 90
        0
102
RTVSPost2010PropOp41
 70
     1
102
RTVSPost2010Prop42
 90
       50
102
RTVSPost2010PropOp42
 70
     1
102
RTVSPost2010Prop43
 90
        3
102
RTVSPost2010PropOp43
 70
     1
102
RTVSPost2010Prop44ColorIndex
 90
        5
102
RTVSPost2010Prop44ColorRGB
 90
      255
102
RTVSPost2010PropOp44
 70
     1
102
RTVSPost2010Prop45
280
     0
102
RTVSPost2010PropOp45
 70
     1
102
RTVSPost2010Prop46
 90
       50
102
RTVSPost2010PropOp46
 70
     1
102
RTVSPost2010Prop47
 90
       50
102
RTVSPost2010PropOp47
 70
     1
102
RTVSPost2010Prop48
 90
       50
102
RTVSPost2010PropOp48
 70
     1
102
RTVSPost2010Prop49
280
     0
102
RTVSPost2010PropOp49
 70
     1
102
RTVSPost2010Prop50
 90
       50
102
RTVSPost2010PropOp50
 70
     1
102
RTVSPost2010Prop51ColorIndex
 90
      256
102
RTVSPost2010Prop51ColorRGB
 90
-16777216
102
RTVSPost2010PropOp51
 70
     0
102
RTVSPost2010Prop52
140
1.0
102
RTVSPost2010PropOp52
 70
     0
102
RTVSPost2010Prop53
 90
        2
102
RTVSPost2010PropOp53
 70
     1
102
RTVSPost2010Prop54
  1
strokes_ogs.tif
102
RTVSPost2010PropOp54
 70
     1
102
RTVSPost2010Prop55
280
     0
102
RTVSPost2010PropOp55
 70
     1
102
RTVSPost2010Prop56
140
1.0
102
RTVSPost2010PropOp56
 70
     1
102
RTVSPost2010Prop57
140
1.0
102
RTVSPost2010PropOp57
 70
     1
  0
XRECORD
  5
11F
102
{ACAD_REACTORS
330
11E
102
}
330
11E
100
AcDbXrecord
280
     1
102
RTVSPost2010Prop28
280
     0
102
RTVSPost2010PropOp28
 70
     0
102
RTVSPost2010Prop29
280
     1
102
RTVSPost2010PropOp29
 70
     0
102
RTVSPost2010Prop30
280
     1
102
RTVSPost2010PropOp30
 70
     0
102
RTVSPost2010Prop31
280
     0
102
RTVSPost2010PropOp31
 70
     0
102
RTVSPost2010Prop32
280
     0
102
RTVSPost2010PropOp32
 70
     0
102
RTVSPost2010Prop33
280
     0
102
RTVSPost2010PropOp33
 70
     0
102
RTVSPost2010Prop34
280
     0
102
RTVSPost2010PropOp34
 70
     0
102
RTVSPost2010Prop35
280
     0
102
RTVSPost2010PropOp35
 70
     0
102
RTVSPost2010Prop36
280
     0
102
RTVSPost2010PropOp36
 70
     0
102
RTVSPost2010Prop37
 90
       50
102
RTVSPost2010PropOp37
 70
     0
102
RTVSPost2010Prop38
140
0.0
102
RTVSPost2010PropOp38
 70
     0
102
RTVSPost2010Prop39
140
1.0
102
RTVSPost2010PropOp39
 70
     0
102
RTVSPost2010Prop40
 90
        0
102
RTVSPost2010PropOp40
 70
     0
102
RTVSPost2010Prop41ColorIndex
 90
       18
102
RTVSPost2010Prop41ColorRGB
 90
        0
102
RTVSPost2010PropOp41
 70
     0
102
RTVSPost2010Prop42
 90
       50
102
RTVSPost2010PropOp42
 70
     0
102
RTVSPost2010Prop43
 90
        3
102
RTVSPost2010PropOp43
 70
     0
102
RTVSPost2010Prop44ColorIndex
 90
        5
102
RTVSPost2010Prop44ColorRGB
 90
      255
102
RTVSPost2010PropOp44
 70
     0
102
RTVSPost2010Prop45
280
     0
102
RTVSPost2010PropOp45
 70
     0
102
RTVSPost2010Prop46
 90
       50
102
RTVSPost2010PropOp46
 70
     0
102
RTVSPost2010Prop47
 90
       50
102
RTVSPost2010PropOp47
 70
     0
102
RTVSPost2010Prop48
 90
       50
102
RTVSPost2010PropOp48
 70
     0
102
RTVSPost2010Prop49
280
     0
102
RTVSPost2010PropOp49
 70
     0
102
RTVSPost2010Prop50
 90
       50
102
RTVSPost2010PropOp50
 70
     0
102
RTVSPost2010Prop51ColorIndex
 90
      256
102
RTVSPost2010Prop51ColorRGB
 90
-16777216
102
RTVSPost2010PropOp51
 70
     0
102
RTVSPost2010Prop52
140
1.0
102
RTVSPost2010PropOp52
 70
     0
102
RTVSPost2010Prop53
 90
        2
102
RTVSPost2010PropOp53
 70
     0
102
RTVSPost2010Prop54
  1
strokes_ogs.tif
102
RTVSPost2010PropOp54
 70
     0
102
RTVSPost2010Prop55
280
     0
102
RTVSPost2010PropOp55
 70
     0
102
RTVSPost2010Prop56
140
1.0
102
RTVSPost2010PropOp56
 70
     0
102
RTVSPost2010Prop57
140
1.0
102
RTVSPost2010PropOp57
 70
     0
  0
XRECORD
  5
105
102
{ACAD_REACTORS
330
104
102
}
330
104
100
AcDbXrecord
280
     1
102
RTVSPost2010Prop28
280
     0
102
RTVSPost2010PropOp28
 70
     1
102
RTVSPost2010Prop29
280
     1
102
RTVSPost2010PropOp29
 70
     1
102
RTVSPost2010Prop30
280
     1
102
RTVSPost2010PropOp30
 70
     1
102
RTVSPost2010Prop31
280
     0
102
RTVSPost2010PropOp31
 70
     1
102
RTVSPost2010Prop32
280
     0
102
RTVSPost2010PropOp32
 70
     1
102
RTVSPost2010Prop33
280
     0
102
RTVSPost2010PropOp33
 70
     1
102
RTVSPost2010Prop34
280
     0
102
RTVSPost2010PropOp34
 70
     1
102
RTVSPost2010Prop35
280
     0
102
RTVSPost2010PropOp35
 70
     1
102
RTVSPost2010Prop36
280
     0
102
RTVSPost2010PropOp36
 70
     1
102
RTVSPost2010Prop37
 90
       50
102
RTVSPost2010PropOp37
 70
     1
102
RTVSPost2010Prop38
140
0.0
102
RTVSPost2010PropOp38
 70
     1
102
RTVSPost2010Prop39
140
1.0
102
RTVSPost2010PropOp39
 70
     1
102
RTVSPost2010Prop40
 90
        0
102
RTVSPost2010PropOp40
 70
     1
102
RTVSPost2010Prop41ColorIndex
 90
       18
102
RTVSPost2010Prop41ColorRGB
 90
        0
102
RTVSPost2010PropOp41
 70
     1
102
RTVSPost2010Prop42
 90
       50
102
RTVSPost2010PropOp42
 70
     1
102
RTVSPost2010Prop43
 90
        3
102
RTVSPost2010PropOp43
 70
     1
102
RTVSPost2010Prop44ColorIndex
 90
        5
102
RTVSPost2010Prop44ColorRGB
 90
      255
102
RTVSPost2010PropOp44
 70
     1
102
RTVSPost2010Prop45
280
     0
102
RTVSPost2010PropOp45
 70
     1
102
RTVSPost2010Prop46
 90
       50
102
RTVSPost2010PropOp46
 70
     1
102
RTVSPost2010Prop47
 90
       50
102
RTVSPost2010PropOp47
 70
     1
102
RTVSPost2010Prop48
 90
       50
102
RTVSPost2010PropOp48
 70
     1
102
RTVSPost2010Prop49
280
     0
102
RTVSPost2010PropOp49
 70
     1
102
RTVSPost2010Prop50
 90
       50
102
RTVSPost2010PropOp50
 70
     1
102
RTVSPost2010Prop51ColorIndex
 90
      256
102
RTVSPost2010Prop51ColorRGB
 90
-16777216
102
RTVSPost2010PropOp51
 70
     0
102
RTVSPost2010Prop52
140
1.0
102
RTVSPost2010PropOp52
 70
     0
102
RTVSPost2010Prop53
 90
        2
102
RTVSPost2010PropOp53
 70
     1
102
RTVSPost2010Prop54
  1
strokes_ogs.tif
102
RTVSPost2010PropOp54
 70
     1
102
RTVSPost2010Prop55
280
     0
102
RTVSPost2010PropOp55
 70
     1
102
RTVSPost2010Prop56
140
1.0
102
RTVSPost2010PropOp56
 70
     1
102
RTVSPost2010Prop57
140
1.0
102
RTVSPost2010PropOp57
 70
     1
  0
XRECORD
  5
11B
102
{ACAD_REACTORS
330
11A
102
}
330
11A
100
AcDbXrecord
280
     1
102
RTVSPost2010Prop28
280
     0
102
RTVSPost2010PropOp28
 70
     1
102
RTVSPost2010Prop29
280
     1
102
RTVSPost2010PropOp29
 70
     1
102
RTVSPost2010Prop30
280
     1
102
RTVSPost2010PropOp30
 70
     1
102
RTVSPost2010Prop31
280
     0
102
RTVSPost2010PropOp31
 70
     1
102
RTVSPost2010Prop32
280
     0
102
RTVSPost2010PropOp32
 70
     1
102
RTVSPost2010Prop33
280
     0
102
RTVSPost2010PropOp33
 70
     1
102
RTVSPost2010Prop34
280
     0
102
RTVSPost2010PropOp34
 70
     1
102
RTVSPost2010Prop35
280
     0
102
RTVSPost2010PropOp35
 70
     1
102
RTVSPost2010Prop36
280
     0
102
RTVSPost2010PropOp36
 70
     1
102
RTVSPost2010Prop37
 90
       50
102
RTVSPost2010PropOp37
 70
     1
102
RTVSPost2010Prop38
140
0.0
102
RTVSPost2010PropOp38
 70
     1
102
RTVSPost2010Prop39
140
1.0
102
RTVSPost2010PropOp39
 70
     1
102
RTVSPost2010Prop40
 90
        0
102
RTVSPost2010PropOp40
 70
     1
102
RTVSPost2010Prop41ColorIndex
 90
       18
102
RTVSPost2010Prop41ColorRGB
 90
        0
102
RTVSPost2010PropOp41
 70
     1
102
RTVSPost2010Prop42
 90
       50
102
RTVSPost2010PropOp42
 70
     1
102
RTVSPost2010Prop43
 90
        3
102
RTVSPost2010PropOp43
 70
     1
102
RTVSPost2010Prop44ColorIndex
 90
        5
102
RTVSPost2010Prop44ColorRGB
 90
      255
102
RTVSPost2010PropOp44
 70
     1
102
RTVSPost2010Prop45
280
     0
102
RTVSPost2010PropOp45
 70
     1
102
RTVSPost2010Prop46
 90
       50
102
RTVSPost2010PropOp46
 70
     1
102
RTVSPost2010Prop47
 90
       50
102
RTVSPost2010PropOp47
 70
     1
102
RTVSPost2010Prop48
 90
       50
102
RTVSPost2010PropOp48
 70
     1
102
RTVSPost2010Prop49
280
     0
102
RTVSPost2010PropOp49
 70
     1
102
RTVSPost2010Prop50
 90
       50
102
RTVSPost2010PropOp50
 70
     1
102
RTVSPost2010Prop51ColorIndex
 90
      256
102
RTVSPost2010Prop51ColorRGB
 90
-16777216
102
RTVSPost2010PropOp51
 70
     0
102
RTVSPost2010Prop52
140
1.0
102
RTVSPost2010PropOp52
 70
     0
102
RTVSPost2010Prop53
 90
        2
102
RTVSPost2010PropOp53
 70
     1
102
RTVSPost2010Prop54
  1
strokes_ogs.tif
102
RTVSPost2010PropOp54
 70
     1
102
RTVSPost2010Prop55
280
     0
102
RTVSPost2010PropOp55
 70
     1
102
RTVSPost2010Prop56
140
1.0
102
RTVSPost2010PropOp56
 70
     1
102
RTVSPost2010Prop57
140
1.0
102
RTVSPost2010PropOp57
 70
     1
  0
XRECORD
  5
119
102
{ACAD_REACTORS
330
118
102
}
330
118
100
AcDbXrecord
280
     1
102
RTVSPost2010Prop28
280
     0
102
RTVSPost2010PropOp28
 70
     1
102
RTVSPost2010Prop29
280
     1
102
RTVSPost2010PropOp29
 70
     1
102
RTVSPost2010Prop30
280
     1
102
RTVSPost2010PropOp30
 70
     1
102
RTVSPost2010Prop31
280
     0
102
RTVSPost2010PropOp31
 70
     1
102
RTVSPost2010Prop32
280
     0
102
RTVSPost2010PropOp32
 70
     1
102
RTVSPost2010Prop33
280
     0
102
RTVSPost2010PropOp33
 70
     1
102
RTVSPost2010Prop34
280
     0
102
RTVSPost2010PropOp34
 70
     1
102
RTVSPost2010Prop35
280
     0
102
RTVSPost2010PropOp35
 70
     1
102
RTVSPost2010Prop36
280
     0
102
RTVSPost2010PropOp36
 70
     1
102
RTVSPost2010Prop37
 90
       50
102
RTVSPost2010PropOp37
 70
     1
102
RTVSPost2010Prop38
140
0.0
102
RTVSPost2010PropOp38
 70
     1
102
RTVSPost2010Prop39
140
1.0
102
RTVSPost2010PropOp39
 70
     1
102
RTVSPost2010Prop40
 90
        0
102
RTVSPost2010PropOp40
 70
     1
102
RTVSPost2010Prop41ColorIndex
 90
       18
102
RTVSPost2010Prop41ColorRGB
 90
        0
102
RTVSPost2010PropOp41
 70
     1
102
RTVSPost2010Prop42
 90
       50
102
RTVSPost2010PropOp42
 70
     1
102
RTVSPost2010Prop43
 90
        3
102
RTVSPost2010PropOp43
 70
     1
102
RTVSPost2010Prop44ColorIndex
 90
        5
102
RTVSPost2010Prop44ColorRGB
 90
      255
102
RTVSPost2010PropOp44
 70
     1
102
RTVSPost2010Prop45
280
     0
102
RTVSPost2010PropOp45
 70
     1
102
RTVSPost2010Prop46
 90
       50
102
RTVSPost2010PropOp46
 70
     1
102
RTVSPost2010Prop47
 90
       50
102
RTVSPost2010PropOp47
 70
     1
102
RTVSPost2010Prop48
 90
       50
102
RTVSPost2010PropOp48
 70
     1
102
RTVSPost2010Prop49
280
     0
102
RTVSPost2010PropOp49
 70
     1
102
RTVSPost2010Prop50
 90
       50
102
RTVSPost2010PropOp50
 70
     1
102
RTVSPost2010Prop51ColorIndex
 90
      256
102
RTVSPost2010Prop51ColorRGB
 90
-16777216
102
RTVSPost2010PropOp51
 70
     0
102
RTVSPost2010Prop52
140
1.0
102
RTVSPost2010PropOp52
 70
     0
102
RTVSPost2010Prop53
 90
        2
102
RTVSPost2010PropOp53
 70
     1
102
RTVSPost2010Prop54
  1
strokes_ogs.tif
102
RTVSPost2010PropOp54
 70
     1
102
RTVSPost2010Prop55
280
     0
102
RTVSPost2010PropOp55
 70
     1
102
RTVSPost2010Prop56
140
1.0
102
RTVSPost2010PropOp56
 70
     1
102
RTVSPost2010Prop57
140
1.0
102
RTVSPost2010PropOp57
 70
     1
  0
XRECORD
  5
113
102
{ACAD_REACTORS
330
112
102
}
330
112
100
AcDbXrecord
280
     1
102
RTVSPost2010Prop28
280
     0
102
RTVSPost2010PropOp28
 70
     1
102
RTVSPost2010Prop29
280
     1
102
RTVSPost2010PropOp29
 70
     1
102
RTVSPost2010Prop30
280
     1
102
RTVSPost2010PropOp30
 70
     1
102
RTVSPost2010Prop31
280
     0
102
RTVSPost2010PropOp31
 70
     1
102
RTVSPost2010Prop32
280
     0
102
RTVSPost2010PropOp32
 70
     1
102
RTVSPost2010Prop33
280
     0
102
RTVSPost2010PropOp33
 70
     1
102
RTVSPost2010Prop34
280
     0
102
RTVSPost2010PropOp34
 70
     1
102
RTVSPost2010Prop35
280
     0
102
RTVSPost2010PropOp35
 70
     1
102
RTVSPost2010Prop36
280
     0
102
RTVSPost2010PropOp36
 70
     1
102
RTVSPost2010Prop37
 90
       50
102
RTVSPost2010PropOp37
 70
     1
102
RTVSPost2010Prop38
140
0.0
102
RTVSPost2010PropOp38
 70
     1
102
RTVSPost2010Prop39
140
1.0
102
RTVSPost2010PropOp39
 70
     1
102
RTVSPost2010Prop40
 90
        0
102
RTVSPost2010PropOp40
 70
     1
102
RTVSPost2010Prop41ColorIndex
 90
       18
102
RTVSPost2010Prop41ColorRGB
 90
        0
102
RTVSPost2010PropOp41
 70
     1
102
RTVSPost2010Prop42
 90
       50
102
RTVSPost2010PropOp42
 70
     1
102
RTVSPost2010Prop43
 90
        3
102
RTVSPost2010PropOp43
 70
     1
102
RTVSPost2010Prop44ColorIndex
 90
        5
102
RTVSPost2010Prop44ColorRGB
 90
      255
102
RTVSPost2010PropOp44
 70
     1
102
RTVSPost2010Prop45
280
     0
102
RTVSPost2010PropOp45
 70
     1
102
RTVSPost2010Prop46
 90
       50
102
RTVSPost2010PropOp46
 70
     1
102
RTVSPost2010Prop47
 90
       50
102
RTVSPost2010PropOp47
 70
     1
102
RTVSPost2010Prop48
 90
       50
102
RTVSPost2010PropOp48
 70
     1
102
RTVSPost2010Prop49
280
     0
102
RTVSPost2010PropOp49
 70
     1
102
RTVSPost2010Prop50
 90
       50
102
RTVSPost2010PropOp50
 70
     1
102
RTVSPost2010Prop51ColorIndex
 90
      256
102
RTVSPost2010Prop51ColorRGB
 90
-16777216
102
RTVSPost2010PropOp51
 70
     0
102
RTVSPost2010Prop52
140
1.0
102
RTVSPost2010PropOp52
 70
     0
102
RTVSPost2010Prop53
 90
        2
102
RTVSPost2010PropOp53
 70
     1
102
RTVSPost2010Prop54
  1
strokes_ogs.tif
102
RTVSPost2010PropOp54
 70
     1
102
RTVSPost2010Prop55
280
     0
102
RTVSPost2010PropOp55
 70
     1
102
RTVSPost2010Prop56
140
1.0
102
RTVSPost2010PropOp56
 70
     1
102
RTVSPost2010Prop57
140
1.0
102
RTVSPost2010PropOp57
 70
     1
  0
XRECORD
  5
115
102
{ACAD_REACTORS
330
114
102
}
330
114
100
AcDbXrecord
280
     1
102
RTVSPost2010Prop28
280
     0
102
RTVSPost2010PropOp28
 70
     1
102
RTVSPost2010Prop29
280
     1
102
RTVSPost2010PropOp29
 70
     1
102
RTVSPost2010Prop30
280
     1
102
RTVSPost2010PropOp30
 70
     1
102
RTVSPost2010Prop31
280
     0
102
RTVSPost2010PropOp31
 70
     1
102
RTVSPost2010Prop32
280
     0
102
RTVSPost2010PropOp32
 70
     1
102
RTVSPost2010Prop33
280
     0
102
RTVSPost2010PropOp33
 70
     1
102
RTVSPost2010Prop34
280
     0
102
RTVSPost2010PropOp34
 70
     1
102
RTVSPost2010Prop35
280
     0
102
RTVSPost2010PropOp35
 70
     1
102
RTVSPost2010Prop36
280
     0
102
RTVSPost2010PropOp36
 70
     1
102
RTVSPost2010Prop37
 90
       50
102
RTVSPost2010PropOp37
 70
     1
102
RTVSPost2010Prop38
140
0.0
102
RTVSPost2010PropOp38
 70
     1
102
RTVSPost2010Prop39
140
1.0
102
RTVSPost2010PropOp39
 70
     1
102
RTVSPost2010Prop40
 90
        0
102
RTVSPost2010PropOp40
 70
     1
102
RTVSPost2010Prop41ColorIndex
 90
       18
102
RTVSPost2010Prop41ColorRGB
 90
        0
102
RTVSPost2010PropOp41
 70
     1
102
RTVSPost2010Prop42
 90
       50
102
RTVSPost2010PropOp42
 70
     1
102
RTVSPost2010Prop43
 90
        3
102
RTVSPost2010PropOp43
 70
     1
102
RTVSPost2010Prop44ColorIndex
 90
        5
102
RTVSPost2010Prop44ColorRGB
 90
      255
102
RTVSPost2010PropOp44
 70
     1
102
RTVSPost2010Prop45
280
     0
102
RTVSPost2010PropOp45
 70
     1
102
RTVSPost2010Prop46
 90
       50
102
RTVSPost2010PropOp46
 70
     1
102
RTVSPost2010Prop47
 90
       50
102
RTVSPost2010PropOp47
 70
     1
102
RTVSPost2010Prop48
 90
       50
102
RTVSPost2010PropOp48
 70
     1
102
RTVSPost2010Prop49
280
     0
102
RTVSPost2010PropOp49
 70
     1
102
RTVSPost2010Prop50
 90
       50
102
RTVSPost2010PropOp50
 70
     1
102
RTVSPost2010Prop51ColorIndex
 90
      256
102
RTVSPost2010Prop51ColorRGB
 90
-16777216
102
RTVSPost2010PropOp51
 70
     0
102
RTVSPost2010Prop52
140
1.0
102
RTVSPost2010PropOp52
 70
     0
102
RTVSPost2010Prop53
 90
        2
102
RTVSPost2010PropOp53
 70
     1
102
RTVSPost2010Prop54
  1
strokes_ogs.tif
102
RTVSPost2010PropOp54
 70
     1
102
RTVSPost2010Prop55
280
     0
102
RTVSPost2010PropOp55
 70
     1
102
RTVSPost2010Prop56
140
1.0
102
RTVSPost2010PropOp56
 70
     1
102
RTVSPost2010Prop57
140
1.0
102
RTVSPost2010PropOp57
 70
     1
  0
XRECORD
  5
10B
102
{ACAD_REACTORS
330
10A
102
}
330
10A
100
AcDbXrecord
280
     1
102
RTVSPost2010Prop28
280
     0
102
RTVSPost2010PropOp28
 70
     1
102
RTVSPost2010Prop29
280
     1
102
RTVSPost2010PropOp29
 70
     1
102
RTVSPost2010Prop30
280
     1
102
RTVSPost2010PropOp30
 70
     1
102
RTVSPost2010Prop31
280
     0
102
RTVSPost2010PropOp31
 70
     1
102
RTVSPost2010Prop32
280
     0
102
RTVSPost2010PropOp32
 70
     1
102
RTVSPost2010Prop33
280
     0
102
RTVSPost2010PropOp33
 70
     1
102
RTVSPost2010Prop34
280
     0
102
RTVSPost2010PropOp34
 70
     1
102
RTVSPost2010Prop35
280
     0
102
RTVSPost2010PropOp35
 70
     1
102
RTVSPost2010Prop36
280
     0
102
RTVSPost2010PropOp36
 70
     1
102
RTVSPost2010Prop37
 90
       50
102
RTVSPost2010PropOp37
 70
     1
102
RTVSPost2010Prop38
140
0.0
102
RTVSPost2010PropOp38
 70
     1
102
RTVSPost2010Prop39
140
1.0
102
RTVSPost2010PropOp39
 70
     1
102
RTVSPost2010Prop40
 90
        0
102
RTVSPost2010PropOp40
 70
     1
102
RTVSPost2010Prop41ColorIndex
 90
       18
102
RTVSPost2010Prop41ColorRGB
 90
        0
102
RTVSPost2010PropOp41
 70
     1
102
RTVSPost2010Prop42
 90
       50
102
RTVSPost2010PropOp42
 70
     1
102
RTVSPost2010Prop43
 90
        3
102
RTVSPost2010PropOp43
 70
     1
102
RTVSPost2010Prop44ColorIndex
 90
        5
102
RTVSPost2010Prop44ColorRGB
 90
      255
102
RTVSPost2010PropOp44
 70
     1
102
RTVSPost2010Prop45
280
     0
102
RTVSPost2010PropOp45
 70
     1
102
RTVSPost2010Prop46
 90
       50
102
RTVSPost2010PropOp46
 70
     1
102
RTVSPost2010Prop47
 90
       50
102
RTVSPost2010PropOp47
 70
     1
102
RTVSPost2010Prop48
 90
       50
102
RTVSPost2010PropOp48
 70
     1
102
RTVSPost2010Prop49
280
     0
102
RTVSPost2010PropOp49
 70
     1
102
RTVSPost2010Prop50
 90
       50
102
RTVSPost2010PropOp50
 70
     1
102
RTVSPost2010Prop51ColorIndex
 90
      256
102
RTVSPost2010Prop51ColorRGB
 90
-16777216
102
RTVSPost2010PropOp51
 70
     0
102
RTVSPost2010Prop52
140
1.0
102
RTVSPost2010PropOp52
 70
     0
102
RTVSPost2010Prop53
 90
        2
102
RTVSPost2010PropOp53
 70
     1
102
RTVSPost2010Prop54
  1
strokes_ogs.tif
102
RTVSPost2010PropOp54
 70
     1
102
RTVSPost2010Prop55
280
     0
102
RTVSPost2010PropOp55
 70
     1
102
RTVSPost2010Prop56
140
1.0
102
RTVSPost2010PropOp56
 70
     1
102
RTVSPost2010Prop57
140
1.0
102
RTVSPost2010PropOp57
 70
     1
  0
XRECORD
  5
FF
102
{ACAD_REACTORS
330
FE
102
}
330
FE
100
AcDbXrecord
280
     1
102
RTVSPost2010Prop28
280
     0
102
RTVSPost2010PropOp28
 70
     1
102
RTVSPost2010Prop29
280
     1
102
RTVSPost2010PropOp29
 70
     1
102
RTVSPost2010Prop30
280
     1
102
RTVSPost2010PropOp30
 70
     1
102
RTVSPost2010Prop31
280
     0
102
RTVSPost2010PropOp31
 70
     1
102
RTVSPost2010Prop32
280
     0
102
RTVSPost2010PropOp32
 70
     1
102
RTVSPost2010Prop33
280
     0
102
RTVSPost2010PropOp33
 70
     1
102
RTVSPost2010Prop34
280
     0
102
RTVSPost2010PropOp34
 70
     1
102
RTVSPost2010Prop35
280
     0
102
RTVSPost2010PropOp35
 70
     1
102
RTVSPost2010Prop36
280
     0
102
RTVSPost2010PropOp36
 70
     1
102
RTVSPost2010Prop37
 90
       50
102
RTVSPost2010PropOp37
 70
     1
102
RTVSPost2010Prop38
140
0.0
102
RTVSPost2010PropOp38
 70
     1
102
RTVSPost2010Prop39
140
1.0
102
RTVSPost2010PropOp39
 70
     1
102
RTVSPost2010Prop40
 90
        0
102
RTVSPost2010PropOp40
 70
     1
102
RTVSPost2010Prop41ColorIndex
 90
       18
102
RTVSPost2010Prop41ColorRGB
 90
        0
102
RTVSPost2010PropOp41
 70
     1
102
RTVSPost2010Prop42
 90
       50
102
RTVSPost2010PropOp42
 70
     1
102
RTVSPost2010Prop43
 90
        3
102
RTVSPost2010PropOp43
 70
     1
102
RTVSPost2010Prop44ColorIndex
 90
        5
102
RTVSPost2010Prop44ColorRGB
 90
      255
102
RTVSPost2010PropOp44
 70
     1
102
RTVSPost2010Prop45
280
     0
102
RTVSPost2010PropOp45
 70
     1
102
RTVSPost2010Prop46
 90
       50
102
RTVSPost2010PropOp46
 70
     1
102
RTVSPost2010Prop47
 90
       50
102
RTVSPost2010PropOp47
 70
     1
102
RTVSPost2010Prop48
 90
       50
102
RTVSPost2010PropOp48
 70
     1
102
RTVSPost2010Prop49
280
     0
102
RTVSPost2010PropOp49
 70
     1
102
RTVSPost2010Prop50
 90
       50
102
RTVSPost2010PropOp50
 70
     1
102
RTVSPost2010Prop51ColorIndex
 90
      256
102
RTVSPost2010Prop51ColorRGB
 90
-16777216
102
RTVSPost2010PropOp51
 70
     0
102
RTVSPost2010Prop52
140
1.0
102
RTVSPost2010PropOp52
 70
     0
102
RTVSPost2010Prop53
 90
        2
102
RTVSPost2010PropOp53
 70
     1
102
RTVSPost2010Prop54
  1
strokes_ogs.tif
102
RTVSPost2010PropOp54
 70
     1
102
RTVSPost2010Prop55
280
     0
102
RTVSPost2010PropOp55
 70
     1
102
RTVSPost2010Prop56
140
1.0
102
RTVSPost2010PropOp56
 70
     1
102
RTVSPost2010Prop57
140
1.0
102
RTVSPost2010PropOp57
 70
     1
  0
XRECORD
  5
117
102
{ACAD_REACTORS
330
116
102
}
330
116
100
AcDbXrecord
280
     1
102
RTVSPost2010Prop28
280
     0
102
RTVSPost2010PropOp28
 70
     1
102
RTVSPost2010Prop29
280
     1
102
RTVSPost2010PropOp29
 70
     1
102
RTVSPost2010Prop30
280
     1
102
RTVSPost2010PropOp30
 70
     1
102
RTVSPost2010Prop31
280
     0
102
RTVSPost2010PropOp31
 70
     1
102
RTVSPost2010Prop32
280
     0
102
RTVSPost2010PropOp32
 70
     1
102
RTVSPost2010Prop33
280
     0
102
RTVSPost2010PropOp33
 70
     1
102
RTVSPost2010Prop34
280
     0
102
RTVSPost2010PropOp34
 70
     1
102
RTVSPost2010Prop35
280
     0
102
RTVSPost2010PropOp35
 70
     1
102
RTVSPost2010Prop36
280
     0
102
RTVSPost2010PropOp36
 70
     1
102
RTVSPost2010Prop37
 90
       50
102
RTVSPost2010PropOp37
 70
     1
102
RTVSPost2010Prop38
140
0.0
102
RTVSPost2010PropOp38
 70
     1
102
RTVSPost2010Prop39
140
1.0
102
RTVSPost2010PropOp39
 70
     1
102
RTVSPost2010Prop40
 90
        0
102
RTVSPost2010PropOp40
 70
     1
102
RTVSPost2010Prop41ColorIndex
 90
       18
102
RTVSPost2010Prop41ColorRGB
 90
        0
102
RTVSPost2010PropOp41
 70
     1
102
RTVSPost2010Prop42
 90
       50
102
RTVSPost2010PropOp42
 70
     1
102
RTVSPost2010Prop43
 90
        3
102
RTVSPost2010PropOp43
 70
     1
102
RTVSPost2010Prop44ColorIndex
 90
        5
102
RTVSPost2010Prop44ColorRGB
 90
      255
102
RTVSPost2010PropOp44
 70
     1
102
RTVSPost2010Prop45
280
     0
102
RTVSPost2010PropOp45
 70
     1
102
RTVSPost2010Prop46
 90
       50
102
RTVSPost2010PropOp46
 70
     1
102
RTVSPost2010Prop47
 90
       50
102
RTVSPost2010PropOp47
 70
     1
102
RTVSPost2010Prop48
 90
       50
102
RTVSPost2010PropOp48
 70
     1
102
RTVSPost2010Prop49
280
     0
102
RTVSPost2010PropOp49
 70
     1
102
RTVSPost2010Prop50
 90
       50
102
RTVSPost2010PropOp50
 70
     1
102
RTVSPost2010Prop51ColorIndex
 90
      256
102
RTVSPost2010Prop51ColorRGB
 90
-16777216
102
RTVSPost2010PropOp51
 70
     0
102
RTVSPost2010Prop52
140
1.0
102
RTVSPost2010PropOp52
 70
     0
102
RTVSPost2010Prop53
 90
        2
102
RTVSPost2010PropOp53
 70
     1
102
RTVSPost2010Prop54
  1
strokes_ogs.tif
102
RTVSPost2010PropOp54
 70
     1
102
RTVSPost2010Prop55
280
     0
102
RTVSPost2010PropOp55
 70
     1
102
RTVSPost2010Prop56
140
1.0
102
RTVSPost2010PropOp56
 70
     1
102
RTVSPost2010Prop57
140
1.0
102
RTVSPost2010PropOp57
 70
     1
  0
ENDSEC
  0
EOF
