  0
SECTION
  2
HEADER
  9
$ACADVER
  1
AC1024
  9
$ACADMAINTVER
 70
     6
  9
$DWGCODEPAGE
  3
UNDEFINED
  9
$INSBASE
 10
0.0
 20
0.0
 30
0.0
  9
$EXTMIN
 10
1.000000000000000E+20
 20
1.000000000000000E+20
 30
1.000000000000000E+20
  9
$EXTMAX
 10
-1.000000000000000E+20
 20
-1.000000000000000E+20
 30
-1.000000000000000E+20
  9
$LIMMIN
 10
0.0
 20
0.0
  9
$LIMMAX
 10
12.0
 20
9.0
  9
$ORTHOMODE
 70
     0
  9
$REGENMODE
 70
     1
  9
$FILLMODE
 70
     1
  9
$QTEXTMODE
 70
     0
  9
$MIRRTEXT
 70
     1
  9
$LTSCALE
 40
1.0
  9
$ATTMODE
 70
     1
  9
$TEXTSIZE
 40
0.2
  9
$TRACEWID
 40
0.05
  9
$TEXTSTYLE
  7
Standard
  9
$CLAYER
  8
0
  9
$CELTYPE
  6
ByLayer
  9
$CECOLOR
 62
   256
  9
$CELTSCALE
 40
1.0
  9
$DISPSILH
 70
     0
  9
$DIMSCALE
 40
1.0
  9
$DIMASZ
 40
0.18
  9
$DIMEXO
 40
0.0625
  9
$DIMDLI
 40
0.38
  9
$DIMRND
 40
0.0
  9
$DIMDLE
 40
0.0
  9
$DIMEXE
 40
0.18
  9
$DIMTP
 40
0.0
  9
$DIMTM
 40
0.0
  9
$DIMTXT
 40
0.18
  9
$DIMCEN
 40
0.09
  9
$DIMTSZ
 40
0.0
  9
$DIMTOL
 70
     0
  9
$DIMLIM
 70
     0
  9
$DIMTIH
 70
     1
  9
$DIMTOH
 70
     1
  9
$DIMSE1
 70
     0
  9
$DIMSE2
 70
     0
  9
$DIMTAD
 70
     0
  9
$DIMZIN
 70
     0
  9
$DIMBLK
  1

  9
$DIMASO
 70
     1
  9
$DIMSHO
 70
     1
  9
$DIMPOST
  1

  9
$DIMAPOST
  1

  9
$DIMALT
 70
     0
  9
$DIMALTD
 70
     2
  9
$DIMALTF
 40
25.4
  9
$DIMLFAC
 40
1.0
  9
$DIMTOFL
 70
     0
  9
$DIMTVP
 40
0.0
  9
$DIMTIX
 70
     0
  9
$DIMSOXD
 70
     0
  9
$DIMSAH
 70
     0
  9
$DIMBLK1
  1

  9
$DIMBLK2
  1

  9
$DIMSTYLE
  2
Standard
  9
$DIMCLRD
 70
     0
  9
$DIMCLRE
 70
     0
  9
$DIMCLRT
 70
     0
  9
$DIMTFAC
 40
1.0
  9
$DIMGAP
 40
0.09
  9
$DIMJUST
 70
     0
  9
$DIMSD1
 70
     0
  9
$DIMSD2
 70
     0
  9
$DIMTOLJ
 70
     1
  9
$DIMTZIN
 70
     0
  9
$DIMALTZ
 70
     0
  9
$DIMALTTZ
 70
     0
  9
$DIMUPT
 70
     0
  9
$DIMDEC
 70
     4
  9
$DIMTDEC
 70
     4
  9
$DIMALTU
 70
     2
  9
$DIMALTTD
 70
     2
  9
$DIMTXSTY
  7
Standard
  9
$DIMAUNIT
 70
     0
  9
$DIMADEC
 70
     0
  9
$DIMALTRND
 40
0.0
  9
$DIMAZIN
 70
     0
  9
$DIMDSEP
 70
    46
  9
$DIMATFIT
 70
     3
  9
$DIMFRAC
 70
     0
  9
$DIMLDRBLK
  1

  9
$DIMLUNIT
 70
     2
  9
$DIMLWD
 70
    -2
  9
$DIMLWE
 70
    -2
  9
$DIMTMOVE
 70
     0
  9
$DIMFXL
 40
1.0
  9
$DIMFXLON
 70
     0
  9
$DIMJOGANG
 40
0.7853981633974483
  9
$DIMTFILL
 70
     0
  9
$DIMTFILLCLR
 70
     0
  9
$DIMARCSYM
 70
     0
  9
$DIMLTYPE
  6

  9
$DIMLTEX1
  6

  9
$DIMLTEX2
  6

  9
$DIMTXTDIRECTION
 70
     0
  9
$LUNITS
 70
     2
  9
$LUPREC
 70
     4
  9
$SKETCHINC
 40
0.1
  9
$FILLETRAD
 40
0.5
  9
$AUNITS
 70
     0
  9
$AUPREC
 70
     0
  9
$MENU
  1
.
  9
$ELEVATION
 40
0.0
  9
$PELEVATION
 40
0.0
  9
$THICKNESS
 40
0.0
  9
$LIMCHECK
 70
     0
  9
$CHAMFERA
 40
0.5
  9
$CHAMFERB
 40
0.5
  9
$CHAMFERC
 40
1.0
  9
$CHAMFERD
 40
0.0
  9
$SKPOLY
 70
     0
  9
$TDCREATE
 40
2457917.59193287
  9
$TDUCREATE
 40
2457917.21693287
  9
$TDUPDATE
 40
2457917.59193287
  9
$TDUUPDATE
 40
2457917.21693287
  9
$TDINDWG
 40
0.0000000116
  9
$TDUSRTIMER
 40
0.0000000116
  9
$USRTIMER
 70
     1
  9
$ANGBASE
 50
0.0
  9
$ANGDIR
 70
     0
  9
$PDMODE
 70
     0
  9
$PDSIZE
 40
0.0
  9
$PLINEWID
 40
0.0
  9
$SPLFRAME
 70
     0
  9
$SPLINETYPE
 70
     6
  9
$SPLINESEGS
 70
     8
  9
$HANDSEED
  5
BD
  9
$SURFTAB1
 70
     6
  9
$SURFTAB2
 70
     6
  9
$SURFTYPE
 70
     6
  9
$SURFU
 70
     6
  9
$SURFV
 70
     6
  9
$UCSBASE
  2

  9
$UCSNAME
  2

  9
$UCSORG
 10
0.0
 20
0.0
 30
0.0
  9
$UCSXDIR
 10
1.0
 20
0.0
 30
0.0
  9
$UCSYDIR
 10
0.0
 20
1.0
 30
0.0
  9
$UCSORTHOREF
  2

  9
$UCSORTHOVIEW
 70
     0
  9
$UCSORGTOP
 10
0.0
 20
0.0
 30
0.0
  9
$UCSORGBOTTOM
 10
0.0
 20
0.0
 30
0.0
  9
$UCSORGLEFT
 10
0.0
 20
0.0
 30
0.0
  9
$UCSORGRIGHT
 10
0.0
 20
0.0
 30
0.0
  9
$UCSORGFRONT
 10
0.0
 20
0.0
 30
0.0
  9
$UCSORGBACK
 10
0.0
 20
0.0
 30
0.0
  9
$PUCSBASE
  2

  9
$PUCSNAME
  2

  9
$PUCSORG
 10
0.0
 20
0.0
 30
0.0
  9
$PUCSXDIR
 10
1.0
 20
0.0
 30
0.0
  9
$PUCSYDIR
 10
0.0
 20
1.0
 30
0.0
  9
$PUCSORTHOREF
  2

  9
$PUCSORTHOVIEW
 70
     0
  9
$PUCSORGTOP
 10
0.0
 20
0.0
 30
0.0
  9
$PUCSORGBOTTOM
 10
0.0
 20
0.0
 30
0.0
  9
$PUCSORGLEFT
 10
0.0
 20
0.0
 30
0.0
  9
$PUCSORGRIGHT
 10
0.0
 20
0.0
 30
0.0
  9
$PUCSORGFRONT
 10
0.0
 20
0.0
 30
0.0
  9
$PUCSORGBACK
 10
0.0
 20
0.0
 30
0.0
  9
$USERI1
 70
     0
  9
$USERI2
 70
     0
  9
$USERI3
 70
     0
  9
$USERI4
 70
     0
  9
$USERI5
 70
     0
  9
$USERR1
 40
0.0
  9
$USERR2
 40
0.0
  9
$USERR3
 40
0.0
  9
$USERR4
 40
0.0
  9
$USERR5
 40
0.0
  9
$WORLDVIEW
 70
     1
  9
$SHADEDGE
 70
     3
  9
$SHADEDIF
 70
    70
  9
$TILEMODE
 70
     1
  9
$MAXACTVP
 70
    64
  9
$PINSBASE
 10
0.0
 20
0.0
 30
0.0
  9
$PLIMCHECK
 70
     0
  9
$PEXTMIN
 10
1.000000000000000E+20
 20
1.000000000000000E+20
 30
1.000000000000000E+20
  9
$PEXTMAX
 10
-1.000000000000000E+20
 20
-1.000000000000000E+20
 30
-1.000000000000000E+20
  9
$PLIMMIN
 10
0.0
 20
0.0
  9
$PLIMMAX
 10
12.0
 20
9.0
  9
$UNITMODE
 70
     0
  9
$VISRETAIN
 70
     1
  9
$PLINEGEN
 70
     0
  9
$PSLTSCALE
 70
     1
  9
$TREEDEPTH
 70
  3020
  9
$CMLSTYLE
  2
Standard
  9
$CMLJUST
 70
     0
  9
$CMLSCALE
 40
1.0
  9
$PROXYGRAPHICS
 70
     1
  9
$MEASUREMENT
 70
     0
  9
$CELWEIGHT
370
    -1
  9
$ENDCAPS
280
     0
  9
$JOINSTYLE
280
     0
  9
$LWDISPLAY
290
     1
  9
$INSUNITS
 70
     1
  9
$HYPERLINKBASE
  1

  9
$STYLESHEET
  1

  9
$XEDIT
290
     1
  9
$CEPSNTYPE
380
     0
  9
$PSTYLEMODE
290
     1
  9
$FINGERPRINTGUID
  2
{DE5F0EBA-4842-A829-3DFC-75126A2F81EE}
  9
$VERSIONGUID
  2
{FAEB1C32-E019-11D5-929B-00C0DF256EC4}
  9
$EXTNAMES
290
     1
  9
$PSVPSCALE
 40
0.0
  9
$OLESTARTUP
290
     0
  9
$SORTENTS
280
   127
  9
$INDEXCTL
280
     0
  9
$HIDETEXT
280
     1
  9
$XCLIPFRAME
280
     2
  9
$HALOGAP
280
     0
  9
$OBSCOLOR
 70
   257
  9
$OBSLTYPE
280
     0
  9
$INTERSECTIONDISPLAY
280
     0
  9
$INTERSECTIONCOLOR
 70
   257
  9
$DIMASSOC
280
     2
  9
$PROJECTNAME
  1

  9
$CAMERADISPLAY
290
     0
  9
$LENSLENGTH
 40
50.0
  9
$CAMERAHEIGHT
 40
0.0
  9
$STEPSPERSEC
 40
2.0
  9
$STEPSIZE
 40
6.0
  9
$3DDWFPREC
 40
2.0
  9
$PSOLWIDTH
 40
0.25
  9
$PSOLHEIGHT
 40
4.0
  9
$LOFTANG1
 40
1.570796326794897
  9
$LOFTANG2
 40
1.570796326794897
  9
$LOFTMAG1
 40
0.0
  9
$LOFTMAG2
 40
0.0
  9
$LOFTPARAM
 70
     7
  9
$LOFTNORMALS
280
     1
  9
$LATITUDE
 40
37.795
  9
$LONGITUDE
 40
-122.394
  9
$NORTHDIRECTION
 40
0.0
  9
$TIMEZONE
 70
 -8000
  9
$LIGHTGLYPHDISPLAY
280
     1
  9
$TILEMODELIGHTSYNCH
280
     1
  9
$CMATERIAL
347
3C
  9
$SOLIDHIST
280
     1
  9
$SHOWHIST
280
     1
  9
$DWFFRAME
280
     2
  9
$DGNFRAME
280
     2
  9
$REALWORLDSCALE
290
     1
  9
$INTERFERECOLOR
 62
   256
  9
$CSHADOW
280
     0
  9
$SHADOWPLANELOCATION
 40
0.0
  0
ENDSEC
  0
SECTION
  2
CLASSES
  0
CLASS
  1
ACDBDICTIONARYWDFLT
  2
AcDbDictionaryWithDefault
  3
ObjectDBX Classes
 90
        0
 91
        4
280
     0
281
     0
  0
CLASS
  1
VISUALSTYLE
  2
AcDbVisualStyle
  3
ObjectDBX Classes
 90
     4095
 91
        4
280
     0
281
     0
  0
CLASS
  1
MATERIAL
  2
AcDbMaterial
  3
ObjectDBX Classes
 90
     1153
 91
        4
280
     0
281
     0
  0
CLASS
  1
SUN
  2
AcDbSun
  3
SCENEOE
 90
     1024
 91
        4
280
     0
281
     0
  0
ENDSEC
  0
SECTION
  2
TABLES
  0
TABLE
  2
VPORT
  5
8
330
0
100
AcDbSymbolTable
 70
     1
  0
VPORT
  5
29
330
8
100
AcDbSymbolTableRecord
100
AcDbViewportTableRecord
  2
*Active
 70
     0
 10
0.0
 20
0.0
 11
1.0
 21
1.0
 12
0.0
 22
0.0
 13
0.0
 23
0.0
 14
0.5
 24
0.5
 15
0.5
 25
0.5
 16
0.0
 26
0.0
 36
1.0
 17
91.00082462281999
 27
-128.4993055234307
 37
0.0
 40
256.9986110468615
 41
0.7081814508812795
 42
50.0
 43
0.0
 44
0.0
 50
0.0
 51
0.0
 71
     0
 72
   100
 73
     1
 74
     3
 75
     0
 76
     0
 77
     0
 78
     0
281
     0
 65
     1
110
0.0
120
0.0
130
0.0
111
1.0
121
0.0
131
0.0
112
0.0
122
1.0
132
0.0
 79
     0
146
0.0
 60
     3
 61
     5
292
     1
282
     1
141
0.0
142
0.0
 63
   250
361
3F
  0
ENDTAB
  0
TABLE
  2
LTYPE
  5
5
330
0
100
AcDbSymbolTable
 70
     1
  0
LTYPE
  5
14
330
5
100
AcDbSymbolTableRecord
100
AcDbLinetypeTableRecord
  2
ByBlock
 70
     0
  3

 72
    65
 73
     0
 40
0.0
  0
LTYPE
  5
15
330
5
100
AcDbSymbolTableRecord
100
AcDbLinetypeTableRecord
  2
ByLayer
 70
     0
  3

 72
    65
 73
     0
 40
0.0
  0
LTYPE
  5
16
330
5
100
AcDbSymbolTableRecord
100
AcDbLinetypeTableRecord
  2
Continuous
 70
     0
  3
Solid line
 72
    65
 73
     0
 40
0.0
  0
ENDTAB
  0
TABLE
  2
LAYER
  5
2
330
0
100
AcDbSymbolTable
 70
     2
  0
LAYER
  5
10
330
2
100
AcDbSymbolTableRecord
100
AcDbLayerTableRecord
  2
0
 70
     0
 62
     7
  6
Continuous
370
    -3
390
F
347
3E
  0
LAYER
  5
40
330
2
100
AcDbSymbolTableRecord
100
AcDbLayerTableRecord
  2
_U+30EC_U+30A4_U+30E4_U+30FC 1
 70
     0
 62
     7
  6
Continuous
370
    -3
390
F
347
3E
  0
ENDTAB
  0
TABLE
  2
STYLE
  5
3
330
0
100
AcDbSymbolTable
 70
     1
  0
STYLE
  5
11
330
3
100
AcDbSymbolTableRecord
100
AcDbTextStyleTableRecord
  2
Standard
 70
     0
 40
0.0
 41
1.0
 50
0.0
 71
     0
 42
0.2
  3
txt
  4

  0
ENDTAB
  0
TABLE
  2
VIEW
  5
6
330
0
100
AcDbSymbolTable
 70
     0
  0
ENDTAB
  0
TABLE
  2
UCS
  5
7
330
0
100
AcDbSymbolTable
 70
     0
  0
ENDTAB
  0
TABLE
  2
APPID
  5
9
330
0
100
AcDbSymbolTable
 70
     1
  0
APPID
  5
12
330
9
100
AcDbSymbolTableRecord
100
AcDbRegAppTableRecord
  2
ACAD
 70
     0
  0
ENDTAB
  0
TABLE
  2
DIMSTYLE
  5
A
330
0
100
AcDbSymbolTable
 70
     1
100
AcDbDimStyleTable
  0
DIMSTYLE
105
27
330
A
100
AcDbSymbolTableRecord
100
AcDbDimStyleTableRecord
  2
Standard
 70
     0
178
     0
340
11
  0
ENDTAB
  0
TABLE
  2
BLOCK_RECORD
  5
1
330
0
100
AcDbSymbolTable
 70
     6
  0
BLOCK_RECORD
  5
1F
330
1
100
AcDbSymbolTableRecord
100
AcDbBlockTableRecord
  2
*Model_Space
340
22
 70
     0
280
     1
281
     0
  0
BLOCK_RECORD
  5
1B
330
1
100
AcDbSymbolTableRecord
100
AcDbBlockTableRecord
  2
*Paper_Space
340
1E
 70
     0
280
     1
281
     0
  0
BLOCK_RECORD
  5
23
330
1
100
AcDbSymbolTableRecord
100
AcDbBlockTableRecord
  2
*Paper_Space0
340
26
 70
     0
280
     1
281
     0
  0
BLOCK_RECORD
  5
63
330
1
100
AcDbSymbolTableRecord
100
AcDbBlockTableRecord
  2
block 2
340
0
102
{BLKREFS
331
64
102
}
 70
     0
280
     1
281
     0
  0
BLOCK_RECORD
  5
78
330
1
100
AcDbSymbolTableRecord
100
AcDbBlockTableRecord
  2
block 3
340
0
102
{BLKREFS
331
79
102
}
 70
     0
280
     1
281
     0
  0
BLOCK_RECORD
  5
89
330
1
100
AcDbSymbolTableRecord
100
AcDbBlockTableRecord
  2
block 4
340
0
102
{BLKREFS
331
8A
102
}
 70
     0
280
     1
281
     0
  0
BLOCK_RECORD
  5
8F
330
1
100
AcDbSymbolTableRecord
100
AcDbBlockTableRecord
  2
block 5
340
0
102
{BLKREFS
331
90
102
}
 70
     0
280
     1
281
     0
  0
BLOCK_RECORD
  5
B3
330
1
100
AcDbSymbolTableRecord
100
AcDbBlockTableRecord
  2
block 6
340
0
102
{BLKREFS
331
B4
102
}
 70
     0
280
     1
281
     0
  0
ENDTAB
  0
ENDSEC
  0
SECTION
  2
BLOCKS
  0
BLOCK
  5
20
330
1F
100
AcDbEntity
  8
0
100
AcDbBlockBegin
  2
*Model_Space
 70
     0
 10
0.0
 20
0.0
 30
0.0
  3
*Model_Space
  1

  0
ENDBLK
  5
21
330
1F
100
AcDbEntity
  8
0
100
AcDbBlockEnd
  0
BLOCK
  5
1C
330
1B
100
AcDbEntity
 67
     1
  8
0
100
AcDbBlockBegin
  2
*Paper_Space
 70
     0
 10
0.0
 20
0.0
 30
0.0
  3
*Paper_Space
  1

  0
ENDBLK
  5
1D
330
1B
100
AcDbEntity
 67
     1
  8
0
100
AcDbBlockEnd
  0
BLOCK
  5
24
330
23
100
AcDbEntity
  8
0
100
AcDbBlockBegin
  2
*Paper_Space0
 70
     0
 10
0.0
 20
0.0
 30
0.0
  3
*Paper_Space0
  1

  0
ENDBLK
  5
25
330
23
100
AcDbEntity
  8
0
100
AcDbBlockEnd
  0
BLOCK
  5
65
330
63
100
AcDbEntity
  8
0
100
AcDbBlockBegin
  2
block 2
 70
     0
 10
0.0
 20
0.0
 30
0.0
  3
block 2
  1

  0
SPLINE
  5
67
330
63
100
AcDbEntity
  8
_U+30EC_U+30A4_U+30E4_U+30FC 1
370
     0
100
AcDbSpline
210
0.0
220
0.0
230
1.0
 70
    11
 71
     3
 72
    26
 73
    22
 74
     0
 42
0.0000000001
 43
0.0000000001
 12
1.0
 22
0.0
 32
0.0
 13
1.0
 23
0.0
 33
0.0
 40
0.0
 40
0.0
 40
0.0
 40
0.0
 40
1.0
 40
1.0
 40
1.0
 40
2.0
 40
2.0
 40
2.0
 40
3.0
 40
3.0
 40
3.0
 40
4.0
 40
4.0
 40
4.0
 40
5.0
 40
5.0
 40
5.0
 40
6.0
 40
6.0
 40
6.0
 40
7.0
 40
7.0
 40
7.0
 40
7.0
 10
81.8583970606986
 20
-137.3528564109743
 30
0.0
 10
81.8583970606986
 20
-137.3528564109743
 30
0.0
 10
81.8583970606986
 20
-136.2487033079517
 30
0.0
 10
81.8583970606986
 20
-136.2487033079517
 30
0.0
 10
81.8583970606986
 20
-136.2487033079517
 30
0.0
 10
81.52835691321167
 20
-136.2487033079517
 30
0.0
 10
81.52835691321167
 20
-136.2487033079517
 30
0.0
 10
81.52835691321167
 20
-136.2487033079517
 30
0.0
 10
81.52835691321167
 20
-136.100564202086
 30
0.0
 10
81.52835691321167
 20
-136.100564202086
 30
0.0
 10
81.86046411798975
 20
-136.0857502914994
 30
0.0
 10
81.90697290704063
 20
-135.9227972750471
 30
0.0
 10
81.93660072821378
 20
-135.8084201049368
 30
0.0
 10
81.93660072821378
 20
-135.8084201049368
 30
0.0
 10
82.08267277678836
 20
-135.8084201049368
 30
0.0
 10
82.08267277678836
 20
-135.8084201049368
 30
0.0
 10
82.08267277678836
 20
-135.8084201049368
 30
0.0
 10
82.08267277678836
 20
-137.3528564109743
 30
0.0
 10
82.08267277678836
 20
-137.3528564109743
 30
0.0
 10
82.08267277678836
 20
-137.3528564109743
 30
0.0
 10
81.8583970606986
 20
-137.3528564109743
 30
0.0
 10
81.8583970606986
 20
-137.3528564109743
 30
0.0
  0
HATCH
  5
68
330
63
100
AcDbEntity
  8
_U+30EC_U+30A4_U+30E4_U+30FC 1
 62
   179
420
  2234388
100
AcDbHatch
 10
0.0
 20
0.0
 30
0.0
210
0.0
220
0.0
230
1.0
  2
SOLID
 70
     1
 71
     0
 91
        1
 92
        1
 93
        1
 72
     4
 94
        3
 73
     0
 74
     1
 95
       26
 96
       22
 40
0.0
 40
0.0
 40
0.0
 40
0.0
 40
1.0
 40
1.0
 40
1.0
 40
2.0
 40
2.0
 40
2.0
 40
3.0
 40
3.0
 40
3.0
 40
4.0
 40
4.0
 40
4.0
 40
5.0
 40
5.0
 40
5.0
 40
6.0
 40
6.0
 40
6.0
 40
7.0
 40
7.0
 40
7.0
 40
7.0
 10
81.8583970606986
 20
-137.3528564109743
 10
81.8583970606986
 20
-137.3528564109743
 10
81.8583970606986
 20
-136.2487033079517
 10
81.8583970606986
 20
-136.2487033079517
 10
81.8583970606986
 20
-136.2487033079517
 10
81.52835691321167
 20
-136.2487033079517
 10
81.52835691321167
 20
-136.2487033079517
 10
81.52835691321167
 20
-136.2487033079517
 10
81.52835691321167
 20
-136.100564202086
 10
81.52835691321167
 20
-136.100564202086
 10
81.86046411798975
 20
-136.0857502914994
 10
81.90697290704063
 20
-135.9227972750471
 10
81.93660072821378
 20
-135.8084201049368
 10
81.93660072821378
 20
-135.8084201049368
 10
82.08267277678836
 20
-135.8084201049368
 10
82.08267277678836
 20
-135.8084201049368
 10
82.08267277678836
 20
-135.8084201049368
 10
82.08267277678836
 20
-137.3528564109743
 10
82.08267277678836
 20
-137.3528564109743
 10
82.08267277678836
 20
-137.3528564109743
 10
81.8583970606986
 20
-137.3528564109743
 10
81.8583970606986
 20
-137.3528564109743
 97
        0
 97
        0
 75
     2
 76
     1
 98
        0
  0
SPLINE
  5
69
330
63
100
AcDbEntity
  8
_U+30EC_U+30A4_U+30E4_U+30FC 1
370
     0
100
AcDbSpline
210
0.0
220
0.0
230
1.0
 70
    11
 71
     3
 72
    29
 73
    25
 74
     0
 42
0.0000000001
 43
0.0000000001
 12
1.0
 22
0.0
 32
0.0
 13
1.0
 23
0.0
 33
0.0
 40
0.0
 40
0.0
 40
0.0
 40
0.0
 40
1.0
 40
1.0
 40
1.0
 40
2.0
 40
2.0
 40
2.0
 40
3.0
 40
3.0
 40
3.0
 40
4.0
 40
4.0
 40
4.0
 40
5.0
 40
5.0
 40
5.0
 40
6.0
 40
6.0
 40
6.0
 40
7.0
 40
7.0
 40
7.0
 40
8.0
 40
8.0
 40
8.0
 40
8.0
 10
83.48172605334832
 20
-137.1750894839354
 30
0.0
 10
83.37355005511148
 20
-137.3845512894386
 30
0.0
 10
83.20026175220342
 20
-137.4034993146075
 30
0.0
 10
83.08381752480197
 20
-137.4034993146075
 30
0.0
 10
82.9229315656408
 20
-137.4034993146075
 30
0.0
 10
82.78133814119703
 20
-137.3569905255566
 30
0.0
 10
82.68625350580413
 20
-137.1750894839354
 30
0.0
 10
82.58255613169811
 20
-136.9804415890188
 30
0.0
 10
82.56360810652924
 20
-136.7437635291821
 30
0.0
 10
82.56360810652924
 20
-136.5808105127298
 30
0.0
 10
82.56360810652924
 20
-136.4368055214464
 30
0.0
 10
82.58048907440697
 20
-136.1849690414746
 30
0.0
 10
82.68625350580413
 20
-135.9861870319757
 30
0.0
 10
82.79408499449245
 20
-135.7832709078945
 30
0.0
 10
82.95497095365363
 20
-135.7598442585948
 30
0.0
 10
83.08381752480197
 20
-135.7598442585948
 30
0.0
 10
83.24263642667198
 20
-135.7598442585948
 30
0.0
 10
83.3862969084069
 20
-135.8042859903545
 30
0.0
 10
83.48172605334832
 20
-135.9861870319757
 30
0.0
 10
83.58094480332352
 20
-136.1787678696012
 30
0.0
 10
83.60437145262321
 20
-136.4071777002732
 30
0.0
 10
83.60437145262321
 20
-136.5808105127298
 30
0.0
 10
83.60437145262321
 20
-136.7520317583467
 30
0.0
 10
83.58301186061466
 20
-136.9825086463099
 30
0.0
 10
83.48172605334832
 20
-137.1750894839354
 30
0.0
  0
SPLINE
  5
6A
330
63
100
AcDbEntity
  8
_U+30EC_U+30A4_U+30E4_U+30FC 1
370
     0
100
AcDbSpline
210
0.0
220
0.0
230
1.0
 70
    11
 71
     3
 72
    17
 73
    13
 74
     0
 42
0.0000000001
 43
0.0000000001
 12
1.0
 22
0.0
 32
0.0
 13
1.0
 23
0.0
 33
0.0
 40
0.0
 40
0.0
 40
0.0
 40
0.0
 40
1.0
 40
1.0
 40
1.0
 40
2.0
 40
2.0
 40
2.0
 40
3.0
 40
3.0
 40
3.0
 40
4.0
 40
4.0
 40
4.0
 40
4.0
 10
83.08381752480197
 20
-135.9524250962202
 30
0.0
 10
82.83439261166988
 20
-135.9524250962202
 30
0.0
 10
82.78753931307048
 20
-136.2359564546563
 30
0.0
 10
82.78753931307048
 20
-136.5808105127298
 30
0.0
 10
82.78753931307048
 20
-136.9001708642125
 30
0.0
 10
82.8237128156656
 20
-137.2088514196909
 30
0.0
 10
83.08381752480197
 20
-137.2088514196909
 30
0.0
 10
83.33151989019143
 20
-137.2088514196909
 30
0.0
 10
83.38009573653345
 20
-136.9277316280944
 30
0.0
 10
83.38009573653345
 20
-136.5808105127298
 30
0.0
 10
83.38009573653345
 20
-136.2611056516986
 30
0.0
 10
83.34185517664717
 20
-135.9524250962202
 30
0.0
 10
83.08381752480197
 20
-135.9524250962202
 30
0.0
  0
HATCH
  5
6B
330
63
100
AcDbEntity
  8
_U+30EC_U+30A4_U+30E4_U+30FC 1
 62
   179
420
  2234388
100
AcDbHatch
 10
0.0
 20
0.0
 30
0.0
210
0.0
220
0.0
230
1.0
  2
SOLID
 70
     1
 71
     0
 91
        2
 92
        1
 93
        1
 72
     4
 94
        3
 73
     0
 74
     1
 95
       29
 96
       25
 40
0.0
 40
0.0
 40
0.0
 40
0.0
 40
1.0
 40
1.0
 40
1.0
 40
2.0
 40
2.0
 40
2.0
 40
3.0
 40
3.0
 40
3.0
 40
4.0
 40
4.0
 40
4.0
 40
5.0
 40
5.0
 40
5.0
 40
6.0
 40
6.0
 40
6.0
 40
7.0
 40
7.0
 40
7.0
 40
8.0
 40
8.0
 40
8.0
 40
8.0
 10
83.48172605334832
 20
-137.1750894839354
 10
83.37355005511148
 20
-137.3845512894386
 10
83.20026175220342
 20
-137.4034993146075
 10
83.08381752480197
 20
-137.4034993146075
 10
82.9229315656408
 20
-137.4034993146075
 10
82.78133814119703
 20
-137.3569905255566
 10
82.68625350580413
 20
-137.1750894839354
 10
82.58255613169811
 20
-136.9804415890188
 10
82.56360810652924
 20
-136.7437635291821
 10
82.56360810652924
 20
-136.5808105127298
 10
82.56360810652924
 20
-136.4368055214464
 10
82.58048907440697
 20
-136.1849690414746
 10
82.68625350580413
 20
-135.9861870319757
 10
82.79408499449245
 20
-135.7832709078945
 10
82.95497095365363
 20
-135.7598442585948
 10
83.08381752480197
 20
-135.7598442585948
 10
83.24263642667198
 20
-135.7598442585948
 10
83.3862969084069
 20
-135.8042859903545
 10
83.48172605334832
 20
-135.9861870319757
 10
83.58094480332352
 20
-136.1787678696012
 10
83.60437145262321
 20
-136.4071777002732
 10
83.60437145262321
 20
-136.5808105127298
 10
83.60437145262321
 20
-136.7520317583467
 10
83.58301186061466
 20
-136.9825086463099
 10
83.48172605334832
 20
-137.1750894839354
 97
        0
 97
        0
 92
        1
 93
        1
 72
     4
 94
        3
 73
     0
 74
     1
 95
       17
 96
       13
 40
0.0
 40
0.0
 40
0.0
 40
0.0
 40
1.0
 40
1.0
 40
1.0
 40
2.0
 40
2.0
 40
2.0
 40
3.0
 40
3.0
 40
3.0
 40
4.0
 40
4.0
 40
4.0
 40
4.0
 10
83.08381752480197
 20
-135.9524250962202
 10
82.83439261166988
 20
-135.9524250962202
 10
82.78753931307048
 20
-136.2359564546563
 10
82.78753931307048
 20
-136.5808105127298
 10
82.78753931307048
 20
-136.9001708642125
 10
82.8237128156656
 20
-137.2088514196909
 10
83.08381752480197
 20
-137.2088514196909
 10
83.33151989019143
 20
-137.2088514196909
 10
83.38009573653345
 20
-136.9277316280944
 10
83.38009573653345
 20
-136.5808105127298
 10
83.38009573653345
 20
-136.2611056516986
 10
83.34185517664717
 20
-135.9524250962202
 10
83.08381752480197
 20
-135.9524250962202
 97
        0
 97
        0
 75
     2
 76
     1
 98
        0
  0
ENDBLK
  5
66
330
63
100
AcDbEntity
  8
0
100
AcDbBlockEnd
  0
BLOCK
  5
7A
330
78
100
AcDbEntity
  8
0
100
AcDbBlockBegin
  2
block 3
 70
     0
 10
0.0
 20
0.0
 30
0.0
  3
block 3
  1

  0
SPLINE
  5
7C
330
78
100
AcDbEntity
  8
_U+30EC_U+30A4_U+30E4_U+30FC 1
370
     0
100
AcDbSpline
210
0.0
220
0.0
230
1.0
 70
    11
 71
     3
 72
    32
 73
    28
 74
     0
 42
0.0000000001
 43
0.0000000001
 12
1.0
 22
0.0
 32
0.0
 13
1.0
 23
0.0
 33
0.0
 40
0.0
 40
0.0
 40
0.0
 40
0.0
 40
1.0
 40
1.0
 40
1.0
 40
2.0
 40
2.0
 40
2.0
 40
3.0
 40
3.0
 40
3.0
 40
4.0
 40
4.0
 40
4.0
 40
5.0
 40
5.0
 40
5.0
 40
6.0
 40
6.0
 40
6.0
 40
7.0
 40
7.0
 40
7.0
 40
8.0
 40
8.0
 40
8.0
 40
9.0
 40
9.0
 40
9.0
 40
9.0
 10
103.0800129950633
 20
-128.6631198137544
 30
0.0
 10
103.0800129950633
 20
-129.179367372219
 30
0.0
 10
102.5260416410352
 20
-129.1876356013836
 30
0.0
 10
102.3124457209497
 20
-129.1876356013836
 30
0.0
 10
102.0816243234379
 20
-129.1876356013836
 30
0.0
 10
101.4342908817595
 20
-129.1686875762148
 30
0.0
 10
101.4342908817595
 20
-128.6250515086423
 30
0.0
 10
101.4342908817595
 20
-128.45159095096
 30
0.0
 10
101.5042263201101
 20
-128.206127897636
 30
0.0
 10
101.8363335248881
 20
-128.168059592524
 30
0.0
 10
101.8363335248881
 20
-128.168059592524
 30
0.0
 10
101.8363335248881
 20
-128.3818277673837
 30
0.0
 10
101.8363335248881
 20
-128.3818277673837
 30
0.0
 10
101.779144939833
 20
-128.3923353086137
 30
0.0
 10
101.6310058339673
 20
-128.424030187078
 30
0.0
 10
101.6310058339673
 20
-128.6271185659335
 30
0.0
 10
101.6310058339673
 20
-128.9189181535342
 30
0.0
 10
101.958978924163
 20
-128.9595702802601
 30
0.0
 10
102.1643066150839
 20
-128.971972624007
 30
0.0
 10
102.0857584380202
 20
-128.8789550459053
 30
0.0
 10
102.0265027956739
 20
-128.8114311743944
 30
0.0
 10
102.0265027956739
 20
-128.6293578779989
 30
0.0
 10
102.0265027956739
 20
-128.4495238936689
 30
0.0
 10
102.1346787939108
 20
-128.1470445100639
 30
0.0
 10
102.5405110420732
 20
-128.1470445100639
 30
0.0
 10
102.8602159031044
 20
-128.1470445100639
 30
0.0
 10
103.0800129950633
 20
-128.3458265195628
 30
0.0
 10
103.0800129950633
 20
-128.6631198137544
 30
0.0
  0
SPLINE
  5
7D
330
78
100
AcDbEntity
  8
_U+30EC_U+30A4_U+30E4_U+30FC 1
370
     0
100
AcDbSpline
210
0.0
220
0.0
230
1.0
 70
    11
 71
     3
 72
    17
 73
    13
 74
     0
 42
0.0000000001
 43
0.0000000001
 12
1.0
 22
0.0
 32
0.0
 13
1.0
 23
0.0
 33
0.0
 40
0.0
 40
0.0
 40
0.0
 40
0.0
 40
1.0
 40
1.0
 40
1.0
 40
2.0
 40
2.0
 40
2.0
 40
3.0
 40
3.0
 40
3.0
 40
4.0
 40
4.0
 40
4.0
 40
4.0
 10
102.2214952001391
 20
-128.6462388458766
 30
0.0
 10
102.2214952001391
 20
-128.9085828670784
 30
0.0
 10
102.4330240629334
 20
-128.9464789174162
 30
0.0
 10
102.5491237807863
 20
-128.9464789174162
 30
0.0
 10
102.7244791409856
 20
-128.9464789174162
 30
0.0
 10
102.8877766669864
 20
-128.8513942820233
 30
0.0
 10
102.8877766669864
 20
-128.6674261831109
 30
0.0
 10
102.8877766669864
 20
-128.5468478411272
 30
0.0
 10
102.8285210246401
 20
-128.3711479713794
 30
0.0
 10
102.5425780993644
 20
-128.3711479713794
 30
0.0
 10
102.3186468928231
 20
-128.3711479713794
 30
0.0
 10
102.2214952001391
 20
-128.5108465933063
 30
0.0
 10
102.2214952001391
 20
-128.6462388458766
 30
0.0
  0
HATCH
  5
7E
330
78
100
AcDbEntity
  8
_U+30EC_U+30A4_U+30E4_U+30FC 1
 62
   179
420
  2234388
100
AcDbHatch
 10
0.0
 20
0.0
 30
0.0
210
0.0
220
0.0
230
1.0
  2
SOLID
 70
     1
 71
     0
 91
        2
 92
        1
 93
        1
 72
     4
 94
        3
 73
     0
 74
     1
 95
       32
 96
       28
 40
0.0
 40
0.0
 40
0.0
 40
0.0
 40
1.0
 40
1.0
 40
1.0
 40
2.0
 40
2.0
 40
2.0
 40
3.0
 40
3.0
 40
3.0
 40
4.0
 40
4.0
 40
4.0
 40
5.0
 40
5.0
 40
5.0
 40
6.0
 40
6.0
 40
6.0
 40
7.0
 40
7.0
 40
7.0
 40
8.0
 40
8.0
 40
8.0
 40
9.0
 40
9.0
 40
9.0
 40
9.0
 10
103.0800129950633
 20
-128.6631198137544
 10
103.0800129950633
 20
-129.179367372219
 10
102.5260416410352
 20
-129.1876356013836
 10
102.3124457209497
 20
-129.1876356013836
 10
102.0816243234379
 20
-129.1876356013836
 10
101.4342908817595
 20
-129.1686875762148
 10
101.4342908817595
 20
-128.6250515086423
 10
101.4342908817595
 20
-128.45159095096
 10
101.5042263201101
 20
-128.206127897636
 10
101.8363335248881
 20
-128.168059592524
 10
101.8363335248881
 20
-128.168059592524
 10
101.8363335248881
 20
-128.3818277673837
 10
101.8363335248881
 20
-128.3818277673837
 10
101.779144939833
 20
-128.3923353086137
 10
101.6310058339673
 20
-128.424030187078
 10
101.6310058339673
 20
-128.6271185659335
 10
101.6310058339673
 20
-128.9189181535342
 10
101.958978924163
 20
-128.9595702802601
 10
102.1643066150839
 20
-128.971972624007
 10
102.0857584380202
 20
-128.8789550459053
 10
102.0265027956739
 20
-128.8114311743944
 10
102.0265027956739
 20
-128.6293578779989
 10
102.0265027956739
 20
-128.4495238936689
 10
102.1346787939108
 20
-128.1470445100639
 10
102.5405110420732
 20
-128.1470445100639
 10
102.8602159031044
 20
-128.1470445100639
 10
103.0800129950633
 20
-128.3458265195628
 10
103.0800129950633
 20
-128.6631198137544
 97
        0
 97
        0
 92
        1
 93
        1
 72
     4
 94
        3
 73
     0
 74
     1
 95
       17
 96
       13
 40
0.0
 40
0.0
 40
0.0
 40
0.0
 40
1.0
 40
1.0
 40
1.0
 40
2.0
 40
2.0
 40
2.0
 40
3.0
 40
3.0
 40
3.0
 40
4.0
 40
4.0
 40
4.0
 40
4.0
 10
102.2214952001391
 20
-128.6462388458766
 10
102.2214952001391
 20
-128.9085828670784
 10
102.4330240629334
 20
-128.9464789174162
 10
102.5491237807863
 20
-128.9464789174162
 10
102.7244791409856
 20
-128.9464789174162
 10
102.8877766669864
 20
-128.8513942820233
 10
102.8877766669864
 20
-128.6674261831109
 10
102.8877766669864
 20
-128.5468478411272
 10
102.8285210246401
 20
-128.3711479713794
 10
102.5425780993644
 20
-128.3711479713794
 10
102.3186468928231
 20
-128.3711479713794
 10
102.2214952001391
 20
-128.5108465933063
 10
102.2214952001391
 20
-128.6462388458766
 97
        0
 97
        0
 75
     2
 76
     1
 98
        0
  0
POLYLINE
  5
7F
330
78
100
AcDbEntity
  8
_U+30EC_U+30A4_U+30E4_U+30FC 1
370
     0
100
AcDb2dPolyline
 66
     1
 10
0.0
 20
0.0
 30
0.0
  0
VERTEX
  5
80
330
7F
100
AcDbEntity
  8
_U+30EC_U+30A4_U+30E4_U+30FC 1
370
     0
100
AcDbVertex
100
AcDb2dVertex
 10
103.0293700914302
 20
-127.930520258816
 30
0.0
  0
VERTEX
  5
81
330
7F
100
AcDbEntity
  8
_U+30EC_U+30A4_U+30E4_U+30FC 1
370
     0
100
AcDbVertex
100
AcDb2dVertex
 10
102.7775336114584
 20
-127.930520258816
 30
0.0
  0
VERTEX
  5
82
330
7F
100
AcDbEntity
  8
_U+30EC_U+30A4_U+30E4_U+30FC 1
370
     0
100
AcDbVertex
100
AcDb2dVertex
 10
102.7775336114584
 20
-127.6788560336185
 30
0.0
  0
VERTEX
  5
83
330
7F
100
AcDbEntity
  8
_U+30EC_U+30A4_U+30E4_U+30FC 1
370
     0
100
AcDbVertex
100
AcDb2dVertex
 10
103.0293700914302
 20
-127.6788560336185
 30
0.0
  0
VERTEX
  5
84
330
7F
100
AcDbEntity
  8
_U+30EC_U+30A4_U+30E4_U+30FC 1
370
     0
100
AcDbVertex
100
AcDb2dVertex
 10
103.0293700914302
 20
-127.930520258816
 30
0.0
  0
SEQEND
  5
85
330
7F
100
AcDbEntity
  8
_U+30EC_U+30A4_U+30E4_U+30FC 1
370
     0
  0
HATCH
  5
86
330
78
100
AcDbEntity
  8
_U+30EC_U+30A4_U+30E4_U+30FC 1
 62
   179
420
  2234388
100
AcDbHatch
 10
0.0
 20
0.0
 30
0.0
210
0.0
220
0.0
230
1.0
  2
SOLID
 70
     1
 71
     0
 91
        1
 92
        1
 93
        4
 72
     1
 10
103.0293700914302
 20
-127.930520258816
 11
102.7775336114584
 21
-127.930520258816
 72
     1
 10
102.7775336114584
 20
-127.930520258816
 11
102.7775336114584
 21
-127.6788560336185
 72
     1
 10
102.7775336114584
 20
-127.6788560336185
 11
103.0293700914302
 21
-127.6788560336185
 72
     1
 10
103.0293700914302
 20
-127.6788560336185
 11
103.0293700914302
 21
-127.930520258816
 97
        0
 75
     2
 76
     1
 98
        0
  0
SPLINE
  5
87
330
78
100
AcDbEntity
  8
_U+30EC_U+30A4_U+30E4_U+30FC 1
370
     0
100
AcDbSpline
210
0.0
220
0.0
230
1.0
 70
    11
 71
     3
 72
    62
 73
    58
 74
     0
 42
0.0000000001
 43
0.0000000001
 12
1.0
 22
0.0
 32
0.0
 13
1.0
 23
0.0
 33
0.0
 40
0.0
 40
0.0
 40
0.0
 40
0.0
 40
1.0
 40
1.0
 40
1.0
 40
2.0
 40
2.0
 40
2.0
 40
3.0
 40
3.0
 40
3.0
 40
4.0
 40
4.0
 40
4.0
 40
5.0
 40
5.0
 40
5.0
 40
6.0
 40
6.0
 40
6.0
 40
7.0
 40
7.0
 40
7.0
 40
8.0
 40
8.0
 40
8.0
 40
9.0
 40
9.0
 40
9.0
 40
10.0
 40
10.0
 40
10.0
 40
11.0
 40
11.0
 40
11.0
 40
12.0
 40
12.0
 40
12.0
 40
13.0
 40
13.0
 40
13.0
 40
14.0
 40
14.0
 40
14.0
 40
15.0
 40
15.0
 40
15.0
 40
16.0
 40
16.0
 40
16.0
 40
17.0
 40
17.0
 40
17.0
 40
18.0
 40
18.0
 40
18.0
 40
19.0
 40
19.0
 40
19.0
 40
19.0
 10
103.0800129950633
 20
-126.9507351028109
 30
0.0
 10
103.0800129950633
 20
-127.0459919929781
 30
0.0
 10
103.0589979126033
 20
-127.2638942824201
 30
0.0
 10
102.8726182468513
 20
-127.3886067389862
 30
0.0
 10
102.7606526435807
 20
-127.4626762919191
 30
0.0
 10
102.661089384057
 20
-127.4669826612756
 30
0.0
 10
102.5766845446683
 20
-127.4711167758579
 30
0.0
 10
102.5766845446683
 20
-127.4711167758579
 30
0.0
 10
102.5766845446683
 20
-127.2511474291247
 30
0.0
 10
102.5766845446683
 20
-127.2511474291247
 30
0.0
 10
102.6507540976012
 20
-127.2490803718336
 30
0.0
 10
102.8857096096952
 20
-127.2384005758293
 30
0.0
 10
102.8857096096952
 20
-126.9548692173932
 30
0.0
 10
102.8857096096952
 20
-126.8174099075318
 30
0.0
 10
102.8157741713447
 20
-126.6651366870837
 30
0.0
 10
102.5873643406726
 20
-126.6651366870837
 30
0.0
 10
102.4709201132712
 20
-126.6651366870837
 30
0.0
 10
102.4219997573806
 20
-126.7032049921957
 30
0.0
 10
102.3903048789163
 20
-126.73489987066
 30
0.0
 10
102.316579835532
 20
-126.8089694235929
 30
0.0
 10
102.3038329822365
 20
-126.9254136509943
 30
0.0
 10
102.3038329822365
 20
-126.9803629239841
 30
0.0
 10
102.3038329822365
 20
-126.999310949153
 30
0.0
 10
102.3059000395277
 20
-127.0353121969738
 30
0.0
 10
102.31003415411
 20
-127.0628729608558
 30
0.0
 10
102.31003415411
 20
-127.0628729608558
 30
0.0
 10
102.1153862591934
 20
-127.0628729608558
 30
0.0
 10
102.1153862591934
 20
-127.0628729608558
 30
0.0
 10
102.1215874310668
 20
-127.0248046557438
 30
0.0
 10
102.1239989979065
 20
-126.9824299812752
 30
0.0
 10
102.1239989979065
 20
-126.9760565546275
 30
0.0
 10
102.1239989979065
 20
-126.9105997404078
 30
0.0
 10
102.1029839154465
 20
-126.7116454761346
 30
0.0
 10
101.8659613460613
 20
-126.7116454761346
 30
0.0
 10
101.6881944190224
 20
-126.7116454761346
 30
0.0
 10
101.6330728912584
 20
-126.8429036141226
 30
0.0
 10
101.6330728912584
 20
-126.9528021601021
 30
0.0
 10
101.6330728912584
 20
-127.217213238595
 30
0.0
 10
101.8659613460613
 20
-127.2256537225339
 30
0.0
 10
101.9376193321545
 20
-127.2299600918904
 30
0.0
 10
101.9376193321545
 20
-127.2299600918904
 30
0.0
 10
101.9376193321545
 20
-127.4330484707459
 30
0.0
 10
101.9376193321545
 20
-127.4330484707459
 30
0.0
 10
101.8129068755884
 20
-127.424607986807
 30
0.0
 10
101.4363579390506
 20
-127.3970472229251
 30
0.0
 10
101.4363579390506
 20
-126.9402275615809
 30
0.0
 10
101.4363579390506
 20
-126.7159518454912
 30
0.0
 10
101.5634819624564
 20
-126.4747951615237
 30
0.0
 10
101.8594156646393
 20
-126.4747951615237
 30
0.0
 10
102.0457953303913
 20
-126.4747951615237
 30
0.0
 10
102.1281331124888
 20
-126.5698797969166
 30
0.0
 10
102.1894558121263
 20
-126.6694430564403
 30
0.0
 10
102.2170165760082
 20
-126.6079481020286
 30
0.0
 10
102.2972873008146
 20
-126.4260470604074
 30
0.0
 10
102.5746174873772
 20
-126.4260470604074
 30
0.0
 10
102.9132703735772
 20
-126.4260470604074
 30
0.0
 10
103.0800129950633
 20
-126.6735771710226
 30
0.0
 10
103.0800129950633
 20
-126.9507351028109
 30
0.0
  0
HATCH
  5
88
330
78
100
AcDbEntity
  8
_U+30EC_U+30A4_U+30E4_U+30FC 1
 62
   179
420
  2234388
100
AcDbHatch
 10
0.0
 20
0.0
 30
0.0
210
0.0
220
0.0
230
1.0
  2
SOLID
 70
     1
 71
     0
 91
        1
 92
        1
 93
        1
 72
     4
 94
        3
 73
     0
 74
     1
 95
       62
 96
       58
 40
0.0
 40
0.0
 40
0.0
 40
0.0
 40
1.0
 40
1.0
 40
1.0
 40
2.0
 40
2.0
 40
2.0
 40
3.0
 40
3.0
 40
3.0
 40
4.0
 40
4.0
 40
4.0
 40
5.0
 40
5.0
 40
5.0
 40
6.0
 40
6.0
 40
6.0
 40
7.0
 40
7.0
 40
7.0
 40
8.0
 40
8.0
 40
8.0
 40
9.0
 40
9.0
 40
9.0
 40
10.0
 40
10.0
 40
10.0
 40
11.0
 40
11.0
 40
11.0
 40
12.0
 40
12.0
 40
12.0
 40
13.0
 40
13.0
 40
13.0
 40
14.0
 40
14.0
 40
14.0
 40
15.0
 40
15.0
 40
15.0
 40
16.0
 40
16.0
 40
16.0
 40
17.0
 40
17.0
 40
17.0
 40
18.0
 40
18.0
 40
18.0
 40
19.0
 40
19.0
 40
19.0
 40
19.0
 10
103.0800129950633
 20
-126.9507351028109
 10
103.0800129950633
 20
-127.0459919929781
 10
103.0589979126033
 20
-127.2638942824201
 10
102.8726182468513
 20
-127.3886067389862
 10
102.7606526435807
 20
-127.4626762919191
 10
102.661089384057
 20
-127.4669826612756
 10
102.5766845446683
 20
-127.4711167758579
 10
102.5766845446683
 20
-127.4711167758579
 10
102.5766845446683
 20
-127.2511474291247
 10
102.5766845446683
 20
-127.2511474291247
 10
102.6507540976012
 20
-127.2490803718336
 10
102.8857096096952
 20
-127.2384005758293
 10
102.8857096096952
 20
-126.9548692173932
 10
102.8857096096952
 20
-126.8174099075318
 10
102.8157741713447
 20
-126.6651366870837
 10
102.5873643406726
 20
-126.6651366870837
 10
102.4709201132712
 20
-126.6651366870837
 10
102.4219997573806
 20
-126.7032049921957
 10
102.3903048789163
 20
-126.73489987066
 10
102.316579835532
 20
-126.8089694235929
 10
102.3038329822365
 20
-126.9254136509943
 10
102.3038329822365
 20
-126.9803629239841
 10
102.3038329822365
 20
-126.999310949153
 10
102.3059000395277
 20
-127.0353121969738
 10
102.31003415411
 20
-127.0628729608558
 10
102.31003415411
 20
-127.0628729608558
 10
102.1153862591934
 20
-127.0628729608558
 10
102.1153862591934
 20
-127.0628729608558
 10
102.1215874310668
 20
-127.0248046557438
 10
102.1239989979065
 20
-126.9824299812752
 10
102.1239989979065
 20
-126.9760565546275
 10
102.1239989979065
 20
-126.9105997404078
 10
102.1029839154465
 20
-126.7116454761346
 10
101.8659613460613
 20
-126.7116454761346
 10
101.6881944190224
 20
-126.7116454761346
 10
101.6330728912584
 20
-126.8429036141226
 10
101.6330728912584
 20
-126.9528021601021
 10
101.6330728912584
 20
-127.217213238595
 10
101.8659613460613
 20
-127.2256537225339
 10
101.9376193321545
 20
-127.2299600918904
 10
101.9376193321545
 20
-127.2299600918904
 10
101.9376193321545
 20
-127.4330484707459
 10
101.9376193321545
 20
-127.4330484707459
 10
101.8129068755884
 20
-127.424607986807
 10
101.4363579390506
 20
-127.3970472229251
 10
101.4363579390506
 20
-126.9402275615809
 10
101.4363579390506
 20
-126.7159518454912
 10
101.5634819624564
 20
-126.4747951615237
 10
101.8594156646393
 20
-126.4747951615237
 10
102.0457953303913
 20
-126.4747951615237
 10
102.1281331124888
 20
-126.5698797969166
 10
102.1894558121263
 20
-126.6694430564403
 10
102.2170165760082
 20
-126.6079481020286
 10
102.2972873008146
 20
-126.4260470604074
 10
102.5746174873772
 20
-126.4260470604074
 10
102.9132703735772
 20
-126.4260470604074
 10
103.0800129950633
 20
-126.6735771710226
 10
103.0800129950633
 20
-126.9507351028109
 97
        0
 97
        0
 75
     2
 76
     1
 98
        0
  0
ENDBLK
  5
7B
330
78
100
AcDbEntity
  8
0
100
AcDbBlockEnd
  0
BLOCK
  5
8B
330
89
100
AcDbEntity
  8
0
100
AcDbBlockBegin
  2
block 4
 70
     0
 10
0.0
 20
0.0
 30
0.0
  3
block 4
  1

  0
SPLINE
  5
8D
330
89
100
AcDbEntity
  8
_U+30EC_U+30A4_U+30E4_U+30FC 1
370
     0
100
AcDbSpline
210
0.0
220
0.0
230
1.0
 70
    11
 71
     3
 72
    62
 73
    58
 74
     0
 42
0.0000000001
 43
0.0000000001
 12
1.0
 22
0.0
 32
0.0
 13
1.0
 23
0.0
 33
0.0
 40
0.0
 40
0.0
 40
0.0
 40
0.0
 40
1.0
 40
1.0
 40
1.0
 40
2.0
 40
2.0
 40
2.0
 40
3.0
 40
3.0
 40
3.0
 40
4.0
 40
4.0
 40
4.0
 40
5.0
 40
5.0
 40
5.0
 40
6.0
 40
6.0
 40
6.0
 40
7.0
 40
7.0
 40
7.0
 40
8.0
 40
8.0
 40
8.0
 40
9.0
 40
9.0
 40
9.0
 40
10.0
 40
10.0
 40
10.0
 40
11.0
 40
11.0
 40
11.0
 40
12.0
 40
12.0
 40
12.0
 40
13.0
 40
13.0
 40
13.0
 40
14.0
 40
14.0
 40
14.0
 40
15.0
 40
15.0
 40
15.0
 40
16.0
 40
16.0
 40
16.0
 40
17.0
 40
17.0
 40
17.0
 40
18.0
 40
18.0
 40
18.0
 40
19.0
 40
19.0
 40
19.0
 40
19.0
 10
103.0800129950633
 20
-132.4549641595946
 30
0.0
 10
103.0800129950633
 20
-132.5500487949875
 30
0.0
 10
103.0589979126033
 20
-132.7681233392038
 30
0.0
 10
102.8726182468513
 20
-132.8928357957699
 30
0.0
 10
102.7606526435807
 20
-132.9669053487027
 30
0.0
 10
102.661089384057
 20
-132.971039463285
 30
0.0
 10
102.5766845446683
 20
-132.9751735778673
 30
0.0
 10
102.5766845446683
 20
-132.9751735778673
 30
0.0
 10
102.5766845446683
 20
-132.7553764859084
 30
0.0
 10
102.5766845446683
 20
-132.7553764859084
 30
0.0
 10
102.6507540976012
 20
-132.7533094286172
 30
0.0
 10
102.8857096096952
 20
-132.742629632613
 30
0.0
 10
102.8857096096952
 20
-132.4590982741769
 30
0.0
 10
102.8857096096952
 20
-132.3216389643154
 30
0.0
 10
102.8157741713447
 20
-132.1693657438674
 30
0.0
 10
102.5873643406726
 20
-132.1693657438674
 30
0.0
 10
102.4709201132712
 20
-132.1693657438674
 30
0.0
 10
102.4219997573806
 20
-132.2076063037537
 30
0.0
 10
102.3903048789163
 20
-132.239301182218
 30
0.0
 10
102.316579835532
 20
-132.3130262256023
 30
0.0
 10
102.3038329822365
 20
-132.4294704530037
 30
0.0
 10
102.3038329822365
 20
-132.4845919807678
 30
0.0
 10
102.3038329822365
 20
-132.5035400059366
 30
0.0
 10
102.3059000395277
 20
-132.5397135085317
 30
0.0
 10
102.31003415411
 20
-132.5672742724138
 30
0.0
 10
102.31003415411
 20
-132.5672742724138
 30
0.0
 10
102.1153862591934
 20
-132.5672742724138
 30
0.0
 10
102.1153862591934
 20
-132.5672742724138
 30
0.0
 10
102.1215874310668
 20
-132.5290337125275
 30
0.0
 10
102.1239989979065
 20
-132.4866590380589
 30
0.0
 10
102.1239989979065
 20
-132.4804578661854
 30
0.0
 10
102.1239989979065
 20
-132.4150010519657
 30
0.0
 10
102.1029839154465
 20
-132.2158745329183
 30
0.0
 10
101.8659613460613
 20
-132.2158745329183
 30
0.0
 10
101.6881944190224
 20
-132.2158745329183
 30
0.0
 10
101.6330728912584
 20
-132.3471326709063
 30
0.0
 10
101.6330728912584
 20
-132.4570312168858
 30
0.0
 10
101.6330728912584
 20
-132.7216145501529
 30
0.0
 10
101.8659613460613
 20
-132.7298827793175
 30
0.0
 10
101.9376193321545
 20
-132.7340168938998
 30
0.0
 10
101.9376193321545
 20
-132.7340168938998
 30
0.0
 10
101.9376193321545
 20
-132.9372775275296
 30
0.0
 10
101.9376193321545
 20
-132.9372775275296
 30
0.0
 10
101.8129068755884
 20
-132.929009298365
 30
0.0
 10
101.4363579390506
 20
-132.901448534483
 30
0.0
 10
101.4363579390506
 20
-132.4446288731388
 30
0.0
 10
101.4363579390506
 20
-132.2200086475005
 30
0.0
 10
101.5634819624564
 20
-131.9788519635331
 30
0.0
 10
101.8594156646393
 20
-131.9788519635331
 30
0.0
 10
102.0457953303913
 20
-131.9788519635331
 30
0.0
 10
102.1281331124888
 20
-132.073936598926
 30
0.0
 10
102.1894558121263
 20
-132.1738443679982
 30
0.0
 10
102.2170165760082
 20
-132.1121771588122
 30
0.0
 10
102.2972873008146
 20
-131.9302761171911
 30
0.0
 10
102.5746174873772
 20
-131.9302761171911
 30
0.0
 10
102.9132703735772
 20
-131.9302761171911
 30
0.0
 10
103.0800129950633
 20
-132.1779784825805
 30
0.0
 10
103.0800129950633
 20
-132.4549641595946
 30
0.0
  0
HATCH
  5
8E
330
89
100
AcDbEntity
  8
_U+30EC_U+30A4_U+30E4_U+30FC 1
 62
   179
420
  2234388
100
AcDbHatch
 10
0.0
 20
0.0
 30
0.0
210
0.0
220
0.0
230
1.0
  2
SOLID
 70
     1
 71
     0
 91
        1
 92
        1
 93
        1
 72
     4
 94
        3
 73
     0
 74
     1
 95
       62
 96
       58
 40
0.0
 40
0.0
 40
0.0
 40
0.0
 40
1.0
 40
1.0
 40
1.0
 40
2.0
 40
2.0
 40
2.0
 40
3.0
 40
3.0
 40
3.0
 40
4.0
 40
4.0
 40
4.0
 40
5.0
 40
5.0
 40
5.0
 40
6.0
 40
6.0
 40
6.0
 40
7.0
 40
7.0
 40
7.0
 40
8.0
 40
8.0
 40
8.0
 40
9.0
 40
9.0
 40
9.0
 40
10.0
 40
10.0
 40
10.0
 40
11.0
 40
11.0
 40
11.0
 40
12.0
 40
12.0
 40
12.0
 40
13.0
 40
13.0
 40
13.0
 40
14.0
 40
14.0
 40
14.0
 40
15.0
 40
15.0
 40
15.0
 40
16.0
 40
16.0
 40
16.0
 40
17.0
 40
17.0
 40
17.0
 40
18.0
 40
18.0
 40
18.0
 40
19.0
 40
19.0
 40
19.0
 40
19.0
 10
103.0800129950633
 20
-132.4549641595946
 10
103.0800129950633
 20
-132.5500487949875
 10
103.0589979126033
 20
-132.7681233392038
 10
102.8726182468513
 20
-132.8928357957699
 10
102.7606526435807
 20
-132.9669053487027
 10
102.661089384057
 20
-132.971039463285
 10
102.5766845446683
 20
-132.9751735778673
 10
102.5766845446683
 20
-132.9751735778673
 10
102.5766845446683
 20
-132.7553764859084
 10
102.5766845446683
 20
-132.7553764859084
 10
102.6507540976012
 20
-132.7533094286172
 10
102.8857096096952
 20
-132.742629632613
 10
102.8857096096952
 20
-132.4590982741769
 10
102.8857096096952
 20
-132.3216389643154
 10
102.8157741713447
 20
-132.1693657438674
 10
102.5873643406726
 20
-132.1693657438674
 10
102.4709201132712
 20
-132.1693657438674
 10
102.4219997573806
 20
-132.2076063037537
 10
102.3903048789163
 20
-132.239301182218
 10
102.316579835532
 20
-132.3130262256023
 10
102.3038329822365
 20
-132.4294704530037
 10
102.3038329822365
 20
-132.4845919807678
 10
102.3038329822365
 20
-132.5035400059366
 10
102.3059000395277
 20
-132.5397135085317
 10
102.31003415411
 20
-132.5672742724138
 10
102.31003415411
 20
-132.5672742724138
 10
102.1153862591934
 20
-132.5672742724138
 10
102.1153862591934
 20
-132.5672742724138
 10
102.1215874310668
 20
-132.5290337125275
 10
102.1239989979065
 20
-132.4866590380589
 10
102.1239989979065
 20
-132.4804578661854
 10
102.1239989979065
 20
-132.4150010519657
 10
102.1029839154465
 20
-132.2158745329183
 10
101.8659613460613
 20
-132.2158745329183
 10
101.6881944190224
 20
-132.2158745329183
 10
101.6330728912584
 20
-132.3471326709063
 10
101.6330728912584
 20
-132.4570312168858
 10
101.6330728912584
 20
-132.7216145501529
 10
101.8659613460613
 20
-132.7298827793175
 10
101.9376193321545
 20
-132.7340168938998
 10
101.9376193321545
 20
-132.7340168938998
 10
101.9376193321545
 20
-132.9372775275296
 10
101.9376193321545
 20
-132.9372775275296
 10
101.8129068755884
 20
-132.929009298365
 10
101.4363579390506
 20
-132.901448534483
 10
101.4363579390506
 20
-132.4446288731388
 10
101.4363579390506
 20
-132.2200086475005
 10
101.5634819624564
 20
-131.9788519635331
 10
101.8594156646393
 20
-131.9788519635331
 10
102.0457953303913
 20
-131.9788519635331
 10
102.1281331124888
 20
-132.073936598926
 10
102.1894558121263
 20
-132.1738443679982
 10
102.2170165760082
 20
-132.1121771588122
 10
102.2972873008146
 20
-131.9302761171911
 10
102.5746174873772
 20
-131.9302761171911
 10
102.9132703735772
 20
-131.9302761171911
 10
103.0800129950633
 20
-132.1779784825805
 10
103.0800129950633
 20
-132.4549641595946
 97
        0
 97
        0
 75
     2
 76
     1
 98
        0
  0
ENDBLK
  5
8C
330
89
100
AcDbEntity
  8
0
100
AcDbBlockEnd
  0
BLOCK
  5
91
330
8F
100
AcDbEntity
  8
0
100
AcDbBlockBegin
  2
block 5
 70
     0
 10
0.0
 20
0.0
 30
0.0
  3
block 5
  1

  0
SPLINE
  5
93
330
8F
100
AcDbEntity
  8
_U+30EC_U+30A4_U+30E4_U+30FC 1
370
     0
100
AcDbSpline
210
0.0
220
0.0
230
1.0
 70
    11
 71
     3
 72
    26
 73
    22
 74
     0
 42
0.0000000001
 43
0.0000000001
 12
1.0
 22
0.0
 32
0.0
 13
1.0
 23
0.0
 33
0.0
 40
0.0
 40
0.0
 40
0.0
 40
0.0
 40
1.0
 40
1.0
 40
1.0
 40
2.0
 40
2.0
 40
2.0
 40
3.0
 40
3.0
 40
3.0
 40
4.0
 40
4.0
 40
4.0
 40
5.0
 40
5.0
 40
5.0
 40
6.0
 40
6.0
 40
6.0
 40
7.0
 40
7.0
 40
7.0
 40
7.0
 10
103.0293700914302
 20
-120.8324177757815
 30
0.0
 10
103.0293700914302
 20
-120.8324177757815
 30
0.0
 10
101.9252169884076
 20
-120.8324177757815
 30
0.0
 10
101.9252169884076
 20
-120.8324177757815
 30
0.0
 10
101.9252169884076
 20
-120.8324177757815
 30
0.0
 10
101.9252169884076
 20
-121.1624579232684
 30
0.0
 10
101.9252169884076
 20
-121.1624579232684
 30
0.0
 10
101.9252169884076
 20
-121.1624579232684
 30
0.0
 10
101.7770778825418
 20
-121.1624579232684
 30
0.0
 10
101.7770778825418
 20
-121.1624579232684
 30
0.0
 10
101.7622639719553
 20
-120.8303507184903
 30
0.0
 10
101.599310955503
 20
-120.7838419294395
 30
0.0
 10
101.4849337853927
 20
-120.7542141082663
 30
0.0
 10
101.4849337853927
 20
-120.7542141082663
 30
0.0
 10
101.4849337853927
 20
-120.6081420596917
 30
0.0
 10
101.4849337853927
 20
-120.6081420596917
 30
0.0
 10
101.4849337853927
 20
-120.6081420596917
 30
0.0
 10
103.0293700914302
 20
-120.6081420596917
 30
0.0
 10
103.0293700914302
 20
-120.6081420596917
 30
0.0
 10
103.0293700914302
 20
-120.6081420596917
 30
0.0
 10
103.0293700914302
 20
-120.8324177757815
 30
0.0
 10
103.0293700914302
 20
-120.8324177757815
 30
0.0
  0
HATCH
  5
94
330
8F
100
AcDbEntity
  8
_U+30EC_U+30A4_U+30E4_U+30FC 1
 62
   179
420
  2234388
100
AcDbHatch
 10
0.0
 20
0.0
 30
0.0
210
0.0
220
0.0
230
1.0
  2
SOLID
 70
     1
 71
     0
 91
        1
 92
        1
 93
        1
 72
     4
 94
        3
 73
     0
 74
     1
 95
       26
 96
       22
 40
0.0
 40
0.0
 40
0.0
 40
0.0
 40
1.0
 40
1.0
 40
1.0
 40
2.0
 40
2.0
 40
2.0
 40
3.0
 40
3.0
 40
3.0
 40
4.0
 40
4.0
 40
4.0
 40
5.0
 40
5.0
 40
5.0
 40
6.0
 40
6.0
 40
6.0
 40
7.0
 40
7.0
 40
7.0
 40
7.0
 10
103.0293700914302
 20
-120.8324177757815
 10
103.0293700914302
 20
-120.8324177757815
 10
101.9252169884076
 20
-120.8324177757815
 10
101.9252169884076
 20
-120.8324177757815
 10
101.9252169884076
 20
-120.8324177757815
 10
101.9252169884076
 20
-121.1624579232684
 10
101.9252169884076
 20
-121.1624579232684
 10
101.9252169884076
 20
-121.1624579232684
 10
101.7770778825418
 20
-121.1624579232684
 10
101.7770778825418
 20
-121.1624579232684
 10
101.7622639719553
 20
-120.8303507184903
 10
101.599310955503
 20
-120.7838419294395
 10
101.4849337853927
 20
-120.7542141082663
 10
101.4849337853927
 20
-120.7542141082663
 10
101.4849337853927
 20
-120.6081420596917
 10
101.4849337853927
 20
-120.6081420596917
 10
101.4849337853927
 20
-120.6081420596917
 10
103.0293700914302
 20
-120.6081420596917
 10
103.0293700914302
 20
-120.6081420596917
 10
103.0293700914302
 20
-120.6081420596917
 10
103.0293700914302
 20
-120.8324177757815
 10
103.0293700914302
 20
-120.8324177757815
 97
        0
 97
        0
 75
     2
 76
     1
 98
        0
  0
ENDBLK
  5
92
330
8F
100
AcDbEntity
  8
0
100
AcDbBlockEnd
  0
BLOCK
  5
B5
330
B3
100
AcDbEntity
  8
0
100
AcDbBlockBegin
  2
block 6
 70
     0
 10
0.0
 20
0.0
 30
0.0
  3
block 6
  1

  0
SPLINE
  5
B7
330
B3
100
AcDbEntity
  8
_U+30EC_U+30A4_U+30E4_U+30FC 1
370
     0
100
AcDbSpline
210
0.0
220
0.0
230
1.0
 70
    11
 71
     3
 72
    44
 73
    40
 74
     0
 42
0.0000000001
 43
0.0000000001
 12
1.0
 22
0.0
 32
0.0
 13
1.0
 23
0.0
 33
0.0
 40
0.0
 40
0.0
 40
0.0
 40
0.0
 40
1.0
 40
1.0
 40
1.0
 40
2.0
 40
2.0
 40
2.0
 40
3.0
 40
3.0
 40
3.0
 40
4.0
 40
4.0
 40
4.0
 40
5.0
 40
5.0
 40
5.0
 40
6.0
 40
6.0
 40
6.0
 40
7.0
 40
7.0
 40
7.0
 40
8.0
 40
8.0
 40
8.0
 40
9.0
 40
9.0
 40
9.0
 40
10.0
 40
10.0
 40
10.0
 40
11.0
 40
11.0
 40
11.0
 40
12.0
 40
12.0
 40
12.0
 40
13.0
 40
13.0
 40
13.0
 40
13.0
 10
88.54601641666558
 20
-119.2953884250373
 30
0.0
 10
88.32811412722353
 20
-119.4542073269073
 30
0.0
 10
88.23492429434752
 20
-119.5282768798402
 30
0.0
 10
88.1863484480055
 20
-119.6719373615751
 30
0.0
 10
88.1863484480055
 20
-119.6719373615751
 30
0.0
 10
88.9647677728977
 20
-119.6719373615751
 30
0.0
 10
88.9647677728977
 20
-119.6719373615751
 30
0.0
 10
88.9647677728977
 20
-119.6719373615751
 30
0.0
 10
88.9647677728977
 20
-119.877265052496
 30
0.0
 10
88.9647677728977
 20
-119.877265052496
 30
0.0
 10
88.9647677728977
 20
-119.877265052496
 30
0.0
 10
87.93675128009914
 20
-119.877265052496
 30
0.0
 10
87.93675128009914
 20
-119.877265052496
 30
0.0
 10
87.96844615856345
 20
-119.519664141127
 30
0.0
 10
88.03407522755745
 20
-119.4414604736119
 30
0.0
 10
88.41906464803412
 20
-119.1431152045892
 30
0.0
 10
88.6750352425882
 20
-118.9443331950903
 30
0.0
 10
88.74049205680794
 20
-118.8764648140309
 30
0.0
 10
88.74049205680794
 20
-118.7390055041694
 30
0.0
 10
88.74049205680794
 20
-118.6204942194768
 30
0.0
 10
88.66866181594048
 20
-118.4895805910373
 30
0.0
 10
88.47194686373271
 20
-118.4895805910373
 30
0.0
 10
88.21166989982208
 20
-118.4895805910373
 30
0.0
 10
88.20322941588323
 20
-118.7200574790005
 30
0.0
 10
88.19892304652666
 20
-118.836501706402
 30
0.0
 10
88.19892304652666
 20
-118.836501706402
 30
0.0
 10
87.97481958521116
 20
-118.836501706402
 30
0.0
 10
87.97481958521116
 20
-118.836501706402
 30
0.0
 10
87.98326006915002
 20
-118.7093776829963
 30
0.0
 10
87.99376761038003
 20
-118.5974120797257
 30
0.0
 10
88.07421058996061
 20
-118.4789007950331
 30
0.0
 10
88.18410913594009
 20
-118.3180148358719
 30
0.0
 10
88.37031654691785
 20
-118.2842529001164
 30
0.0
 10
88.48676077431928
 20
-118.2842529001164
 30
0.0
 10
88.76391870610763
 20
-118.2842529001164
 30
0.0
 10
88.97114119954541
 20
-118.4682209990288
 30
0.0
 10
88.97114119954541
 20
-118.7410725614606
 30
0.0
 10
88.97114119954541
 20
-118.9698269016812
 30
0.0
 10
88.85486922691823
 20
-119.0690456516564
 30
0.0
 10
88.54601641666558
 20
-119.2953884250373
 30
0.0
  0
HATCH
  5
B8
330
B3
100
AcDbEntity
  8
_U+30EC_U+30A4_U+30E4_U+30FC 1
 62
   179
420
  2234388
100
AcDbHatch
 10
0.0
 20
0.0
 30
0.0
210
0.0
220
0.0
230
1.0
  2
SOLID
 70
     1
 71
     0
 91
        1
 92
        1
 93
        1
 72
     4
 94
        3
 73
     0
 74
     1
 95
       44
 96
       40
 40
0.0
 40
0.0
 40
0.0
 40
0.0
 40
1.0
 40
1.0
 40
1.0
 40
2.0
 40
2.0
 40
2.0
 40
3.0
 40
3.0
 40
3.0
 40
4.0
 40
4.0
 40
4.0
 40
5.0
 40
5.0
 40
5.0
 40
6.0
 40
6.0
 40
6.0
 40
7.0
 40
7.0
 40
7.0
 40
8.0
 40
8.0
 40
8.0
 40
9.0
 40
9.0
 40
9.0
 40
10.0
 40
10.0
 40
10.0
 40
11.0
 40
11.0
 40
11.0
 40
12.0
 40
12.0
 40
12.0
 40
13.0
 40
13.0
 40
13.0
 40
13.0
 10
88.54601641666558
 20
-119.2953884250373
 10
88.32811412722353
 20
-119.4542073269073
 10
88.23492429434752
 20
-119.5282768798402
 10
88.1863484480055
 20
-119.6719373615751
 10
88.1863484480055
 20
-119.6719373615751
 10
88.9647677728977
 20
-119.6719373615751
 10
88.9647677728977
 20
-119.6719373615751
 10
88.9647677728977
 20
-119.6719373615751
 10
88.9647677728977
 20
-119.877265052496
 10
88.9647677728977
 20
-119.877265052496
 10
88.9647677728977
 20
-119.877265052496
 10
87.93675128009914
 20
-119.877265052496
 10
87.93675128009914
 20
-119.877265052496
 10
87.96844615856345
 20
-119.519664141127
 10
88.03407522755745
 20
-119.4414604736119
 10
88.41906464803412
 20
-119.1431152045892
 10
88.6750352425882
 20
-118.9443331950903
 10
88.74049205680794
 20
-118.8764648140309
 10
88.74049205680794
 20
-118.7390055041694
 10
88.74049205680794
 20
-118.6204942194768
 10
88.66866181594048
 20
-118.4895805910373
 10
88.47194686373271
 20
-118.4895805910373
 10
88.21166989982208
 20
-118.4895805910373
 10
88.20322941588323
 20
-118.7200574790005
 10
88.19892304652666
 20
-118.836501706402
 10
88.19892304652666
 20
-118.836501706402
 10
87.97481958521116
 20
-118.836501706402
 10
87.97481958521116
 20
-118.836501706402
 10
87.98326006915002
 20
-118.7093776829963
 10
87.99376761038003
 20
-118.5974120797257
 10
88.07421058996061
 20
-118.4789007950331
 10
88.18410913594009
 20
-118.3180148358719
 10
88.37031654691785
 20
-118.2842529001164
 10
88.48676077431928
 20
-118.2842529001164
 10
88.76391870610763
 20
-118.2842529001164
 10
88.97114119954541
 20
-118.4682209990288
 10
88.97114119954541
 20
-118.7410725614606
 10
88.97114119954541
 20
-118.9698269016812
 10
88.85486922691823
 20
-119.0690456516564
 10
88.54601641666558
 20
-119.2953884250373
 97
        0
 97
        0
 75
     2
 76
     1
 98
        0
  0
SPLINE
  5
B9
330
B3
100
AcDbEntity
  8
_U+30EC_U+30A4_U+30E4_U+30FC 1
370
     0
100
AcDbSpline
210
0.0
220
0.0
230
1.0
 70
    11
 71
     3
 72
    26
 73
    22
 74
     0
 42
0.0000000001
 43
0.0000000001
 12
1.0
 22
0.0
 32
0.0
 13
1.0
 23
0.0
 33
0.0
 40
0.0
 40
0.0
 40
0.0
 40
0.0
 40
1.0
 40
1.0
 40
1.0
 40
2.0
 40
2.0
 40
2.0
 40
3.0
 40
3.0
 40
3.0
 40
4.0
 40
4.0
 40
4.0
 40
5.0
 40
5.0
 40
5.0
 40
6.0
 40
6.0
 40
6.0
 40
7.0
 40
7.0
 40
7.0
 40
7.0
 10
89.5810953552089
 20
-119.877265052496
 30
0.0
 10
89.5810953552089
 20
-119.877265052496
 30
0.0
 10
89.5810953552089
 20
-118.7731119494734
 30
0.0
 10
89.5810953552089
 20
-118.7731119494734
 30
0.0
 10
89.5810953552089
 20
-118.7731119494734
 30
0.0
 10
89.25105520772196
 20
-118.7731119494734
 30
0.0
 10
89.25105520772196
 20
-118.7731119494734
 30
0.0
 10
89.25105520772196
 20
-118.7731119494734
 30
0.0
 10
89.25105520772196
 20
-118.6249728436077
 30
0.0
 10
89.25105520772196
 20
-118.6249728436077
 30
0.0
 10
89.58316241250004
 20
-118.6101589330211
 30
0.0
 10
89.62967120155092
 20
-118.4472059165688
 30
0.0
 10
89.65929902272407
 20
-118.3328287464585
 30
0.0
 10
89.65929902272407
 20
-118.3328287464585
 30
0.0
 10
89.80537107129867
 20
-118.3328287464585
 30
0.0
 10
89.80537107129867
 20
-118.3328287464585
 30
0.0
 10
89.80537107129867
 20
-118.3328287464585
 30
0.0
 10
89.80537107129867
 20
-119.877265052496
 30
0.0
 10
89.80537107129867
 20
-119.877265052496
 30
0.0
 10
89.80537107129867
 20
-119.877265052496
 30
0.0
 10
89.5810953552089
 20
-119.877265052496
 30
0.0
 10
89.5810953552089
 20
-119.877265052496
 30
0.0
  0
HATCH
  5
BA
330
B3
100
AcDbEntity
  8
_U+30EC_U+30A4_U+30E4_U+30FC 1
 62
   179
420
  2234388
100
AcDbHatch
 10
0.0
 20
0.0
 30
0.0
210
0.0
220
0.0
230
1.0
  2
SOLID
 70
     1
 71
     0
 91
        1
 92
        1
 93
        1
 72
     4
 94
        3
 73
     0
 74
     1
 95
       26
 96
       22
 40
0.0
 40
0.0
 40
0.0
 40
0.0
 40
1.0
 40
1.0
 40
1.0
 40
2.0
 40
2.0
 40
2.0
 40
3.0
 40
3.0
 40
3.0
 40
4.0
 40
4.0
 40
4.0
 40
5.0
 40
5.0
 40
5.0
 40
6.0
 40
6.0
 40
6.0
 40
7.0
 40
7.0
 40
7.0
 40
7.0
 10
89.5810953552089
 20
-119.877265052496
 10
89.5810953552089
 20
-119.877265052496
 10
89.5810953552089
 20
-118.7731119494734
 10
89.5810953552089
 20
-118.7731119494734
 10
89.5810953552089
 20
-118.7731119494734
 10
89.25105520772196
 20
-118.7731119494734
 10
89.25105520772196
 20
-118.7731119494734
 10
89.25105520772196
 20
-118.7731119494734
 10
89.25105520772196
 20
-118.6249728436077
 10
89.25105520772196
 20
-118.6249728436077
 10
89.58316241250004
 20
-118.6101589330211
 10
89.62967120155092
 20
-118.4472059165688
 10
89.65929902272407
 20
-118.3328287464585
 10
89.65929902272407
 20
-118.3328287464585
 10
89.80537107129867
 20
-118.3328287464585
 10
89.80537107129867
 20
-118.3328287464585
 10
89.80537107129867
 20
-118.3328287464585
 10
89.80537107129867
 20
-119.877265052496
 10
89.80537107129867
 20
-119.877265052496
 10
89.80537107129867
 20
-119.877265052496
 10
89.5810953552089
 20
-119.877265052496
 10
89.5810953552089
 20
-119.877265052496
 97
        0
 97
        0
 75
     2
 76
     1
 98
        0
  0
ENDBLK
  5
B6
330
B3
100
AcDbEntity
  8
0
100
AcDbBlockEnd
  0
ENDSEC
  0
SECTION
  2
ENTITIES
  0
POLYLINE
  5
41
330
1F
100
AcDbEntity
  8
_U+30EC_U+30A4_U+30E4_U+30FC 1
 62
   179
420
  2234388
370
    25
100
AcDb2dPolyline
 66
     1
 10
0.0
 20
0.0
 30
0.0
  0
VERTEX
  5
42
330
41
100
AcDbEntity
  8
_U+30EC_U+30A4_U+30E4_U+30FC 1
 62
   179
420
  2234388
370
    25
100
AcDbVertex
100
AcDb2dVertex
 10
79.5258810266813
 20
-130.9501585783735
 30
0.0
  0
VERTEX
  5
43
330
41
100
AcDbEntity
  8
_U+30EC_U+30A4_U+30E4_U+30FC 1
 62
   179
420
  2234388
370
    25
100
AcDbVertex
100
AcDb2dVertex
 10
87.52056610049767
 20
-130.9508288561509
 30
0.0
  0
VERTEX
  5
44
330
41
100
AcDbEntity
  8
_U+30EC_U+30A4_U+30E4_U+30FC 1
 62
   179
420
  2234388
370
    25
100
AcDbVertex
100
AcDb2dVertex
 10
87.52056610049767
 20
-133.9494399665123
 30
0.0
  0
VERTEX
  5
45
330
41
100
AcDbEntity
  8
_U+30EC_U+30A4_U+30E4_U+30FC 1
 62
   179
420
  2234388
370
    25
100
AcDbVertex
100
AcDb2dVertex
 10
77.52051580006466
 20
-133.9494399665123
 30
0.0
  0
SEQEND
  5
46
330
41
100
AcDbEntity
  8
_U+30EC_U+30A4_U+30E4_U+30FC 1
 62
   179
420
  2234388
370
    25
  0
POLYLINE
  5
47
330
1F
100
AcDbEntity
  8
_U+30EC_U+30A4_U+30E4_U+30FC 1
 62
   179
420
  2234388
370
    25
100
AcDb2dPolyline
 66
     1
 10
0.0
 20
0.0
 30
0.0
  0
VERTEX
  5
48
330
47
100
AcDbEntity
  8
_U+30EC_U+30A4_U+30E4_U+30FC 1
 62
   179
420
  2234388
370
    25
100
AcDbVertex
100
AcDb2dVertex
 10
78.52370994113771
 20
-130.9487827450406
 30
0.0
  0
VERTEX
  5
49
330
47
100
AcDbEntity
  8
_U+30EC_U+30A4_U+30E4_U+30FC 1
 62
   179
420
  2234388
370
    25
100
AcDbVertex
100
AcDb2dVertex
 10
79.02359603949566
 20
-131.9488724670128
 30
0.0
  0
VERTEX
  5
4A
330
47
100
AcDbEntity
  8
_U+30EC_U+30A4_U+30E4_U+30FC 1
 62
   179
420
  2234388
370
    25
100
AcDbVertex
100
AcDb2dVertex
 10
79.523658526738
 20
-130.9487827450406
 30
0.0
  0
VERTEX
  5
4B
330
47
100
AcDbEntity
  8
_U+30EC_U+30A4_U+30E4_U+30FC 1
 62
   179
420
  2234388
370
    25
100
AcDbVertex
100
AcDb2dVertex
 10
79.52383491562239
 20
-124.64887719106
 30
0.0
  0
VERTEX
  5
4C
330
47
100
AcDbEntity
  8
_U+30EC_U+30A4_U+30E4_U+30FC 1
 62
   179
420
  2234388
370
    25
100
AcDbVertex
100
AcDb2dVertex
 10
99.5236532942734
 20
-124.64887719106
 30
0.0
  0
VERTEX
  5
4D
330
47
100
AcDbEntity
  8
_U+30EC_U+30A4_U+30E4_U+30FC 1
 62
   179
420
  2234388
370
    25
100
AcDbVertex
100
AcDb2dVertex
 10
99.5236532942734
 20
-123.6489638579767
 30
0.0
  0
VERTEX
  5
4E
330
47
100
AcDbEntity
  8
_U+30EC_U+30A4_U+30E4_U+30FC 1
 62
   179
420
  2234388
370
    25
100
AcDbVertex
100
AcDb2dVertex
 10
78.52370994113771
 20
-123.6489638579767
 30
0.0
  0
VERTEX
  5
4F
330
47
100
AcDbEntity
  8
_U+30EC_U+30A4_U+30E4_U+30FC 1
 62
   179
420
  2234388
370
    25
100
AcDbVertex
100
AcDb2dVertex
 10
78.52370994113771
 20
-130.9487827450406
 30
0.0
  0
SEQEND
  5
50
330
47
100
AcDbEntity
  8
_U+30EC_U+30A4_U+30E4_U+30FC 1
 62
   179
420
  2234388
370
    25
  0
POLYLINE
  5
51
330
1F
100
AcDbEntity
  8
_U+30EC_U+30A4_U+30E4_U+30FC 1
 62
   179
420
  2234388
370
    25
100
AcDb2dPolyline
 66
     1
 10
0.0
 20
0.0
 30
0.0
  0
VERTEX
  5
52
330
51
100
AcDbEntity
  8
_U+30EC_U+30A4_U+30E4_U+30FC 1
 62
   179
420
  2234388
370
    25
100
AcDbVertex
100
AcDb2dVertex
 10
78.52370994113771
 20
-130.9487827450406
 30
0.0
  0
VERTEX
  5
53
330
51
100
AcDbEntity
  8
_U+30EC_U+30A4_U+30E4_U+30FC 1
 62
   179
420
  2234388
370
    25
100
AcDbVertex
100
AcDb2dVertex
 10
77.52051580006466
 20
-133.9494399665123
 30
0.0
  0
SEQEND
  5
54
330
51
100
AcDbEntity
  8
_U+30EC_U+30A4_U+30E4_U+30FC 1
 62
   179
420
  2234388
370
    25
  0
SPLINE
  5
55
330
1F
100
AcDbEntity
  8
_U+30EC_U+30A4_U+30E4_U+30FC 1
 62
   179
420
  2234388
370
     9
100
AcDbSpline
210
0.0
220
0.0
230
1.0
 70
    11
 71
     3
 72
    17
 73
    13
 74
     0
 42
0.0000000001
 43
0.0000000001
 12
1.0
 22
0.0
 32
0.0
 13
1.0
 23
0.0
 33
0.0
 40
0.0
 40
0.0
 40
0.0
 40
0.0
 40
1.0
 40
1.0
 40
1.0
 40
2.0
 40
2.0
 40
2.0
 40
3.0
 40
3.0
 40
3.0
 40
4.0
 40
4.0
 40
4.0
 40
4.0
 10
87.62047497809475
 20
-137.9491991321792
 30
0.0
 10
87.62047497809475
 20
-137.8940952433043
 30
0.0
 10
87.57570526575762
 20
-137.8492924655376
 30
0.0
 10
87.52056610049767
 20
-137.8492924655376
 30
0.0
 10
87.46581499078339
 20
-137.8492924655376
 30
0.0
 10
87.42065943637984
 20
-137.8940952433043
 30
0.0
 10
87.42065943637984
 20
-137.9491991321792
 30
0.0
 10
87.42065943637984
 20
-138.0043382988323
 30
0.0
 10
87.46581499078339
 20
-138.0491057988208
 30
0.0
 10
87.52056610049767
 20
-138.0491057988208
 30
0.0
 10
87.57570526575762
 20
-138.0491057988208
 30
0.0
 10
87.62047497809475
 20
-138.0043382988323
 30
0.0
 10
87.62047497809475
 20
-137.9491991321792
 30
0.0
  0
SPLINE
  5
56
330
1F
100
AcDbEntity
  8
_U+30EC_U+30A4_U+30E4_U+30FC 1
 62
   179
420
  2234388
370
     9
100
AcDbSpline
210
0.0
220
0.0
230
1.0
 70
    11
 71
     3
 72
    17
 73
    13
 74
     0
 42
0.0000000001
 43
0.0000000001
 12
1.0
 22
0.0
 32
0.0
 13
1.0
 23
0.0
 33
0.0
 40
0.0
 40
0.0
 40
0.0
 40
0.0
 40
1.0
 40
1.0
 40
1.0
 40
2.0
 40
2.0
 40
2.0
 40
3.0
 40
3.0
 40
3.0
 40
4.0
 40
4.0
 40
4.0
 40
4.0
 10
77.62109274194317
 20
-137.9491991321792
 30
0.0
 10
77.62109274194317
 20
-137.8940952433043
 30
0.0
 10
77.57632524308528
 20
-137.8492924655376
 30
0.0
 10
77.52051580006466
 20
-137.8492924655376
 30
0.0
 10
77.4653766348047
 20
-137.8492924655376
 30
0.0
 10
77.42061109175597
 20
-137.8940952433043
 30
0.0
 10
77.42061109175597
 20
-137.9491991321792
 30
0.0
 10
77.42061109175597
 20
-138.0043382988323
 30
0.0
 10
77.4653766348047
 20
-138.0491057988208
 30
0.0
 10
77.52051580006466
 20
-138.0491057988208
 30
0.0
 10
77.57632524308528
 20
-138.0491057988208
 30
0.0
 10
77.62109274194317
 20
-138.0043382988323
 30
0.0
 10
77.62109274194317
 20
-137.9491991321792
 30
0.0
  0
POLYLINE
  5
57
330
1F
100
AcDbEntity
  8
_U+30EC_U+30A4_U+30E4_U+30FC 1
 62
   179
420
  2234388
370
     9
100
AcDb2dPolyline
 66
     1
 10
0.0
 20
0.0
 30
0.0
  0
VERTEX
  5
58
330
57
100
AcDbEntity
  8
_U+30EC_U+30A4_U+30E4_U+30FC 1
 62
   179
420
  2234388
370
     9
100
AcDbVertex
100
AcDb2dVertex
 10
77.52051580006466
 20
-137.9491991321792
 30
0.0
  0
VERTEX
  5
59
330
57
100
AcDbEntity
  8
_U+30EC_U+30A4_U+30E4_U+30FC 1
 62
   179
420
  2234388
370
     9
100
AcDbVertex
100
AcDb2dVertex
 10
87.52056610049767
 20
-137.9491991321792
 30
0.0
  0
SEQEND
  5
5A
330
57
100
AcDbEntity
  8
_U+30EC_U+30A4_U+30E4_U+30FC 1
 62
   179
420
  2234388
370
     9
  0
POLYLINE
  5
5B
330
1F
100
AcDbEntity
  8
_U+30EC_U+30A4_U+30E4_U+30FC 1
 62
   179
420
  2234388
370
     9
100
AcDb2dPolyline
 66
     1
 10
0.0
 20
0.0
 30
0.0
  0
VERTEX
  5
5C
330
5B
100
AcDbEntity
  8
_U+30EC_U+30A4_U+30E4_U+30FC 1
 62
   179
420
  2234388
370
     9
100
AcDbVertex
100
AcDb2dVertex
 10
77.52051580006466
 20
-135.4887152439056
 30
0.0
  0
VERTEX
  5
5D
330
5B
100
AcDbEntity
  8
_U+30EC_U+30A4_U+30E4_U+30FC 1
 62
   179
420
  2234388
370
     9
100
AcDbVertex
100
AcDb2dVertex
 10
77.52051580006466
 20
-138.9489713541518
 30
0.0
  0
SEQEND
  5
5E
330
5B
100
AcDbEntity
  8
_U+30EC_U+30A4_U+30E4_U+30FC 1
 62
   179
420
  2234388
370
     9
  0
POLYLINE
  5
5F
330
1F
100
AcDbEntity
  8
_U+30EC_U+30A4_U+30E4_U+30FC 1
 62
   179
420
  2234388
370
     9
100
AcDb2dPolyline
 66
     1
 10
0.0
 20
0.0
 30
0.0
  0
VERTEX
  5
60
330
5F
100
AcDbEntity
  8
_U+30EC_U+30A4_U+30E4_U+30FC 1
 62
   179
420
  2234388
370
     9
100
AcDbVertex
100
AcDb2dVertex
 10
87.52056610049767
 20
-135.4887152439056
 30
0.0
  0
VERTEX
  5
61
330
5F
100
AcDbEntity
  8
_U+30EC_U+30A4_U+30E4_U+30FC 1
 62
   179
420
  2234388
370
     9
100
AcDbVertex
100
AcDb2dVertex
 10
87.52056610049767
 20
-138.9489713541518
 30
0.0
  0
SEQEND
  5
62
330
5F
100
AcDbEntity
  8
_U+30EC_U+30A4_U+30E4_U+30FC 1
 62
   179
420
  2234388
370
     9
  0
INSERT
  5
64
330
1F
100
AcDbEntity
  8
_U+30EC_U+30A4_U+30E4_U+30FC 1
100
AcDbBlockReference
  2
block 2
 10
0.0
 20
0.0
 30
0.0
  0
POLYLINE
  5
6C
330
1F
100
AcDbEntity
  8
_U+30EC_U+30A4_U+30E4_U+30FC 1
 62
   179
420
  2234388
370
     9
100
AcDb2dPolyline
 66
     1
 10
0.0
 20
0.0
 30
0.0
  0
VERTEX
  5
6D
330
6C
100
AcDbEntity
  8
_U+30EC_U+30A4_U+30E4_U+30FC 1
 62
   179
420
  2234388
370
     9
100
AcDbVertex
100
AcDb2dVertex
 10
104.7722456603707
 20
-130.9491002450402
 30
0.0
  0
VERTEX
  5
6E
330
6C
100
AcDbEntity
  8
_U+30EC_U+30A4_U+30E4_U+30FC 1
 62
   179
420
  2234388
370
     9
100
AcDbVertex
100
AcDb2dVertex
 10
88.67055107115911
 20
-130.9491002450402
 30
0.0
  0
SEQEND
  5
6F
330
6C
100
AcDbEntity
  8
_U+30EC_U+30A4_U+30E4_U+30FC 1
 62
   179
420
  2234388
370
     9
  0
POLYLINE
  5
70
330
1F
100
AcDbEntity
  8
_U+30EC_U+30A4_U+30E4_U+30FC 1
 62
   179
420
  2234388
370
     9
100
AcDb2dPolyline
 66
     1
 10
0.0
 20
0.0
 30
0.0
  0
VERTEX
  5
71
330
70
100
AcDbEntity
  8
_U+30EC_U+30A4_U+30E4_U+30FC 1
 62
   179
420
  2234388
370
     9
100
AcDbVertex
100
AcDb2dVertex
 10
104.7722456603707
 20
-124.64887719106
 30
0.0
  0
VERTEX
  5
72
330
70
100
AcDbEntity
  8
_U+30EC_U+30A4_U+30E4_U+30FC 1
 62
   179
420
  2234388
370
     9
100
AcDbVertex
100
AcDb2dVertex
 10
100.7059879863318
 20
-124.64887719106
 30
0.0
  0
SEQEND
  5
73
330
70
100
AcDbEntity
  8
_U+30EC_U+30A4_U+30E4_U+30FC 1
 62
   179
420
  2234388
370
     9
  0
POLYLINE
  5
74
330
1F
100
AcDbEntity
  8
_U+30EC_U+30A4_U+30E4_U+30FC 1
 62
   179
420
  2234388
370
     9
100
AcDb2dPolyline
 66
     1
 10
0.0
 20
0.0
 30
0.0
  0
VERTEX
  5
75
330
74
100
AcDbEntity
  8
_U+30EC_U+30A4_U+30E4_U+30FC 1
 62
   179
420
  2234388
370
     9
100
AcDbVertex
100
AcDb2dVertex
 10
104.7722456603707
 20
-123.7077013579618
 30
0.0
  0
VERTEX
  5
76
330
74
100
AcDbEntity
  8
_U+30EC_U+30A4_U+30E4_U+30FC 1
 62
   179
420
  2234388
370
     9
100
AcDbVertex
100
AcDb2dVertex
 10
100.7059879863318
 20
-123.7077013579618
 30
0.0
  0
SEQEND
  5
77
330
74
100
AcDbEntity
  8
_U+30EC_U+30A4_U+30E4_U+30FC 1
 62
   179
420
  2234388
370
     9
  0
INSERT
  5
79
330
1F
100
AcDbEntity
  8
_U+30EC_U+30A4_U+30E4_U+30FC 1
100
AcDbBlockReference
  2
block 3
 10
0.0
 20
0.0
 30
0.0
  0
INSERT
  5
8A
330
1F
100
AcDbEntity
  8
_U+30EC_U+30A4_U+30E4_U+30FC 1
100
AcDbBlockReference
  2
block 4
 10
0.0
 20
0.0
 30
0.0
  0
INSERT
  5
90
330
1F
100
AcDbEntity
  8
_U+30EC_U+30A4_U+30E4_U+30FC 1
100
AcDbBlockReference
  2
block 5
 10
0.0
 20
0.0
 30
0.0
  0
SPLINE
  5
95
330
1F
100
AcDbEntity
  8
_U+30EC_U+30A4_U+30E4_U+30FC 1
 62
   179
420
  2234388
370
     9
100
AcDbSpline
210
0.0
220
0.0
230
1.0
 70
    11
 71
     3
 72
    17
 73
    13
 74
     0
 42
0.0000000001
 43
0.0000000001
 12
1.0
 22
0.0
 32
0.0
 13
1.0
 23
0.0
 33
0.0
 40
0.0
 40
0.0
 40
0.0
 40
0.0
 40
1.0
 40
1.0
 40
1.0
 40
2.0
 40
2.0
 40
2.0
 40
3.0
 40
3.0
 40
3.0
 40
4.0
 40
4.0
 40
4.0
 40
4.0
 10
103.8720273500038
 20
-130.9401396894874
 30
0.0
 10
103.8720273500038
 20
-130.9952788561398
 30
0.0
 10
103.8272598511459
 20
-131.040046356129
 30
0.0
 10
103.772120685886
 20
-131.040046356129
 30
0.0
 10
103.7170194185153
 20
-131.040046356129
 30
0.0
 10
103.6722166407485
 20
-130.9952788561398
 30
0.0
 10
103.6722166407485
 20
-130.9401396894874
 30
0.0
 10
103.6722166407485
 20
-130.8850358006118
 30
0.0
 10
103.7170194185153
 20
-130.8402330228458
 30
0.0
 10
103.772120685886
 20
-130.8402330228458
 30
0.0
 10
103.8272598511459
 20
-130.8402330228458
 30
0.0
 10
103.8720273500038
 20
-130.8850358006118
 30
0.0
 10
103.8720273500038
 20
-130.9401396894874
 30
0.0
  0
HATCH
  5
96
330
1F
100
AcDbEntity
  8
_U+30EC_U+30A4_U+30E4_U+30FC 1
 62
   179
420
  2234388
100
AcDbHatch
 10
0.0
 20
0.0
 30
0.0
210
0.0
220
0.0
230
1.0
  2
SOLID
 70
     1
 71
     0
 91
        1
 92
        1
 93
        1
 72
     4
 94
        3
 73
     0
 74
     1
 95
       17
 96
       13
 40
0.0
 40
0.0
 40
0.0
 40
0.0
 40
1.0
 40
1.0
 40
1.0
 40
2.0
 40
2.0
 40
2.0
 40
3.0
 40
3.0
 40
3.0
 40
4.0
 40
4.0
 40
4.0
 40
4.0
 10
103.8720273500038
 20
-130.9401396894874
 10
103.8720273500038
 20
-130.9952788561398
 10
103.8272598511459
 20
-131.040046356129
 10
103.772120685886
 20
-131.040046356129
 10
103.7170194185153
 20
-131.040046356129
 10
103.6722166407485
 20
-130.9952788561398
 10
103.6722166407485
 20
-130.9401396894874
 10
103.6722166407485
 20
-130.8850358006118
 10
103.7170194185153
 20
-130.8402330228458
 10
103.772120685886
 20
-130.8402330228458
 10
103.8272598511459
 20
-130.8402330228458
 10
103.8720273500038
 20
-130.8850358006118
 10
103.8720273500038
 20
-130.9401396894874
 97
        0
 97
        0
 75
     2
 76
     1
 98
        0
  0
POLYLINE
  5
97
330
1F
100
AcDbEntity
  8
_U+30EC_U+30A4_U+30E4_U+30FC 1
 62
   179
420
  2234388
370
     9
100
AcDb2dPolyline
 66
     1
 10
0.0
 20
0.0
 30
0.0
  0
VERTEX
  5
98
330
97
100
AcDbEntity
  8
_U+30EC_U+30A4_U+30E4_U+30FC 1
 62
   179
420
  2234388
370
     9
100
AcDbVertex
100
AcDb2dVertex
 10
103.772120685886
 20
-133.9398091331815
 30
0.0
  0
VERTEX
  5
99
330
97
100
AcDbEntity
  8
_U+30EC_U+30A4_U+30E4_U+30FC 1
 62
   179
420
  2234388
370
     9
100
AcDbVertex
100
AcDb2dVertex
 10
103.772120685886
 20
-119.9373888589044
 30
0.0
  0
SEQEND
  5
9A
330
97
100
AcDbEntity
  8
_U+30EC_U+30A4_U+30E4_U+30FC 1
 62
   179
420
  2234388
370
     9
  0
POLYLINE
  5
9B
330
1F
100
AcDbEntity
  8
_U+30EC_U+30A4_U+30E4_U+30FC 1
 62
   179
420
  2234388
370
     9
100
AcDb2dPolyline
 66
     1
 10
0.0
 20
0.0
 30
0.0
  0
VERTEX
  5
9C
330
9B
100
AcDbEntity
  8
_U+30EC_U+30A4_U+30E4_U+30FC 1
 62
   179
420
  2234388
370
     9
100
AcDbVertex
100
AcDb2dVertex
 10
104.7722456603707
 20
-133.948769688735
 30
0.0
  0
VERTEX
  5
9D
330
9B
100
AcDbEntity
  8
_U+30EC_U+30A4_U+30E4_U+30FC 1
 62
   179
420
  2234388
370
     9
100
AcDbVertex
100
AcDb2dVertex
 10
88.67055107115911
 20
-133.948769688735
 30
0.0
  0
SEQEND
  5
9E
330
9B
100
AcDbEntity
  8
_U+30EC_U+30A4_U+30E4_U+30FC 1
 62
   179
420
  2234388
370
     9
  0
SPLINE
  5
9F
330
1F
100
AcDbEntity
  8
_U+30EC_U+30A4_U+30E4_U+30FC 1
 62
   179
420
  2234388
370
     9
100
AcDbSpline
210
0.0
220
0.0
230
1.0
 70
    11
 71
     3
 72
    17
 73
    13
 74
     0
 42
0.0000000001
 43
0.0000000001
 12
1.0
 22
0.0
 32
0.0
 13
1.0
 23
0.0
 33
0.0
 40
0.0
 40
0.0
 40
0.0
 40
0.0
 40
1.0
 40
1.0
 40
1.0
 40
2.0
 40
2.0
 40
2.0
 40
3.0
 40
3.0
 40
3.0
 40
4.0
 40
4.0
 40
4.0
 40
4.0
 10
103.8720273500038
 20
-133.9398091331815
 30
0.0
 10
103.8720273500038
 20
-133.9949130220571
 30
0.0
 10
103.8272598511459
 20
-134.0397157998231
 30
0.0
 10
103.772120685886
 20
-134.0397157998231
 30
0.0
 10
103.7170194185153
 20
-134.0397157998231
 30
0.0
 10
103.6722166407485
 20
-133.9949130220571
 30
0.0
 10
103.6722166407485
 20
-133.9398091331815
 30
0.0
 10
103.6722166407485
 20
-133.8846699665291
 30
0.0
 10
103.7170194185153
 20
-133.8399024665399
 30
0.0
 10
103.772120685886
 20
-133.8399024665399
 30
0.0
 10
103.8272598511459
 20
-133.8399024665399
 30
0.0
 10
103.8720273500038
 20
-133.8846699665291
 30
0.0
 10
103.8720273500038
 20
-133.9398091331815
 30
0.0
  0
HATCH
  5
A0
330
1F
100
AcDbEntity
  8
_U+30EC_U+30A4_U+30E4_U+30FC 1
 62
   179
420
  2234388
100
AcDbHatch
 10
0.0
 20
0.0
 30
0.0
210
0.0
220
0.0
230
1.0
  2
SOLID
 70
     1
 71
     0
 91
        1
 92
        1
 93
        1
 72
     4
 94
        3
 73
     0
 74
     1
 95
       17
 96
       13
 40
0.0
 40
0.0
 40
0.0
 40
0.0
 40
1.0
 40
1.0
 40
1.0
 40
2.0
 40
2.0
 40
2.0
 40
3.0
 40
3.0
 40
3.0
 40
4.0
 40
4.0
 40
4.0
 40
4.0
 10
103.8720273500038
 20
-133.9398091331815
 10
103.8720273500038
 20
-133.9949130220571
 10
103.8272598511459
 20
-134.0397157998231
 10
103.772120685886
 20
-134.0397157998231
 10
103.7170194185153
 20
-134.0397157998231
 10
103.6722166407485
 20
-133.9949130220571
 10
103.6722166407485
 20
-133.9398091331815
 10
103.6722166407485
 20
-133.8846699665291
 10
103.7170194185153
 20
-133.8399024665399
 10
103.772120685886
 20
-133.8399024665399
 10
103.8272598511459
 20
-133.8399024665399
 10
103.8720273500038
 20
-133.8846699665291
 10
103.8720273500038
 20
-133.9398091331815
 97
        0
 97
        0
 75
     2
 76
     1
 98
        0
  0
SPLINE
  5
A1
330
1F
100
AcDbEntity
  8
_U+30EC_U+30A4_U+30E4_U+30FC 1
 62
   179
420
  2234388
370
     9
100
AcDbSpline
210
0.0
220
0.0
230
1.0
 70
    11
 71
     3
 72
    17
 73
    13
 74
     0
 42
0.0000000001
 43
0.0000000001
 12
1.0
 22
0.0
 32
0.0
 13
1.0
 23
0.0
 33
0.0
 40
0.0
 40
0.0
 40
0.0
 40
0.0
 40
1.0
 40
1.0
 40
1.0
 40
2.0
 40
2.0
 40
2.0
 40
3.0
 40
3.0
 40
3.0
 40
4.0
 40
4.0
 40
4.0
 40
4.0
 10
103.8720273500038
 20
-124.64887719106
 30
0.0
 10
103.8720273500038
 20
-124.7040163577131
 30
0.0
 10
103.8272598511459
 20
-124.7488191354795
 30
0.0
 10
103.772120685886
 20
-124.7488191354795
 30
0.0
 10
103.7170194185153
 20
-124.7488191354795
 30
0.0
 10
103.6722166407485
 20
-124.7040163577131
 30
0.0
 10
103.6722166407485
 20
-124.64887719106
 30
0.0
 10
103.6722166407485
 20
-124.5937733021851
 30
0.0
 10
103.7170194185153
 20
-124.5489705244184
 30
0.0
 10
103.772120685886
 20
-124.5489705244184
 30
0.0
 10
103.8272598511459
 20
-124.5489705244184
 30
0.0
 10
103.8720273500038
 20
-124.5937733021851
 30
0.0
 10
103.8720273500038
 20
-124.64887719106
 30
0.0
  0
HATCH
  5
A2
330
1F
100
AcDbEntity
  8
_U+30EC_U+30A4_U+30E4_U+30FC 1
 62
   179
420
  2234388
100
AcDbHatch
 10
0.0
 20
0.0
 30
0.0
210
0.0
220
0.0
230
1.0
  2
SOLID
 70
     1
 71
     0
 91
        1
 92
        1
 93
        1
 72
     4
 94
        3
 73
     0
 74
     1
 95
       17
 96
       13
 40
0.0
 40
0.0
 40
0.0
 40
0.0
 40
1.0
 40
1.0
 40
1.0
 40
2.0
 40
2.0
 40
2.0
 40
3.0
 40
3.0
 40
3.0
 40
4.0
 40
4.0
 40
4.0
 40
4.0
 10
103.8720273500038
 20
-124.64887719106
 10
103.8720273500038
 20
-124.7040163577131
 10
103.8272598511459
 20
-124.7488191354795
 10
103.772120685886
 20
-124.7488191354795
 10
103.7170194185153
 20
-124.7488191354795
 10
103.6722166407485
 20
-124.7040163577131
 10
103.6722166407485
 20
-124.64887719106
 10
103.6722166407485
 20
-124.5937733021851
 10
103.7170194185153
 20
-124.5489705244184
 10
103.772120685886
 20
-124.5489705244184
 10
103.8272598511459
 20
-124.5489705244184
 10
103.8720273500038
 20
-124.5937733021851
 10
103.8720273500038
 20
-124.64887719106
 97
        0
 97
        0
 75
     2
 76
     1
 98
        0
  0
SPLINE
  5
A3
330
1F
100
AcDbEntity
  8
_U+30EC_U+30A4_U+30E4_U+30FC 1
 62
   179
420
  2234388
370
     9
100
AcDbSpline
210
0.0
220
0.0
230
1.0
 70
    11
 71
     3
 72
    17
 73
    13
 74
     0
 42
0.0000000001
 43
0.0000000001
 12
1.0
 22
0.0
 32
0.0
 13
1.0
 23
0.0
 33
0.0
 40
0.0
 40
0.0
 40
0.0
 40
0.0
 40
1.0
 40
1.0
 40
1.0
 40
2.0
 40
2.0
 40
2.0
 40
3.0
 40
3.0
 40
3.0
 40
4.0
 40
4.0
 40
4.0
 40
4.0
 10
103.8720273500038
 20
-123.7077013579618
 30
0.0
 10
103.8720273500038
 20
-123.762805246837
 30
0.0
 10
103.8272598511459
 20
-123.8076080246038
 30
0.0
 10
103.772120685886
 20
-123.8076080246038
 30
0.0
 10
103.7170194185153
 20
-123.8076080246038
 30
0.0
 10
103.6722166407485
 20
-123.762805246837
 30
0.0
 10
103.6722166407485
 20
-123.7077013579618
 30
0.0
 10
103.6722166407485
 20
-123.6525621913091
 30
0.0
 10
103.7170194185153
 20
-123.6077946913202
 30
0.0
 10
103.772120685886
 20
-123.6077946913202
 30
0.0
 10
103.8272598511459
 20
-123.6077946913202
 30
0.0
 10
103.8720273500038
 20
-123.6525621913091
 30
0.0
 10
103.8720273500038
 20
-123.7077013579618
 30
0.0
  0
HATCH
  5
A4
330
1F
100
AcDbEntity
  8
_U+30EC_U+30A4_U+30E4_U+30FC 1
 62
   179
420
  2234388
100
AcDbHatch
 10
0.0
 20
0.0
 30
0.0
210
0.0
220
0.0
230
1.0
  2
SOLID
 70
     1
 71
     0
 91
        1
 92
        1
 93
        1
 72
     4
 94
        3
 73
     0
 74
     1
 95
       17
 96
       13
 40
0.0
 40
0.0
 40
0.0
 40
0.0
 40
1.0
 40
1.0
 40
1.0
 40
2.0
 40
2.0
 40
2.0
 40
3.0
 40
3.0
 40
3.0
 40
4.0
 40
4.0
 40
4.0
 40
4.0
 10
103.8720273500038
 20
-123.7077013579618
 10
103.8720273500038
 20
-123.762805246837
 10
103.8272598511459
 20
-123.8076080246038
 10
103.772120685886
 20
-123.8076080246038
 10
103.7170194185153
 20
-123.8076080246038
 10
103.6722166407485
 20
-123.762805246837
 10
103.6722166407485
 20
-123.7077013579618
 10
103.6722166407485
 20
-123.6525621913091
 10
103.7170194185153
 20
-123.6077946913202
 10
103.772120685886
 20
-123.6077946913202
 10
103.8272598511459
 20
-123.6077946913202
 10
103.8720273500038
 20
-123.6525621913091
 10
103.8720273500038
 20
-123.7077013579618
 97
        0
 97
        0
 75
     2
 76
     1
 98
        0
  0
SPLINE
  5
A5
330
1F
100
AcDbEntity
  8
_U+30EC_U+30A4_U+30E4_U+30FC 1
 62
   179
420
  2234388
370
     9
100
AcDbSpline
210
0.0
220
0.0
230
1.0
 70
    11
 71
     3
 72
    17
 73
    13
 74
     0
 42
0.0000000001
 43
0.0000000001
 12
1.0
 22
0.0
 32
0.0
 13
1.0
 23
0.0
 33
0.0
 40
0.0
 40
0.0
 40
0.0
 40
0.0
 40
1.0
 40
1.0
 40
1.0
 40
2.0
 40
2.0
 40
2.0
 40
3.0
 40
3.0
 40
3.0
 40
4.0
 40
4.0
 40
4.0
 40
4.0
 10
78.62361660525555
 20
-120.4732583032149
 30
0.0
 10
78.62361660525555
 20
-120.41815441434
 30
0.0
 10
78.57884910639766
 20
-120.3733516365733
 30
0.0
 10
78.52370994113771
 20
-120.3733516365733
 30
0.0
 10
78.46878244253902
 20
-120.3733516365733
 30
0.0
 10
78.42397966590426
 20
-120.41815441434
 30
0.0
 10
78.42397966590426
 20
-120.4732583032149
 30
0.0
 10
78.42397966590426
 20
-120.528397469868
 30
0.0
 10
78.46878244253902
 20
-120.5731649698566
 30
0.0
 10
78.52370994113771
 20
-120.5731649698566
 30
0.0
 10
78.57884910639766
 20
-120.5731649698566
 30
0.0
 10
78.62361660525555
 20
-120.528397469868
 30
0.0
 10
78.62361660525555
 20
-120.4732583032149
 30
0.0
  0
POLYLINE
  5
A6
330
1F
100
AcDbEntity
  8
_U+30EC_U+30A4_U+30E4_U+30FC 1
 62
   179
420
  2234388
370
     9
100
AcDb2dPolyline
 66
     1
 10
0.0
 20
0.0
 30
0.0
  0
VERTEX
  5
A7
330
A6
100
AcDbEntity
  8
_U+30EC_U+30A4_U+30E4_U+30FC 1
 62
   179
420
  2234388
370
     9
100
AcDbVertex
100
AcDb2dVertex
 10
78.52370994113771
 20
-121.933299691739
 30
0.0
  0
VERTEX
  5
A8
330
A6
100
AcDbEntity
  8
_U+30EC_U+30A4_U+30E4_U+30FC 1
 62
   179
420
  2234388
370
     9
100
AcDbVertex
100
AcDb2dVertex
 10
78.52370994113771
 20
-119.4734860812427
 30
0.0
  0
SEQEND
  5
A9
330
A6
100
AcDbEntity
  8
_U+30EC_U+30A4_U+30E4_U+30FC 1
 62
   179
420
  2234388
370
     9
  0
SPLINE
  5
AA
330
1F
100
AcDbEntity
  8
_U+30EC_U+30A4_U+30E4_U+30FC 1
 62
   179
420
  2234388
370
     9
100
AcDbSpline
210
0.0
220
0.0
230
1.0
 70
    11
 71
     3
 72
    17
 73
    13
 74
     0
 42
0.0000000001
 43
0.0000000001
 12
1.0
 22
0.0
 32
0.0
 13
1.0
 23
0.0
 33
0.0
 40
0.0
 40
0.0
 40
0.0
 40
0.0
 40
1.0
 40
1.0
 40
1.0
 40
2.0
 40
2.0
 40
2.0
 40
3.0
 40
3.0
 40
3.0
 40
4.0
 40
4.0
 40
4.0
 40
4.0
 10
99.62355995839124
 20
-120.4732583032149
 30
0.0
 10
99.62355995839124
 20
-120.41815441434
 30
0.0
 10
99.57875718175647
 20
-120.3733516365733
 30
0.0
 10
99.5236532942734
 20
-120.3733516365733
 30
0.0
 10
99.46886941957749
 20
-120.3733516365733
 30
0.0
 10
99.42406664181077
 20
-120.41815441434
 30
0.0
 10
99.42406664181077
 20
-120.4732583032149
 30
0.0
 10
99.42406664181077
 20
-120.528397469868
 30
0.0
 10
99.46886941957749
 20
-120.5731649698566
 30
0.0
 10
99.5236532942734
 20
-120.5731649698566
 30
0.0
 10
99.57875718175647
 20
-120.5731649698566
 30
0.0
 10
99.62355995839124
 20
-120.528397469868
 30
0.0
 10
99.62355995839124
 20
-120.4732583032149
 30
0.0
  0
POLYLINE
  5
AB
330
1F
100
AcDbEntity
  8
_U+30EC_U+30A4_U+30E4_U+30FC 1
 62
   179
420
  2234388
370
     9
100
AcDb2dPolyline
 66
     1
 10
0.0
 20
0.0
 30
0.0
  0
VERTEX
  5
AC
330
AB
100
AcDbEntity
  8
_U+30EC_U+30A4_U+30E4_U+30FC 1
 62
   179
420
  2234388
370
     9
100
AcDbVertex
100
AcDb2dVertex
 10
99.5236532942734
 20
-121.933299691739
 30
0.0
  0
VERTEX
  5
AD
330
AB
100
AcDbEntity
  8
_U+30EC_U+30A4_U+30E4_U+30FC 1
 62
   179
420
  2234388
370
     9
100
AcDbVertex
100
AcDb2dVertex
 10
99.5236532942734
 20
-119.4734860812427
 30
0.0
  0
SEQEND
  5
AE
330
AB
100
AcDbEntity
  8
_U+30EC_U+30A4_U+30E4_U+30FC 1
 62
   179
420
  2234388
370
     9
  0
POLYLINE
  5
AF
330
1F
100
AcDbEntity
  8
_U+30EC_U+30A4_U+30E4_U+30FC 1
 62
   179
420
  2234388
370
     9
100
AcDb2dPolyline
 66
     1
 10
0.0
 20
0.0
 30
0.0
  0
VERTEX
  5
B0
330
AF
100
AcDbEntity
  8
_U+30EC_U+30A4_U+30E4_U+30FC 1
 62
   179
420
  2234388
370
     9
100
AcDbVertex
100
AcDb2dVertex
 10
78.52441549667526
 20
-120.4732583032149
 30
0.0
  0
VERTEX
  5
B1
330
AF
100
AcDbEntity
  8
_U+30EC_U+30A4_U+30E4_U+30FC 1
 62
   179
420
  2234388
370
     9
100
AcDbVertex
100
AcDb2dVertex
 10
99.5236532942734
 20
-120.4732583032149
 30
0.0
  0
SEQEND
  5
B2
330
AF
100
AcDbEntity
  8
_U+30EC_U+30A4_U+30E4_U+30FC 1
 62
   179
420
  2234388
370
     9
  0
INSERT
  5
B4
330
1F
100
AcDbEntity
  8
_U+30EC_U+30A4_U+30E4_U+30FC 1
100
AcDbBlockReference
  2
block 6
 10
0.0
 20
0.0
 30
0.0
  0
ENDSEC
  0
SECTION
  2
OBJECTS
  0
DICTIONARY
  5
C
330
0
100
AcDbDictionary
281
     1
  3
ACAD_GROUP
350
D
  3
ACAD_LAYOUT
350
1A
  3
ACAD_MATERIAL
350
3B
  3
ACAD_MLEADERSTYLE
350
BC
  3
ACAD_MLINESTYLE
350
17
  3
ACAD_PLOTSETTINGS
350
19
  3
ACAD_PLOTSTYLENAME
350
E
  3
ACAD_TABLESTYLE
350
BB
  3
ACAD_VISUALSTYLE
350
2A
  0
SUN
  5
3F
330
29
100
AcDbSun
 90
        1
290
     0
 63
     7
421
 16777215
 40
1.0
291
     1
 91
  2455826
 92
 54000000
292
     0
 70
     2
 71
   256
280
     1
  0
DICTIONARY
  5
D
102
{ACAD_REACTORS
330
C
102
}
330
C
100
AcDbDictionary
281
     1
  0
DICTIONARY
  5
1A
102
{ACAD_REACTORS
330
C
102
}
330
C
100
AcDbDictionary
281
     1
  3
Layout1
350
1E
  3
Layout2
350
26
  3
Model
350
22
  0
DICTIONARY
  5
3B
102
{ACAD_REACTORS
330
C
102
}
330
C
100
AcDbDictionary
281
     1
  3
ByBlock
350
3D
  3
ByLayer
350
3C
  3
Global
350
3E
  0
DICTIONARY
  5
BC
102
{ACAD_REACTORS
330
C
102
}
330
C
100
AcDbDictionary
281
     1
  0
DICTIONARY
  5
17
102
{ACAD_REACTORS
330
C
102
}
330
C
100
AcDbDictionary
281
     1
  3
Standard
350
18
  0
DICTIONARY
  5
19
102
{ACAD_REACTORS
330
C
102
}
330
C
100
AcDbDictionary
281
     1
  0
ACDBDICTIONARYWDFLT
  5
E
102
{ACAD_REACTORS
330
C
102
}
330
C
100
AcDbDictionary
281
     1
  3
Normal
350
F
100
AcDbDictionaryWithDefault
340
F
  0
DICTIONARY
  5
BB
102
{ACAD_REACTORS
330
C
102
}
330
C
100
AcDbDictionary
281
     1
  0
DICTIONARY
  5
2A
102
{ACAD_REACTORS
330
C
102
}
330
C
100
AcDbDictionary
281
     1
  3
2dWireframe
350
2F
  3
3D Hidden
350
31
  3
3dWireframe
350
30
  3
Basic
350
32
  3
Brighten
350
36
  3
ColorChange
350
3A
  3
Conceptual
350
34
  3
Dim
350
35
  3
Facepattern
350
39
  3
Flat
350
2B
  3
FlatWithEdges
350
2C
  3
Gouraud
350
2D
  3
GouraudWithEdges
350
2E
  3
Linepattern
350
38
  3
Realistic
350
33
  3
Thicken
350
37
  0
LAYOUT
  5
1E
102
{ACAD_REACTORS
330
1A
102
}
330
1A
100
AcDbPlotSettings
  1

  2
none_device
  4

  6

 40
0.0
 41
0.0
 42
0.0
 43
0.0
 44
0.0
 45
0.0
 46
0.0
 47
0.0
 48
0.0
 49
0.0
140
0.0
141
0.0
142
1.0
143
1.0
 70
   688
 72
     0
 73
     0
 74
     5
  7

 75
    16
 76
     0
 77
     2
 78
   300
147
1.0
148
0.0
149
0.0
100
AcDbLayout
  1
Layout1
 70
     1
 71
     1
 10
0.0
 20
0.0
 11
12.0
 21
9.0
 12
0.0
 22
0.0
 32
0.0
 14
1.000000000000000E+20
 24
1.000000000000000E+20
 34
1.000000000000000E+20
 15
-1.000000000000000E+20
 25
-1.000000000000000E+20
 35
-1.000000000000000E+20
146
0.0
 13
0.0
 23
0.0
 33
0.0
 16
1.0
 26
0.0
 36
0.0
 17
0.0
 27
1.0
 37
0.0
 76
     0
330
1B
  0
LAYOUT
  5
26
102
{ACAD_REACTORS
330
1A
102
}
330
1A
100
AcDbPlotSettings
  1

  2
none_device
  4

  6

 40
0.0
 41
0.0
 42
0.0
 43
0.0
 44
0.0
 45
0.0
 46
0.0
 47
0.0
 48
0.0
 49
0.0
140
0.0
141
0.0
142
1.0
143
1.0
 70
   688
 72
     0
 73
     0
 74
     5
  7

 75
    16
 76
     0
 77
     2
 78
   300
147
1.0
148
0.0
149
0.0
100
AcDbLayout
  1
Layout2
 70
     1
 71
     2
 10
0.0
 20
0.0
 11
0.0
 21
0.0
 12
0.0
 22
0.0
 32
0.0
 14
0.0
 24
0.0
 34
0.0
 15
0.0
 25
0.0
 35
0.0
146
0.0
 13
0.0
 23
0.0
 33
0.0
 16
1.0
 26
0.0
 36
0.0
 17
0.0
 27
1.0
 37
0.0
 76
     0
330
23
  0
LAYOUT
  5
22
102
{ACAD_REACTORS
330
1A
102
}
330
1A
100
AcDbPlotSettings
  1

  2
none_device
  4

  6

 40
0.0
 41
0.0
 42
0.0
 43
0.0
 44
0.0
 45
0.0
 46
0.0
 47
0.0
 48
0.0
 49
0.0
140
0.0
141
0.0
142
1.0
143
1.0
 70
  1712
 72
     0
 73
     0
 74
     0
  7

 75
     0
 76
     0
 77
     2
 78
   300
147
1.0
148
0.0
149
0.0
100
AcDbLayout
  1
Model
 70
     1
 71
     0
 10
0.0
 20
0.0
 11
12.0
 21
9.0
 12
0.0
 22
0.0
 32
0.0
 14
1.000000000000000E+20
 24
1.000000000000000E+20
 34
1.000000000000000E+20
 15
-1.000000000000000E+20
 25
-1.000000000000000E+20
 35
-1.000000000000000E+20
146
0.0
 13
0.0
 23
0.0
 33
0.0
 16
1.0
 26
0.0
 36
0.0
 17
0.0
 27
1.0
 37
0.0
 76
     0
330
1F
331
29
  0
MATERIAL
  5
3D
102
{ACAD_REACTORS
330
3B
102
}
330
3B
100
AcDbMaterial
  1
ByBlock
 72
     1
 94
      127
  0
MATERIAL
  5
3C
102
{ACAD_REACTORS
330
3B
102
}
330
3B
100
AcDbMaterial
  1
ByLayer
 72
     1
 94
      127
  0
MATERIAL
  5
3E
102
{ACAD_REACTORS
330
3B
102
}
330
3B
100
AcDbMaterial
  1
Global
 72
     1
 94
      127
  0
MLINESTYLE
  5
18
102
{ACAD_REACTORS
330
17
102
}
330
17
100
AcDbMlineStyle
  2
Standard
 70
     0
  3

 62
   256
 51
90.0
 52
90.0
 71
     2
 49
0.5
 62
   256
  6
BYLAYER
 49
-0.5
 62
   256
  6
BYLAYER
  0
ACDBPLACEHOLDER
  5
F
102
{ACAD_REACTORS
330
E
102
}
330
E
  0
VISUALSTYLE
  5
2F
102
{ACAD_REACTORS
330
2A
102
}
330
2A
100
AcDbVisualStyle
  2
2dWireframe
 70
     4
177
     2
291
     0
 71
     0
176
     1
 72
     2
176
     1
 73
     0
176
     1
 90
        0
176
     1
 40
-0.6
176
     1
 41
-30.0
176
     1
 62
     5
 63
     7
421
 16777215
176
     1
 74
     1
176
     1
 91
        4
176
     1
 64
     7
176
     1
 65
   257
176
     1
 75
     1
176
     1
175
     1
176
     1
 42
1.0
176
     1
 92
        0
176
     1
 66
   257
176
     1
 43
1.0
176
     1
 76
     1
176
     1
 77
     6
176
     1
 78
     2
176
     1
 67
     7
176
     1
 79
     5
176
     1
170
     0
176
     1
171
     0
176
     1
290
     0
176
     1
 93
        1
176
     1
 44
0.0
176
     1
173
     0
176
     1
  0
VISUALSTYLE
  5
31
102
{ACAD_REACTORS
330
2A
102
}
330
2A
100
AcDbVisualStyle
  2
3D Hidden
 70
     6
177
     2
291
     0
 71
     1
176
     1
 72
     2
176
     1
 73
     2
176
     1
 90
        0
176
     1
 40
-0.6
176
     1
 41
-30.0
176
     1
 62
     5
 63
     7
421
 16777215
176
     1
 74
     2
176
     1
 91
        2
176
     1
 64
     7
176
     1
 65
   257
176
     1
 75
     2
176
     1
175
     1
176
     1
 42
40.0
176
     1
 92
        0
176
     1
 66
   257
176
     1
 43
1.0
176
     1
 76
     1
176
     1
 77
     6
176
     1
 78
     2
176
     1
 67
     7
176
     1
 79
     3
176
     1
170
     0
176
     1
171
     0
176
     1
290
     0
176
     1
 93
        1
176
     1
 44
0.0
176
     1
173
     0
176
     1
  0
VISUALSTYLE
  5
30
102
{ACAD_REACTORS
330
2A
102
}
330
2A
100
AcDbVisualStyle
  2
3dWireframe
 70
     5
177
     2
291
     0
 71
     0
176
     1
 72
     2
176
     1
 73
     0
176
     1
 90
        0
176
     1
 40
-0.6
176
     1
 41
-30.0
176
     1
 62
     5
 63
     7
421
 16777215
176
     1
 74
     1
176
     1
 91
        4
176
     1
 64
     7
176
     1
 65
   257
176
     1
 75
     1
176
     1
175
     1
176
     1
 42
1.0
176
     1
 92
        0
176
     1
 66
   257
176
     1
 43
1.0
176
     1
 76
     1
176
     1
 77
     6
176
     1
 78
     2
176
     1
 67
     7
176
     1
 79
     5
176
     1
170
     0
176
     1
171
     0
176
     1
290
     0
176
     1
 93
        1
176
     1
 44
0.0
176
     1
173
     0
176
     1
  0
VISUALSTYLE
  5
32
102
{ACAD_REACTORS
330
2A
102
}
330
2A
100
AcDbVisualStyle
  2
Basic
 70
     7
177
     2
291
     1
 71
     1
176
     1
 72
     0
176
     1
 73
     1
176
     1
 90
        0
176
     1
 40
-0.6
176
     1
 41
-30.0
176
     1
 62
     5
 63
     7
421
 16777215
176
     1
 74
     0
176
     1
 91
        4
176
     1
 64
     7
176
     1
 65
   257
176
     1
 75
     1
176
     1
175
     1
176
     1
 42
1.0
176
     1
 92
        8
176
     1
 66
     7
176
     1
 43
1.0
176
     1
 76
     1
176
     1
 77
     6
176
     1
 78
     2
176
     1
 67
     7
176
     1
 79
     5
176
     1
170
     0
176
     1
171
     0
176
     1
290
     0
176
     1
 93
        1
176
     1
 44
0.0
176
     1
173
     0
176
     1
  0
VISUALSTYLE
  5
36
102
{ACAD_REACTORS
330
2A
102
}
330
2A
100
AcDbVisualStyle
  2
Brighten
 70
    12
177
     2
291
     1
 71
     2
176
     1
 72
     2
176
     1
 73
     0
176
     1
 90
        0
176
     1
 40
-0.6
176
     1
 41
-30.0
176
     1
 62
     5
 63
     7
421
 16777215
176
     1
 74
     1
176
     1
 91
        4
176
     1
 64
     7
176
     1
 65
   257
176
     1
 75
     1
176
     1
175
     1
176
     1
 42
1.0
176
     1
 92
        8
176
     1
 66
     7
176
     1
 43
1.0
176
     1
 76
     1
176
     1
 77
     6
176
     1
 78
     2
176
     1
 67
     7
176
     1
 79
     5
176
     1
170
     0
176
     1
171
     0
176
     1
290
     0
176
     1
 93
        1
176
     1
 44
50.0
176
     1
173
     0
176
     1
  0
VISUALSTYLE
  5
3A
102
{ACAD_REACTORS
330
2A
102
}
330
2A
100
AcDbVisualStyle
  2
ColorChange
 70
    16
177
     2
291
     1
 71
     2
176
     1
 72
     2
176
     1
 73
     3
176
     1
 90
        0
176
     1
 40
-0.6
176
     1
 41
-30.0
176
     1
 62
     5
 63
     8
421
  8421504
176
     1
 74
     1
176
     1
 91
        4
176
     1
 64
     7
176
     1
 65
   257
176
     1
 75
     1
176
     1
175
     1
176
     1
 42
1.0
176
     1
 92
        8
176
     1
 66
     8
424
  8421504
176
     1
 43
1.0
176
     1
 76
     1
176
     1
 77
     6
176
     1
 78
     2
176
     1
 67
     7
176
     1
 79
     5
176
     1
170
     0
176
     1
171
     0
176
     1
290
     0
176
     1
 93
        1
176
     1
 44
0.0
176
     1
173
     0
176
     1
  0
VISUALSTYLE
  5
34
102
{ACAD_REACTORS
330
2A
102
}
330
2A
100
AcDbVisualStyle
  2
Conceptual
 70
     9
177
     2
291
     0
 71
     3
176
     1
 72
     2
176
     1
 73
     0
176
     1
 90
        0
176
     1
 40
-0.6
176
     1
 41
-30.0
176
     1
 62
     5
 63
     7
421
 16777215
176
     1
 74
     2
176
     1
 91
        2
176
     1
 64
     7
176
     1
 65
   257
176
     1
 75
     1
176
     1
175
     1
176
     1
 42
40.0
176
     1
 92
        8
176
     1
 66
     7
176
     1
 43
1.0
176
     1
 76
     1
176
     1
 77
     6
176
     1
 78
     2
176
     1
 67
     7
176
     1
 79
     3
176
     1
170
     0
176
     1
171
     0
176
     1
290
     0
176
     1
 93
        1
176
     1
 44
0.0
176
     1
173
     0
176
     1
  0
VISUALSTYLE
  5
35
102
{ACAD_REACTORS
330
2A
102
}
330
2A
100
AcDbVisualStyle
  2
Dim
 70
    11
177
     2
291
     1
 71
     2
176
     1
 72
     2
176
     1
 73
     0
176
     1
 90
        0
176
     1
 40
-0.6
176
     1
 41
-30.0
176
     1
 62
     5
 63
     7
421
 16777215
176
     1
 74
     1
176
     1
 91
        4
176
     1
 64
     7
176
     1
 65
   257
176
     1
 75
     1
176
     1
175
     1
176
     1
 42
1.0
176
     1
 92
        8
176
     1
 66
     7
176
     1
 43
1.0
176
     1
 76
     1
176
     1
 77
     6
176
     1
 78
     2
176
     1
 67
     7
176
     1
 79
     5
176
     1
170
     0
176
     1
171
     0
176
     1
290
     0
176
     1
 93
        1
176
     1
 44
-50.0
176
     1
173
     0
176
     1
  0
VISUALSTYLE
  5
39
102
{ACAD_REACTORS
330
2A
102
}
330
2A
100
AcDbVisualStyle
  2
Facepattern
 70
    15
177
     2
291
     1
 71
     2
176
     1
 72
     2
176
     1
 73
     0
176
     1
 90
        0
176
     1
 40
-0.6
176
     1
 41
-30.0
176
     1
 62
     5
 63
     7
421
 16777215
176
     1
 74
     1
176
     1
 91
        4
176
     1
 64
     7
176
     1
 65
   257
176
     1
 75
     1
176
     1
175
     1
176
     1
 42
1.0
176
     1
 92
        8
176
     1
 66
     7
176
     1
 43
1.0
176
     1
 76
     1
176
     1
 77
     6
176
     1
 78
     2
176
     1
 67
     7
176
     1
 79
     5
176
     1
170
     0
176
     1
171
     0
176
     1
290
     0
176
     1
 93
        1
176
     1
 44
0.0
176
     1
173
     0
176
     1
  0
VISUALSTYLE
  5
2B
102
{ACAD_REACTORS
330
2A
102
}
330
2A
100
AcDbVisualStyle
  2
Flat
 70
     0
177
     2
291
     1
 71
     2
176
     1
 72
     1
176
     1
 73
     1
176
     1
 90
        2
176
     1
 40
-0.6
176
     1
 41
30.0
176
     1
 62
     5
 63
     7
421
 16777215
176
     1
 74
     0
176
     1
 91
        4
176
     1
 64
     7
176
     1
 65
   257
176
     1
 75
     1
176
     1
175
     1
176
     1
 42
1.0
176
     1
 92
        8
176
     1
 66
     7
176
     1
 43
1.0
176
     1
 76
     1
176
     1
 77
     6
176
     1
 78
     2
176
     1
 67
     7
176
     1
 79
     5
176
     1
170
     0
176
     1
171
     0
176
     1
290
     0
176
     1
 93
       13
176
     1
 44
0.0
176
     1
173
     0
176
     1
  0
VISUALSTYLE
  5
2C
102
{ACAD_REACTORS
330
2A
102
}
330
2A
100
AcDbVisualStyle
  2
FlatWithEdges
 70
     1
177
     2
291
     1
 71
     2
176
     1
 72
     1
176
     1
 73
     1
176
     1
 90
        2
176
     1
 40
-0.6
176
     1
 41
30.0
176
     1
 62
     5
 63
     7
421
 16777215
176
     1
 74
     1
176
     1
 91
        4
176
     1
 64
     7
176
     1
 65
   257
176
     1
 75
     1
176
     1
175
     1
176
     1
 42
1.0
176
     1
 92
        0
176
     1
 66
   257
176
     1
 43
1.0
176
     1
 76
     1
176
     1
 77
     6
176
     1
 78
     2
176
     1
 67
     7
176
     1
 79
     5
176
     1
170
     0
176
     1
171
     0
176
     1
290
     0
176
     1
 93
       13
176
     1
 44
0.0
176
     1
173
     0
176
     1
  0
VISUALSTYLE
  5
2D
102
{ACAD_REACTORS
330
2A
102
}
330
2A
100
AcDbVisualStyle
  2
Gouraud
 70
     2
177
     2
291
     1
 71
     2
176
     1
 72
     2
176
     1
 73
     1
176
     1
 90
        2
176
     1
 40
-0.6
176
     1
 41
30.0
176
     1
 62
     5
 63
     7
421
 16777215
176
     1
 74
     0
176
     1
 91
        4
176
     1
 64
     7
176
     1
 65
   257
176
     1
 75
     1
176
     1
175
     1
176
     1
 42
1.0
176
     1
 92
        0
176
     1
 66
     7
176
     1
 43
1.0
176
     1
 76
     1
176
     1
 77
     6
176
     1
 78
     2
176
     1
 67
     7
176
     1
 79
     5
176
     1
170
     0
176
     1
171
     0
176
     1
290
     0
176
     1
 93
       13
176
     1
 44
0.0
176
     1
173
     0
176
     1
  0
VISUALSTYLE
  5
2E
102
{ACAD_REACTORS
330
2A
102
}
330
2A
100
AcDbVisualStyle
  2
GouraudWithEdges
 70
     3
177
     2
291
     1
 71
     2
176
     1
 72
     2
176
     1
 73
     1
176
     1
 90
        2
176
     1
 40
-0.6
176
     1
 41
30.0
176
     1
 62
     5
 63
     7
421
 16777215
176
     1
 74
     1
176
     1
 91
        4
176
     1
 64
     7
176
     1
 65
   257
176
     1
 75
     1
176
     1
175
     1
176
     1
 42
1.0
176
     1
 92
        0
176
     1
 66
   257
176
     1
 43
1.0
176
     1
 76
     1
176
     1
 77
     6
176
     1
 78
     2
176
     1
 67
     7
176
     1
 79
     5
176
     1
170
     0
176
     1
171
     0
176
     1
290
     0
176
     1
 93
       13
176
     1
 44
0.0
176
     1
173
     0
176
     1
  0
VISUALSTYLE
  5
38
102
{ACAD_REACTORS
330
2A
102
}
330
2A
100
AcDbVisualStyle
  2
Linepattern
 70
    14
177
     2
291
     1
 71
     2
176
     1
 72
     2
176
     1
 73
     0
176
     1
 90
        0
176
     1
 40
-0.6
176
     1
 41
-30.0
176
     1
 62
     5
 63
     7
421
 16777215
176
     1
 74
     1
176
     1
 91
        4
176
     1
 64
     7
176
     1
 65
   257
176
     1
 75
     7
176
     1
175
     7
176
     1
 42
1.0
176
     1
 92
        8
176
     1
 66
     7
176
     1
 43
1.0
176
     1
 76
     1
176
     1
 77
     6
176
     1
 78
     2
176
     1
 67
     7
176
     1
 79
     5
176
     1
170
     0
176
     1
171
     0
176
     1
290
     0
176
     1
 93
        1
176
     1
 44
0.0
176
     1
173
     0
176
     1
  0
VISUALSTYLE
  5
33
102
{ACAD_REACTORS
330
2A
102
}
330
2A
100
AcDbVisualStyle
  2
Realistic
 70
     8
177
     2
291
     0
 71
     2
176
     1
 72
     2
176
     1
 73
     0
176
     1
 90
        0
176
     1
 40
-0.6
176
     1
 41
-30.0
176
     1
 62
     5
 63
     7
421
 16777215
176
     1
 74
     1
176
     1
 91
        0
176
     1
 64
     7
176
     1
 65
   257
176
     1
 75
     1
176
     1
175
     1
176
     1
 42
1.0
176
     1
 92
        8
176
     1
 66
     8
424
  7895160
176
     1
 43
1.0
176
     1
 76
     1
176
     1
 77
     6
176
     1
 78
     2
176
     1
 67
     7
176
     1
 79
     5
176
     1
170
     0
176
     1
171
     0
176
     1
290
     0
176
     1
 93
       13
176
     1
 44
0.0
176
     1
173
     0
176
     1
  0
VISUALSTYLE
  5
37
102
{ACAD_REACTORS
330
2A
102
}
330
2A
100
AcDbVisualStyle
  2
Thicken
 70
    13
177
     2
291
     1
 71
     2
176
     1
 72
     2
176
     1
 73
     0
176
     1
 90
        0
176
     1
 40
-0.6
176
     1
 41
-30.0
176
     1
 62
     5
 63
     7
421
 16777215
176
     1
 74
     1
176
     1
 91
        4
176
     1
 64
     7
176
     1
 65
   257
176
     1
 75
     1
176
     1
175
     1
176
     1
 42
1.0
176
     1
 92
       12
176
     1
 66
     7
176
     1
 43
1.0
176
     1
 76
     1
176
     1
 77
     6
176
     1
 78
     2
176
     1
 67
     7
176
     1
 79
     5
176
     1
170
     0
176
     1
171
     0
176
     1
290
     0
176
     1
 93
        1
176
     1
 44
0.0
176
     1
173
     0
176
     1
  0
ENDSEC
  0
EOF
