  0
SECTION
  2
HEADER
  9
$ACADVER
  1
AC1024
  9
$ACADMAINTVER
 70
     6
  9
$DWGCODEPAGE
  3
UNDEFINED
  9
$INSBASE
 10
0.0
 20
0.0
 30
0.0
  9
$EXTMIN
 10
1.000000000000000E+20
 20
1.000000000000000E+20
 30
1.000000000000000E+20
  9
$EXTMAX
 10
-1.000000000000000E+20
 20
-1.000000000000000E+20
 30
-1.000000000000000E+20
  9
$LIMMIN
 10
0.0
 20
0.0
  9
$LIMMAX
 10
12.0
 20
9.0
  9
$ORTHOMODE
 70
     0
  9
$REGENMODE
 70
     1
  9
$FILLMODE
 70
     1
  9
$QTEXTMODE
 70
     0
  9
$MIRRTEXT
 70
     1
  9
$LTSCALE
 40
1.0
  9
$ATTMODE
 70
     1
  9
$TEXTSIZE
 40
0.2
  9
$TRACEWID
 40
0.05
  9
$TEXTSTYLE
  7
Standard
  9
$CLAYER
  8
0
  9
$CELTYPE
  6
ByLayer
  9
$CECOLOR
 62
   256
  9
$CELTSCALE
 40
1.0
  9
$DISPSILH
 70
     0
  9
$DIMSCALE
 40
1.0
  9
$DIMASZ
 40
0.18
  9
$DIMEXO
 40
0.0625
  9
$DIMDLI
 40
0.38
  9
$DIMRND
 40
0.0
  9
$DIMDLE
 40
0.0
  9
$DIMEXE
 40
0.18
  9
$DIMTP
 40
0.0
  9
$DIMTM
 40
0.0
  9
$DIMTXT
 40
0.18
  9
$DIMCEN
 40
0.09
  9
$DIMTSZ
 40
0.0
  9
$DIMTOL
 70
     0
  9
$DIMLIM
 70
     0
  9
$DIMTIH
 70
     1
  9
$DIMTOH
 70
     1
  9
$DIMSE1
 70
     0
  9
$DIMSE2
 70
     0
  9
$DIMTAD
 70
     0
  9
$DIMZIN
 70
     0
  9
$DIMBLK
  1

  9
$DIMASO
 70
     1
  9
$DIMSHO
 70
     1
  9
$DIMPOST
  1

  9
$DIMAPOST
  1

  9
$DIMALT
 70
     0
  9
$DIMALTD
 70
     2
  9
$DIMALTF
 40
25.4
  9
$DIMLFAC
 40
1.0
  9
$DIMTOFL
 70
     0
  9
$DIMTVP
 40
0.0
  9
$DIMTIX
 70
     0
  9
$DIMSOXD
 70
     0
  9
$DIMSAH
 70
     0
  9
$DIMBLK1
  1

  9
$DIMBLK2
  1

  9
$DIMSTYLE
  2
Standard
  9
$DIMCLRD
 70
     0
  9
$DIMCLRE
 70
     0
  9
$DIMCLRT
 70
     0
  9
$DIMTFAC
 40
1.0
  9
$DIMGAP
 40
0.09
  9
$DIMJUST
 70
     0
  9
$DIMSD1
 70
     0
  9
$DIMSD2
 70
     0
  9
$DIMTOLJ
 70
     1
  9
$DIMTZIN
 70
     0
  9
$DIMALTZ
 70
     0
  9
$DIMALTTZ
 70
     0
  9
$DIMUPT
 70
     0
  9
$DIMDEC
 70
     4
  9
$DIMTDEC
 70
     4
  9
$DIMALTU
 70
     2
  9
$DIMALTTD
 70
     2
  9
$DIMTXSTY
  7
Standard
  9
$DIMAUNIT
 70
     0
  9
$DIMADEC
 70
     0
  9
$DIMALTRND
 40
0.0
  9
$DIMAZIN
 70
     0
  9
$DIMDSEP
 70
    46
  9
$DIMATFIT
 70
     3
  9
$DIMFRAC
 70
     0
  9
$DIMLDRBLK
  1

  9
$DIMLUNIT
 70
     2
  9
$DIMLWD
 70
    -2
  9
$DIMLWE
 70
    -2
  9
$DIMTMOVE
 70
     0
  9
$DIMFXL
 40
1.0
  9
$DIMFXLON
 70
     0
  9
$DIMJOGANG
 40
0.7853981633974483
  9
$DIMTFILL
 70
     0
  9
$DIMTFILLCLR
 70
     0
  9
$DIMARCSYM
 70
     0
  9
$DIMLTYPE
  6

  9
$DIMLTEX1
  6

  9
$DIMLTEX2
  6

  9
$DIMTXTDIRECTION
 70
     0
  9
$LUNITS
 70
     2
  9
$LUPREC
 70
     4
  9
$SKETCHINC
 40
0.1
  9
$FILLETRAD
 40
0.5
  9
$AUNITS
 70
     0
  9
$AUPREC
 70
     0
  9
$MENU
  1
.
  9
$ELEVATION
 40
0.0
  9
$PELEVATION
 40
0.0
  9
$THICKNESS
 40
0.0
  9
$LIMCHECK
 70
     0
  9
$CHAMFERA
 40
0.5
  9
$CHAMFERB
 40
0.5
  9
$CHAMFERC
 40
1.0
  9
$CHAMFERD
 40
0.0
  9
$SKPOLY
 70
     0
  9
$TDCREATE
 40
2457917.591805544
  9
$TDUCREATE
 40
2457917.216805555
  9
$TDUPDATE
 40
2457917.591817118
  9
$TDUUPDATE
 40
2457917.216817129
  9
$TDINDWG
 40
0.0000000116
  9
$TDUSRTIMER
 40
0.0000000116
  9
$USRTIMER
 70
     1
  9
$ANGBASE
 50
0.0
  9
$ANGDIR
 70
     0
  9
$PDMODE
 70
     0
  9
$PDSIZE
 40
0.0
  9
$PLINEWID
 40
0.0
  9
$SPLFRAME
 70
     0
  9
$SPLINETYPE
 70
     6
  9
$SPLINESEGS
 70
     8
  9
$HANDSEED
  5
12E
  9
$SURFTAB1
 70
     6
  9
$SURFTAB2
 70
     6
  9
$SURFTYPE
 70
     6
  9
$SURFU
 70
     6
  9
$SURFV
 70
     6
  9
$UCSBASE
  2

  9
$UCSNAME
  2

  9
$UCSORG
 10
0.0
 20
0.0
 30
0.0
  9
$UCSXDIR
 10
1.0
 20
0.0
 30
0.0
  9
$UCSYDIR
 10
0.0
 20
1.0
 30
0.0
  9
$UCSORTHOREF
  2

  9
$UCSORTHOVIEW
 70
     0
  9
$UCSORGTOP
 10
0.0
 20
0.0
 30
0.0
  9
$UCSORGBOTTOM
 10
0.0
 20
0.0
 30
0.0
  9
$UCSORGLEFT
 10
0.0
 20
0.0
 30
0.0
  9
$UCSORGRIGHT
 10
0.0
 20
0.0
 30
0.0
  9
$UCSORGFRONT
 10
0.0
 20
0.0
 30
0.0
  9
$UCSORGBACK
 10
0.0
 20
0.0
 30
0.0
  9
$PUCSBASE
  2

  9
$PUCSNAME
  2

  9
$PUCSORG
 10
0.0
 20
0.0
 30
0.0
  9
$PUCSXDIR
 10
1.0
 20
0.0
 30
0.0
  9
$PUCSYDIR
 10
0.0
 20
1.0
 30
0.0
  9
$PUCSORTHOREF
  2

  9
$PUCSORTHOVIEW
 70
     0
  9
$PUCSORGTOP
 10
0.0
 20
0.0
 30
0.0
  9
$PUCSORGBOTTOM
 10
0.0
 20
0.0
 30
0.0
  9
$PUCSORGLEFT
 10
0.0
 20
0.0
 30
0.0
  9
$PUCSORGRIGHT
 10
0.0
 20
0.0
 30
0.0
  9
$PUCSORGFRONT
 10
0.0
 20
0.0
 30
0.0
  9
$PUCSORGBACK
 10
0.0
 20
0.0
 30
0.0
  9
$USERI1
 70
     0
  9
$USERI2
 70
     0
  9
$USERI3
 70
     0
  9
$USERI4
 70
     0
  9
$USERI5
 70
     0
  9
$USERR1
 40
0.0
  9
$USERR2
 40
0.0
  9
$USERR3
 40
0.0
  9
$USERR4
 40
0.0
  9
$USERR5
 40
0.0
  9
$WORLDVIEW
 70
     1
  9
$SHADEDGE
 70
     3
  9
$SHADEDIF
 70
    70
  9
$TILEMODE
 70
     1
  9
$MAXACTVP
 70
    64
  9
$PINSBASE
 10
0.0
 20
0.0
 30
0.0
  9
$PLIMCHECK
 70
     0
  9
$PEXTMIN
 10
1.000000000000000E+20
 20
1.000000000000000E+20
 30
1.000000000000000E+20
  9
$PEXTMAX
 10
-1.000000000000000E+20
 20
-1.000000000000000E+20
 30
-1.000000000000000E+20
  9
$PLIMMIN
 10
0.0
 20
0.0
  9
$PLIMMAX
 10
12.0
 20
9.0
  9
$UNITMODE
 70
     0
  9
$VISRETAIN
 70
     1
  9
$PLINEGEN
 70
     0
  9
$PSLTSCALE
 70
     1
  9
$TREEDEPTH
 70
  3020
  9
$CMLSTYLE
  2
Standard
  9
$CMLJUST
 70
     0
  9
$CMLSCALE
 40
1.0
  9
$PROXYGRAPHICS
 70
     1
  9
$MEASUREMENT
 70
     0
  9
$CELWEIGHT
370
    -1
  9
$ENDCAPS
280
     0
  9
$JOINSTYLE
280
     0
  9
$LWDISPLAY
290
     1
  9
$INSUNITS
 70
     1
  9
$HYPERLINKBASE
  1

  9
$STYLESHEET
  1

  9
$XEDIT
290
     1
  9
$CEPSNTYPE
380
     0
  9
$PSTYLEMODE
290
     1
  9
$FINGERPRINTGUID
  2
{E49340A7-A6F8-8F27-BBD7-FB83C4E1F724}
  9
$VERSIONGUID
  2
{FAEB1C32-E019-11D5-929B-00C0DF256EC4}
  9
$EXTNAMES
290
     1
  9
$PSVPSCALE
 40
0.0
  9
$OLESTARTUP
290
     0
  9
$SORTENTS
280
   127
  9
$INDEXCTL
280
     0
  9
$HIDETEXT
280
     1
  9
$XCLIPFRAME
280
     2
  9
$HALOGAP
280
     0
  9
$OBSCOLOR
 70
   257
  9
$OBSLTYPE
280
     0
  9
$INTERSECTIONDISPLAY
280
     0
  9
$INTERSECTIONCOLOR
 70
   257
  9
$DIMASSOC
280
     2
  9
$PROJECTNAME
  1

  9
$CAMERADISPLAY
290
     0
  9
$LENSLENGTH
 40
50.0
  9
$CAMERAHEIGHT
 40
0.0
  9
$STEPSPERSEC
 40
2.0
  9
$STEPSIZE
 40
6.0
  9
$3DDWFPREC
 40
2.0
  9
$PSOLWIDTH
 40
0.25
  9
$PSOLHEIGHT
 40
4.0
  9
$LOFTANG1
 40
1.570796326794897
  9
$LOFTANG2
 40
1.570796326794897
  9
$LOFTMAG1
 40
0.0
  9
$LOFTMAG2
 40
0.0
  9
$LOFTPARAM
 70
     7
  9
$LOFTNORMALS
280
     1
  9
$LATITUDE
 40
37.795
  9
$LONGITUDE
 40
-122.394
  9
$NORTHDIRECTION
 40
0.0
  9
$TIMEZONE
 70
 -8000
  9
$LIGHTGLYPHDISPLAY
280
     1
  9
$TILEMODELIGHTSYNCH
280
     1
  9
$CMATERIAL
347
3C
  9
$SOLIDHIST
280
     1
  9
$SHOWHIST
280
     1
  9
$DWFFRAME
280
     2
  9
$DGNFRAME
280
     2
  9
$REALWORLDSCALE
290
     1
  9
$INTERFERECOLOR
 62
   256
  9
$CSHADOW
280
     0
  9
$SHADOWPLANELOCATION
 40
0.0
  0
ENDSEC
  0
SECTION
  2
CLASSES
  0
CLASS
  1
ACDBDICTIONARYWDFLT
  2
AcDbDictionaryWithDefault
  3
ObjectDBX Classes
 90
        0
 91
        4
280
     0
281
     0
  0
CLASS
  1
VISUALSTYLE
  2
AcDbVisualStyle
  3
ObjectDBX Classes
 90
     4095
 91
        4
280
     0
281
     0
  0
CLASS
  1
MATERIAL
  2
AcDbMaterial
  3
ObjectDBX Classes
 90
     1153
 91
        4
280
     0
281
     0
  0
CLASS
  1
SUN
  2
AcDbSun
  3
SCENEOE
 90
     1024
 91
        4
280
     0
281
     0
  0
ENDSEC
  0
SECTION
  2
TABLES
  0
TABLE
  2
VPORT
  5
8
330
0
100
AcDbSymbolTable
 70
     1
  0
VPORT
  5
29
330
8
100
AcDbSymbolTableRecord
100
AcDbViewportTableRecord
  2
*Active
 70
     0
 10
0.0
 20
0.0
 11
1.0
 21
1.0
 12
0.0
 22
0.0
 13
0.0
 23
0.0
 14
0.5
 24
0.5
 15
0.5
 25
0.5
 16
0.0
 26
0.0
 36
1.0
 17
91.00082462281999
 27
-128.4993055234307
 37
0.0
 40
256.9986110468615
 41
0.7081814508812795
 42
50.0
 43
0.0
 44
0.0
 50
0.0
 51
0.0
 71
     0
 72
   100
 73
     1
 74
     3
 75
     0
 76
     0
 77
     0
 78
     0
281
     0
 65
     1
110
0.0
120
0.0
130
0.0
111
1.0
121
0.0
131
0.0
112
0.0
122
1.0
132
0.0
 79
     0
146
0.0
 60
     3
 61
     5
292
     1
282
     1
141
0.0
142
0.0
 63
   250
361
3F
  0
ENDTAB
  0
TABLE
  2
LTYPE
  5
5
330
0
100
AcDbSymbolTable
 70
     1
  0
LTYPE
  5
14
330
5
100
AcDbSymbolTableRecord
100
AcDbLinetypeTableRecord
  2
ByBlock
 70
     0
  3

 72
    65
 73
     0
 40
0.0
  0
LTYPE
  5
15
330
5
100
AcDbSymbolTableRecord
100
AcDbLinetypeTableRecord
  2
ByLayer
 70
     0
  3

 72
    65
 73
     0
 40
0.0
  0
LTYPE
  5
16
330
5
100
AcDbSymbolTableRecord
100
AcDbLinetypeTableRecord
  2
Continuous
 70
     0
  3
Solid line
 72
    65
 73
     0
 40
0.0
  0
ENDTAB
  0
TABLE
  2
LAYER
  5
2
330
0
100
AcDbSymbolTable
 70
     2
  0
LAYER
  5
10
330
2
100
AcDbSymbolTableRecord
100
AcDbLayerTableRecord
  2
0
 70
     0
 62
     7
  6
Continuous
370
    -3
390
F
347
3E
  0
LAYER
  5
40
330
2
100
AcDbSymbolTableRecord
100
AcDbLayerTableRecord
  2
_U+30EC_U+30A4_U+30E4_U+30FC 1
 70
     0
 62
     7
  6
Continuous
370
    -3
390
F
347
3E
  0
ENDTAB
  0
TABLE
  2
STYLE
  5
3
330
0
100
AcDbSymbolTable
 70
     1
  0
STYLE
  5
11
330
3
100
AcDbSymbolTableRecord
100
AcDbTextStyleTableRecord
  2
Standard
 70
     0
 40
0.0
 41
1.0
 50
0.0
 71
     0
 42
0.2
  3
txt
  4

  0
ENDTAB
  0
TABLE
  2
VIEW
  5
6
330
0
100
AcDbSymbolTable
 70
     0
  0
ENDTAB
  0
TABLE
  2
UCS
  5
7
330
0
100
AcDbSymbolTable
 70
     0
  0
ENDTAB
  0
TABLE
  2
APPID
  5
9
330
0
100
AcDbSymbolTable
 70
     1
  0
APPID
  5
12
330
9
100
AcDbSymbolTableRecord
100
AcDbRegAppTableRecord
  2
ACAD
 70
     0
  0
ENDTAB
  0
TABLE
  2
DIMSTYLE
  5
A
330
0
100
AcDbSymbolTable
 70
     1
100
AcDbDimStyleTable
  0
DIMSTYLE
105
27
330
A
100
AcDbSymbolTableRecord
100
AcDbDimStyleTableRecord
  2
Standard
 70
     0
178
     0
340
11
  0
ENDTAB
  0
TABLE
  2
BLOCK_RECORD
  5
1
330
0
100
AcDbSymbolTable
 70
     9
  0
BLOCK_RECORD
  5
1F
330
1
100
AcDbSymbolTableRecord
100
AcDbBlockTableRecord
  2
*Model_Space
340
22
 70
     0
280
     1
281
     0
  0
BLOCK_RECORD
  5
1B
330
1
100
AcDbSymbolTableRecord
100
AcDbBlockTableRecord
  2
*Paper_Space
340
1E
 70
     0
280
     1
281
     0
  0
BLOCK_RECORD
  5
23
330
1
100
AcDbSymbolTableRecord
100
AcDbBlockTableRecord
  2
*Paper_Space0
340
26
 70
     0
280
     1
281
     0
  0
BLOCK_RECORD
  5
A1
330
1
100
AcDbSymbolTableRecord
100
AcDbBlockTableRecord
  2
block 2
340
0
102
{BLKREFS
331
A2
102
}
 70
     0
280
     1
281
     0
  0
BLOCK_RECORD
  5
B1
330
1
100
AcDbSymbolTableRecord
100
AcDbBlockTableRecord
  2
block 3
340
0
102
{BLKREFS
331
B2
102
}
 70
     0
280
     1
281
     0
  0
BLOCK_RECORD
  5
CC
330
1
100
AcDbSymbolTableRecord
100
AcDbBlockTableRecord
  2
block 4
340
0
102
{BLKREFS
331
CD
102
}
 70
     0
280
     1
281
     0
  0
BLOCK_RECORD
  5
D6
330
1
100
AcDbSymbolTableRecord
100
AcDbBlockTableRecord
  2
block 5
340
0
102
{BLKREFS
331
D7
102
}
 70
     0
280
     1
281
     0
  0
BLOCK_RECORD
  5
EA
330
1
100
AcDbSymbolTableRecord
100
AcDbBlockTableRecord
  2
block 6
340
0
102
{BLKREFS
331
EB
102
}
 70
     0
280
     1
281
     0
  0
BLOCK_RECORD
  5
F0
330
1
100
AcDbSymbolTableRecord
100
AcDbBlockTableRecord
  2
block 7
340
0
102
{BLKREFS
331
F1
102
}
 70
     0
280
     1
281
     0
  0
BLOCK_RECORD
  5
10E
330
1
100
AcDbSymbolTableRecord
100
AcDbBlockTableRecord
  2
block 8
340
0
102
{BLKREFS
331
10F
102
}
 70
     0
280
     1
281
     0
  0
BLOCK_RECORD
  5
11E
330
1
100
AcDbSymbolTableRecord
100
AcDbBlockTableRecord
  2
block 9
340
0
102
{BLKREFS
331
11F
102
}
 70
     0
280
     1
281
     0
  0
ENDTAB
  0
ENDSEC
  0
SECTION
  2
BLOCKS
  0
BLOCK
  5
20
330
1F
100
AcDbEntity
  8
0
100
AcDbBlockBegin
  2
*Model_Space
 70
     0
 10
0.0
 20
0.0
 30
0.0
  3
*Model_Space
  1

  0
ENDBLK
  5
21
330
1F
100
AcDbEntity
  8
0
100
AcDbBlockEnd
  0
BLOCK
  5
1C
330
1B
100
AcDbEntity
 67
     1
  8
0
100
AcDbBlockBegin
  2
*Paper_Space
 70
     0
 10
0.0
 20
0.0
 30
0.0
  3
*Paper_Space
  1

  0
ENDBLK
  5
1D
330
1B
100
AcDbEntity
 67
     1
  8
0
100
AcDbBlockEnd
  0
BLOCK
  5
24
330
23
100
AcDbEntity
  8
0
100
AcDbBlockBegin
  2
*Paper_Space0
 70
     0
 10
0.0
 20
0.0
 30
0.0
  3
*Paper_Space0
  1

  0
ENDBLK
  5
25
330
23
100
AcDbEntity
  8
0
100
AcDbBlockEnd
  0
BLOCK
  5
A3
330
A1
100
AcDbEntity
  8
0
100
AcDbBlockBegin
  2
block 2
 70
     0
 10
0.0
 20
0.0
 30
0.0
  3
block 2
  1

  0
SPLINE
  5
A5
330
A1
100
AcDbEntity
  8
_U+30EC_U+30A4_U+30E4_U+30FC 1
370
     0
100
AcDbSpline
210
0.0
220
0.0
230
1.0
 70
    11
 71
     3
 72
    53
 73
    49
 74
     0
 42
0.0000000001
 43
0.0000000001
 12
1.0
 22
0.0
 32
0.0
 13
1.0
 23
0.0
 33
0.0
 40
0.0
 40
0.0
 40
0.0
 40
0.0
 40
1.0
 40
1.0
 40
1.0
 40
2.0
 40
2.0
 40
2.0
 40
3.0
 40
3.0
 40
3.0
 40
4.0
 40
4.0
 40
4.0
 40
5.0
 40
5.0
 40
5.0
 40
6.0
 40
6.0
 40
6.0
 40
7.0
 40
7.0
 40
7.0
 40
8.0
 40
8.0
 40
8.0
 40
9.0
 40
9.0
 40
9.0
 40
10.0
 40
10.0
 40
10.0
 40
11.0
 40
11.0
 40
11.0
 40
12.0
 40
12.0
 40
12.0
 40
13.0
 40
13.0
 40
13.0
 40
14.0
 40
14.0
 40
14.0
 40
15.0
 40
15.0
 40
15.0
 40
16.0
 40
16.0
 40
16.0
 40
16.0
 10
103.3056667493472
 20
-148.2941351625792
 30
0.0
 10
103.3056667493472
 20
-148.3723388300944
 30
0.0
 10
103.2887857814695
 20
-148.4739691469093
 30
0.0
 10
103.2253960245409
 20
-148.5755994637242
 30
0.0
 10
103.1154974785614
 20
-148.7488877666322
 30
0.0
 10
102.9842393405734
 20
-148.7702473586408
 30
0.0
 10
102.8764078518851
 20
-148.7891953838096
 30
0.0
 10
102.8764078518851
 20
-148.7891953838096
 30
0.0
 10
102.8764078518851
 20
-148.566986725011
 30
0.0
 10
102.8764078518851
 20
-148.566986725011
 30
0.0
 10
103.075189861384
 20
-148.5122097067956
 30
0.0
 10
103.1048176825571
 20
-148.3850856833899
 30
0.0
 10
103.1048176825571
 20
-148.2920681052881
 30
0.0
 10
103.1048176825571
 20
-148.1525417381355
 30
0.0
 10
103.0052544230334
 20
-148.0002685176874
 30
0.0
 10
102.772710477779
 20
-148.0002685176874
 30
0.0
 10
102.516739883225
 20
-148.0002685176874
 30
0.0
 10
102.4468044448744
 20
-148.1801025020175
 30
0.0
 10
102.4468044448744
 20
-148.3006808440012
 30
0.0
 10
102.4468044448744
 20
-148.3323757224655
 30
0.0
 10
102.4468044448744
 20
-148.4739691469093
 30
0.0
 10
102.5759955255713
 20
-148.5628526104287
 30
0.0
 10
102.5759955255713
 20
-148.5628526104287
 30
0.0
 10
102.5570475004024
 20
-148.7385524801765
 30
0.0
 10
102.5570475004024
 20
-148.7385524801765
 30
0.0
 10
102.5570475004024
 20
-148.7385524801765
 30
0.0
 10
101.7105875396765
 20
-148.6179741381927
 30
0.0
 10
101.7105875396765
 20
-148.6179741381927
 30
0.0
 10
101.7105875396765
 20
-148.6179741381927
 30
0.0
 10
101.7105875396765
 20
-147.8393825585263
 30
0.0
 10
101.7105875396765
 20
-147.8393825585263
 30
0.0
 10
101.7105875396765
 20
-147.8393825585263
 30
0.0
 10
101.9052354345931
 20
-147.8393825585263
 30
0.0
 10
101.9052354345931
 20
-147.8393825585263
 30
0.0
 10
101.9052354345931
 20
-147.8393825585263
 30
0.0
 10
101.9052354345931
 20
-148.4550211217404
 30
0.0
 10
101.9052354345931
 20
-148.4550211217404
 30
0.0
 10
101.9052354345931
 20
-148.4550211217404
 30
0.0
 10
102.3282931601818
 20
-148.5204779359602
 30
0.0
 10
102.3282931601818
 20
-148.5204779359602
 30
0.0
 10
102.2945312244264
 20
-148.4591552363227
 30
0.0
 10
102.2542236072489
 20
-148.3768174542253
 30
0.0
 10
102.2542236072489
 20
-148.2583061695327
 30
0.0
 10
102.2542236072489
 20
-148.0044026322697
 30
0.0
 10
102.440603273001
 20
-147.7673800628845
 30
0.0
 10
102.7537624526102
 20
-147.7673800628845
 30
0.0
 10
103.0710557468017
 20
-147.7673800628845
 30
0.0
 10
103.3056667493472
 20
-147.9916557789743
 30
0.0
 10
103.3056667493472
 20
-148.2941351625792
 30
0.0
  0
HATCH
  5
A6
330
A1
100
AcDbEntity
  8
_U+30EC_U+30A4_U+30E4_U+30FC 1
 62
   179
420
  2234388
100
AcDbHatch
 10
0.0
 20
0.0
 30
0.0
210
0.0
220
0.0
230
1.0
  2
SOLID
 70
     1
 71
     0
 91
        1
 92
        1
 93
        1
 72
     4
 94
        3
 73
     0
 74
     1
 95
       53
 96
       49
 40
0.0
 40
0.0
 40
0.0
 40
0.0
 40
1.0
 40
1.0
 40
1.0
 40
2.0
 40
2.0
 40
2.0
 40
3.0
 40
3.0
 40
3.0
 40
4.0
 40
4.0
 40
4.0
 40
5.0
 40
5.0
 40
5.0
 40
6.0
 40
6.0
 40
6.0
 40
7.0
 40
7.0
 40
7.0
 40
8.0
 40
8.0
 40
8.0
 40
9.0
 40
9.0
 40
9.0
 40
10.0
 40
10.0
 40
10.0
 40
11.0
 40
11.0
 40
11.0
 40
12.0
 40
12.0
 40
12.0
 40
13.0
 40
13.0
 40
13.0
 40
14.0
 40
14.0
 40
14.0
 40
15.0
 40
15.0
 40
15.0
 40
16.0
 40
16.0
 40
16.0
 40
16.0
 10
103.3056667493472
 20
-148.2941351625792
 10
103.3056667493472
 20
-148.3723388300944
 10
103.2887857814695
 20
-148.4739691469093
 10
103.2253960245409
 20
-148.5755994637242
 10
103.1154974785614
 20
-148.7488877666322
 10
102.9842393405734
 20
-148.7702473586408
 10
102.8764078518851
 20
-148.7891953838096
 10
102.8764078518851
 20
-148.7891953838096
 10
102.8764078518851
 20
-148.566986725011
 10
102.8764078518851
 20
-148.566986725011
 10
103.075189861384
 20
-148.5122097067956
 10
103.1048176825571
 20
-148.3850856833899
 10
103.1048176825571
 20
-148.2920681052881
 10
103.1048176825571
 20
-148.1525417381355
 10
103.0052544230334
 20
-148.0002685176874
 10
102.772710477779
 20
-148.0002685176874
 10
102.516739883225
 20
-148.0002685176874
 10
102.4468044448744
 20
-148.1801025020175
 10
102.4468044448744
 20
-148.3006808440012
 10
102.4468044448744
 20
-148.3323757224655
 10
102.4468044448744
 20
-148.4739691469093
 10
102.5759955255713
 20
-148.5628526104287
 10
102.5759955255713
 20
-148.5628526104287
 10
102.5570475004024
 20
-148.7385524801765
 10
102.5570475004024
 20
-148.7385524801765
 10
102.5570475004024
 20
-148.7385524801765
 10
101.7105875396765
 20
-148.6179741381927
 10
101.7105875396765
 20
-148.6179741381927
 10
101.7105875396765
 20
-148.6179741381927
 10
101.7105875396765
 20
-147.8393825585263
 10
101.7105875396765
 20
-147.8393825585263
 10
101.7105875396765
 20
-147.8393825585263
 10
101.9052354345931
 20
-147.8393825585263
 10
101.9052354345931
 20
-147.8393825585263
 10
101.9052354345931
 20
-147.8393825585263
 10
101.9052354345931
 20
-148.4550211217404
 10
101.9052354345931
 20
-148.4550211217404
 10
101.9052354345931
 20
-148.4550211217404
 10
102.3282931601818
 20
-148.5204779359602
 10
102.3282931601818
 20
-148.5204779359602
 10
102.2945312244264
 20
-148.4591552363227
 10
102.2542236072489
 20
-148.3768174542253
 10
102.2542236072489
 20
-148.2583061695327
 10
102.2542236072489
 20
-148.0044026322697
 10
102.440603273001
 20
-147.7673800628845
 10
102.7537624526102
 20
-147.7673800628845
 10
103.0710557468017
 20
-147.7673800628845
 10
103.3056667493472
 20
-147.9916557789743
 10
103.3056667493472
 20
-148.2941351625792
 97
        0
 97
        0
 75
     2
 76
     1
 98
        0
  0
POLYLINE
  5
A7
330
A1
100
AcDbEntity
  8
_U+30EC_U+30A4_U+30E4_U+30FC 1
370
     0
100
AcDb2dPolyline
 66
     1
 10
0.0
 20
0.0
 30
0.0
  0
VERTEX
  5
A8
330
A7
100
AcDbEntity
  8
_U+30EC_U+30A4_U+30E4_U+30FC 1
370
     0
100
AcDbVertex
100
AcDb2dVertex
 10
103.255023845714
 20
-147.5382812131154
 30
0.0
  0
VERTEX
  5
A9
330
A7
100
AcDbEntity
  8
_U+30EC_U+30A4_U+30E4_U+30FC 1
370
     0
100
AcDbVertex
100
AcDb2dVertex
 10
103.0031873657423
 20
-147.5382812131154
 30
0.0
  0
VERTEX
  5
AA
330
A7
100
AcDbEntity
  8
_U+30EC_U+30A4_U+30E4_U+30FC 1
370
     0
100
AcDbVertex
100
AcDb2dVertex
 10
103.0031873657423
 20
-147.2864447331437
 30
0.0
  0
VERTEX
  5
AB
330
A7
100
AcDbEntity
  8
_U+30EC_U+30A4_U+30E4_U+30FC 1
370
     0
100
AcDbVertex
100
AcDb2dVertex
 10
103.255023845714
 20
-147.2864447331437
 30
0.0
  0
VERTEX
  5
AC
330
A7
100
AcDbEntity
  8
_U+30EC_U+30A4_U+30E4_U+30FC 1
370
     0
100
AcDbVertex
100
AcDb2dVertex
 10
103.255023845714
 20
-147.5382812131154
 30
0.0
  0
SEQEND
  5
AD
330
A7
100
AcDbEntity
  8
_U+30EC_U+30A4_U+30E4_U+30FC 1
370
     0
  0
HATCH
  5
AE
330
A1
100
AcDbEntity
  8
_U+30EC_U+30A4_U+30E4_U+30FC 1
 62
   179
420
  2234388
100
AcDbHatch
 10
0.0
 20
0.0
 30
0.0
210
0.0
220
0.0
230
1.0
  2
SOLID
 70
     1
 71
     0
 91
        1
 92
        1
 93
        4
 72
     1
 10
103.255023845714
 20
-147.5382812131154
 11
103.0031873657423
 21
-147.5382812131154
 72
     1
 10
103.0031873657423
 20
-147.5382812131154
 11
103.0031873657423
 21
-147.2864447331437
 72
     1
 10
103.0031873657423
 20
-147.2864447331437
 11
103.255023845714
 21
-147.2864447331437
 72
     1
 10
103.255023845714
 20
-147.2864447331437
 11
103.255023845714
 21
-147.5382812131154
 97
        0
 75
     2
 76
     1
 98
        0
  0
SPLINE
  5
AF
330
A1
100
AcDbEntity
  8
_U+30EC_U+30A4_U+30E4_U+30FC 1
370
     0
100
AcDbSpline
210
0.0
220
0.0
230
1.0
 70
    11
 71
     3
 72
    53
 73
    49
 74
     0
 42
0.0000000001
 43
0.0000000001
 12
1.0
 22
0.0
 32
0.0
 13
1.0
 23
0.0
 33
0.0
 40
0.0
 40
0.0
 40
0.0
 40
0.0
 40
1.0
 40
1.0
 40
1.0
 40
2.0
 40
2.0
 40
2.0
 40
3.0
 40
3.0
 40
3.0
 40
4.0
 40
4.0
 40
4.0
 40
5.0
 40
5.0
 40
5.0
 40
6.0
 40
6.0
 40
6.0
 40
7.0
 40
7.0
 40
7.0
 40
8.0
 40
8.0
 40
8.0
 40
9.0
 40
9.0
 40
9.0
 40
10.0
 40
10.0
 40
10.0
 40
11.0
 40
11.0
 40
11.0
 40
12.0
 40
12.0
 40
12.0
 40
13.0
 40
13.0
 40
13.0
 40
14.0
 40
14.0
 40
14.0
 40
15.0
 40
15.0
 40
15.0
 40
16.0
 40
16.0
 40
16.0
 40
16.0
 10
103.3056667493472
 20
-146.5691758531146
 30
0.0
 10
103.3056667493472
 20
-146.6473795206298
 30
0.0
 10
103.2887857814695
 20
-146.7490098374447
 30
0.0
 10
103.2253960245409
 20
-146.8506401542596
 30
0.0
 10
103.1154974785614
 20
-147.0239284571676
 30
0.0
 10
102.9842393405734
 20
-147.0452880491762
 30
0.0
 10
102.8764078518851
 20
-147.064236074345
 30
0.0
 10
102.8764078518851
 20
-147.064236074345
 30
0.0
 10
102.8764078518851
 20
-146.8420274155465
 30
0.0
 10
102.8764078518851
 20
-146.8420274155465
 30
0.0
 10
103.075189861384
 20
-146.787250397331
 30
0.0
 10
103.1048176825571
 20
-146.6601263739253
 30
0.0
 10
103.1048176825571
 20
-146.5671087958235
 30
0.0
 10
103.1048176825571
 20
-146.4275824286709
 30
0.0
 10
103.0052544230334
 20
-146.2753092082228
 30
0.0
 10
102.772710477779
 20
-146.2753092082228
 30
0.0
 10
102.516739883225
 20
-146.2753092082228
 30
0.0
 10
102.4468044448744
 20
-146.4551431925529
 30
0.0
 10
102.4468044448744
 20
-146.5757215345366
 30
0.0
 10
102.4468044448744
 20
-146.6074164130009
 30
0.0
 10
102.4468044448744
 20
-146.7490098374447
 30
0.0
 10
102.5759955255713
 20
-146.8378933009641
 30
0.0
 10
102.5759955255713
 20
-146.8378933009641
 30
0.0
 10
102.5570475004024
 20
-147.0135931707119
 30
0.0
 10
102.5570475004024
 20
-147.0135931707119
 30
0.0
 10
102.5570475004024
 20
-147.0135931707119
 30
0.0
 10
101.7105875396765
 20
-146.8930148287282
 30
0.0
 10
101.7105875396765
 20
-146.8930148287282
 30
0.0
 10
101.7105875396765
 20
-146.8930148287282
 30
0.0
 10
101.7105875396765
 20
-146.1144232490617
 30
0.0
 10
101.7105875396765
 20
-146.1144232490617
 30
0.0
 10
101.7105875396765
 20
-146.1144232490617
 30
0.0
 10
101.9052354345931
 20
-146.1144232490617
 30
0.0
 10
101.9052354345931
 20
-146.1144232490617
 30
0.0
 10
101.9052354345931
 20
-146.1144232490617
 30
0.0
 10
101.9052354345931
 20
-146.7300618122758
 30
0.0
 10
101.9052354345931
 20
-146.7300618122758
 30
0.0
 10
101.9052354345931
 20
-146.7300618122758
 30
0.0
 10
102.3282931601818
 20
-146.7955186264956
 30
0.0
 10
102.3282931601818
 20
-146.7955186264956
 30
0.0
 10
102.2945312244264
 20
-146.7341959268581
 30
0.0
 10
102.2542236072489
 20
-146.6518581447607
 30
0.0
 10
102.2542236072489
 20
-146.5333468600681
 30
0.0
 10
102.2542236072489
 20
-146.2794433228052
 30
0.0
 10
102.440603273001
 20
-146.0424207534199
 30
0.0
 10
102.7537624526102
 20
-146.0424207534199
 30
0.0
 10
103.0710557468017
 20
-146.0424207534199
 30
0.0
 10
103.3056667493472
 20
-146.2666964695097
 30
0.0
 10
103.3056667493472
 20
-146.5691758531146
 30
0.0
  0
HATCH
  5
B0
330
A1
100
AcDbEntity
  8
_U+30EC_U+30A4_U+30E4_U+30FC 1
 62
   179
420
  2234388
100
AcDbHatch
 10
0.0
 20
0.0
 30
0.0
210
0.0
220
0.0
230
1.0
  2
SOLID
 70
     1
 71
     0
 91
        1
 92
        1
 93
        1
 72
     4
 94
        3
 73
     0
 74
     1
 95
       53
 96
       49
 40
0.0
 40
0.0
 40
0.0
 40
0.0
 40
1.0
 40
1.0
 40
1.0
 40
2.0
 40
2.0
 40
2.0
 40
3.0
 40
3.0
 40
3.0
 40
4.0
 40
4.0
 40
4.0
 40
5.0
 40
5.0
 40
5.0
 40
6.0
 40
6.0
 40
6.0
 40
7.0
 40
7.0
 40
7.0
 40
8.0
 40
8.0
 40
8.0
 40
9.0
 40
9.0
 40
9.0
 40
10.0
 40
10.0
 40
10.0
 40
11.0
 40
11.0
 40
11.0
 40
12.0
 40
12.0
 40
12.0
 40
13.0
 40
13.0
 40
13.0
 40
14.0
 40
14.0
 40
14.0
 40
15.0
 40
15.0
 40
15.0
 40
16.0
 40
16.0
 40
16.0
 40
16.0
 10
103.3056667493472
 20
-146.5691758531146
 10
103.3056667493472
 20
-146.6473795206298
 10
103.2887857814695
 20
-146.7490098374447
 10
103.2253960245409
 20
-146.8506401542596
 10
103.1154974785614
 20
-147.0239284571676
 10
102.9842393405734
 20
-147.0452880491762
 10
102.8764078518851
 20
-147.064236074345
 10
102.8764078518851
 20
-147.064236074345
 10
102.8764078518851
 20
-146.8420274155465
 10
102.8764078518851
 20
-146.8420274155465
 10
103.075189861384
 20
-146.787250397331
 10
103.1048176825571
 20
-146.6601263739253
 10
103.1048176825571
 20
-146.5671087958235
 10
103.1048176825571
 20
-146.4275824286709
 10
103.0052544230334
 20
-146.2753092082228
 10
102.772710477779
 20
-146.2753092082228
 10
102.516739883225
 20
-146.2753092082228
 10
102.4468044448744
 20
-146.4551431925529
 10
102.4468044448744
 20
-146.5757215345366
 10
102.4468044448744
 20
-146.6074164130009
 10
102.4468044448744
 20
-146.7490098374447
 10
102.5759955255713
 20
-146.8378933009641
 10
102.5759955255713
 20
-146.8378933009641
 10
102.5570475004024
 20
-147.0135931707119
 10
102.5570475004024
 20
-147.0135931707119
 10
102.5570475004024
 20
-147.0135931707119
 10
101.7105875396765
 20
-146.8930148287282
 10
101.7105875396765
 20
-146.8930148287282
 10
101.7105875396765
 20
-146.8930148287282
 10
101.7105875396765
 20
-146.1144232490617
 10
101.7105875396765
 20
-146.1144232490617
 10
101.7105875396765
 20
-146.1144232490617
 10
101.9052354345931
 20
-146.1144232490617
 10
101.9052354345931
 20
-146.1144232490617
 10
101.9052354345931
 20
-146.1144232490617
 10
101.9052354345931
 20
-146.7300618122758
 10
101.9052354345931
 20
-146.7300618122758
 10
101.9052354345931
 20
-146.7300618122758
 10
102.3282931601818
 20
-146.7955186264956
 10
102.3282931601818
 20
-146.7955186264956
 10
102.2945312244264
 20
-146.7341959268581
 10
102.2542236072489
 20
-146.6518581447607
 10
102.2542236072489
 20
-146.5333468600681
 10
102.2542236072489
 20
-146.2794433228052
 10
102.440603273001
 20
-146.0424207534199
 10
102.7537624526102
 20
-146.0424207534199
 10
103.0710557468017
 20
-146.0424207534199
 10
103.3056667493472
 20
-146.2666964695097
 10
103.3056667493472
 20
-146.5691758531146
 97
        0
 97
        0
 75
     2
 76
     1
 98
        0
  0
ENDBLK
  5
A4
330
A1
100
AcDbEntity
  8
0
100
AcDbBlockEnd
  0
BLOCK
  5
B3
330
B1
100
AcDbEntity
  8
0
100
AcDbBlockBegin
  2
block 3
 70
     0
 10
0.0
 20
0.0
 30
0.0
  3
block 3
  1

  0
POLYLINE
  5
B5
330
B1
100
AcDbEntity
  8
_U+30EC_U+30A4_U+30E4_U+30FC 1
370
     0
100
AcDb2dPolyline
 66
     1
 10
0.0
 20
0.0
 30
0.0
  0
VERTEX
  5
B6
330
B5
100
AcDbEntity
  8
_U+30EC_U+30A4_U+30E4_U+30FC 1
370
     0
100
AcDbVertex
100
AcDb2dVertex
 10
100.0679660123094
 20
-122.2440456508626
 30
0.0
  0
VERTEX
  5
B7
330
B5
100
AcDbEntity
  8
_U+30EC_U+30A4_U+30E4_U+30FC 1
370
     0
100
AcDbVertex
100
AcDb2dVertex
 10
100.4148871276741
 20
-122.2440456508626
 30
0.0
  0
VERTEX
  5
B8
330
B5
100
AcDbEntity
  8
_U+30EC_U+30A4_U+30E4_U+30FC 1
370
     0
100
AcDbVertex
100
AcDb2dVertex
 10
100.4148871276741
 20
-122.4617756855304
 30
0.0
  0
VERTEX
  5
B9
330
B5
100
AcDbEntity
  8
_U+30EC_U+30A4_U+30E4_U+30FC 1
370
     0
100
AcDbVertex
100
AcDb2dVertex
 10
100.0679660123094
 20
-122.4617756855304
 30
0.0
  0
VERTEX
  5
BA
330
B5
100
AcDbEntity
  8
_U+30EC_U+30A4_U+30E4_U+30FC 1
370
     0
100
AcDbVertex
100
AcDb2dVertex
 10
100.0679660123094
 20
-123.117721865922
 30
0.0
  0
VERTEX
  5
BB
330
B5
100
AcDbEntity
  8
_U+30EC_U+30A4_U+30E4_U+30FC 1
370
     0
100
AcDbVertex
100
AcDb2dVertex
 10
99.84369029621963
 20
-123.117721865922
 30
0.0
  0
VERTEX
  5
BC
330
B5
100
AcDbEntity
  8
_U+30EC_U+30A4_U+30E4_U+30FC 1
370
     0
100
AcDbVertex
100
AcDb2dVertex
 10
98.87045082163655
 20
-122.4386935457792
 30
0.0
  0
VERTEX
  5
BD
330
B5
100
AcDbEntity
  8
_U+30EC_U+30A4_U+30E4_U+30FC 1
370
     0
100
AcDbVertex
100
AcDb2dVertex
 10
98.87045082163655
 20
-122.2440456508626
 30
0.0
  0
VERTEX
  5
BE
330
B5
100
AcDbEntity
  8
_U+30EC_U+30A4_U+30E4_U+30FC 1
370
     0
100
AcDbVertex
100
AcDb2dVertex
 10
99.86918400281048
 20
-122.2440456508626
 30
0.0
  0
VERTEX
  5
BF
330
B5
100
AcDbEntity
  8
_U+30EC_U+30A4_U+30E4_U+30FC 1
370
     0
100
AcDbVertex
100
AcDb2dVertex
 10
99.86918400281048
 20
-122.0366509026506
 30
0.0
  0
VERTEX
  5
C0
330
B5
100
AcDbEntity
  8
_U+30EC_U+30A4_U+30E4_U+30FC 1
370
     0
100
AcDbVertex
100
AcDb2dVertex
 10
100.0679660123094
 20
-122.0366509026506
 30
0.0
  0
VERTEX
  5
C1
330
B5
100
AcDbEntity
  8
_U+30EC_U+30A4_U+30E4_U+30FC 1
370
     0
100
AcDbVertex
100
AcDb2dVertex
 10
100.0679660123094
 20
-122.2440456508626
 30
0.0
  0
SEQEND
  5
C2
330
B5
100
AcDbEntity
  8
_U+30EC_U+30A4_U+30E4_U+30FC 1
370
     0
  0
POLYLINE
  5
C3
330
B1
100
AcDbEntity
  8
_U+30EC_U+30A4_U+30E4_U+30FC 1
370
     0
100
AcDb2dPolyline
 66
     1
 10
0.0
 20
0.0
 30
0.0
  0
VERTEX
  5
C4
330
C3
100
AcDbEntity
  8
_U+30EC_U+30A4_U+30E4_U+30FC 1
370
     0
100
AcDbVertex
100
AcDb2dVertex
 10
99.21323782241892
 20
-122.4617756855304
 30
0.0
  0
VERTEX
  5
C5
330
C3
100
AcDbEntity
  8
_U+30EC_U+30A4_U+30E4_U+30FC 1
370
     0
100
AcDbVertex
100
AcDb2dVertex
 10
99.86918400281048
 20
-122.9189398564231
 30
0.0
  0
VERTEX
  5
C6
330
C3
100
AcDbEntity
  8
_U+30EC_U+30A4_U+30E4_U+30FC 1
370
     0
100
AcDbVertex
100
AcDb2dVertex
 10
99.86918400281048
 20
-122.4617756855304
 30
0.0
  0
VERTEX
  5
C7
330
C3
100
AcDbEntity
  8
_U+30EC_U+30A4_U+30E4_U+30FC 1
370
     0
100
AcDbVertex
100
AcDb2dVertex
 10
99.21323782241892
 20
-122.4617756855304
 30
0.0
  0
SEQEND
  5
C8
330
C3
100
AcDbEntity
  8
_U+30EC_U+30A4_U+30E4_U+30FC 1
370
     0
  0
HATCH
  5
C9
330
B1
100
AcDbEntity
  8
_U+30EC_U+30A4_U+30E4_U+30FC 1
 62
   179
420
  2234388
100
AcDbHatch
 10
0.0
 20
0.0
 30
0.0
210
0.0
220
0.0
230
1.0
  2
SOLID
 70
     1
 71
     0
 91
        2
 92
        1
 93
       11
 72
     1
 10
100.0679660123094
 20
-122.2440456508626
 11
100.4148871276741
 21
-122.2440456508626
 72
     1
 10
100.4148871276741
 20
-122.2440456508626
 11
100.4148871276741
 21
-122.4617756855304
 72
     1
 10
100.4148871276741
 20
-122.4617756855304
 11
100.0679660123094
 21
-122.4617756855304
 72
     1
 10
100.0679660123094
 20
-122.4617756855304
 11
100.0679660123094
 21
-123.117721865922
 72
     1
 10
100.0679660123094
 20
-123.117721865922
 11
99.84369029621963
 21
-123.117721865922
 72
     1
 10
99.84369029621963
 20
-123.117721865922
 11
98.87045082163655
 21
-122.4386935457792
 72
     1
 10
98.87045082163655
 20
-122.4386935457792
 11
98.87045082163655
 21
-122.2440456508626
 72
     1
 10
98.87045082163655
 20
-122.2440456508626
 11
99.86918400281048
 21
-122.2440456508626
 72
     1
 10
99.86918400281048
 20
-122.2440456508626
 11
99.86918400281048
 21
-122.0366509026506
 72
     1
 10
99.86918400281048
 20
-122.0366509026506
 11
100.0679660123094
 21
-122.0366509026506
 72
     1
 10
100.0679660123094
 20
-122.0366509026506
 11
100.0679660123094
 21
-122.2440456508626
 97
        0
 92
        1
 93
        3
 72
     1
 10
99.21323782241892
 20
-122.4617756855304
 11
99.86918400281048
 21
-122.9189398564231
 72
     1
 10
99.86918400281048
 20
-122.9189398564231
 11
99.86918400281048
 21
-122.4617756855304
 72
     1
 10
99.86918400281048
 20
-122.4617756855304
 11
99.21323782241892
 21
-122.4617756855304
 97
        0
 75
     2
 76
     1
 98
        0
  0
SPLINE
  5
CA
330
B1
100
AcDbEntity
  8
_U+30EC_U+30A4_U+30E4_U+30FC 1
370
     0
100
AcDbSpline
210
0.0
220
0.0
230
1.0
 70
    11
 71
     3
 72
    53
 73
    49
 74
     0
 42
0.0000000001
 43
0.0000000001
 12
1.0
 22
0.0
 32
0.0
 13
1.0
 23
0.0
 33
0.0
 40
0.0
 40
0.0
 40
0.0
 40
0.0
 40
1.0
 40
1.0
 40
1.0
 40
2.0
 40
2.0
 40
2.0
 40
3.0
 40
3.0
 40
3.0
 40
4.0
 40
4.0
 40
4.0
 40
5.0
 40
5.0
 40
5.0
 40
6.0
 40
6.0
 40
6.0
 40
7.0
 40
7.0
 40
7.0
 40
8.0
 40
8.0
 40
8.0
 40
9.0
 40
9.0
 40
9.0
 40
10.0
 40
10.0
 40
10.0
 40
11.0
 40
11.0
 40
11.0
 40
12.0
 40
12.0
 40
12.0
 40
13.0
 40
13.0
 40
13.0
 40
14.0
 40
14.0
 40
14.0
 40
15.0
 40
15.0
 40
15.0
 40
16.0
 40
16.0
 40
16.0
 40
16.0
 10
100.4655300313072
 20
-121.4182562630482
 30
0.0
 10
100.4655300313072
 20
-121.4964599305634
 30
0.0
 10
100.4486490634295
 20
-121.5980902473783
 30
0.0
 10
100.3852593065009
 20
-121.6997205641931
 30
0.0
 10
100.2753607605214
 20
-121.8730088671012
 30
0.0
 10
100.1441026225334
 20
-121.8943684591097
 30
0.0
 10
100.0362711338451
 20
-121.9133164842786
 30
0.0
 10
100.0362711338451
 20
-121.9133164842786
 30
0.0
 10
100.0362711338451
 20
-121.69110782548
 30
0.0
 10
100.0362711338451
 20
-121.69110782548
 30
0.0
 10
100.235053143344
 20
-121.6363308072645
 30
0.0
 10
100.2646809645172
 20
-121.5092067838588
 30
0.0
 10
100.2646809645172
 20
-121.4161892057571
 30
0.0
 10
100.2646809645172
 20
-121.2766628386045
 30
0.0
 10
100.1651177049934
 20
-121.1243896181564
 30
0.0
 10
99.93257375973909
 20
-121.1243896181564
 30
0.0
 10
99.67660316518501
 20
-121.1243896181564
 30
0.0
 10
99.60666772683444
 20
-121.3042236024864
 30
0.0
 10
99.60666772683444
 20
-121.4248019444702
 30
0.0
 10
99.60666772683444
 20
-121.4564968229345
 30
0.0
 10
99.60666772683444
 20
-121.5980902473783
 30
0.0
 10
99.73585880753132
 20
-121.6869737108977
 30
0.0
 10
99.73585880753132
 20
-121.6869737108977
 30
0.0
 10
99.71691078236245
 20
-121.8626735806454
 30
0.0
 10
99.71691078236245
 20
-121.8626735806454
 30
0.0
 10
99.71691078236245
 20
-121.8626735806454
 30
0.0
 10
98.87045082163655
 20
-121.7420952386617
 30
0.0
 10
98.87045082163655
 20
-121.7420952386617
 30
0.0
 10
98.87045082163655
 20
-121.7420952386617
 30
0.0
 10
98.87045082163655
 20
-120.9635036589952
 30
0.0
 10
98.87045082163655
 20
-120.9635036589952
 30
0.0
 10
98.87045082163655
 20
-120.9635036589952
 30
0.0
 10
99.06509871655318
 20
-120.9635036589952
 30
0.0
 10
99.06509871655318
 20
-120.9635036589952
 30
0.0
 10
99.06509871655318
 20
-120.9635036589952
 30
0.0
 10
99.06509871655318
 20
-121.5791422222094
 30
0.0
 10
99.06509871655318
 20
-121.5791422222094
 30
0.0
 10
99.06509871655318
 20
-121.5791422222094
 30
0.0
 10
99.48815644214186
 20
-121.6445990364291
 30
0.0
 10
99.48815644214186
 20
-121.6445990364291
 30
0.0
 10
99.45439450638641
 20
-121.5832763367917
 30
0.0
 10
99.41408688920899
 20
-121.5009385546942
 30
0.0
 10
99.41408688920899
 20
-121.3824272700016
 30
0.0
 10
99.41408688920899
 20
-121.1285237327387
 30
0.0
 10
99.600466554961
 20
-120.8915011633535
 30
0.0
 10
99.9136257345702
 20
-120.8915011633535
 30
0.0
 10
100.2309190287617
 20
-120.8915011633535
 30
0.0
 10
100.4655300313072
 20
-121.1157768794433
 30
0.0
 10
100.4655300313072
 20
-121.4182562630482
 30
0.0
  0
HATCH
  5
CB
330
B1
100
AcDbEntity
  8
_U+30EC_U+30A4_U+30E4_U+30FC 1
 62
   179
420
  2234388
100
AcDbHatch
 10
0.0
 20
0.0
 30
0.0
210
0.0
220
0.0
230
1.0
  2
SOLID
 70
     1
 71
     0
 91
        1
 92
        1
 93
        1
 72
     4
 94
        3
 73
     0
 74
     1
 95
       53
 96
       49
 40
0.0
 40
0.0
 40
0.0
 40
0.0
 40
1.0
 40
1.0
 40
1.0
 40
2.0
 40
2.0
 40
2.0
 40
3.0
 40
3.0
 40
3.0
 40
4.0
 40
4.0
 40
4.0
 40
5.0
 40
5.0
 40
5.0
 40
6.0
 40
6.0
 40
6.0
 40
7.0
 40
7.0
 40
7.0
 40
8.0
 40
8.0
 40
8.0
 40
9.0
 40
9.0
 40
9.0
 40
10.0
 40
10.0
 40
10.0
 40
11.0
 40
11.0
 40
11.0
 40
12.0
 40
12.0
 40
12.0
 40
13.0
 40
13.0
 40
13.0
 40
14.0
 40
14.0
 40
14.0
 40
15.0
 40
15.0
 40
15.0
 40
16.0
 40
16.0
 40
16.0
 40
16.0
 10
100.4655300313072
 20
-121.4182562630482
 10
100.4655300313072
 20
-121.4964599305634
 10
100.4486490634295
 20
-121.5980902473783
 10
100.3852593065009
 20
-121.6997205641931
 10
100.2753607605214
 20
-121.8730088671012
 10
100.1441026225334
 20
-121.8943684591097
 10
100.0362711338451
 20
-121.9133164842786
 10
100.0362711338451
 20
-121.9133164842786
 10
100.0362711338451
 20
-121.69110782548
 10
100.0362711338451
 20
-121.69110782548
 10
100.235053143344
 20
-121.6363308072645
 10
100.2646809645172
 20
-121.5092067838588
 10
100.2646809645172
 20
-121.4161892057571
 10
100.2646809645172
 20
-121.2766628386045
 10
100.1651177049934
 20
-121.1243896181564
 10
99.93257375973909
 20
-121.1243896181564
 10
99.67660316518501
 20
-121.1243896181564
 10
99.60666772683444
 20
-121.3042236024864
 10
99.60666772683444
 20
-121.4248019444702
 10
99.60666772683444
 20
-121.4564968229345
 10
99.60666772683444
 20
-121.5980902473783
 10
99.73585880753132
 20
-121.6869737108977
 10
99.73585880753132
 20
-121.6869737108977
 10
99.71691078236245
 20
-121.8626735806454
 10
99.71691078236245
 20
-121.8626735806454
 10
99.71691078236245
 20
-121.8626735806454
 10
98.87045082163655
 20
-121.7420952386617
 10
98.87045082163655
 20
-121.7420952386617
 10
98.87045082163655
 20
-121.7420952386617
 10
98.87045082163655
 20
-120.9635036589952
 10
98.87045082163655
 20
-120.9635036589952
 10
98.87045082163655
 20
-120.9635036589952
 10
99.06509871655318
 20
-120.9635036589952
 10
99.06509871655318
 20
-120.9635036589952
 10
99.06509871655318
 20
-120.9635036589952
 10
99.06509871655318
 20
-121.5791422222094
 10
99.06509871655318
 20
-121.5791422222094
 10
99.06509871655318
 20
-121.5791422222094
 10
99.48815644214186
 20
-121.6445990364291
 10
99.48815644214186
 20
-121.6445990364291
 10
99.45439450638641
 20
-121.5832763367917
 10
99.41408688920899
 20
-121.5009385546942
 10
99.41408688920899
 20
-121.3824272700016
 10
99.41408688920899
 20
-121.1285237327387
 10
99.600466554961
 20
-120.8915011633535
 10
99.9136257345702
 20
-120.8915011633535
 10
100.2309190287617
 20
-120.8915011633535
 10
100.4655300313072
 20
-121.1157768794433
 10
100.4655300313072
 20
-121.4182562630482
 97
        0
 97
        0
 75
     2
 76
     1
 98
        0
  0
ENDBLK
  5
B4
330
B1
100
AcDbEntity
  8
0
100
AcDbBlockEnd
  0
BLOCK
  5
CE
330
CC
100
AcDbEntity
  8
0
100
AcDbBlockBegin
  2
block 4
 70
     0
 10
0.0
 20
0.0
 30
0.0
  3
block 4
  1

  0
SPLINE
  5
D0
330
CC
100
AcDbEntity
  8
_U+30EC_U+30A4_U+30E4_U+30FC 1
370
     0
100
AcDbSpline
210
0.0
220
0.0
230
1.0
 70
    11
 71
     3
 72
    62
 73
    58
 74
     0
 42
0.0000000001
 43
0.0000000001
 12
1.0
 22
0.0
 32
0.0
 13
1.0
 23
0.0
 33
0.0
 40
0.0
 40
0.0
 40
0.0
 40
0.0
 40
1.0
 40
1.0
 40
1.0
 40
2.0
 40
2.0
 40
2.0
 40
3.0
 40
3.0
 40
3.0
 40
4.0
 40
4.0
 40
4.0
 40
5.0
 40
5.0
 40
5.0
 40
6.0
 40
6.0
 40
6.0
 40
7.0
 40
7.0
 40
7.0
 40
8.0
 40
8.0
 40
8.0
 40
9.0
 40
9.0
 40
9.0
 40
10.0
 40
10.0
 40
10.0
 40
11.0
 40
11.0
 40
11.0
 40
12.0
 40
12.0
 40
12.0
 40
13.0
 40
13.0
 40
13.0
 40
14.0
 40
14.0
 40
14.0
 40
15.0
 40
15.0
 40
15.0
 40
16.0
 40
16.0
 40
16.0
 40
17.0
 40
17.0
 40
17.0
 40
18.0
 40
18.0
 40
18.0
 40
19.0
 40
19.0
 40
19.0
 40
19.0
 10
103.3056667493472
 20
-151.3399440810886
 30
0.0
 10
103.3056667493472
 20
-151.4353732260301
 30
0.0
 10
103.2846516668872
 20
-151.6531032606978
 30
0.0
 10
103.0986165106837
 20
-151.7781602268124
 30
0.0
 10
102.9863063978645
 20
-151.8522297797453
 30
0.0
 10
102.8870876478893
 20
-151.8563638943276
 30
0.0
 10
102.8023382989522
 20
-151.8604980089099
 30
0.0
 10
102.8023382989522
 20
-151.8604980089099
 30
0.0
 10
102.8023382989522
 20
-151.6403564074024
 30
0.0
 10
102.8023382989522
 20
-151.6403564074024
 30
0.0
 10
102.8764078518851
 20
-151.6382893501113
 30
0.0
 10
103.1110188544306
 20
-151.6279540636555
 30
0.0
 10
103.1110188544306
 20
-151.3444227052194
 30
0.0
 10
103.1110188544306
 20
-151.206963395358
 30
0.0
 10
103.0414279256285
 20
-151.0543456653614
 30
0.0
 10
102.8130180949565
 20
-151.0543456653614
 30
0.0
 10
102.696573867555
 20
-151.0543456653614
 30
0.0
 10
102.647998021213
 20
-151.0925862252477
 30
0.0
 10
102.6163031427487
 20
-151.124281103712
 30
0.0
 10
102.5422335898158
 20
-151.1983506566449
 30
0.0
 10
102.5294867365204
 20
-151.3147948840463
 30
0.0
 10
102.5294867365204
 20
-151.3695719022618
 30
0.0
 10
102.5294867365204
 20
-151.3888644369792
 30
0.0
 10
102.5315537938116
 20
-151.4246934300258
 30
0.0
 10
102.5356879083939
 20
-151.4522541939078
 30
0.0
 10
102.5356879083939
 20
-151.4522541939078
 30
0.0
 10
102.3410400134772
 20
-151.4522541939078
 30
0.0
 10
102.3410400134772
 20
-151.4522541939078
 30
0.0
 10
102.3475856948992
 20
-151.4140136340215
 30
0.0
 10
102.3496527521904
 20
-151.3719834691015
 30
0.0
 10
102.3496527521904
 20
-151.3654377876795
 30
0.0
 10
102.3496527521904
 20
-151.2999809734597
 30
0.0
 10
102.3282931601818
 20
-151.1011989639608
 30
0.0
 10
102.0916151003452
 20
-151.1011989639608
 30
0.0
 10
101.9138481733063
 20
-151.1011989639608
 30
0.0
 10
101.8587266455423
 20
-151.2321125924003
 30
0.0
 10
101.8587266455423
 20
-151.3423556479283
 30
0.0
 10
101.8587266455423
 20
-151.606594471647
 30
0.0
 10
102.0916151003452
 20
-151.6152072103601
 30
0.0
 10
102.1632730864384
 20
-151.6193413249424
 30
0.0
 10
102.1632730864384
 20
-151.6193413249424
 30
0.0
 10
102.1632730864384
 20
-151.8226019585721
 30
0.0
 10
102.1632730864384
 20
-151.8226019585721
 30
0.0
 10
102.0385606298723
 20
-151.813989219859
 30
0.0
 10
101.6620116933345
 20
-151.786428455977
 30
0.0
 10
101.6620116933345
 20
-151.3296087946329
 30
0.0
 10
101.6620116933345
 20
-151.1053330785431
 30
0.0
 10
101.7891357167402
 20
-150.8641763945756
 30
0.0
 10
102.0850694189232
 20
-150.8641763945756
 30
0.0
 10
102.2714490846752
 20
-150.8641763945756
 30
0.0
 10
102.3537868667727
 20
-150.9592610299685
 30
0.0
 10
102.4151095664101
 20
-151.0588242894922
 30
0.0
 10
102.4426703302921
 20
-150.9975015898548
 30
0.0
 10
102.5229410550984
 20
-150.8156005482336
 30
0.0
 10
102.8002712416611
 20
-150.8156005482336
 30
0.0
 10
103.1385796183126
 20
-150.8156005482336
 30
0.0
 10
103.3056667493472
 20
-151.0629584040745
 30
0.0
 10
103.3056667493472
 20
-151.3399440810886
 30
0.0
  0
HATCH
  5
D1
330
CC
100
AcDbEntity
  8
_U+30EC_U+30A4_U+30E4_U+30FC 1
 62
   179
420
  2234388
100
AcDbHatch
 10
0.0
 20
0.0
 30
0.0
210
0.0
220
0.0
230
1.0
  2
SOLID
 70
     1
 71
     0
 91
        1
 92
        1
 93
        1
 72
     4
 94
        3
 73
     0
 74
     1
 95
       62
 96
       58
 40
0.0
 40
0.0
 40
0.0
 40
0.0
 40
1.0
 40
1.0
 40
1.0
 40
2.0
 40
2.0
 40
2.0
 40
3.0
 40
3.0
 40
3.0
 40
4.0
 40
4.0
 40
4.0
 40
5.0
 40
5.0
 40
5.0
 40
6.0
 40
6.0
 40
6.0
 40
7.0
 40
7.0
 40
7.0
 40
8.0
 40
8.0
 40
8.0
 40
9.0
 40
9.0
 40
9.0
 40
10.0
 40
10.0
 40
10.0
 40
11.0
 40
11.0
 40
11.0
 40
12.0
 40
12.0
 40
12.0
 40
13.0
 40
13.0
 40
13.0
 40
14.0
 40
14.0
 40
14.0
 40
15.0
 40
15.0
 40
15.0
 40
16.0
 40
16.0
 40
16.0
 40
17.0
 40
17.0
 40
17.0
 40
18.0
 40
18.0
 40
18.0
 40
19.0
 40
19.0
 40
19.0
 40
19.0
 10
103.3056667493472
 20
-151.3399440810886
 10
103.3056667493472
 20
-151.4353732260301
 10
103.2846516668872
 20
-151.6531032606978
 10
103.0986165106837
 20
-151.7781602268124
 10
102.9863063978645
 20
-151.8522297797453
 10
102.8870876478893
 20
-151.8563638943276
 10
102.8023382989522
 20
-151.8604980089099
 10
102.8023382989522
 20
-151.8604980089099
 10
102.8023382989522
 20
-151.6403564074024
 10
102.8023382989522
 20
-151.6403564074024
 10
102.8764078518851
 20
-151.6382893501113
 10
103.1110188544306
 20
-151.6279540636555
 10
103.1110188544306
 20
-151.3444227052194
 10
103.1110188544306
 20
-151.206963395358
 10
103.0414279256285
 20
-151.0543456653614
 10
102.8130180949565
 20
-151.0543456653614
 10
102.696573867555
 20
-151.0543456653614
 10
102.647998021213
 20
-151.0925862252477
 10
102.6163031427487
 20
-151.124281103712
 10
102.5422335898158
 20
-151.1983506566449
 10
102.5294867365204
 20
-151.3147948840463
 10
102.5294867365204
 20
-151.3695719022618
 10
102.5294867365204
 20
-151.3888644369792
 10
102.5315537938116
 20
-151.4246934300258
 10
102.5356879083939
 20
-151.4522541939078
 10
102.5356879083939
 20
-151.4522541939078
 10
102.3410400134772
 20
-151.4522541939078
 10
102.3410400134772
 20
-151.4522541939078
 10
102.3475856948992
 20
-151.4140136340215
 10
102.3496527521904
 20
-151.3719834691015
 10
102.3496527521904
 20
-151.3654377876795
 10
102.3496527521904
 20
-151.2999809734597
 10
102.3282931601818
 20
-151.1011989639608
 10
102.0916151003452
 20
-151.1011989639608
 10
101.9138481733063
 20
-151.1011989639608
 10
101.8587266455423
 20
-151.2321125924003
 10
101.8587266455423
 20
-151.3423556479283
 10
101.8587266455423
 20
-151.606594471647
 10
102.0916151003452
 20
-151.6152072103601
 10
102.1632730864384
 20
-151.6193413249424
 10
102.1632730864384
 20
-151.6193413249424
 10
102.1632730864384
 20
-151.8226019585721
 10
102.1632730864384
 20
-151.8226019585721
 10
102.0385606298723
 20
-151.813989219859
 10
101.6620116933345
 20
-151.786428455977
 10
101.6620116933345
 20
-151.3296087946329
 10
101.6620116933345
 20
-151.1053330785431
 10
101.7891357167402
 20
-150.8641763945756
 10
102.0850694189232
 20
-150.8641763945756
 10
102.2714490846752
 20
-150.8641763945756
 10
102.3537868667727
 20
-150.9592610299685
 10
102.4151095664101
 20
-151.0588242894922
 10
102.4426703302921
 20
-150.9975015898548
 10
102.5229410550984
 20
-150.8156005482336
 10
102.8002712416611
 20
-150.8156005482336
 10
103.1385796183126
 20
-150.8156005482336
 10
103.3056667493472
 20
-151.0629584040745
 10
103.3056667493472
 20
-151.3399440810886
 97
        0
 97
        0
 75
     2
 76
     1
 98
        0
  0
ENDBLK
  5
CF
330
CC
100
AcDbEntity
  8
0
100
AcDbBlockEnd
  0
BLOCK
  5
D8
330
D6
100
AcDbEntity
  8
0
100
AcDbBlockBegin
  2
block 5
 70
     0
 10
0.0
 20
0.0
 30
0.0
  3
block 5
  1

  0
SPLINE
  5
DA
330
D6
100
AcDbEntity
  8
_U+30EC_U+30A4_U+30E4_U+30FC 1
370
     0
100
AcDbSpline
210
0.0
220
0.0
230
1.0
 70
    11
 71
     3
 72
    26
 73
    22
 74
     0
 42
0.0000000001
 43
0.0000000001
 12
1.0
 22
0.0
 32
0.0
 13
1.0
 23
0.0
 33
0.0
 40
0.0
 40
0.0
 40
0.0
 40
0.0
 40
1.0
 40
1.0
 40
1.0
 40
2.0
 40
2.0
 40
2.0
 40
3.0
 40
3.0
 40
3.0
 40
4.0
 40
4.0
 40
4.0
 40
5.0
 40
5.0
 40
5.0
 40
6.0
 40
6.0
 40
6.0
 40
7.0
 40
7.0
 40
7.0
 40
7.0
 10
89.80330401400751
 20
-107.929329400101
 30
0.0
 10
89.80330401400751
 20
-107.929329400101
 30
0.0
 10
89.80330401400751
 20
-106.8251762970784
 30
0.0
 10
89.80330401400751
 20
-106.8251762970784
 30
0.0
 10
89.80330401400751
 20
-106.8251762970784
 30
0.0
 10
89.47326386652058
 20
-106.8251762970784
 30
0.0
 10
89.47326386652058
 20
-106.8251762970784
 30
0.0
 10
89.47326386652058
 20
-106.8251762970784
 30
0.0
 10
89.47326386652058
 20
-106.6770371912127
 30
0.0
 10
89.47326386652058
 20
-106.6770371912127
 30
0.0
 10
89.80537107129867
 20
-106.6622232806261
 30
0.0
 10
89.85187986034954
 20
-106.4992702641738
 30
0.0
 10
89.88150768152268
 20
-106.3848930940635
 30
0.0
 10
89.88150768152268
 20
-106.3848930940635
 30
0.0
 10
90.02757973009727
 20
-106.3848930940635
 30
0.0
 10
90.02757973009727
 20
-106.3848930940635
 30
0.0
 10
90.02757973009727
 20
-106.3848930940635
 30
0.0
 10
90.02757973009727
 20
-107.929329400101
 30
0.0
 10
90.02757973009727
 20
-107.929329400101
 30
0.0
 10
90.02757973009727
 20
-107.929329400101
 30
0.0
 10
89.80330401400751
 20
-107.929329400101
 30
0.0
 10
89.80330401400751
 20
-107.929329400101
 30
0.0
  0
HATCH
  5
DB
330
D6
100
AcDbEntity
  8
_U+30EC_U+30A4_U+30E4_U+30FC 1
 62
   179
420
  2234388
100
AcDbHatch
 10
0.0
 20
0.0
 30
0.0
210
0.0
220
0.0
230
1.0
  2
SOLID
 70
     1
 71
     0
 91
        1
 92
        1
 93
        1
 72
     4
 94
        3
 73
     0
 74
     1
 95
       26
 96
       22
 40
0.0
 40
0.0
 40
0.0
 40
0.0
 40
1.0
 40
1.0
 40
1.0
 40
2.0
 40
2.0
 40
2.0
 40
3.0
 40
3.0
 40
3.0
 40
4.0
 40
4.0
 40
4.0
 40
5.0
 40
5.0
 40
5.0
 40
6.0
 40
6.0
 40
6.0
 40
7.0
 40
7.0
 40
7.0
 40
7.0
 10
89.80330401400751
 20
-107.929329400101
 10
89.80330401400751
 20
-107.929329400101
 10
89.80330401400751
 20
-106.8251762970784
 10
89.80330401400751
 20
-106.8251762970784
 10
89.80330401400751
 20
-106.8251762970784
 10
89.47326386652058
 20
-106.8251762970784
 10
89.47326386652058
 20
-106.8251762970784
 10
89.47326386652058
 20
-106.8251762970784
 10
89.47326386652058
 20
-106.6770371912127
 10
89.47326386652058
 20
-106.6770371912127
 10
89.80537107129867
 20
-106.6622232806261
 10
89.85187986034954
 20
-106.4992702641738
 10
89.88150768152268
 20
-106.3848930940635
 10
89.88150768152268
 20
-106.3848930940635
 10
90.02757973009727
 20
-106.3848930940635
 10
90.02757973009727
 20
-106.3848930940635
 10
90.02757973009727
 20
-106.3848930940635
 10
90.02757973009727
 20
-107.929329400101
 10
90.02757973009727
 20
-107.929329400101
 10
90.02757973009727
 20
-107.929329400101
 10
89.80330401400751
 20
-107.929329400101
 10
89.80330401400751
 20
-107.929329400101
 97
        0
 97
        0
 75
     2
 76
     1
 98
        0
  0
ENDBLK
  5
D9
330
D6
100
AcDbEntity
  8
0
100
AcDbBlockEnd
  0
BLOCK
  5
EC
330
EA
100
AcDbEntity
  8
0
100
AcDbBlockBegin
  2
block 6
 70
     0
 10
0.0
 20
0.0
 30
0.0
  3
block 6
  1

  0
SPLINE
  5
EE
330
EA
100
AcDbEntity
  8
_U+30EC_U+30A4_U+30E4_U+30FC 1
370
     0
100
AcDbSpline
210
0.0
220
0.0
230
1.0
 70
    11
 71
     3
 72
    62
 73
    58
 74
     0
 42
0.0000000001
 43
0.0000000001
 12
1.0
 22
0.0
 32
0.0
 13
1.0
 23
0.0
 33
0.0
 40
0.0
 40
0.0
 40
0.0
 40
0.0
 40
1.0
 40
1.0
 40
1.0
 40
2.0
 40
2.0
 40
2.0
 40
3.0
 40
3.0
 40
3.0
 40
4.0
 40
4.0
 40
4.0
 40
5.0
 40
5.0
 40
5.0
 40
6.0
 40
6.0
 40
6.0
 40
7.0
 40
7.0
 40
7.0
 40
8.0
 40
8.0
 40
8.0
 40
9.0
 40
9.0
 40
9.0
 40
10.0
 40
10.0
 40
10.0
 40
11.0
 40
11.0
 40
11.0
 40
12.0
 40
12.0
 40
12.0
 40
13.0
 40
13.0
 40
13.0
 40
14.0
 40
14.0
 40
14.0
 40
15.0
 40
15.0
 40
15.0
 40
16.0
 40
16.0
 40
16.0
 40
17.0
 40
17.0
 40
17.0
 40
18.0
 40
18.0
 40
18.0
 40
19.0
 40
19.0
 40
19.0
 40
19.0
 10
84.69181584254233
 20
-134.5540608387573
 30
0.0
 10
84.5963866976009
 20
-134.5540608387573
 30
0.0
 10
84.37865666293311
 20
-134.5330457562973
 30
0.0
 10
84.25359969681855
 20
-134.3470106000938
 30
0.0
 10
84.17953014388567
 20
-134.2347004872747
 30
0.0
 10
84.17539602930337
 20
-134.1354817372995
 30
0.0
 10
84.17126191472107
 20
-134.0507323883623
 30
0.0
 10
84.17126191472107
 20
-134.0507323883623
 30
0.0
 10
84.39140351622854
 20
-134.0507323883623
 30
0.0
 10
84.39140351622854
 20
-134.0507323883623
 30
0.0
 10
84.39347057351969
 20
-134.1248019412952
 30
0.0
 10
84.40380585997544
 20
-134.3594129438407
 30
0.0
 10
84.6873372184115
 20
-134.3594129438407
 30
0.0
 10
84.82479652827297
 20
-134.3594129438407
 30
0.0
 10
84.97741425826953
 20
-134.2898220150387
 30
0.0
 10
84.97741425826953
 20
-134.0614121843666
 30
0.0
 10
84.97741425826953
 20
-133.9449679569651
 30
0.0
 10
84.93917369838327
 20
-133.8963921106231
 30
0.0
 10
84.90747881991896
 20
-133.8646972321588
 30
0.0
 10
84.8334092669861
 20
-133.790627679226
 30
0.0
 10
84.71696503958465
 20
-133.7778808259305
 30
0.0
 10
84.66218802136918
 20
-133.7778808259305
 30
0.0
 10
84.64289548665178
 20
-133.7778808259305
 30
0.0
 10
84.60706649360519
 20
-133.7799478832217
 30
0.0
 10
84.57950572972318
 20
-133.784081997804
 30
0.0
 10
84.57950572972318
 20
-133.784081997804
 30
0.0
 10
84.57950572972318
 20
-133.5894341028874
 30
0.0
 10
84.57950572972318
 20
-133.5894341028874
 30
0.0
 10
84.61774628960946
 20
-133.5959797843093
 30
0.0
 10
84.6597764545295
 20
-133.5980468416005
 30
0.0
 10
84.66632213595148
 20
-133.5980468416005
 30
0.0
 10
84.73177895017123
 20
-133.5980468416005
 30
0.0
 10
84.93056095967015
 20
-133.5766872495919
 30
0.0
 10
84.93056095967015
 20
-133.3400091897553
 30
0.0
 10
84.93056095967015
 20
-133.1622422627164
 30
0.0
 10
84.79964733123064
 20
-133.1071207349524
 30
0.0
 10
84.68940427570266
 20
-133.1071207349524
 30
0.0
 10
84.42516545198399
 20
-133.1071207349524
 30
0.0
 10
84.41655271327086
 20
-133.3400091897553
 30
0.0
 10
84.41241859868856
 20
-133.4116671758485
 30
0.0
 10
84.41241859868856
 20
-133.4116671758485
 30
0.0
 10
84.20915796505882
 20
-133.4116671758485
 30
0.0
 10
84.20915796505882
 20
-133.4116671758485
 30
0.0
 10
84.21777070377195
 20
-133.2869547192824
 30
0.0
 10
84.24533146765395
 20
-132.9104057827446
 30
0.0
 10
84.70215112899808
 20
-132.9104057827446
 30
0.0
 10
84.92642684508785
 20
-132.9104057827446
 30
0.0
 10
85.16758352905534
 20
-133.0375298061504
 30
0.0
 10
85.16758352905534
 20
-133.3334635083333
 30
0.0
 10
85.16758352905534
 20
-133.5198431740853
 30
0.0
 10
85.07249889366244
 20
-133.6021809561828
 30
0.0
 10
84.97293563413871
 20
-133.6635036558203
 30
0.0
 10
85.03425833377617
 20
-133.6910644197022
 30
0.0
 10
85.21615937539735
 20
-133.7713351445086
 30
0.0
 10
85.21615937539735
 20
-134.0486653310712
 30
0.0
 10
85.21615937539735
 20
-134.3869737077227
 30
0.0
 10
84.96880151955641
 20
-134.5540608387573
 30
0.0
 10
84.69181584254233
 20
-134.5540608387573
 30
0.0
  0
HATCH
  5
EF
330
EA
100
AcDbEntity
  8
_U+30EC_U+30A4_U+30E4_U+30FC 1
 62
   179
420
  2234388
100
AcDbHatch
 10
0.0
 20
0.0
 30
0.0
210
0.0
220
0.0
230
1.0
  2
SOLID
 70
     1
 71
     0
 91
        1
 92
        1
 93
        1
 72
     4
 94
        3
 73
     0
 74
     1
 95
       62
 96
       58
 40
0.0
 40
0.0
 40
0.0
 40
0.0
 40
1.0
 40
1.0
 40
1.0
 40
2.0
 40
2.0
 40
2.0
 40
3.0
 40
3.0
 40
3.0
 40
4.0
 40
4.0
 40
4.0
 40
5.0
 40
5.0
 40
5.0
 40
6.0
 40
6.0
 40
6.0
 40
7.0
 40
7.0
 40
7.0
 40
8.0
 40
8.0
 40
8.0
 40
9.0
 40
9.0
 40
9.0
 40
10.0
 40
10.0
 40
10.0
 40
11.0
 40
11.0
 40
11.0
 40
12.0
 40
12.0
 40
12.0
 40
13.0
 40
13.0
 40
13.0
 40
14.0
 40
14.0
 40
14.0
 40
15.0
 40
15.0
 40
15.0
 40
16.0
 40
16.0
 40
16.0
 40
17.0
 40
17.0
 40
17.0
 40
18.0
 40
18.0
 40
18.0
 40
19.0
 40
19.0
 40
19.0
 40
19.0
 10
84.69181584254233
 20
-134.5540608387573
 10
84.5963866976009
 20
-134.5540608387573
 10
84.37865666293311
 20
-134.5330457562973
 10
84.25359969681855
 20
-134.3470106000938
 10
84.17953014388567
 20
-134.2347004872747
 10
84.17539602930337
 20
-134.1354817372995
 10
84.17126191472107
 20
-134.0507323883623
 10
84.17126191472107
 20
-134.0507323883623
 10
84.39140351622854
 20
-134.0507323883623
 10
84.39140351622854
 20
-134.0507323883623
 10
84.39347057351969
 20
-134.1248019412952
 10
84.40380585997544
 20
-134.3594129438407
 10
84.6873372184115
 20
-134.3594129438407
 10
84.82479652827297
 20
-134.3594129438407
 10
84.97741425826953
 20
-134.2898220150387
 10
84.97741425826953
 20
-134.0614121843666
 10
84.97741425826953
 20
-133.9449679569651
 10
84.93917369838327
 20
-133.8963921106231
 10
84.90747881991896
 20
-133.8646972321588
 10
84.8334092669861
 20
-133.790627679226
 10
84.71696503958465
 20
-133.7778808259305
 10
84.66218802136918
 20
-133.7778808259305
 10
84.64289548665178
 20
-133.7778808259305
 10
84.60706649360519
 20
-133.7799478832217
 10
84.57950572972318
 20
-133.784081997804
 10
84.57950572972318
 20
-133.784081997804
 10
84.57950572972318
 20
-133.5894341028874
 10
84.57950572972318
 20
-133.5894341028874
 10
84.61774628960946
 20
-133.5959797843093
 10
84.6597764545295
 20
-133.5980468416005
 10
84.66632213595148
 20
-133.5980468416005
 10
84.73177895017123
 20
-133.5980468416005
 10
84.93056095967015
 20
-133.5766872495919
 10
84.93056095967015
 20
-133.3400091897553
 10
84.93056095967015
 20
-133.1622422627164
 10
84.79964733123064
 20
-133.1071207349524
 10
84.68940427570266
 20
-133.1071207349524
 10
84.42516545198399
 20
-133.1071207349524
 10
84.41655271327086
 20
-133.3400091897553
 10
84.41241859868856
 20
-133.4116671758485
 10
84.41241859868856
 20
-133.4116671758485
 10
84.20915796505882
 20
-133.4116671758485
 10
84.20915796505882
 20
-133.4116671758485
 10
84.21777070377195
 20
-133.2869547192824
 10
84.24533146765395
 20
-132.9104057827446
 10
84.70215112899808
 20
-132.9104057827446
 10
84.92642684508785
 20
-132.9104057827446
 10
85.16758352905534
 20
-133.0375298061504
 10
85.16758352905534
 20
-133.3334635083333
 10
85.16758352905534
 20
-133.5198431740853
 10
85.07249889366244
 20
-133.6021809561828
 10
84.97293563413871
 20
-133.6635036558203
 10
85.03425833377617
 20
-133.6910644197022
 10
85.21615937539735
 20
-133.7713351445086
 10
85.21615937539735
 20
-134.0486653310712
 10
85.21615937539735
 20
-134.3869737077227
 10
84.96880151955641
 20
-134.5540608387573
 10
84.69181584254233
 20
-134.5540608387573
 97
        0
 97
        0
 75
     2
 76
     1
 98
        0
  0
ENDBLK
  5
ED
330
EA
100
AcDbEntity
  8
0
100
AcDbBlockEnd
  0
BLOCK
  5
F2
330
F0
100
AcDbEntity
  8
0
100
AcDbBlockBegin
  2
block 7
 70
     0
 10
0.0
 20
0.0
 30
0.0
  3
block 7
  1

  0
SPLINE
  5
F4
330
F0
100
AcDbEntity
  8
_U+30EC_U+30A4_U+30E4_U+30FC 1
370
     0
100
AcDbSpline
210
0.0
220
0.0
230
1.0
 70
    11
 71
     3
 72
    53
 73
    49
 74
     0
 42
0.0000000001
 43
0.0000000001
 12
1.0
 22
0.0
 32
0.0
 13
1.0
 23
0.0
 33
0.0
 40
0.0
 40
0.0
 40
0.0
 40
0.0
 40
1.0
 40
1.0
 40
1.0
 40
2.0
 40
2.0
 40
2.0
 40
3.0
 40
3.0
 40
3.0
 40
4.0
 40
4.0
 40
4.0
 40
5.0
 40
5.0
 40
5.0
 40
6.0
 40
6.0
 40
6.0
 40
7.0
 40
7.0
 40
7.0
 40
8.0
 40
8.0
 40
8.0
 40
9.0
 40
9.0
 40
9.0
 40
10.0
 40
10.0
 40
10.0
 40
11.0
 40
11.0
 40
11.0
 40
12.0
 40
12.0
 40
12.0
 40
13.0
 40
13.0
 40
13.0
 40
14.0
 40
14.0
 40
14.0
 40
15.0
 40
15.0
 40
15.0
 40
16.0
 40
16.0
 40
16.0
 40
16.0
 10
88.0683539276357
 20
-134.5540608387573
 30
0.0
 10
87.99015026012052
 20
-134.5540608387573
 30
0.0
 10
87.88851994330565
 20
-134.5371798708796
 30
0.0
 10
87.78688962649078
 20
-134.473790113951
 30
0.0
 10
87.61360132358271
 20
-134.3638915679715
 30
0.0
 10
87.59224173157416
 20
-134.2326334299835
 30
0.0
 10
87.5732937064053
 20
-134.1248019412952
 30
0.0
 10
87.5732937064053
 20
-134.1248019412952
 30
0.0
 10
87.7955023652039
 20
-134.1248019412952
 30
0.0
 10
87.7955023652039
 20
-134.1248019412952
 30
0.0
 10
87.85027938341938
 20
-134.3235839507941
 30
0.0
 10
87.9774034068251
 20
-134.3532117719673
 30
0.0
 10
88.07042098492684
 20
-134.3532117719673
 30
0.0
 10
88.20994735207947
 20
-134.3532117719673
 30
0.0
 10
88.3622205725275
 20
-134.2536485124435
 30
0.0
 10
88.3622205725275
 20
-134.0211045671892
 30
0.0
 10
88.3622205725275
 20
-133.7651339726351
 30
0.0
 10
88.18238658819746
 20
-133.6951985342845
 30
0.0
 10
88.06180824621372
 20
-133.6951985342845
 30
0.0
 10
88.03011336774942
 20
-133.6951985342845
 30
0.0
 10
87.88851994330565
 20
-133.6951985342845
 30
0.0
 10
87.7996364797862
 20
-133.8243896149814
 30
0.0
 10
87.7996364797862
 20
-133.8243896149814
 30
0.0
 10
87.62393661003847
 20
-133.8054415898125
 30
0.0
 10
87.62393661003847
 20
-133.8054415898125
 30
0.0
 10
87.62393661003847
 20
-133.8054415898125
 30
0.0
 10
87.74451495202221
 20
-132.9589816290867
 30
0.0
 10
87.74451495202221
 20
-132.9589816290867
 30
0.0
 10
87.74451495202221
 20
-132.9589816290867
 30
0.0
 10
88.52310653168867
 20
-132.9589816290867
 30
0.0
 10
88.52310653168867
 20
-132.9589816290867
 30
0.0
 10
88.52310653168867
 20
-132.9589816290867
 30
0.0
 10
88.52310653168867
 20
-133.1536295240033
 30
0.0
 10
88.52310653168867
 20
-133.1536295240033
 30
0.0
 10
88.52310653168867
 20
-133.1536295240033
 30
0.0
 10
87.90746796847452
 20
-133.1536295240033
 30
0.0
 10
87.90746796847452
 20
-133.1536295240033
 30
0.0
 10
87.90746796847452
 20
-133.1536295240033
 30
0.0
 10
87.84201115425478
 20
-133.5766872495919
 30
0.0
 10
87.84201115425478
 20
-133.5766872495919
 30
0.0
 10
87.90333385389222
 20
-133.5429253138365
 30
0.0
 10
87.9856716359897
 20
-133.5026176966591
 30
0.0
 10
88.10418292068229
 20
-133.5026176966591
 30
0.0
 10
88.3580864579452
 20
-133.5026176966591
 30
0.0
 10
88.5951090273304
 20
-133.6889973624111
 30
0.0
 10
88.5951090273304
 20
-134.0021565420203
 30
0.0
 10
88.5951090273304
 20
-134.3194498362118
 30
0.0
 10
88.37083331124063
 20
-134.5540608387573
 30
0.0
 10
88.0683539276357
 20
-134.5540608387573
 30
0.0
  0
HATCH
  5
F5
330
F0
100
AcDbEntity
  8
_U+30EC_U+30A4_U+30E4_U+30FC 1
 62
   179
420
  2234388
100
AcDbHatch
 10
0.0
 20
0.0
 30
0.0
210
0.0
220
0.0
230
1.0
  2
SOLID
 70
     1
 71
     0
 91
        1
 92
        1
 93
        1
 72
     4
 94
        3
 73
     0
 74
     1
 95
       53
 96
       49
 40
0.0
 40
0.0
 40
0.0
 40
0.0
 40
1.0
 40
1.0
 40
1.0
 40
2.0
 40
2.0
 40
2.0
 40
3.0
 40
3.0
 40
3.0
 40
4.0
 40
4.0
 40
4.0
 40
5.0
 40
5.0
 40
5.0
 40
6.0
 40
6.0
 40
6.0
 40
7.0
 40
7.0
 40
7.0
 40
8.0
 40
8.0
 40
8.0
 40
9.0
 40
9.0
 40
9.0
 40
10.0
 40
10.0
 40
10.0
 40
11.0
 40
11.0
 40
11.0
 40
12.0
 40
12.0
 40
12.0
 40
13.0
 40
13.0
 40
13.0
 40
14.0
 40
14.0
 40
14.0
 40
15.0
 40
15.0
 40
15.0
 40
16.0
 40
16.0
 40
16.0
 40
16.0
 10
88.0683539276357
 20
-134.5540608387573
 10
87.99015026012052
 20
-134.5540608387573
 10
87.88851994330565
 20
-134.5371798708796
 10
87.78688962649078
 20
-134.473790113951
 10
87.61360132358271
 20
-134.3638915679715
 10
87.59224173157416
 20
-134.2326334299835
 10
87.5732937064053
 20
-134.1248019412952
 10
87.5732937064053
 20
-134.1248019412952
 10
87.7955023652039
 20
-134.1248019412952
 10
87.7955023652039
 20
-134.1248019412952
 10
87.85027938341938
 20
-134.3235839507941
 10
87.9774034068251
 20
-134.3532117719673
 10
88.07042098492684
 20
-134.3532117719673
 10
88.20994735207947
 20
-134.3532117719673
 10
88.3622205725275
 20
-134.2536485124435
 10
88.3622205725275
 20
-134.0211045671892
 10
88.3622205725275
 20
-133.7651339726351
 10
88.18238658819746
 20
-133.6951985342845
 10
88.06180824621372
 20
-133.6951985342845
 10
88.03011336774942
 20
-133.6951985342845
 10
87.88851994330565
 20
-133.6951985342845
 10
87.7996364797862
 20
-133.8243896149814
 10
87.7996364797862
 20
-133.8243896149814
 10
87.62393661003847
 20
-133.8054415898125
 10
87.62393661003847
 20
-133.8054415898125
 10
87.62393661003847
 20
-133.8054415898125
 10
87.74451495202221
 20
-132.9589816290867
 10
87.74451495202221
 20
-132.9589816290867
 10
87.74451495202221
 20
-132.9589816290867
 10
88.52310653168867
 20
-132.9589816290867
 10
88.52310653168867
 20
-132.9589816290867
 10
88.52310653168867
 20
-132.9589816290867
 10
88.52310653168867
 20
-133.1536295240033
 10
88.52310653168867
 20
-133.1536295240033
 10
88.52310653168867
 20
-133.1536295240033
 10
87.90746796847452
 20
-133.1536295240033
 10
87.90746796847452
 20
-133.1536295240033
 10
87.90746796847452
 20
-133.1536295240033
 10
87.84201115425478
 20
-133.5766872495919
 10
87.84201115425478
 20
-133.5766872495919
 10
87.90333385389222
 20
-133.5429253138365
 10
87.9856716359897
 20
-133.5026176966591
 10
88.10418292068229
 20
-133.5026176966591
 10
88.3580864579452
 20
-133.5026176966591
 10
88.5951090273304
 20
-133.6889973624111
 10
88.5951090273304
 20
-134.0021565420203
 10
88.5951090273304
 20
-134.3194498362118
 10
88.37083331124063
 20
-134.5540608387573
 10
88.0683539276357
 20
-134.5540608387573
 97
        0
 97
        0
 75
     2
 76
     1
 98
        0
  0
POLYLINE
  5
F6
330
F0
100
AcDbEntity
  8
_U+30EC_U+30A4_U+30E4_U+30FC 1
370
     0
100
AcDb2dPolyline
 66
     1
 10
0.0
 20
0.0
 30
0.0
  0
VERTEX
  5
F7
330
F6
100
AcDbEntity
  8
_U+30EC_U+30A4_U+30E4_U+30FC 1
370
     0
100
AcDbVertex
100
AcDb2dVertex
 10
88.82420787709951
 20
-134.5034179351242
 30
0.0
  0
VERTEX
  5
F8
330
F6
100
AcDbEntity
  8
_U+30EC_U+30A4_U+30E4_U+30FC 1
370
     0
100
AcDbVertex
100
AcDb2dVertex
 10
88.82420787709951
 20
-134.2515814551524
 30
0.0
  0
VERTEX
  5
F9
330
F6
100
AcDbEntity
  8
_U+30EC_U+30A4_U+30E4_U+30FC 1
370
     0
100
AcDbVertex
100
AcDb2dVertex
 10
89.07604435707127
 20
-134.2515814551524
 30
0.0
  0
VERTEX
  5
FA
330
F6
100
AcDbEntity
  8
_U+30EC_U+30A4_U+30E4_U+30FC 1
370
     0
100
AcDbVertex
100
AcDb2dVertex
 10
89.07604435707127
 20
-134.5034179351242
 30
0.0
  0
VERTEX
  5
FB
330
F6
100
AcDbEntity
  8
_U+30EC_U+30A4_U+30E4_U+30FC 1
370
     0
100
AcDbVertex
100
AcDb2dVertex
 10
88.82420787709951
 20
-134.5034179351242
 30
0.0
  0
SEQEND
  5
FC
330
F6
100
AcDbEntity
  8
_U+30EC_U+30A4_U+30E4_U+30FC 1
370
     0
  0
HATCH
  5
FD
330
F0
100
AcDbEntity
  8
_U+30EC_U+30A4_U+30E4_U+30FC 1
 62
   179
420
  2234388
100
AcDbHatch
 10
0.0
 20
0.0
 30
0.0
210
0.0
220
0.0
230
1.0
  2
SOLID
 70
     1
 71
     0
 91
        1
 92
        1
 93
        4
 72
     1
 10
88.82420787709951
 20
-134.5034179351242
 11
88.82420787709951
 21
-134.2515814551524
 72
     1
 10
88.82420787709951
 20
-134.2515814551524
 11
89.07604435707127
 21
-134.2515814551524
 72
     1
 10
89.07604435707127
 20
-134.2515814551524
 11
89.07604435707127
 21
-134.5034179351242
 72
     1
 10
89.07604435707127
 20
-134.5034179351242
 11
88.82420787709951
 21
-134.5034179351242
 97
        0
 75
     2
 76
     1
 98
        0
  0
SPLINE
  5
FE
330
F0
100
AcDbEntity
  8
_U+30EC_U+30A4_U+30E4_U+30FC 1
370
     0
100
AcDbSpline
210
0.0
220
0.0
230
1.0
 70
    11
 71
     3
 72
    53
 73
    49
 74
     0
 42
0.0000000001
 43
0.0000000001
 12
1.0
 22
0.0
 32
0.0
 13
1.0
 23
0.0
 33
0.0
 40
0.0
 40
0.0
 40
0.0
 40
0.0
 40
1.0
 40
1.0
 40
1.0
 40
2.0
 40
2.0
 40
2.0
 40
3.0
 40
3.0
 40
3.0
 40
4.0
 40
4.0
 40
4.0
 40
5.0
 40
5.0
 40
5.0
 40
6.0
 40
6.0
 40
6.0
 40
7.0
 40
7.0
 40
7.0
 40
8.0
 40
8.0
 40
8.0
 40
9.0
 40
9.0
 40
9.0
 40
10.0
 40
10.0
 40
10.0
 40
11.0
 40
11.0
 40
11.0
 40
12.0
 40
12.0
 40
12.0
 40
13.0
 40
13.0
 40
13.0
 40
14.0
 40
14.0
 40
14.0
 40
15.0
 40
15.0
 40
15.0
 40
16.0
 40
16.0
 40
16.0
 40
16.0
 10
89.79331323710029
 20
-134.5540608387573
 30
0.0
 10
89.71510956958511
 20
-134.5540608387573
 30
0.0
 10
89.61347925277025
 20
-134.5371798708796
 30
0.0
 10
89.51184893595537
 20
-134.473790113951
 30
0.0
 10
89.33856063304731
 20
-134.3638915679715
 30
0.0
 10
89.31720104103876
 20
-134.2326334299835
 30
0.0
 10
89.29825301586989
 20
-134.1248019412952
 30
0.0
 10
89.29825301586989
 20
-134.1248019412952
 30
0.0
 10
89.5204616746685
 20
-134.1248019412952
 30
0.0
 10
89.5204616746685
 20
-134.1248019412952
 30
0.0
 10
89.57523869288397
 20
-134.3235839507941
 30
0.0
 10
89.70236271628968
 20
-134.3532117719673
 30
0.0
 10
89.79538029439144
 20
-134.3532117719673
 30
0.0
 10
89.93490666154406
 20
-134.3532117719673
 30
0.0
 10
90.0871798819921
 20
-134.2536485124435
 30
0.0
 10
90.0871798819921
 20
-134.0211045671892
 30
0.0
 10
90.0871798819921
 20
-133.7651339726351
 30
0.0
 10
89.90734589766205
 20
-133.6951985342845
 30
0.0
 10
89.78676755567831
 20
-133.6951985342845
 30
0.0
 10
89.75507267721402
 20
-133.6951985342845
 30
0.0
 10
89.61347925277025
 20
-133.6951985342845
 30
0.0
 10
89.5245957892508
 20
-133.8243896149814
 30
0.0
 10
89.5245957892508
 20
-133.8243896149814
 30
0.0
 10
89.34889591950306
 20
-133.8054415898125
 30
0.0
 10
89.34889591950306
 20
-133.8054415898125
 30
0.0
 10
89.34889591950306
 20
-133.8054415898125
 30
0.0
 10
89.46947426148681
 20
-132.9589816290867
 30
0.0
 10
89.46947426148681
 20
-132.9589816290867
 30
0.0
 10
89.46947426148681
 20
-132.9589816290867
 30
0.0
 10
90.24806584115326
 20
-132.9589816290867
 30
0.0
 10
90.24806584115326
 20
-132.9589816290867
 30
0.0
 10
90.24806584115326
 20
-132.9589816290867
 30
0.0
 10
90.24806584115326
 20
-133.1536295240033
 30
0.0
 10
90.24806584115326
 20
-133.1536295240033
 30
0.0
 10
90.24806584115326
 20
-133.1536295240033
 30
0.0
 10
89.63242727793912
 20
-133.1536295240033
 30
0.0
 10
89.63242727793912
 20
-133.1536295240033
 30
0.0
 10
89.63242727793912
 20
-133.1536295240033
 30
0.0
 10
89.56697046371937
 20
-133.5766872495919
 30
0.0
 10
89.56697046371937
 20
-133.5766872495919
 30
0.0
 10
89.62829316335682
 20
-133.5429253138365
 30
0.0
 10
89.71063094545428
 20
-133.5026176966591
 30
0.0
 10
89.82914223014689
 20
-133.5026176966591
 30
0.0
 10
90.0830457674098
 20
-133.5026176966591
 30
0.0
 10
90.32006833679499
 20
-133.6889973624111
 30
0.0
 10
90.32006833679499
 20
-134.0021565420203
 30
0.0
 10
90.32006833679499
 20
-134.3194498362118
 30
0.0
 10
90.09579262070523
 20
-134.5540608387573
 30
0.0
 10
89.79331323710029
 20
-134.5540608387573
 30
0.0
  0
HATCH
  5
FF
330
F0
100
AcDbEntity
  8
_U+30EC_U+30A4_U+30E4_U+30FC 1
 62
   179
420
  2234388
100
AcDbHatch
 10
0.0
 20
0.0
 30
0.0
210
0.0
220
0.0
230
1.0
  2
SOLID
 70
     1
 71
     0
 91
        1
 92
        1
 93
        1
 72
     4
 94
        3
 73
     0
 74
     1
 95
       53
 96
       49
 40
0.0
 40
0.0
 40
0.0
 40
0.0
 40
1.0
 40
1.0
 40
1.0
 40
2.0
 40
2.0
 40
2.0
 40
3.0
 40
3.0
 40
3.0
 40
4.0
 40
4.0
 40
4.0
 40
5.0
 40
5.0
 40
5.0
 40
6.0
 40
6.0
 40
6.0
 40
7.0
 40
7.0
 40
7.0
 40
8.0
 40
8.0
 40
8.0
 40
9.0
 40
9.0
 40
9.0
 40
10.0
 40
10.0
 40
10.0
 40
11.0
 40
11.0
 40
11.0
 40
12.0
 40
12.0
 40
12.0
 40
13.0
 40
13.0
 40
13.0
 40
14.0
 40
14.0
 40
14.0
 40
15.0
 40
15.0
 40
15.0
 40
16.0
 40
16.0
 40
16.0
 40
16.0
 10
89.79331323710029
 20
-134.5540608387573
 10
89.71510956958511
 20
-134.5540608387573
 10
89.61347925277025
 20
-134.5371798708796
 10
89.51184893595537
 20
-134.473790113951
 10
89.33856063304731
 20
-134.3638915679715
 10
89.31720104103876
 20
-134.2326334299835
 10
89.29825301586989
 20
-134.1248019412952
 10
89.29825301586989
 20
-134.1248019412952
 10
89.5204616746685
 20
-134.1248019412952
 10
89.5204616746685
 20
-134.1248019412952
 10
89.57523869288397
 20
-134.3235839507941
 10
89.70236271628968
 20
-134.3532117719673
 10
89.79538029439144
 20
-134.3532117719673
 10
89.93490666154406
 20
-134.3532117719673
 10
90.0871798819921
 20
-134.2536485124435
 10
90.0871798819921
 20
-134.0211045671892
 10
90.0871798819921
 20
-133.7651339726351
 10
89.90734589766205
 20
-133.6951985342845
 10
89.78676755567831
 20
-133.6951985342845
 10
89.75507267721402
 20
-133.6951985342845
 10
89.61347925277025
 20
-133.6951985342845
 10
89.5245957892508
 20
-133.8243896149814
 10
89.5245957892508
 20
-133.8243896149814
 10
89.34889591950306
 20
-133.8054415898125
 10
89.34889591950306
 20
-133.8054415898125
 10
89.34889591950306
 20
-133.8054415898125
 10
89.46947426148681
 20
-132.9589816290867
 10
89.46947426148681
 20
-132.9589816290867
 10
89.46947426148681
 20
-132.9589816290867
 10
90.24806584115326
 20
-132.9589816290867
 10
90.24806584115326
 20
-132.9589816290867
 10
90.24806584115326
 20
-132.9589816290867
 10
90.24806584115326
 20
-133.1536295240033
 10
90.24806584115326
 20
-133.1536295240033
 10
90.24806584115326
 20
-133.1536295240033
 10
89.63242727793912
 20
-133.1536295240033
 10
89.63242727793912
 20
-133.1536295240033
 10
89.63242727793912
 20
-133.1536295240033
 10
89.56697046371937
 20
-133.5766872495919
 10
89.56697046371937
 20
-133.5766872495919
 10
89.62829316335682
 20
-133.5429253138365
 10
89.71063094545428
 20
-133.5026176966591
 10
89.82914223014689
 20
-133.5026176966591
 10
90.0830457674098
 20
-133.5026176966591
 10
90.32006833679499
 20
-133.6889973624111
 10
90.32006833679499
 20
-134.0021565420203
 10
90.32006833679499
 20
-134.3194498362118
 10
90.09579262070523
 20
-134.5540608387573
 10
89.79331323710029
 20
-134.5540608387573
 97
        0
 97
        0
 75
     2
 76
     1
 98
        0
  0
ENDBLK
  5
F3
330
F0
100
AcDbEntity
  8
0
100
AcDbBlockEnd
  0
BLOCK
  5
110
330
10E
100
AcDbEntity
  8
0
100
AcDbBlockBegin
  2
block 8
 70
     0
 10
0.0
 20
0.0
 30
0.0
  3
block 8
  1

  0
SPLINE
  5
112
330
10E
100
AcDbEntity
  8
_U+30EC_U+30A4_U+30E4_U+30FC 1
370
     0
100
AcDbSpline
210
0.0
220
0.0
230
1.0
 70
    11
 71
     3
 72
    26
 73
    22
 74
     0
 42
0.0000000001
 43
0.0000000001
 12
1.0
 22
0.0
 32
0.0
 13
1.0
 23
0.0
 33
0.0
 40
0.0
 40
0.0
 40
0.0
 40
0.0
 40
1.0
 40
1.0
 40
1.0
 40
2.0
 40
2.0
 40
2.0
 40
3.0
 40
3.0
 40
3.0
 40
4.0
 40
4.0
 40
4.0
 40
5.0
 40
5.0
 40
5.0
 40
6.0
 40
6.0
 40
6.0
 40
7.0
 40
7.0
 40
7.0
 40
7.0
 10
90.08959144883177
 20
-156.2850341406163
 30
0.0
 10
90.08959144883177
 20
-156.2850341406163
 30
0.0
 10
90.08959144883177
 20
-155.1808810375937
 30
0.0
 10
90.08959144883177
 20
-155.1808810375937
 30
0.0
 10
90.08959144883177
 20
-155.1808810375937
 30
0.0
 10
89.75955130134484
 20
-155.1808810375937
 30
0.0
 10
89.75955130134484
 20
-155.1808810375937
 30
0.0
 10
89.75955130134484
 20
-155.1808810375937
 30
0.0
 10
89.75955130134484
 20
-155.0327419317279
 30
0.0
 10
89.75955130134484
 20
-155.0327419317279
 30
0.0
 10
90.09165850612293
 20
-155.0179280211414
 30
0.0
 10
90.1381672951738
 20
-154.854975004689
 30
0.0
 10
90.16779511634694
 20
-154.7405978345788
 30
0.0
 10
90.16779511634694
 20
-154.7405978345788
 30
0.0
 10
90.31386716492153
 20
-154.7405978345788
 30
0.0
 10
90.31386716492153
 20
-154.7405978345788
 30
0.0
 10
90.31386716492153
 20
-154.7405978345788
 30
0.0
 10
90.31386716492153
 20
-156.2850341406163
 30
0.0
 10
90.31386716492153
 20
-156.2850341406163
 30
0.0
 10
90.31386716492153
 20
-156.2850341406163
 30
0.0
 10
90.08959144883177
 20
-156.2850341406163
 30
0.0
 10
90.08959144883177
 20
-156.2850341406163
 30
0.0
  0
HATCH
  5
113
330
10E
100
AcDbEntity
  8
_U+30EC_U+30A4_U+30E4_U+30FC 1
 62
   179
420
  2234388
100
AcDbHatch
 10
0.0
 20
0.0
 30
0.0
210
0.0
220
0.0
230
1.0
  2
SOLID
 70
     1
 71
     0
 91
        1
 92
        1
 93
        1
 72
     4
 94
        3
 73
     0
 74
     1
 95
       26
 96
       22
 40
0.0
 40
0.0
 40
0.0
 40
0.0
 40
1.0
 40
1.0
 40
1.0
 40
2.0
 40
2.0
 40
2.0
 40
3.0
 40
3.0
 40
3.0
 40
4.0
 40
4.0
 40
4.0
 40
5.0
 40
5.0
 40
5.0
 40
6.0
 40
6.0
 40
6.0
 40
7.0
 40
7.0
 40
7.0
 40
7.0
 10
90.08959144883177
 20
-156.2850341406163
 10
90.08959144883177
 20
-156.2850341406163
 10
90.08959144883177
 20
-155.1808810375937
 10
90.08959144883177
 20
-155.1808810375937
 10
90.08959144883177
 20
-155.1808810375937
 10
89.75955130134484
 20
-155.1808810375937
 10
89.75955130134484
 20
-155.1808810375937
 10
89.75955130134484
 20
-155.1808810375937
 10
89.75955130134484
 20
-155.0327419317279
 10
89.75955130134484
 20
-155.0327419317279
 10
90.09165850612293
 20
-155.0179280211414
 10
90.1381672951738
 20
-154.854975004689
 10
90.16779511634694
 20
-154.7405978345788
 10
90.16779511634694
 20
-154.7405978345788
 10
90.31386716492153
 20
-154.7405978345788
 10
90.31386716492153
 20
-154.7405978345788
 10
90.31386716492153
 20
-154.7405978345788
 10
90.31386716492153
 20
-156.2850341406163
 10
90.31386716492153
 20
-156.2850341406163
 10
90.31386716492153
 20
-156.2850341406163
 10
90.08959144883177
 20
-156.2850341406163
 10
90.08959144883177
 20
-156.2850341406163
 97
        0
 97
        0
 75
     2
 76
     1
 98
        0
  0
SPLINE
  5
114
330
10E
100
AcDbEntity
  8
_U+30EC_U+30A4_U+30E4_U+30FC 1
370
     0
100
AcDbSpline
210
0.0
220
0.0
230
1.0
 70
    11
 71
     3
 72
    53
 73
    49
 74
     0
 42
0.0000000001
 43
0.0000000001
 12
1.0
 22
0.0
 32
0.0
 13
1.0
 23
0.0
 33
0.0
 40
0.0
 40
0.0
 40
0.0
 40
0.0
 40
1.0
 40
1.0
 40
1.0
 40
2.0
 40
2.0
 40
2.0
 40
3.0
 40
3.0
 40
3.0
 40
4.0
 40
4.0
 40
4.0
 40
5.0
 40
5.0
 40
5.0
 40
6.0
 40
6.0
 40
6.0
 40
7.0
 40
7.0
 40
7.0
 40
8.0
 40
8.0
 40
8.0
 40
9.0
 40
9.0
 40
9.0
 40
10.0
 40
10.0
 40
10.0
 40
11.0
 40
11.0
 40
11.0
 40
12.0
 40
12.0
 40
12.0
 40
13.0
 40
13.0
 40
13.0
 40
14.0
 40
14.0
 40
14.0
 40
15.0
 40
15.0
 40
15.0
 40
16.0
 40
16.0
 40
16.0
 40
16.0
 10
91.29606388776627
 20
-156.3356770442494
 30
0.0
 10
91.2178602202511
 20
-156.3356770442494
 30
0.0
 10
91.11622990343622
 20
-156.3187960763717
 30
0.0
 10
91.01459958662136
 20
-156.2554063194431
 30
0.0
 10
90.84131128371328
 20
-156.1455077734636
 30
0.0
 10
90.81995169170474
 20
-156.0142496354756
 30
0.0
 10
90.80100366653586
 20
-155.9064181467873
 30
0.0
 10
90.80100366653586
 20
-155.9064181467873
 30
0.0
 10
91.02321232533448
 20
-155.9064181467873
 30
0.0
 10
91.02321232533448
 20
-155.9064181467873
 30
0.0
 10
91.07798934354994
 20
-156.1052001562862
 30
0.0
 10
91.20511336695567
 20
-156.1348279774594
 30
0.0
 10
91.29813094505741
 20
-156.1348279774594
 30
0.0
 10
91.43765731221004
 20
-156.1348279774594
 30
0.0
 10
91.58993053265807
 20
-156.0352647179356
 30
0.0
 10
91.58993053265807
 20
-155.8027207726813
 30
0.0
 10
91.58993053265807
 20
-155.5467501781272
 30
0.0
 10
91.41009654832804
 20
-155.4768147397766
 30
0.0
 10
91.2895182063443
 20
-155.4768147397766
 30
0.0
 10
91.25782332787999
 20
-155.4768147397766
 30
0.0
 10
91.11622990343622
 20
-155.4768147397766
 30
0.0
 10
91.02734643991678
 20
-155.6060058204735
 30
0.0
 10
91.02734643991678
 20
-155.6060058204735
 30
0.0
 10
90.85164657016904
 20
-155.5870577953046
 30
0.0
 10
90.85164657016904
 20
-155.5870577953046
 30
0.0
 10
90.85164657016904
 20
-155.5870577953046
 30
0.0
 10
90.97222491215278
 20
-154.7405978345788
 30
0.0
 10
90.97222491215278
 20
-154.7405978345788
 30
0.0
 10
90.97222491215278
 20
-154.7405978345788
 30
0.0
 10
91.75081649181925
 20
-154.7405978345788
 30
0.0
 10
91.75081649181925
 20
-154.7405978345788
 30
0.0
 10
91.75081649181925
 20
-154.7405978345788
 30
0.0
 10
91.75081649181925
 20
-154.9352457294954
 30
0.0
 10
91.75081649181925
 20
-154.9352457294954
 30
0.0
 10
91.75081649181925
 20
-154.9352457294954
 30
0.0
 10
91.1351779286051
 20
-154.9352457294954
 30
0.0
 10
91.1351779286051
 20
-154.9352457294954
 30
0.0
 10
91.1351779286051
 20
-154.9352457294954
 30
0.0
 10
91.06972111438535
 20
-155.358303455084
 30
0.0
 10
91.06972111438535
 20
-155.358303455084
 30
0.0
 10
91.1310438140228
 20
-155.3245415193286
 30
0.0
 10
91.21338159612027
 20
-155.2842339021512
 30
0.0
 10
91.33189288081286
 20
-155.2842339021512
 30
0.0
 10
91.58579641807577
 20
-155.2842339021512
 30
0.0
 10
91.82281898746096
 20
-155.4706135679032
 30
0.0
 10
91.82281898746096
 20
-155.7837727475124
 30
0.0
 10
91.82281898746096
 20
-156.1010660417039
 30
0.0
 10
91.5985432713712
 20
-156.3356770442494
 30
0.0
 10
91.29606388776627
 20
-156.3356770442494
 30
0.0
  0
HATCH
  5
115
330
10E
100
AcDbEntity
  8
_U+30EC_U+30A4_U+30E4_U+30FC 1
 62
   179
420
  2234388
100
AcDbHatch
 10
0.0
 20
0.0
 30
0.0
210
0.0
220
0.0
230
1.0
  2
SOLID
 70
     1
 71
     0
 91
        1
 92
        1
 93
        1
 72
     4
 94
        3
 73
     0
 74
     1
 95
       53
 96
       49
 40
0.0
 40
0.0
 40
0.0
 40
0.0
 40
1.0
 40
1.0
 40
1.0
 40
2.0
 40
2.0
 40
2.0
 40
3.0
 40
3.0
 40
3.0
 40
4.0
 40
4.0
 40
4.0
 40
5.0
 40
5.0
 40
5.0
 40
6.0
 40
6.0
 40
6.0
 40
7.0
 40
7.0
 40
7.0
 40
8.0
 40
8.0
 40
8.0
 40
9.0
 40
9.0
 40
9.0
 40
10.0
 40
10.0
 40
10.0
 40
11.0
 40
11.0
 40
11.0
 40
12.0
 40
12.0
 40
12.0
 40
13.0
 40
13.0
 40
13.0
 40
14.0
 40
14.0
 40
14.0
 40
15.0
 40
15.0
 40
15.0
 40
16.0
 40
16.0
 40
16.0
 40
16.0
 10
91.29606388776627
 20
-156.3356770442494
 10
91.2178602202511
 20
-156.3356770442494
 10
91.11622990343622
 20
-156.3187960763717
 10
91.01459958662136
 20
-156.2554063194431
 10
90.84131128371328
 20
-156.1455077734636
 10
90.81995169170474
 20
-156.0142496354756
 10
90.80100366653586
 20
-155.9064181467873
 10
90.80100366653586
 20
-155.9064181467873
 10
91.02321232533448
 20
-155.9064181467873
 10
91.02321232533448
 20
-155.9064181467873
 10
91.07798934354994
 20
-156.1052001562862
 10
91.20511336695567
 20
-156.1348279774594
 10
91.29813094505741
 20
-156.1348279774594
 10
91.43765731221004
 20
-156.1348279774594
 10
91.58993053265807
 20
-156.0352647179356
 10
91.58993053265807
 20
-155.8027207726813
 10
91.58993053265807
 20
-155.5467501781272
 10
91.41009654832804
 20
-155.4768147397766
 10
91.2895182063443
 20
-155.4768147397766
 10
91.25782332787999
 20
-155.4768147397766
 10
91.11622990343622
 20
-155.4768147397766
 10
91.02734643991678
 20
-155.6060058204735
 10
91.02734643991678
 20
-155.6060058204735
 10
90.85164657016904
 20
-155.5870577953046
 10
90.85164657016904
 20
-155.5870577953046
 10
90.85164657016904
 20
-155.5870577953046
 10
90.97222491215278
 20
-154.7405978345788
 10
90.97222491215278
 20
-154.7405978345788
 10
90.97222491215278
 20
-154.7405978345788
 10
91.75081649181925
 20
-154.7405978345788
 10
91.75081649181925
 20
-154.7405978345788
 10
91.75081649181925
 20
-154.7405978345788
 10
91.75081649181925
 20
-154.9352457294954
 10
91.75081649181925
 20
-154.9352457294954
 10
91.75081649181925
 20
-154.9352457294954
 10
91.1351779286051
 20
-154.9352457294954
 10
91.1351779286051
 20
-154.9352457294954
 10
91.1351779286051
 20
-154.9352457294954
 10
91.06972111438535
 20
-155.358303455084
 10
91.06972111438535
 20
-155.358303455084
 10
91.1310438140228
 20
-155.3245415193286
 10
91.21338159612027
 20
-155.2842339021512
 10
91.33189288081286
 20
-155.2842339021512
 10
91.58579641807577
 20
-155.2842339021512
 10
91.82281898746096
 20
-155.4706135679032
 10
91.82281898746096
 20
-155.7837727475124
 10
91.82281898746096
 20
-156.1010660417039
 10
91.5985432713712
 20
-156.3356770442494
 10
91.29606388776627
 20
-156.3356770442494
 97
        0
 97
        0
 75
     2
 76
     1
 98
        0
  0
ENDBLK
  5
111
330
10E
100
AcDbEntity
  8
0
100
AcDbBlockEnd
  0
BLOCK
  5
120
330
11E
100
AcDbEntity
  8
0
100
AcDbBlockBegin
  2
block 9
 70
     0
 10
0.0
 20
0.0
 30
0.0
  3
block 9
  1

  0
SPLINE
  5
122
330
11E
100
AcDbEntity
  8
_U+30EC_U+30A4_U+30E4_U+30FC 1
370
     0
100
AcDbSpline
210
0.0
220
0.0
230
1.0
 70
    11
 71
     3
 72
    26
 73
    22
 74
     0
 42
0.0000000001
 43
0.0000000001
 12
1.0
 22
0.0
 32
0.0
 13
1.0
 23
0.0
 33
0.0
 40
0.0
 40
0.0
 40
0.0
 40
0.0
 40
1.0
 40
1.0
 40
1.0
 40
2.0
 40
2.0
 40
2.0
 40
3.0
 40
3.0
 40
3.0
 40
4.0
 40
4.0
 40
4.0
 40
5.0
 40
5.0
 40
5.0
 40
6.0
 40
6.0
 40
6.0
 40
7.0
 40
7.0
 40
7.0
 40
7.0
 10
79.99287785543581
 20
-146.1316487264879
 30
0.0
 10
79.99287785543581
 20
-146.1316487264879
 30
0.0
 10
78.88855249763898
 20
-146.1316487264879
 30
0.0
 10
78.88855249763898
 20
-146.1316487264879
 30
0.0
 10
78.88855249763898
 20
-146.1316487264879
 30
0.0
 10
78.88855249763898
 20
-146.4616888739749
 30
0.0
 10
78.88855249763898
 20
-146.4616888739749
 30
0.0
 10
78.88855249763898
 20
-146.4616888739749
 30
0.0
 10
78.7405856465475
 20
-146.4616888739749
 30
0.0
 10
78.7405856465475
 20
-146.4616888739749
 30
0.0
 10
78.72577173596092
 20
-146.1295816691968
 30
0.0
 10
78.5628187195086
 20
-146.0830728801459
 30
0.0
 10
78.44861380417257
 20
-146.0534450589728
 30
0.0
 10
78.44861380417257
 20
-146.0534450589728
 30
0.0
 10
78.44861380417257
 20
-145.9073730103982
 30
0.0
 10
78.44861380417257
 20
-145.9073730103982
 30
0.0
 10
78.44861380417257
 20
-145.9073730103982
 30
0.0
 10
79.99287785543581
 20
-145.9073730103982
 30
0.0
 10
79.99287785543581
 20
-145.9073730103982
 30
0.0
 10
79.99287785543581
 20
-145.9073730103982
 30
0.0
 10
79.99287785543581
 20
-146.1316487264879
 30
0.0
 10
79.99287785543581
 20
-146.1316487264879
 30
0.0
  0
HATCH
  5
123
330
11E
100
AcDbEntity
  8
_U+30EC_U+30A4_U+30E4_U+30FC 1
 62
   179
420
  2234388
100
AcDbHatch
 10
0.0
 20
0.0
 30
0.0
210
0.0
220
0.0
230
1.0
  2
SOLID
 70
     1
 71
     0
 91
        1
 92
        1
 93
        1
 72
     4
 94
        3
 73
     0
 74
     1
 95
       26
 96
       22
 40
0.0
 40
0.0
 40
0.0
 40
0.0
 40
1.0
 40
1.0
 40
1.0
 40
2.0
 40
2.0
 40
2.0
 40
3.0
 40
3.0
 40
3.0
 40
4.0
 40
4.0
 40
4.0
 40
5.0
 40
5.0
 40
5.0
 40
6.0
 40
6.0
 40
6.0
 40
7.0
 40
7.0
 40
7.0
 40
7.0
 10
79.99287785543581
 20
-146.1316487264879
 10
79.99287785543581
 20
-146.1316487264879
 10
78.88855249763898
 20
-146.1316487264879
 10
78.88855249763898
 20
-146.1316487264879
 10
78.88855249763898
 20
-146.1316487264879
 10
78.88855249763898
 20
-146.4616888739749
 10
78.88855249763898
 20
-146.4616888739749
 10
78.88855249763898
 20
-146.4616888739749
 10
78.7405856465475
 20
-146.4616888739749
 10
78.7405856465475
 20
-146.4616888739749
 10
78.72577173596092
 20
-146.1295816691968
 10
78.5628187195086
 20
-146.0830728801459
 10
78.44861380417257
 20
-146.0534450589728
 10
78.44861380417257
 20
-146.0534450589728
 10
78.44861380417257
 20
-145.9073730103982
 10
78.44861380417257
 20
-145.9073730103982
 10
78.44861380417257
 20
-145.9073730103982
 10
79.99287785543581
 20
-145.9073730103982
 10
79.99287785543581
 20
-145.9073730103982
 10
79.99287785543581
 20
-145.9073730103982
 10
79.99287785543581
 20
-146.1316487264879
 10
79.99287785543581
 20
-146.1316487264879
 97
        0
 97
        0
 75
     2
 76
     1
 98
        0
  0
SPLINE
  5
124
330
11E
100
AcDbEntity
  8
_U+30EC_U+30A4_U+30E4_U+30FC 1
370
     0
100
AcDbSpline
210
0.0
220
0.0
230
1.0
 70
    11
 71
     3
 72
    53
 73
    49
 74
     0
 42
0.0000000001
 43
0.0000000001
 12
1.0
 22
0.0
 32
0.0
 13
1.0
 23
0.0
 33
0.0
 40
0.0
 40
0.0
 40
0.0
 40
0.0
 40
1.0
 40
1.0
 40
1.0
 40
2.0
 40
2.0
 40
2.0
 40
3.0
 40
3.0
 40
3.0
 40
4.0
 40
4.0
 40
4.0
 40
5.0
 40
5.0
 40
5.0
 40
6.0
 40
6.0
 40
6.0
 40
7.0
 40
7.0
 40
7.0
 40
8.0
 40
8.0
 40
8.0
 40
9.0
 40
9.0
 40
9.0
 40
10.0
 40
10.0
 40
10.0
 40
11.0
 40
11.0
 40
11.0
 40
12.0
 40
12.0
 40
12.0
 40
13.0
 40
13.0
 40
13.0
 40
14.0
 40
14.0
 40
14.0
 40
15.0
 40
15.0
 40
15.0
 40
16.0
 40
16.0
 40
16.0
 40
16.0
 10
80.04369301384325
 20
-144.9251762875534
 30
0.0
 10
80.04369301384325
 20
-145.0033799550686
 30
0.0
 10
80.02663979119126
 20
-145.1050102718835
 30
0.0
 10
79.96325003426266
 20
-145.2066405886983
 30
0.0
 10
79.85317923350892
 20
-145.3802734011549
 30
0.0
 10
79.72209335029517
 20
-145.401288483615
 30
0.0
 10
79.61426186160685
 20
-145.4202365087838
 30
0.0
 10
79.61426186160685
 20
-145.4202365087838
 30
0.0
 10
79.61426186160685
 20
-145.1983723595337
 30
0.0
 10
79.61426186160685
 20
-145.1983723595337
 30
0.0
 10
79.81304387110578
 20
-145.1432508317698
 30
0.0
 10
79.84267169227891
 20
-145.016126808364
 30
0.0
 10
79.84267169227891
 20
-144.9231092302623
 30
0.0
 10
79.84267169227891
 20
-144.7835828631097
 30
0.0
 10
79.74328068752946
 20
-144.6313096426616
 30
0.0
 10
79.51056448750083
 20
-144.6313096426616
 30
0.0
 10
79.25459389294677
 20
-144.6313096426616
 30
0.0
 10
79.18483070937046
 20
-144.8111436269917
 30
0.0
 10
79.18483070937046
 20
-144.9317219689754
 30
0.0
 10
79.18483070937046
 20
-144.9634168474397
 30
0.0
 10
79.18483070937046
 20
-145.1050102718835
 30
0.0
 10
79.31384953529307
 20
-145.1938937354029
 30
0.0
 10
79.31384953529307
 20
-145.1938937354029
 30
0.0
 10
79.29472925534994
 20
-145.3692490956021
 30
0.0
 10
79.29472925534994
 20
-145.3692490956021
 30
0.0
 10
79.29472925534994
 20
-145.3692490956021
 30
0.0
 10
78.44861380417257
 20
-145.2486707536184
 30
0.0
 10
78.44861380417257
 20
-145.2486707536184
 30
0.0
 10
78.44861380417257
 20
-145.2486707536184
 30
0.0
 10
78.44861380417257
 20
-144.4704236835005
 30
0.0
 10
78.44861380417257
 20
-144.4704236835005
 30
0.0
 10
78.44861380417257
 20
-144.4704236835005
 30
0.0
 10
78.6432616990892
 20
-144.4704236835005
 30
0.0
 10
78.6432616990892
 20
-144.4704236835005
 30
0.0
 10
78.6432616990892
 20
-144.4704236835005
 30
0.0
 10
78.6432616990892
 20
-145.0860622467146
 30
0.0
 10
78.6432616990892
 20
-145.0860622467146
 30
0.0
 10
78.6432616990892
 20
-145.0860622467146
 30
0.0
 10
79.06631942467787
 20
-145.1515190609344
 30
0.0
 10
79.06631942467787
 20
-145.1515190609344
 30
0.0
 10
79.03238523414815
 20
-145.0901963612969
 30
0.0
 10
78.992249871745
 20
-145.0075140696509
 30
0.0
 10
78.992249871745
 20
-144.8893472945068
 30
0.0
 10
78.992249871745
 20
-144.6354437572439
 30
0.0
 10
79.17845728272275
 20
-144.3984211878587
 30
0.0
 10
79.49144420755769
 20
-144.3984211878587
 30
0.0
 10
79.80890975652348
 20
-144.3984211878587
 30
0.0
 10
80.04369301384325
 20
-144.6226969039485
 30
0.0
 10
80.04369301384325
 20
-144.9251762875534
 30
0.0
  0
HATCH
  5
125
330
11E
100
AcDbEntity
  8
_U+30EC_U+30A4_U+30E4_U+30FC 1
 62
   179
420
  2234388
100
AcDbHatch
 10
0.0
 20
0.0
 30
0.0
210
0.0
220
0.0
230
1.0
  2
SOLID
 70
     1
 71
     0
 91
        1
 92
        1
 93
        1
 72
     4
 94
        3
 73
     0
 74
     1
 95
       53
 96
       49
 40
0.0
 40
0.0
 40
0.0
 40
0.0
 40
1.0
 40
1.0
 40
1.0
 40
2.0
 40
2.0
 40
2.0
 40
3.0
 40
3.0
 40
3.0
 40
4.0
 40
4.0
 40
4.0
 40
5.0
 40
5.0
 40
5.0
 40
6.0
 40
6.0
 40
6.0
 40
7.0
 40
7.0
 40
7.0
 40
8.0
 40
8.0
 40
8.0
 40
9.0
 40
9.0
 40
9.0
 40
10.0
 40
10.0
 40
10.0
 40
11.0
 40
11.0
 40
11.0
 40
12.0
 40
12.0
 40
12.0
 40
13.0
 40
13.0
 40
13.0
 40
14.0
 40
14.0
 40
14.0
 40
15.0
 40
15.0
 40
15.0
 40
16.0
 40
16.0
 40
16.0
 40
16.0
 10
80.04369301384325
 20
-144.9251762875534
 10
80.04369301384325
 20
-145.0033799550686
 10
80.02663979119126
 20
-145.1050102718835
 10
79.96325003426266
 20
-145.2066405886983
 10
79.85317923350892
 20
-145.3802734011549
 10
79.72209335029517
 20
-145.401288483615
 10
79.61426186160685
 20
-145.4202365087838
 10
79.61426186160685
 20
-145.4202365087838
 10
79.61426186160685
 20
-145.1983723595337
 10
79.61426186160685
 20
-145.1983723595337
 10
79.81304387110578
 20
-145.1432508317698
 10
79.84267169227891
 20
-145.016126808364
 10
79.84267169227891
 20
-144.9231092302623
 10
79.84267169227891
 20
-144.7835828631097
 10
79.74328068752946
 20
-144.6313096426616
 10
79.51056448750083
 20
-144.6313096426616
 10
79.25459389294677
 20
-144.6313096426616
 10
79.18483070937046
 20
-144.8111436269917
 10
79.18483070937046
 20
-144.9317219689754
 10
79.18483070937046
 20
-144.9634168474397
 10
79.18483070937046
 20
-145.1050102718835
 10
79.31384953529307
 20
-145.1938937354029
 10
79.31384953529307
 20
-145.1938937354029
 10
79.29472925534994
 20
-145.3692490956021
 10
79.29472925534994
 20
-145.3692490956021
 10
79.29472925534994
 20
-145.3692490956021
 10
78.44861380417257
 20
-145.2486707536184
 10
78.44861380417257
 20
-145.2486707536184
 10
78.44861380417257
 20
-145.2486707536184
 10
78.44861380417257
 20
-144.4704236835005
 10
78.44861380417257
 20
-144.4704236835005
 10
78.44861380417257
 20
-144.4704236835005
 10
78.6432616990892
 20
-144.4704236835005
 10
78.6432616990892
 20
-144.4704236835005
 10
78.6432616990892
 20
-144.4704236835005
 10
78.6432616990892
 20
-145.0860622467146
 10
78.6432616990892
 20
-145.0860622467146
 10
78.6432616990892
 20
-145.0860622467146
 10
79.06631942467787
 20
-145.1515190609344
 10
79.06631942467787
 20
-145.1515190609344
 10
79.03238523414815
 20
-145.0901963612969
 10
78.992249871745
 20
-145.0075140696509
 10
78.992249871745
 20
-144.8893472945068
 10
78.992249871745
 20
-144.6354437572439
 10
79.17845728272275
 20
-144.3984211878587
 10
79.49144420755769
 20
-144.3984211878587
 10
79.80890975652348
 20
-144.3984211878587
 10
80.04369301384325
 20
-144.6226969039485
 10
80.04369301384325
 20
-144.9251762875534
 97
        0
 97
        0
 75
     2
 76
     1
 98
        0
  0
ENDBLK
  5
121
330
11E
100
AcDbEntity
  8
0
100
AcDbBlockEnd
  0
ENDSEC
  0
SECTION
  2
ENTITIES
  0
POLYLINE
  5
41
330
1F
100
AcDbEntity
  8
_U+30EC_U+30A4_U+30E4_U+30FC 1
 62
   179
420
  2234388
370
    25
100
AcDb2dPolyline
 66
     1
 10
0.0
 20
0.0
 30
0.0
  0
VERTEX
  5
42
330
41
100
AcDbEntity
  8
_U+30EC_U+30A4_U+30E4_U+30FC 1
 62
   179
420
  2234388
370
    25
100
AcDbVertex
100
AcDb2dVertex
 10
83.2381614875287
 20
-152.8623152395621
 30
0.0
  0
VERTEX
  5
43
330
41
100
AcDbEntity
  8
_U+30EC_U+30A4_U+30E4_U+30FC 1
 62
   179
420
  2234388
370
    25
100
AcDbVertex
100
AcDb2dVertex
 10
98.23827221595509
 20
-152.8623152395621
 30
0.0
  0
SEQEND
  5
44
330
41
100
AcDbEntity
  8
_U+30EC_U+30A4_U+30E4_U+30FC 1
 62
   179
420
  2234388
370
    25
  0
POLYLINE
  5
45
330
1F
100
AcDbEntity
  8
_U+30EC_U+30A4_U+30E4_U+30FC 1
 62
   179
420
  2234388
370
    25
100
AcDb2dPolyline
 66
     1
 10
0.0
 20
0.0
 30
0.0
  0
VERTEX
  5
46
330
45
100
AcDbEntity
  8
_U+30EC_U+30A4_U+30E4_U+30FC 1
 62
   179
420
  2234388
370
    25
100
AcDbVertex
100
AcDb2dVertex
 10
91.73805960401157
 20
-99.36257747515927
 30
0.0
  0
VERTEX
  5
47
330
45
100
AcDbEntity
  8
_U+30EC_U+30A4_U+30E4_U+30FC 1
 62
   179
420
  2234388
370
    25
100
AcDbVertex
100
AcDb2dVertex
 10
92.73853735626503
 20
-99.36257747515927
 30
0.0
  0
SEQEND
  5
48
330
45
100
AcDbEntity
  8
_U+30EC_U+30A4_U+30E4_U+30FC 1
 62
   179
420
  2234388
370
    25
  0
POLYLINE
  5
49
330
1F
100
AcDbEntity
  8
_U+30EC_U+30A4_U+30E4_U+30FC 1
 62
   179
420
  2234388
370
    25
100
AcDb2dPolyline
 66
     1
 10
0.0
 20
0.0
 30
0.0
  0
VERTEX
  5
4A
330
49
100
AcDbEntity
  8
_U+30EC_U+30A4_U+30E4_U+30FC 1
 62
   179
420
  2234388
370
    25
100
AcDbVertex
100
AcDb2dVertex
 10
83.2381614875287
 20
-137.8623805210897
 30
0.0
  0
VERTEX
  5
4B
330
49
100
AcDbEntity
  8
_U+30EC_U+30A4_U+30E4_U+30FC 1
 62
   179
420
  2234388
370
    25
100
AcDbVertex
100
AcDb2dVertex
 10
83.2381614875287
 20
-152.8623152395621
 30
0.0
  0
SEQEND
  5
4C
330
49
100
AcDbEntity
  8
_U+30EC_U+30A4_U+30E4_U+30FC 1
 62
   179
420
  2234388
370
    25
  0
POLYLINE
  5
4D
330
1F
100
AcDbEntity
  8
_U+30EC_U+30A4_U+30E4_U+30FC 1
 62
   179
420
  2234388
370
    25
100
AcDb2dPolyline
 66
     1
 10
0.0
 20
0.0
 30
0.0
  0
VERTEX
  5
4E
330
4D
100
AcDbEntity
  8
_U+30EC_U+30A4_U+30E4_U+30FC 1
 62
   179
420
  2234388
370
    25
100
AcDbVertex
100
AcDb2dVertex
 10
98.23827221595509
 20
-149.8623282958677
 30
0.0
  0
VERTEX
  5
4F
330
4D
100
AcDbEntity
  8
_U+30EC_U+30A4_U+30E4_U+30FC 1
 62
   179
420
  2234388
370
    25
100
AcDbVertex
100
AcDb2dVertex
 10
98.23827221595509
 20
-152.8623152395621
 30
0.0
  0
SEQEND
  5
50
330
4D
100
AcDbEntity
  8
_U+30EC_U+30A4_U+30E4_U+30FC 1
 62
   179
420
  2234388
370
    25
  0
POLYLINE
  5
51
330
1F
100
AcDbEntity
  8
_U+30EC_U+30A4_U+30E4_U+30FC 1
 62
   179
420
  2234388
370
    25
100
AcDb2dPolyline
 66
     1
 10
0.0
 20
0.0
 30
0.0
  0
VERTEX
  5
52
330
51
100
AcDbEntity
  8
_U+30EC_U+30A4_U+30E4_U+30FC 1
 62
   179
420
  2234388
370
    25
100
AcDbVertex
100
AcDb2dVertex
 10
97.2378297414785
 20
-150.8628060733951
 30
0.0
  0
VERTEX
  5
53
330
51
100
AcDbEntity
  8
_U+30EC_U+30A4_U+30E4_U+30FC 1
 62
   179
420
  2234388
370
    25
100
AcDbVertex
100
AcDb2dVertex
 10
97.2378297414785
 20
-151.8625782953677
 30
0.0
  0
SEQEND
  5
54
330
51
100
AcDbEntity
  8
_U+30EC_U+30A4_U+30E4_U+30FC 1
 62
   179
420
  2234388
370
    25
  0
POLYLINE
  5
55
330
1F
100
AcDbEntity
  8
_U+30EC_U+30A4_U+30E4_U+30FC 1
 62
   179
420
  2234388
370
    25
100
AcDb2dPolyline
 66
     1
 10
0.0
 20
0.0
 30
0.0
  0
VERTEX
  5
56
330
55
100
AcDbEntity
  8
_U+30EC_U+30A4_U+30E4_U+30FC 1
 62
   179
420
  2234388
370
    25
100
AcDbVertex
100
AcDb2dVertex
 10
95.2382853480467
 20
-149.8623282958677
 30
0.0
  0
VERTEX
  5
57
330
55
100
AcDbEntity
  8
_U+30EC_U+30A4_U+30E4_U+30FC 1
 62
   179
420
  2234388
370
    25
100
AcDbVertex
100
AcDb2dVertex
 10
98.23827221595509
 20
-149.8623282958677
 30
0.0
  0
SEQEND
  5
58
330
55
100
AcDbEntity
  8
_U+30EC_U+30A4_U+30E4_U+30FC 1
 62
   179
420
  2234388
370
    25
  0
POLYLINE
  5
59
330
1F
100
AcDbEntity
  8
_U+30EC_U+30A4_U+30E4_U+30FC 1
 62
   179
420
  2234388
370
    25
100
AcDb2dPolyline
 66
     1
 10
0.0
 20
0.0
 30
0.0
  0
VERTEX
  5
5A
330
59
100
AcDbEntity
  8
_U+30EC_U+30A4_U+30E4_U+30FC 1
 62
   179
420
  2234388
370
    25
100
AcDbVertex
100
AcDb2dVertex
 10
84.238110073129
 20
-151.8625782953677
 30
0.0
  0
VERTEX
  5
5B
330
59
100
AcDbEntity
  8
_U+30EC_U+30A4_U+30E4_U+30FC 1
 62
   179
420
  2234388
370
    25
100
AcDbVertex
100
AcDb2dVertex
 10
97.2378297414785
 20
-151.8625782953677
 30
0.0
  0
SEQEND
  5
5C
330
59
100
AcDbEntity
  8
_U+30EC_U+30A4_U+30E4_U+30FC 1
 62
   179
420
  2234388
370
    25
  0
POLYLINE
  5
5D
330
1F
100
AcDbEntity
  8
_U+30EC_U+30A4_U+30E4_U+30FC 1
 62
   179
420
  2234388
370
    25
100
AcDb2dPolyline
 66
     1
 10
0.0
 20
0.0
 30
0.0
  0
VERTEX
  5
5E
330
5D
100
AcDbEntity
  8
_U+30EC_U+30A4_U+30E4_U+30FC 1
 62
   179
420
  2234388
370
    25
100
AcDbVertex
100
AcDb2dVertex
 10
84.238110073129
 20
-144.3625932972427
 30
0.0
  0
VERTEX
  5
5F
330
5D
100
AcDbEntity
  8
_U+30EC_U+30A4_U+30E4_U+30FC 1
 62
   179
420
  2234388
370
    25
100
AcDbVertex
100
AcDb2dVertex
 10
84.238110073129
 20
-151.8625782953677
 30
0.0
  0
SEQEND
  5
60
330
5D
100
AcDbEntity
  8
_U+30EC_U+30A4_U+30E4_U+30FC 1
 62
   179
420
  2234388
370
    25
  0
POLYLINE
  5
61
330
1F
100
AcDbEntity
  8
_U+30EC_U+30A4_U+30E4_U+30FC 1
 62
   179
420
  2234388
370
    25
100
AcDb2dPolyline
 66
     1
 10
0.0
 20
0.0
 30
0.0
  0
VERTEX
  5
62
330
61
100
AcDbEntity
  8
_U+30EC_U+30A4_U+30E4_U+30FC 1
 62
   179
420
  2234388
370
    25
100
AcDbVertex
100
AcDb2dVertex
 10
84.238110073129
 20
-144.3625932972427
 30
0.0
  0
VERTEX
  5
63
330
61
100
AcDbEntity
  8
_U+30EC_U+30A4_U+30E4_U+30FC 1
 62
   179
420
  2234388
370
    25
100
AcDbVertex
100
AcDb2dVertex
 10
92.73853735626503
 20
-144.3625932972427
 30
0.0
  0
SEQEND
  5
64
330
61
100
AcDbEntity
  8
_U+30EC_U+30A4_U+30E4_U+30FC 1
 62
   179
420
  2234388
370
    25
  0
POLYLINE
  5
65
330
1F
100
AcDbEntity
  8
_U+30EC_U+30A4_U+30E4_U+30FC 1
 62
   179
420
  2234388
370
    25
100
AcDb2dPolyline
 66
     1
 10
0.0
 20
0.0
 30
0.0
  0
VERTEX
  5
66
330
65
100
AcDbEntity
  8
_U+30EC_U+30A4_U+30E4_U+30FC 1
 62
   179
420
  2234388
370
    25
100
AcDbVertex
100
AcDb2dVertex
 10
86.2381483554371
 20
-137.8623805210897
 30
0.0
  0
VERTEX
  5
67
330
65
100
AcDbEntity
  8
_U+30EC_U+30A4_U+30E4_U+30FC 1
 62
   179
420
  2234388
370
    25
100
AcDbVertex
100
AcDb2dVertex
 10
86.2381483554371
 20
-138.8628582986178
 30
0.0
  0
SEQEND
  5
68
330
65
100
AcDbEntity
  8
_U+30EC_U+30A4_U+30E4_U+30FC 1
 62
   179
420
  2234388
370
    25
  0
POLYLINE
  5
69
330
1F
100
AcDbEntity
  8
_U+30EC_U+30A4_U+30E4_U+30FC 1
 62
   179
420
  2234388
370
    25
100
AcDb2dPolyline
 66
     1
 10
0.0
 20
0.0
 30
0.0
  0
VERTEX
  5
6A
330
69
100
AcDbEntity
  8
_U+30EC_U+30A4_U+30E4_U+30FC 1
 62
   179
420
  2234388
370
    25
100
AcDbVertex
100
AcDb2dVertex
 10
83.2381614875287
 20
-137.8623805210897
 30
0.0
  0
VERTEX
  5
6B
330
69
100
AcDbEntity
  8
_U+30EC_U+30A4_U+30E4_U+30FC 1
 62
   179
420
  2234388
370
    25
100
AcDbVertex
100
AcDb2dVertex
 10
86.2381483554371
 20
-137.8623805210897
 30
0.0
  0
SEQEND
  5
6C
330
69
100
AcDbEntity
  8
_U+30EC_U+30A4_U+30E4_U+30FC 1
 62
   179
420
  2234388
370
    25
  0
POLYLINE
  5
6D
330
1F
100
AcDbEntity
  8
_U+30EC_U+30A4_U+30E4_U+30FC 1
 62
   179
420
  2234388
370
    25
100
AcDb2dPolyline
 66
     1
 10
0.0
 20
0.0
 30
0.0
  0
VERTEX
  5
6E
330
6D
100
AcDbEntity
  8
_U+30EC_U+30A4_U+30E4_U+30FC 1
 62
   179
420
  2234388
370
    25
100
AcDbVertex
100
AcDb2dVertex
 10
84.238110073129
 20
-138.8628582986178
 30
0.0
  0
VERTEX
  5
6F
330
6D
100
AcDbEntity
  8
_U+30EC_U+30A4_U+30E4_U+30FC 1
 62
   179
420
  2234388
370
    25
100
AcDbVertex
100
AcDb2dVertex
 10
86.2381483554371
 20
-138.8628582986178
 30
0.0
  0
SEQEND
  5
70
330
6D
100
AcDbEntity
  8
_U+30EC_U+30A4_U+30E4_U+30FC 1
 62
   179
420
  2234388
370
    25
  0
POLYLINE
  5
71
330
1F
100
AcDbEntity
  8
_U+30EC_U+30A4_U+30E4_U+30FC 1
 62
   179
420
  2234388
370
    25
100
AcDb2dPolyline
 66
     1
 10
0.0
 20
0.0
 30
0.0
  0
VERTEX
  5
72
330
71
100
AcDbEntity
  8
_U+30EC_U+30A4_U+30E4_U+30FC 1
 62
   179
420
  2234388
370
    25
100
AcDbVertex
100
AcDb2dVertex
 10
84.238110073129
 20
-143.3621507974928
 30
0.0
  0
VERTEX
  5
73
330
71
100
AcDbEntity
  8
_U+30EC_U+30A4_U+30E4_U+30FC 1
 62
   179
420
  2234388
370
    25
100
AcDbVertex
100
AcDb2dVertex
 10
91.73326182635618
 20
-143.3621507974928
 30
0.0
  0
SEQEND
  5
74
330
71
100
AcDbEntity
  8
_U+30EC_U+30A4_U+30E4_U+30FC 1
 62
   179
420
  2234388
370
    25
  0
POLYLINE
  5
75
330
1F
100
AcDbEntity
  8
_U+30EC_U+30A4_U+30E4_U+30FC 1
 62
   179
420
  2234388
370
    25
100
AcDb2dPolyline
 66
     1
 10
0.0
 20
0.0
 30
0.0
  0
VERTEX
  5
76
330
75
100
AcDbEntity
  8
_U+30EC_U+30A4_U+30E4_U+30FC 1
 62
   179
420
  2234388
370
    25
100
AcDbVertex
100
AcDb2dVertex
 10
91.73805960401157
 20
-99.36257747515927
 30
0.0
  0
VERTEX
  5
77
330
75
100
AcDbEntity
  8
_U+30EC_U+30A4_U+30E4_U+30FC 1
 62
   179
420
  2234388
370
    25
100
AcDbVertex
100
AcDb2dVertex
 10
91.73805960401157
 20
-143.3545660752723
 30
0.0
  0
SEQEND
  5
78
330
75
100
AcDbEntity
  8
_U+30EC_U+30A4_U+30E4_U+30FC 1
 62
   179
420
  2234388
370
    25
  0
POLYLINE
  5
79
330
1F
100
AcDbEntity
  8
_U+30EC_U+30A4_U+30E4_U+30FC 1
 62
   179
420
  2234388
370
    25
100
AcDb2dPolyline
 66
     1
 10
0.0
 20
0.0
 30
0.0
  0
VERTEX
  5
7A
330
79
100
AcDbEntity
  8
_U+30EC_U+30A4_U+30E4_U+30FC 1
 62
   179
420
  2234388
370
    25
100
AcDbVertex
100
AcDb2dVertex
 10
92.73853735626503
 20
-99.36257747515927
 30
0.0
  0
VERTEX
  5
7B
330
79
100
AcDbEntity
  8
_U+30EC_U+30A4_U+30E4_U+30FC 1
 62
   179
420
  2234388
370
    25
100
AcDbVertex
100
AcDb2dVertex
 10
92.73853735626503
 20
-144.3625932972427
 30
0.0
  0
SEQEND
  5
7C
330
79
100
AcDbEntity
  8
_U+30EC_U+30A4_U+30E4_U+30FC 1
 62
   179
420
  2234388
370
    25
  0
POLYLINE
  5
7D
330
1F
100
AcDbEntity
  8
_U+30EC_U+30A4_U+30E4_U+30FC 1
 62
   179
420
  2234388
370
    25
100
AcDb2dPolyline
 66
     1
 10
0.0
 20
0.0
 30
0.0
  0
VERTEX
  5
7E
330
7D
100
AcDbEntity
  8
_U+30EC_U+30A4_U+30E4_U+30FC 1
 62
   179
420
  2234388
370
    25
100
AcDbVertex
100
AcDb2dVertex
 10
84.238110073129
 20
-138.8628582986178
 30
0.0
  0
VERTEX
  5
7F
330
7D
100
AcDbEntity
  8
_U+30EC_U+30A4_U+30E4_U+30FC 1
 62
   179
420
  2234388
370
    25
100
AcDbVertex
100
AcDb2dVertex
 10
84.238110073129
 20
-143.3621507974928
 30
0.0
  0
SEQEND
  5
80
330
7D
100
AcDbEntity
  8
_U+30EC_U+30A4_U+30E4_U+30FC 1
 62
   179
420
  2234388
370
    25
  0
POLYLINE
  5
81
330
1F
100
AcDbEntity
  8
_U+30EC_U+30A4_U+30E4_U+30FC 1
 62
   179
420
  2234388
370
    25
100
AcDb2dPolyline
 66
     1
 10
0.0
 20
0.0
 30
0.0
  0
VERTEX
  5
82
330
81
100
AcDbEntity
  8
_U+30EC_U+30A4_U+30E4_U+30FC 1
 62
   179
420
  2234388
370
    25
100
AcDbVertex
100
AcDb2dVertex
 10
95.2382853480467
 20
-149.8623282958677
 30
0.0
  0
VERTEX
  5
83
330
81
100
AcDbEntity
  8
_U+30EC_U+30A4_U+30E4_U+30FC 1
 62
   179
420
  2234388
370
    25
100
AcDbVertex
100
AcDb2dVertex
 10
95.2382853480467
 20
-150.8628060733951
 30
0.0
  0
SEQEND
  5
84
330
81
100
AcDbEntity
  8
_U+30EC_U+30A4_U+30E4_U+30FC 1
 62
   179
420
  2234388
370
    25
  0
POLYLINE
  5
85
330
1F
100
AcDbEntity
  8
_U+30EC_U+30A4_U+30E4_U+30FC 1
 62
   179
420
  2234388
370
    25
100
AcDb2dPolyline
 66
     1
 10
0.0
 20
0.0
 30
0.0
  0
VERTEX
  5
86
330
85
100
AcDbEntity
  8
_U+30EC_U+30A4_U+30E4_U+30FC 1
 62
   179
420
  2234388
370
    25
100
AcDbVertex
100
AcDb2dVertex
 10
95.2382853480467
 20
-150.8628060733951
 30
0.0
  0
VERTEX
  5
87
330
85
100
AcDbEntity
  8
_U+30EC_U+30A4_U+30E4_U+30FC 1
 62
   179
420
  2234388
370
    25
100
AcDbVertex
100
AcDb2dVertex
 10
97.2378297414785
 20
-150.8628060733951
 30
0.0
  0
SEQEND
  5
88
330
85
100
AcDbEntity
  8
_U+30EC_U+30A4_U+30E4_U+30FC 1
 62
   179
420
  2234388
370
    25
  0
SPLINE
  5
89
330
1F
100
AcDbEntity
  8
_U+30EC_U+30A4_U+30E4_U+30FC 1
 62
   179
420
  2234388
370
     9
100
AcDbSpline
210
0.0
220
0.0
230
1.0
 70
    11
 71
     3
 72
    17
 73
    13
 74
     0
 42
0.0000000001
 43
0.0000000001
 12
1.0
 22
0.0
 32
0.0
 13
1.0
 23
0.0
 33
0.0
 40
0.0
 40
0.0
 40
0.0
 40
0.0
 40
1.0
 40
1.0
 40
1.0
 40
2.0
 40
2.0
 40
2.0
 40
3.0
 40
3.0
 40
3.0
 40
4.0
 40
4.0
 40
4.0
 40
4.0
 10
100.9123629810667
 20
-152.8623152395621
 30
0.0
 10
100.9123629810667
 20
-152.9174544062151
 30
0.0
 10
100.9571304799246
 20
-152.9622571839818
 30
0.0
 10
101.0122721969694
 20
-152.9622571839818
 30
0.0
 10
101.0673735326676
 20
-152.9622571839818
 30
0.0
 10
101.1121763093024
 20
-152.9174544062151
 30
0.0
 10
101.1121763093024
 20
-152.8623152395621
 30
0.0
 10
101.1121763093024
 20
-152.8072113506871
 30
0.0
 10
101.0673735326676
 20
-152.7624085729204
 30
0.0
 10
101.0122721969694
 20
-152.7624085729204
 30
0.0
 10
100.9571304799246
 20
-152.7624085729204
 30
0.0
 10
100.9123629810667
 20
-152.8072113506871
 30
0.0
 10
100.9123629810667
 20
-152.8623152395621
 30
0.0
  0
POLYLINE
  5
8A
330
1F
100
AcDbEntity
  8
_U+30EC_U+30A4_U+30E4_U+30FC 1
 62
   179
420
  2234388
370
     9
100
AcDb2dPolyline
 66
     1
 10
0.0
 20
0.0
 30
0.0
  0
VERTEX
  5
8B
330
8A
100
AcDbEntity
  8
_U+30EC_U+30A4_U+30E4_U+30FC 1
 62
   179
420
  2234388
370
     9
100
AcDbVertex
100
AcDb2dVertex
 10
101.0122721969694
 20
-99.36603469738057
 30
0.0
  0
VERTEX
  5
8C
330
8A
100
AcDbEntity
  8
_U+30EC_U+30A4_U+30E4_U+30FC 1
 62
   179
420
  2234388
370
     9
100
AcDbVertex
100
AcDb2dVertex
 10
101.0122721969694
 20
-152.8623152395621
 30
0.0
  0
SEQEND
  5
8D
330
8A
100
AcDbEntity
  8
_U+30EC_U+30A4_U+30E4_U+30FC 1
 62
   179
420
  2234388
370
     9
  0
POLYLINE
  5
8E
330
1F
100
AcDbEntity
  8
_U+30EC_U+30A4_U+30E4_U+30FC 1
 62
   179
420
  2234388
370
     9
100
AcDb2dPolyline
 66
     1
 10
0.0
 20
0.0
 30
0.0
  0
VERTEX
  5
8F
330
8E
100
AcDbEntity
  8
_U+30EC_U+30A4_U+30E4_U+30FC 1
 62
   179
420
  2234388
370
     9
100
AcDbVertex
100
AcDb2dVertex
 10
99.38825718661654
 20
-152.8623152395621
 30
0.0
  0
VERTEX
  5
90
330
8E
100
AcDbEntity
  8
_U+30EC_U+30A4_U+30E4_U+30FC 1
 62
   179
420
  2234388
370
     9
100
AcDbVertex
100
AcDb2dVertex
 10
102.0120444189413
 20
-152.8623152395621
 30
0.0
  0
SEQEND
  5
91
330
8E
100
AcDbEntity
  8
_U+30EC_U+30A4_U+30E4_U+30FC 1
 62
   179
420
  2234388
370
     9
  0
SPLINE
  5
92
330
1F
100
AcDbEntity
  8
_U+30EC_U+30A4_U+30E4_U+30FC 1
 62
   179
420
  2234388
370
     9
100
AcDbSpline
210
0.0
220
0.0
230
1.0
 70
    11
 71
     3
 72
    17
 73
    13
 74
     0
 42
0.0000000001
 43
0.0000000001
 12
1.0
 22
0.0
 32
0.0
 13
1.0
 23
0.0
 33
0.0
 40
0.0
 40
0.0
 40
0.0
 40
0.0
 40
1.0
 40
1.0
 40
1.0
 40
2.0
 40
2.0
 40
2.0
 40
3.0
 40
3.0
 40
3.0
 40
4.0
 40
4.0
 40
4.0
 40
4.0
 10
100.9123629810667
 20
-149.8623282958677
 30
0.0
 10
100.9123629810667
 20
-149.9174674625208
 30
0.0
 10
100.9571304799246
 20
-149.9622349625094
 30
0.0
 10
101.0122721969694
 20
-149.9622349625094
 30
0.0
 10
101.0673735326676
 20
-149.9622349625094
 30
0.0
 10
101.1121763093024
 20
-149.9174674625208
 30
0.0
 10
101.1121763093024
 20
-149.8623282958677
 30
0.0
 10
101.1121763093024
 20
-149.8072244069928
 30
0.0
 10
101.0673735326676
 20
-149.7624216292261
 30
0.0
 10
101.0122721969694
 20
-149.7624216292261
 30
0.0
 10
100.9571304799246
 20
-149.7624216292261
 30
0.0
 10
100.9123629810667
 20
-149.8072244069928
 30
0.0
 10
100.9123629810667
 20
-149.8623282958677
 30
0.0
  0
POLYLINE
  5
93
330
1F
100
AcDbEntity
  8
_U+30EC_U+30A4_U+30E4_U+30FC 1
 62
   179
420
  2234388
370
     9
100
AcDb2dPolyline
 66
     1
 10
0.0
 20
0.0
 30
0.0
  0
VERTEX
  5
94
330
93
100
AcDbEntity
  8
_U+30EC_U+30A4_U+30E4_U+30FC 1
 62
   179
420
  2234388
370
     9
100
AcDbVertex
100
AcDb2dVertex
 10
99.38825718661654
 20
-149.8623282958677
 30
0.0
  0
VERTEX
  5
95
330
93
100
AcDbEntity
  8
_U+30EC_U+30A4_U+30E4_U+30FC 1
 62
   179
420
  2234388
370
     9
100
AcDbVertex
100
AcDb2dVertex
 10
102.0120444189413
 20
-149.8623282958677
 30
0.0
  0
SEQEND
  5
96
330
93
100
AcDbEntity
  8
_U+30EC_U+30A4_U+30E4_U+30FC 1
 62
   179
420
  2234388
370
     9
  0
SPLINE
  5
97
330
1F
100
AcDbEntity
  8
_U+30EC_U+30A4_U+30E4_U+30FC 1
 62
   179
420
  2234388
370
     9
100
AcDbSpline
210
0.0
220
0.0
230
1.0
 70
    11
 71
     3
 72
    17
 73
    13
 74
     0
 42
0.0000000001
 43
0.0000000001
 12
1.0
 22
0.0
 32
0.0
 13
1.0
 23
0.0
 33
0.0
 40
0.0
 40
0.0
 40
0.0
 40
0.0
 40
1.0
 40
1.0
 40
1.0
 40
2.0
 40
2.0
 40
2.0
 40
3.0
 40
3.0
 40
3.0
 40
4.0
 40
4.0
 40
4.0
 40
4.0
 10
100.9123629810667
 20
-144.3625932972427
 30
0.0
 10
100.9123629810667
 20
-144.4176971861177
 30
0.0
 10
100.9571304799246
 20
-144.4624999638844
 30
0.0
 10
101.0122721969694
 20
-144.4624999638844
 30
0.0
 10
101.0673735326676
 20
-144.4624999638844
 30
0.0
 10
101.1121763093024
 20
-144.4176971861177
 30
0.0
 10
101.1121763093024
 20
-144.3625932972427
 30
0.0
 10
101.1121763093024
 20
-144.3074541305897
 30
0.0
 10
101.0673735326676
 20
-144.2626866306011
 30
0.0
 10
101.0122721969694
 20
-144.2626866306011
 30
0.0
 10
100.9571304799246
 20
-144.2626866306011
 30
0.0
 10
100.9123629810667
 20
-144.3074541305897
 30
0.0
 10
100.9123629810667
 20
-144.3625932972427
 30
0.0
  0
POLYLINE
  5
98
330
1F
100
AcDbEntity
  8
_U+30EC_U+30A4_U+30E4_U+30FC 1
 62
   179
420
  2234388
370
     9
100
AcDb2dPolyline
 66
     1
 10
0.0
 20
0.0
 30
0.0
  0
VERTEX
  5
99
330
98
100
AcDbEntity
  8
_U+30EC_U+30A4_U+30E4_U+30FC 1
 62
   179
420
  2234388
370
     9
100
AcDbVertex
100
AcDb2dVertex
 10
99.38825718661654
 20
-144.3625932972427
 30
0.0
  0
VERTEX
  5
9A
330
98
100
AcDbEntity
  8
_U+30EC_U+30A4_U+30E4_U+30FC 1
 62
   179
420
  2234388
370
     9
100
AcDbVertex
100
AcDb2dVertex
 10
102.0120444189413
 20
-144.3625932972427
 30
0.0
  0
SEQEND
  5
9B
330
98
100
AcDbEntity
  8
_U+30EC_U+30A4_U+30E4_U+30FC 1
 62
   179
420
  2234388
370
     9
  0
SPLINE
  5
9C
330
1F
100
AcDbEntity
  8
_U+30EC_U+30A4_U+30E4_U+30FC 1
 62
   179
420
  2234388
370
     9
100
AcDbSpline
210
0.0
220
0.0
230
1.0
 70
    11
 71
     3
 72
    17
 73
    13
 74
     0
 42
0.0000000001
 43
0.0000000001
 12
1.0
 22
0.0
 32
0.0
 13
1.0
 23
0.0
 33
0.0
 40
0.0
 40
0.0
 40
0.0
 40
0.0
 40
1.0
 40
1.0
 40
1.0
 40
2.0
 40
2.0
 40
2.0
 40
3.0
 40
3.0
 40
3.0
 40
4.0
 40
4.0
 40
4.0
 40
4.0
 10
100.9123629810667
 20
-99.3624010862704
 30
0.0
 10
100.9123629810667
 20
-99.41754025292347
 30
0.0
 10
100.9571304799246
 20
-99.46230775291235
 30
0.0
 10
101.0122721969694
 20
-99.46230775291235
 30
0.0
 10
101.0673735326676
 20
-99.46230775291235
 30
0.0
 10
101.1121763093024
 20
-99.41754025292347
 30
0.0
 10
101.1121763093024
 20
-99.3624010862704
 30
0.0
 10
101.1121763093024
 20
-99.30729719739547
 30
0.0
 10
101.0673735326676
 20
-99.26249441962875
 30
0.0
 10
101.0122721969694
 20
-99.26249441962875
 30
0.0
 10
100.9571304799246
 20
-99.26249441962875
 30
0.0
 10
100.9123629810667
 20
-99.30729719739547
 30
0.0
 10
100.9123629810667
 20
-99.3624010862704
 30
0.0
  0
POLYLINE
  5
9D
330
1F
100
AcDbEntity
  8
_U+30EC_U+30A4_U+30E4_U+30FC 1
 62
   179
420
  2234388
370
     9
100
AcDb2dPolyline
 66
     1
 10
0.0
 20
0.0
 30
0.0
  0
VERTEX
  5
9E
330
9D
100
AcDbEntity
  8
_U+30EC_U+30A4_U+30E4_U+30FC 1
 62
   179
420
  2234388
370
     9
100
AcDbVertex
100
AcDb2dVertex
 10
93.88848704914959
 20
-99.3624010862704
 30
0.0
  0
VERTEX
  5
9F
330
9D
100
AcDbEntity
  8
_U+30EC_U+30A4_U+30E4_U+30FC 1
 62
   179
420
  2234388
370
     9
100
AcDbVertex
100
AcDb2dVertex
 10
102.0120444189413
 20
-99.3624010862704
 30
0.0
  0
SEQEND
  5
A0
330
9D
100
AcDbEntity
  8
_U+30EC_U+30A4_U+30E4_U+30FC 1
 62
   179
420
  2234388
370
     9
  0
INSERT
  5
A2
330
1F
100
AcDbEntity
  8
_U+30EC_U+30A4_U+30E4_U+30FC 1
100
AcDbBlockReference
  2
block 2
 10
0.0
 20
0.0
 30
0.0
  0
INSERT
  5
B2
330
1F
100
AcDbEntity
  8
_U+30EC_U+30A4_U+30E4_U+30FC 1
100
AcDbBlockReference
  2
block 3
 10
0.0
 20
0.0
 30
0.0
  0
INSERT
  5
CD
330
1F
100
AcDbEntity
  8
_U+30EC_U+30A4_U+30E4_U+30FC 1
100
AcDbBlockReference
  2
block 4
 10
0.0
 20
0.0
 30
0.0
  0
POLYLINE
  5
D2
330
1F
100
AcDbEntity
  8
_U+30EC_U+30A4_U+30E4_U+30FC 1
 62
   179
420
  2234388
370
     9
100
AcDb2dPolyline
 66
     1
 10
0.0
 20
0.0
 30
0.0
  0
VERTEX
  5
D3
330
D2
100
AcDbEntity
  8
_U+30EC_U+30A4_U+30E4_U+30FC 1
 62
   179
420
  2234388
370
     9
100
AcDbVertex
100
AcDb2dVertex
 10
95.53733506263953
 20
-108.5080944173175
 30
0.0
  0
VERTEX
  5
D4
330
D2
100
AcDbEntity
  8
_U+30EC_U+30A4_U+30E4_U+30FC 1
 62
   179
420
  2234388
370
     9
100
AcDbVertex
100
AcDb2dVertex
 10
89.72976632191406
 20
-108.5080944173175
 30
0.0
  0
SEQEND
  5
D5
330
D2
100
AcDbEntity
  8
_U+30EC_U+30A4_U+30E4_U+30FC 1
 62
   179
420
  2234388
370
     9
  0
INSERT
  5
D7
330
1F
100
AcDbEntity
  8
_U+30EC_U+30A4_U+30E4_U+30FC 1
100
AcDbBlockReference
  2
block 5
 10
0.0
 20
0.0
 30
0.0
  0
POLYLINE
  5
DC
330
1F
100
AcDbEntity
  8
_U+30EC_U+30A4_U+30E4_U+30FC 1
 62
   179
420
  2234388
370
     9
100
AcDb2dPolyline
 66
     1
 10
0.0
 20
0.0
 30
0.0
  0
VERTEX
  5
DD
330
DC
100
AcDbEntity
  8
_U+30EC_U+30A4_U+30E4_U+30FC 1
 62
   179
420
  2234388
370
     9
100
AcDbVertex
100
AcDb2dVertex
 10
91.71946821559698
 20
-135.082209410674
 30
0.0
  0
VERTEX
  5
DE
330
DC
100
AcDbEntity
  8
_U+30EC_U+30A4_U+30E4_U+30FC 1
 62
   179
420
  2234388
370
     9
100
AcDbVertex
100
AcDb2dVertex
 10
83.21921942363961
 20
-135.082209410674
 30
0.0
  0
SEQEND
  5
DF
330
DC
100
AcDbEntity
  8
_U+30EC_U+30A4_U+30E4_U+30FC 1
 62
   179
420
  2234388
370
     9
  0
SPLINE
  5
E0
330
1F
100
AcDbEntity
  8
_U+30EC_U+30A4_U+30E4_U+30FC 1
 62
   179
420
  2234388
370
     9
100
AcDbSpline
210
0.0
220
0.0
230
1.0
 70
    11
 71
     3
 72
    17
 73
    13
 74
     0
 42
0.0000000001
 43
0.0000000001
 12
1.0
 22
0.0
 32
0.0
 13
1.0
 23
0.0
 33
0.0
 40
0.0
 40
0.0
 40
0.0
 40
0.0
 40
1.0
 40
1.0
 40
1.0
 40
2.0
 40
2.0
 40
2.0
 40
3.0
 40
3.0
 40
3.0
 40
4.0
 40
4.0
 40
4.0
 40
4.0
 10
83.2381614875287
 20
-134.9823027440324
 30
0.0
 10
83.18302232226874
 20
-134.9823027440324
 30
0.0
 10
83.13825482341086
 20
-135.0270702440209
 30
0.0
 10
83.13825482341086
 20
-135.082209410674
 30
0.0
 10
83.13825482341086
 20
-135.1373132995489
 30
0.0
 10
83.18302232226874
 20
-135.1821160773156
 30
0.0
 10
83.2381614875287
 20
-135.1821160773156
 30
0.0
 10
83.29326537501177
 20
-135.1821160773156
 30
0.0
 10
83.33806815164652
 20
-135.1373132995489
 30
0.0
 10
83.33806815164652
 20
-135.082209410674
 30
0.0
 10
83.33806815164652
 20
-135.0270702440209
 30
0.0
 10
83.29326537501177
 20
-134.9823027440324
 30
0.0
 10
83.2381614875287
 20
-134.9823027440324
 30
0.0
  0
POLYLINE
  5
E1
330
1F
100
AcDbEntity
  8
_U+30EC_U+30A4_U+30E4_U+30FC 1
 62
   179
420
  2234388
370
     9
100
AcDb2dPolyline
 66
     1
 10
0.0
 20
0.0
 30
0.0
  0
VERTEX
  5
E2
330
E1
100
AcDbEntity
  8
_U+30EC_U+30A4_U+30E4_U+30FC 1
 62
   179
420
  2234388
370
     9
100
AcDbVertex
100
AcDb2dVertex
 10
83.2381614875287
 20
-133.6221680221503
 30
0.0
  0
VERTEX
  5
E3
330
E1
100
AcDbEntity
  8
_U+30EC_U+30A4_U+30E4_U+30FC 1
 62
   179
420
  2234388
370
     9
100
AcDbVertex
100
AcDb2dVertex
 10
83.2381614875287
 20
-136.3624046881316
 30
0.0
  0
SEQEND
  5
E4
330
E1
100
AcDbEntity
  8
_U+30EC_U+30A4_U+30E4_U+30FC 1
 62
   179
420
  2234388
370
     9
  0
SPLINE
  5
E5
330
1F
100
AcDbEntity
  8
_U+30EC_U+30A4_U+30E4_U+30FC 1
 62
   179
420
  2234388
370
     9
100
AcDbSpline
210
0.0
220
0.0
230
1.0
 70
    11
 71
     3
 72
    17
 73
    13
 74
     0
 42
0.0000000001
 43
0.0000000001
 12
1.0
 22
0.0
 32
0.0
 13
1.0
 23
0.0
 33
0.0
 40
0.0
 40
0.0
 40
0.0
 40
0.0
 40
1.0
 40
1.0
 40
1.0
 40
2.0
 40
2.0
 40
2.0
 40
3.0
 40
3.0
 40
3.0
 40
4.0
 40
4.0
 40
4.0
 40
4.0
 10
86.2381483554371
 20
-134.9823027440324
 30
0.0
 10
86.18300919017715
 20
-134.9823027440324
 30
0.0
 10
86.13824169131927
 20
-135.0270702440209
 30
0.0
 10
86.13824169131927
 20
-135.082209410674
 30
0.0
 10
86.13824169131927
 20
-135.1373132995489
 30
0.0
 10
86.18300919017715
 20
-135.1821160773156
 30
0.0
 10
86.2381483554371
 20
-135.1821160773156
 30
0.0
 10
86.29325224292018
 20
-135.1821160773156
 30
0.0
 10
86.33805501955493
 20
-135.1373132995489
 30
0.0
 10
86.33805501955493
 20
-135.082209410674
 30
0.0
 10
86.33805501955493
 20
-135.0270702440209
 30
0.0
 10
86.29325224292018
 20
-134.9823027440324
 30
0.0
 10
86.2381483554371
 20
-134.9823027440324
 30
0.0
  0
POLYLINE
  5
E6
330
1F
100
AcDbEntity
  8
_U+30EC_U+30A4_U+30E4_U+30FC 1
 62
   179
420
  2234388
370
     9
100
AcDb2dPolyline
 66
     1
 10
0.0
 20
0.0
 30
0.0
  0
VERTEX
  5
E7
330
E6
100
AcDbEntity
  8
_U+30EC_U+30A4_U+30E4_U+30FC 1
 62
   179
420
  2234388
370
     9
100
AcDbVertex
100
AcDb2dVertex
 10
86.2381483554371
 20
-133.6221680221503
 30
0.0
  0
VERTEX
  5
E8
330
E6
100
AcDbEntity
  8
_U+30EC_U+30A4_U+30E4_U+30FC 1
 62
   179
420
  2234388
370
     9
100
AcDbVertex
100
AcDb2dVertex
 10
86.2381483554371
 20
-136.3624046881316
 30
0.0
  0
SEQEND
  5
E9
330
E6
100
AcDbEntity
  8
_U+30EC_U+30A4_U+30E4_U+30FC 1
 62
   179
420
  2234388
370
     9
  0
INSERT
  5
EB
330
1F
100
AcDbEntity
  8
_U+30EC_U+30A4_U+30E4_U+30FC 1
100
AcDbBlockReference
  2
block 6
 10
0.0
 20
0.0
 30
0.0
  0
INSERT
  5
F1
330
1F
100
AcDbEntity
  8
_U+30EC_U+30A4_U+30E4_U+30FC 1
100
AcDbBlockReference
  2
block 7
 10
0.0
 20
0.0
 30
0.0
  0
SPLINE
  5
100
330
1F
100
AcDbEntity
  8
_U+30EC_U+30A4_U+30E4_U+30FC 1
 62
   179
420
  2234388
370
     9
100
AcDbSpline
210
0.0
220
0.0
230
1.0
 70
    11
 71
     3
 72
    17
 73
    13
 74
     0
 42
0.0000000001
 43
0.0000000001
 12
1.0
 22
0.0
 32
0.0
 13
1.0
 23
0.0
 33
0.0
 40
0.0
 40
0.0
 40
0.0
 40
0.0
 40
1.0
 40
1.0
 40
1.0
 40
2.0
 40
2.0
 40
2.0
 40
3.0
 40
3.0
 40
3.0
 40
4.0
 40
4.0
 40
4.0
 40
4.0
 10
83.32014704099262
 20
-156.8813713496688
 30
0.0
 10
83.32014704099262
 20
-156.8262674607932
 30
0.0
 10
83.27537954213474
 20
-156.7814646830271
 30
0.0
 10
83.21953482133723
 20
-156.7814646830271
 30
0.0
 10
83.16443093385416
 20
-156.7814646830271
 30
0.0
 10
83.1196281572194
 20
-156.8262674607932
 30
0.0
 10
83.1196281572194
 20
-156.8813713496688
 30
0.0
 10
83.1196281572194
 20
-156.9365105163212
 30
0.0
 10
83.16443093385416
 20
-156.9812780163104
 30
0.0
 10
83.21953482133723
 20
-156.9812780163104
 30
0.0
 10
83.27537954213474
 20
-156.9812780163104
 30
0.0
 10
83.32014704099262
 20
-156.9365105163212
 30
0.0
 10
83.32014704099262
 20
-156.8813713496688
 30
0.0
  0
POLYLINE
  5
101
330
1F
100
AcDbEntity
  8
_U+30EC_U+30A4_U+30E4_U+30FC 1
 62
   179
420
  2234388
370
     9
100
AcDb2dPolyline
 66
     1
 10
0.0
 20
0.0
 30
0.0
  0
VERTEX
  5
102
330
101
100
AcDbEntity
  8
_U+30EC_U+30A4_U+30E4_U+30FC 1
 62
   179
420
  2234388
370
     9
100
AcDbVertex
100
AcDb2dVertex
 10
83.21953482133723
 20
-156.8813713496688
 30
0.0
  0
VERTEX
  5
103
330
101
100
AcDbEntity
  8
_U+30EC_U+30A4_U+30E4_U+30FC 1
 62
   179
420
  2234388
370
     9
100
AcDbVertex
100
AcDb2dVertex
 10
98.21897775322277
 20
-156.8813713496688
 30
0.0
  0
SEQEND
  5
104
330
101
100
AcDbEntity
  8
_U+30EC_U+30A4_U+30E4_U+30FC 1
 62
   179
420
  2234388
370
     9
  0
POLYLINE
  5
105
330
1F
100
AcDbEntity
  8
_U+30EC_U+30A4_U+30E4_U+30FC 1
 62
   179
420
  2234388
370
     9
100
AcDb2dPolyline
 66
     1
 10
0.0
 20
0.0
 30
0.0
  0
VERTEX
  5
106
330
105
100
AcDbEntity
  8
_U+30EC_U+30A4_U+30E4_U+30FC 1
 62
   179
420
  2234388
370
     9
100
AcDbVertex
100
AcDb2dVertex
 10
83.21953482133723
 20
-154.4205346836174
 30
0.0
  0
VERTEX
  5
107
330
105
100
AcDbEntity
  8
_U+30EC_U+30A4_U+30E4_U+30FC 1
 62
   179
420
  2234388
370
     9
100
AcDbVertex
100
AcDb2dVertex
 10
83.21953482133723
 20
-157.8811435716407
 30
0.0
  0
SEQEND
  5
108
330
105
100
AcDbEntity
  8
_U+30EC_U+30A4_U+30E4_U+30FC 1
 62
   179
420
  2234388
370
     9
  0
SPLINE
  5
109
330
1F
100
AcDbEntity
  8
_U+30EC_U+30A4_U+30E4_U+30FC 1
 62
   179
420
  2234388
370
     9
100
AcDbSpline
210
0.0
220
0.0
230
1.0
 70
    11
 71
     3
 72
    17
 73
    13
 74
     0
 42
0.0000000001
 43
0.0000000001
 12
1.0
 22
0.0
 32
0.0
 13
1.0
 23
0.0
 33
0.0
 40
0.0
 40
0.0
 40
0.0
 40
0.0
 40
1.0
 40
1.0
 40
1.0
 40
2.0
 40
2.0
 40
2.0
 40
3.0
 40
3.0
 40
3.0
 40
4.0
 40
4.0
 40
4.0
 40
4.0
 10
98.31958749165835
 20
-156.8813713496688
 30
0.0
 10
98.31958749165835
 20
-156.8262674607932
 30
0.0
 10
98.27478471502359
 20
-156.7814646830271
 30
0.0
 10
98.21897775322277
 20
-156.7814646830271
 30
0.0
 10
98.1638713845199
 20
-156.7814646830271
 30
0.0
 10
98.11906860788513
 20
-156.8262674607932
 30
0.0
 10
98.11906860788513
 20
-156.8813713496688
 30
0.0
 10
98.11906860788513
 20
-156.9365105163212
 30
0.0
 10
98.1638713845199
 20
-156.9812780163104
 30
0.0
 10
98.21897775322277
 20
-156.9812780163104
 30
0.0
 10
98.27478471502359
 20
-156.9812780163104
 30
0.0
 10
98.31958749165835
 20
-156.9365105163212
 30
0.0
 10
98.31958749165835
 20
-156.8813713496688
 30
0.0
  0
POLYLINE
  5
10A
330
1F
100
AcDbEntity
  8
_U+30EC_U+30A4_U+30E4_U+30FC 1
 62
   179
420
  2234388
370
     9
100
AcDb2dPolyline
 66
     1
 10
0.0
 20
0.0
 30
0.0
  0
VERTEX
  5
10B
330
10A
100
AcDbEntity
  8
_U+30EC_U+30A4_U+30E4_U+30FC 1
 62
   179
420
  2234388
370
     9
100
AcDbVertex
100
AcDb2dVertex
 10
98.21897775322277
 20
-154.4205346836174
 30
0.0
  0
VERTEX
  5
10C
330
10A
100
AcDbEntity
  8
_U+30EC_U+30A4_U+30E4_U+30FC 1
 62
   179
420
  2234388
370
     9
100
AcDbVertex
100
AcDb2dVertex
 10
98.21897775322277
 20
-157.8811435716407
 30
0.0
  0
SEQEND
  5
10D
330
10A
100
AcDbEntity
  8
_U+30EC_U+30A4_U+30E4_U+30FC 1
 62
   179
420
  2234388
370
     9
  0
INSERT
  5
10F
330
1F
100
AcDbEntity
  8
_U+30EC_U+30A4_U+30E4_U+30FC 1
100
AcDbBlockReference
  2
block 8
 10
0.0
 20
0.0
 30
0.0
  0
POLYLINE
  5
116
330
1F
100
AcDbEntity
  8
_U+30EC_U+30A4_U+30E4_U+30FC 1
 62
   179
420
  2234388
370
     9
100
AcDb2dPolyline
 66
     1
 10
0.0
 20
0.0
 30
0.0
  0
VERTEX
  5
117
330
116
100
AcDbEntity
  8
_U+30EC_U+30A4_U+30E4_U+30FC 1
 62
   179
420
  2234388
370
     9
100
AcDbVertex
100
AcDb2dVertex
 10
80.73633210691123
 20
-152.8623152395621
 30
0.0
  0
VERTEX
  5
118
330
116
100
AcDbEntity
  8
_U+30EC_U+30A4_U+30E4_U+30FC 1
 62
   179
420
  2234388
370
     9
100
AcDbVertex
100
AcDb2dVertex
 10
80.73633210691123
 20
-137.8623805210897
 30
0.0
  0
SEQEND
  5
119
330
116
100
AcDbEntity
  8
_U+30EC_U+30A4_U+30E4_U+30FC 1
 62
   179
420
  2234388
370
     9
  0
POLYLINE
  5
11A
330
1F
100
AcDbEntity
  8
_U+30EC_U+30A4_U+30E4_U+30FC 1
 62
   179
420
  2234388
370
     9
100
AcDb2dPolyline
 66
     1
 10
0.0
 20
0.0
 30
0.0
  0
VERTEX
  5
11B
330
11A
100
AcDbEntity
  8
_U+30EC_U+30A4_U+30E4_U+30FC 1
 62
   179
420
  2234388
370
     9
100
AcDbVertex
100
AcDb2dVertex
 10
81.73815041468606
 20
-152.8623152395621
 30
0.0
  0
VERTEX
  5
11C
330
11A
100
AcDbEntity
  8
_U+30EC_U+30A4_U+30E4_U+30FC 1
 62
   179
420
  2234388
370
     9
100
AcDbVertex
100
AcDb2dVertex
 10
79.26390825558701
 20
-152.8623152395621
 30
0.0
  0
SEQEND
  5
11D
330
11A
100
AcDbEntity
  8
_U+30EC_U+30A4_U+30E4_U+30FC 1
 62
   179
420
  2234388
370
     9
  0
INSERT
  5
11F
330
1F
100
AcDbEntity
  8
_U+30EC_U+30A4_U+30E4_U+30FC 1
100
AcDbBlockReference
  2
block 9
 10
0.0
 20
0.0
 30
0.0
  0
SPLINE
  5
126
330
1F
100
AcDbEntity
  8
_U+30EC_U+30A4_U+30E4_U+30FC 1
 62
   179
420
  2234388
370
     9
100
AcDbSpline
210
0.0
220
0.0
230
1.0
 70
    11
 71
     3
 72
    17
 73
    13
 74
     0
 42
0.0000000001
 43
0.0000000001
 12
1.0
 22
0.0
 32
0.0
 13
1.0
 23
0.0
 33
0.0
 40
0.0
 40
0.0
 40
0.0
 40
0.0
 40
1.0
 40
1.0
 40
1.0
 40
2.0
 40
2.0
 40
2.0
 40
3.0
 40
3.0
 40
3.0
 40
4.0
 40
4.0
 40
4.0
 40
4.0
 10
80.83002988229859
 20
-152.8609394062292
 30
0.0
 10
80.83002988229859
 20
-152.8058355173543
 30
0.0
 10
80.7855798834326
 20
-152.7613855173653
 30
0.0
 10
80.73012321818075
 20
-152.7613855173653
 30
0.0
 10
80.67501933069768
 20
-152.7613855173653
 30
0.0
 10
80.63021655406291
 20
-152.8058355173543
 30
0.0
 10
80.63021655406291
 20
-152.8609394062292
 30
0.0
 10
80.63021655406291
 20
-152.9167488506596
 30
0.0
 10
80.67501933069768
 20
-152.9615516284263
 30
0.0
 10
80.73012321818075
 20
-152.9615516284263
 30
0.0
 10
80.7855798834326
 20
-152.9615516284263
 30
0.0
 10
80.83002988229859
 20
-152.9167488506596
 30
0.0
 10
80.83002988229859
 20
-152.8609394062292
 30
0.0
  0
POLYLINE
  5
127
330
1F
100
AcDbEntity
  8
_U+30EC_U+30A4_U+30E4_U+30FC 1
 62
   179
420
  2234388
370
     9
100
AcDb2dPolyline
 66
     1
 10
0.0
 20
0.0
 30
0.0
  0
VERTEX
  5
128
330
127
100
AcDbEntity
  8
_U+30EC_U+30A4_U+30E4_U+30FC 1
 62
   179
420
  2234388
370
     9
100
AcDbVertex
100
AcDb2dVertex
 10
81.73815041468606
 20
-137.8623805210897
 30
0.0
  0
VERTEX
  5
129
330
127
100
AcDbEntity
  8
_U+30EC_U+30A4_U+30E4_U+30FC 1
 62
   179
420
  2234388
370
     9
100
AcDbVertex
100
AcDb2dVertex
 10
79.26390825558701
 20
-137.8623805210897
 30
0.0
  0
SEQEND
  5
12A
330
127
100
AcDbEntity
  8
_U+30EC_U+30A4_U+30E4_U+30FC 1
 62
   179
420
  2234388
370
     9
  0
SPLINE
  5
12B
330
1F
100
AcDbEntity
  8
_U+30EC_U+30A4_U+30E4_U+30FC 1
 62
   179
420
  2234388
370
     9
100
AcDbSpline
210
0.0
220
0.0
230
1.0
 70
    11
 71
     3
 72
    17
 73
    13
 74
     0
 42
0.0000000001
 43
0.0000000001
 12
1.0
 22
0.0
 32
0.0
 13
1.0
 23
0.0
 33
0.0
 40
0.0
 40
0.0
 40
0.0
 40
0.0
 40
1.0
 40
1.0
 40
1.0
 40
2.0
 40
2.0
 40
2.0
 40
3.0
 40
3.0
 40
3.0
 40
4.0
 40
4.0
 40
4.0
 40
4.0
 10
80.83002988229859
 20
-137.8610046877568
 30
0.0
 10
80.83002988229859
 20
-137.8059007988819
 30
0.0
 10
80.7855798834326
 20
-137.761450798893
 30
0.0
 10
80.73012321818075
 20
-137.761450798893
 30
0.0
 10
80.67501933069768
 20
-137.761450798893
 30
0.0
 10
80.63021655406291
 20
-137.8059007988819
 30
0.0
 10
80.63021655406291
 20
-137.8610046877568
 30
0.0
 10
80.63021655406291
 20
-137.9168141321873
 30
0.0
 10
80.67501933069768
 20
-137.961616909954
 30
0.0
 10
80.73012321818075
 20
-137.961616909954
 30
0.0
 10
80.7855798834326
 20
-137.961616909954
 30
0.0
 10
80.83002988229859
 20
-137.9168141321873
 30
0.0
 10
80.83002988229859
 20
-137.8610046877568
 30
0.0
  0
ENDSEC
  0
SECTION
  2
OBJECTS
  0
DICTIONARY
  5
C
330
0
100
AcDbDictionary
281
     1
  3
ACAD_GROUP
350
D
  3
ACAD_LAYOUT
350
1A
  3
ACAD_MATERIAL
350
3B
  3
ACAD_MLEADERSTYLE
350
12D
  3
ACAD_MLINESTYLE
350
17
  3
ACAD_PLOTSETTINGS
350
19
  3
ACAD_PLOTSTYLENAME
350
E
  3
ACAD_TABLESTYLE
350
12C
  3
ACAD_VISUALSTYLE
350
2A
  0
SUN
  5
3F
330
29
100
AcDbSun
 90
        1
290
     0
 63
     7
421
 16777215
 40
1.0
291
     1
 91
  2455826
 92
 54000000
292
     0
 70
     2
 71
   256
280
     1
  0
DICTIONARY
  5
D
102
{ACAD_REACTORS
330
C
102
}
330
C
100
AcDbDictionary
281
     1
  0
DICTIONARY
  5
1A
102
{ACAD_REACTORS
330
C
102
}
330
C
100
AcDbDictionary
281
     1
  3
Layout1
350
1E
  3
Layout2
350
26
  3
Model
350
22
  0
DICTIONARY
  5
3B
102
{ACAD_REACTORS
330
C
102
}
330
C
100
AcDbDictionary
281
     1
  3
ByBlock
350
3D
  3
ByLayer
350
3C
  3
Global
350
3E
  0
DICTIONARY
  5
12D
102
{ACAD_REACTORS
330
C
102
}
330
C
100
AcDbDictionary
281
     1
  0
DICTIONARY
  5
17
102
{ACAD_REACTORS
330
C
102
}
330
C
100
AcDbDictionary
281
     1
  3
Standard
350
18
  0
DICTIONARY
  5
19
102
{ACAD_REACTORS
330
C
102
}
330
C
100
AcDbDictionary
281
     1
  0
ACDBDICTIONARYWDFLT
  5
E
102
{ACAD_REACTORS
330
C
102
}
330
C
100
AcDbDictionary
281
     1
  3
Normal
350
F
100
AcDbDictionaryWithDefault
340
F
  0
DICTIONARY
  5
12C
102
{ACAD_REACTORS
330
C
102
}
330
C
100
AcDbDictionary
281
     1
  0
DICTIONARY
  5
2A
102
{ACAD_REACTORS
330
C
102
}
330
C
100
AcDbDictionary
281
     1
  3
2dWireframe
350
2F
  3
3D Hidden
350
31
  3
3dWireframe
350
30
  3
Basic
350
32
  3
Brighten
350
36
  3
ColorChange
350
3A
  3
Conceptual
350
34
  3
Dim
350
35
  3
Facepattern
350
39
  3
Flat
350
2B
  3
FlatWithEdges
350
2C
  3
Gouraud
350
2D
  3
GouraudWithEdges
350
2E
  3
Linepattern
350
38
  3
Realistic
350
33
  3
Thicken
350
37
  0
LAYOUT
  5
1E
102
{ACAD_REACTORS
330
1A
102
}
330
1A
100
AcDbPlotSettings
  1

  2
none_device
  4

  6

 40
0.0
 41
0.0
 42
0.0
 43
0.0
 44
0.0
 45
0.0
 46
0.0
 47
0.0
 48
0.0
 49
0.0
140
0.0
141
0.0
142
1.0
143
1.0
 70
   688
 72
     0
 73
     0
 74
     5
  7

 75
    16
 76
     0
 77
     2
 78
   300
147
1.0
148
0.0
149
0.0
100
AcDbLayout
  1
Layout1
 70
     1
 71
     1
 10
0.0
 20
0.0
 11
12.0
 21
9.0
 12
0.0
 22
0.0
 32
0.0
 14
1.000000000000000E+20
 24
1.000000000000000E+20
 34
1.000000000000000E+20
 15
-1.000000000000000E+20
 25
-1.000000000000000E+20
 35
-1.000000000000000E+20
146
0.0
 13
0.0
 23
0.0
 33
0.0
 16
1.0
 26
0.0
 36
0.0
 17
0.0
 27
1.0
 37
0.0
 76
     0
330
1B
  0
LAYOUT
  5
26
102
{ACAD_REACTORS
330
1A
102
}
330
1A
100
AcDbPlotSettings
  1

  2
none_device
  4

  6

 40
0.0
 41
0.0
 42
0.0
 43
0.0
 44
0.0
 45
0.0
 46
0.0
 47
0.0
 48
0.0
 49
0.0
140
0.0
141
0.0
142
1.0
143
1.0
 70
   688
 72
     0
 73
     0
 74
     5
  7

 75
    16
 76
     0
 77
     2
 78
   300
147
1.0
148
0.0
149
0.0
100
AcDbLayout
  1
Layout2
 70
     1
 71
     2
 10
0.0
 20
0.0
 11
0.0
 21
0.0
 12
0.0
 22
0.0
 32
0.0
 14
0.0
 24
0.0
 34
0.0
 15
0.0
 25
0.0
 35
0.0
146
0.0
 13
0.0
 23
0.0
 33
0.0
 16
1.0
 26
0.0
 36
0.0
 17
0.0
 27
1.0
 37
0.0
 76
     0
330
23
  0
LAYOUT
  5
22
102
{ACAD_REACTORS
330
1A
102
}
330
1A
100
AcDbPlotSettings
  1

  2
none_device
  4

  6

 40
0.0
 41
0.0
 42
0.0
 43
0.0
 44
0.0
 45
0.0
 46
0.0
 47
0.0
 48
0.0
 49
0.0
140
0.0
141
0.0
142
1.0
143
1.0
 70
  1712
 72
     0
 73
     0
 74
     0
  7

 75
     0
 76
     0
 77
     2
 78
   300
147
1.0
148
0.0
149
0.0
100
AcDbLayout
  1
Model
 70
     1
 71
     0
 10
0.0
 20
0.0
 11
12.0
 21
9.0
 12
0.0
 22
0.0
 32
0.0
 14
1.000000000000000E+20
 24
1.000000000000000E+20
 34
1.000000000000000E+20
 15
-1.000000000000000E+20
 25
-1.000000000000000E+20
 35
-1.000000000000000E+20
146
0.0
 13
0.0
 23
0.0
 33
0.0
 16
1.0
 26
0.0
 36
0.0
 17
0.0
 27
1.0
 37
0.0
 76
     0
330
1F
331
29
  0
MATERIAL
  5
3D
102
{ACAD_REACTORS
330
3B
102
}
330
3B
100
AcDbMaterial
  1
ByBlock
 72
     1
 94
      127
  0
MATERIAL
  5
3C
102
{ACAD_REACTORS
330
3B
102
}
330
3B
100
AcDbMaterial
  1
ByLayer
 72
     1
 94
      127
  0
MATERIAL
  5
3E
102
{ACAD_REACTORS
330
3B
102
}
330
3B
100
AcDbMaterial
  1
Global
 72
     1
 94
      127
  0
MLINESTYLE
  5
18
102
{ACAD_REACTORS
330
17
102
}
330
17
100
AcDbMlineStyle
  2
Standard
 70
     0
  3

 62
   256
 51
90.0
 52
90.0
 71
     2
 49
0.5
 62
   256
  6
BYLAYER
 49
-0.5
 62
   256
  6
BYLAYER
  0
ACDBPLACEHOLDER
  5
F
102
{ACAD_REACTORS
330
E
102
}
330
E
  0
VISUALSTYLE
  5
2F
102
{ACAD_REACTORS
330
2A
102
}
330
2A
100
AcDbVisualStyle
  2
2dWireframe
 70
     4
177
     2
291
     0
 71
     0
176
     1
 72
     2
176
     1
 73
     0
176
     1
 90
        0
176
     1
 40
-0.6
176
     1
 41
-30.0
176
     1
 62
     5
 63
     7
421
 16777215
176
     1
 74
     1
176
     1
 91
        4
176
     1
 64
     7
176
     1
 65
   257
176
     1
 75
     1
176
     1
175
     1
176
     1
 42
1.0
176
     1
 92
        0
176
     1
 66
   257
176
     1
 43
1.0
176
     1
 76
     1
176
     1
 77
     6
176
     1
 78
     2
176
     1
 67
     7
176
     1
 79
     5
176
     1
170
     0
176
     1
171
     0
176
     1
290
     0
176
     1
 93
        1
176
     1
 44
0.0
176
     1
173
     0
176
     1
  0
VISUALSTYLE
  5
31
102
{ACAD_REACTORS
330
2A
102
}
330
2A
100
AcDbVisualStyle
  2
3D Hidden
 70
     6
177
     2
291
     0
 71
     1
176
     1
 72
     2
176
     1
 73
     2
176
     1
 90
        0
176
     1
 40
-0.6
176
     1
 41
-30.0
176
     1
 62
     5
 63
     7
421
 16777215
176
     1
 74
     2
176
     1
 91
        2
176
     1
 64
     7
176
     1
 65
   257
176
     1
 75
     2
176
     1
175
     1
176
     1
 42
40.0
176
     1
 92
        0
176
     1
 66
   257
176
     1
 43
1.0
176
     1
 76
     1
176
     1
 77
     6
176
     1
 78
     2
176
     1
 67
     7
176
     1
 79
     3
176
     1
170
     0
176
     1
171
     0
176
     1
290
     0
176
     1
 93
        1
176
     1
 44
0.0
176
     1
173
     0
176
     1
  0
VISUALSTYLE
  5
30
102
{ACAD_REACTORS
330
2A
102
}
330
2A
100
AcDbVisualStyle
  2
3dWireframe
 70
     5
177
     2
291
     0
 71
     0
176
     1
 72
     2
176
     1
 73
     0
176
     1
 90
        0
176
     1
 40
-0.6
176
     1
 41
-30.0
176
     1
 62
     5
 63
     7
421
 16777215
176
     1
 74
     1
176
     1
 91
        4
176
     1
 64
     7
176
     1
 65
   257
176
     1
 75
     1
176
     1
175
     1
176
     1
 42
1.0
176
     1
 92
        0
176
     1
 66
   257
176
     1
 43
1.0
176
     1
 76
     1
176
     1
 77
     6
176
     1
 78
     2
176
     1
 67
     7
176
     1
 79
     5
176
     1
170
     0
176
     1
171
     0
176
     1
290
     0
176
     1
 93
        1
176
     1
 44
0.0
176
     1
173
     0
176
     1
  0
VISUALSTYLE
  5
32
102
{ACAD_REACTORS
330
2A
102
}
330
2A
100
AcDbVisualStyle
  2
Basic
 70
     7
177
     2
291
     1
 71
     1
176
     1
 72
     0
176
     1
 73
     1
176
     1
 90
        0
176
     1
 40
-0.6
176
     1
 41
-30.0
176
     1
 62
     5
 63
     7
421
 16777215
176
     1
 74
     0
176
     1
 91
        4
176
     1
 64
     7
176
     1
 65
   257
176
     1
 75
     1
176
     1
175
     1
176
     1
 42
1.0
176
     1
 92
        8
176
     1
 66
     7
176
     1
 43
1.0
176
     1
 76
     1
176
     1
 77
     6
176
     1
 78
     2
176
     1
 67
     7
176
     1
 79
     5
176
     1
170
     0
176
     1
171
     0
176
     1
290
     0
176
     1
 93
        1
176
     1
 44
0.0
176
     1
173
     0
176
     1
  0
VISUALSTYLE
  5
36
102
{ACAD_REACTORS
330
2A
102
}
330
2A
100
AcDbVisualStyle
  2
Brighten
 70
    12
177
     2
291
     1
 71
     2
176
     1
 72
     2
176
     1
 73
     0
176
     1
 90
        0
176
     1
 40
-0.6
176
     1
 41
-30.0
176
     1
 62
     5
 63
     7
421
 16777215
176
     1
 74
     1
176
     1
 91
        4
176
     1
 64
     7
176
     1
 65
   257
176
     1
 75
     1
176
     1
175
     1
176
     1
 42
1.0
176
     1
 92
        8
176
     1
 66
     7
176
     1
 43
1.0
176
     1
 76
     1
176
     1
 77
     6
176
     1
 78
     2
176
     1
 67
     7
176
     1
 79
     5
176
     1
170
     0
176
     1
171
     0
176
     1
290
     0
176
     1
 93
        1
176
     1
 44
50.0
176
     1
173
     0
176
     1
  0
VISUALSTYLE
  5
3A
102
{ACAD_REACTORS
330
2A
102
}
330
2A
100
AcDbVisualStyle
  2
ColorChange
 70
    16
177
     2
291
     1
 71
     2
176
     1
 72
     2
176
     1
 73
     3
176
     1
 90
        0
176
     1
 40
-0.6
176
     1
 41
-30.0
176
     1
 62
     5
 63
     8
421
  8421504
176
     1
 74
     1
176
     1
 91
        4
176
     1
 64
     7
176
     1
 65
   257
176
     1
 75
     1
176
     1
175
     1
176
     1
 42
1.0
176
     1
 92
        8
176
     1
 66
     8
424
  8421504
176
     1
 43
1.0
176
     1
 76
     1
176
     1
 77
     6
176
     1
 78
     2
176
     1
 67
     7
176
     1
 79
     5
176
     1
170
     0
176
     1
171
     0
176
     1
290
     0
176
     1
 93
        1
176
     1
 44
0.0
176
     1
173
     0
176
     1
  0
VISUALSTYLE
  5
34
102
{ACAD_REACTORS
330
2A
102
}
330
2A
100
AcDbVisualStyle
  2
Conceptual
 70
     9
177
     2
291
     0
 71
     3
176
     1
 72
     2
176
     1
 73
     0
176
     1
 90
        0
176
     1
 40
-0.6
176
     1
 41
-30.0
176
     1
 62
     5
 63
     7
421
 16777215
176
     1
 74
     2
176
     1
 91
        2
176
     1
 64
     7
176
     1
 65
   257
176
     1
 75
     1
176
     1
175
     1
176
     1
 42
40.0
176
     1
 92
        8
176
     1
 66
     7
176
     1
 43
1.0
176
     1
 76
     1
176
     1
 77
     6
176
     1
 78
     2
176
     1
 67
     7
176
     1
 79
     3
176
     1
170
     0
176
     1
171
     0
176
     1
290
     0
176
     1
 93
        1
176
     1
 44
0.0
176
     1
173
     0
176
     1
  0
VISUALSTYLE
  5
35
102
{ACAD_REACTORS
330
2A
102
}
330
2A
100
AcDbVisualStyle
  2
Dim
 70
    11
177
     2
291
     1
 71
     2
176
     1
 72
     2
176
     1
 73
     0
176
     1
 90
        0
176
     1
 40
-0.6
176
     1
 41
-30.0
176
     1
 62
     5
 63
     7
421
 16777215
176
     1
 74
     1
176
     1
 91
        4
176
     1
 64
     7
176
     1
 65
   257
176
     1
 75
     1
176
     1
175
     1
176
     1
 42
1.0
176
     1
 92
        8
176
     1
 66
     7
176
     1
 43
1.0
176
     1
 76
     1
176
     1
 77
     6
176
     1
 78
     2
176
     1
 67
     7
176
     1
 79
     5
176
     1
170
     0
176
     1
171
     0
176
     1
290
     0
176
     1
 93
        1
176
     1
 44
-50.0
176
     1
173
     0
176
     1
  0
VISUALSTYLE
  5
39
102
{ACAD_REACTORS
330
2A
102
}
330
2A
100
AcDbVisualStyle
  2
Facepattern
 70
    15
177
     2
291
     1
 71
     2
176
     1
 72
     2
176
     1
 73
     0
176
     1
 90
        0
176
     1
 40
-0.6
176
     1
 41
-30.0
176
     1
 62
     5
 63
     7
421
 16777215
176
     1
 74
     1
176
     1
 91
        4
176
     1
 64
     7
176
     1
 65
   257
176
     1
 75
     1
176
     1
175
     1
176
     1
 42
1.0
176
     1
 92
        8
176
     1
 66
     7
176
     1
 43
1.0
176
     1
 76
     1
176
     1
 77
     6
176
     1
 78
     2
176
     1
 67
     7
176
     1
 79
     5
176
     1
170
     0
176
     1
171
     0
176
     1
290
     0
176
     1
 93
        1
176
     1
 44
0.0
176
     1
173
     0
176
     1
  0
VISUALSTYLE
  5
2B
102
{ACAD_REACTORS
330
2A
102
}
330
2A
100
AcDbVisualStyle
  2
Flat
 70
     0
177
     2
291
     1
 71
     2
176
     1
 72
     1
176
     1
 73
     1
176
     1
 90
        2
176
     1
 40
-0.6
176
     1
 41
30.0
176
     1
 62
     5
 63
     7
421
 16777215
176
     1
 74
     0
176
     1
 91
        4
176
     1
 64
     7
176
     1
 65
   257
176
     1
 75
     1
176
     1
175
     1
176
     1
 42
1.0
176
     1
 92
        8
176
     1
 66
     7
176
     1
 43
1.0
176
     1
 76
     1
176
     1
 77
     6
176
     1
 78
     2
176
     1
 67
     7
176
     1
 79
     5
176
     1
170
     0
176
     1
171
     0
176
     1
290
     0
176
     1
 93
       13
176
     1
 44
0.0
176
     1
173
     0
176
     1
  0
VISUALSTYLE
  5
2C
102
{ACAD_REACTORS
330
2A
102
}
330
2A
100
AcDbVisualStyle
  2
FlatWithEdges
 70
     1
177
     2
291
     1
 71
     2
176
     1
 72
     1
176
     1
 73
     1
176
     1
 90
        2
176
     1
 40
-0.6
176
     1
 41
30.0
176
     1
 62
     5
 63
     7
421
 16777215
176
     1
 74
     1
176
     1
 91
        4
176
     1
 64
     7
176
     1
 65
   257
176
     1
 75
     1
176
     1
175
     1
176
     1
 42
1.0
176
     1
 92
        0
176
     1
 66
   257
176
     1
 43
1.0
176
     1
 76
     1
176
     1
 77
     6
176
     1
 78
     2
176
     1
 67
     7
176
     1
 79
     5
176
     1
170
     0
176
     1
171
     0
176
     1
290
     0
176
     1
 93
       13
176
     1
 44
0.0
176
     1
173
     0
176
     1
  0
VISUALSTYLE
  5
2D
102
{ACAD_REACTORS
330
2A
102
}
330
2A
100
AcDbVisualStyle
  2
Gouraud
 70
     2
177
     2
291
     1
 71
     2
176
     1
 72
     2
176
     1
 73
     1
176
     1
 90
        2
176
     1
 40
-0.6
176
     1
 41
30.0
176
     1
 62
     5
 63
     7
421
 16777215
176
     1
 74
     0
176
     1
 91
        4
176
     1
 64
     7
176
     1
 65
   257
176
     1
 75
     1
176
     1
175
     1
176
     1
 42
1.0
176
     1
 92
        0
176
     1
 66
     7
176
     1
 43
1.0
176
     1
 76
     1
176
     1
 77
     6
176
     1
 78
     2
176
     1
 67
     7
176
     1
 79
     5
176
     1
170
     0
176
     1
171
     0
176
     1
290
     0
176
     1
 93
       13
176
     1
 44
0.0
176
     1
173
     0
176
     1
  0
VISUALSTYLE
  5
2E
102
{ACAD_REACTORS
330
2A
102
}
330
2A
100
AcDbVisualStyle
  2
GouraudWithEdges
 70
     3
177
     2
291
     1
 71
     2
176
     1
 72
     2
176
     1
 73
     1
176
     1
 90
        2
176
     1
 40
-0.6
176
     1
 41
30.0
176
     1
 62
     5
 63
     7
421
 16777215
176
     1
 74
     1
176
     1
 91
        4
176
     1
 64
     7
176
     1
 65
   257
176
     1
 75
     1
176
     1
175
     1
176
     1
 42
1.0
176
     1
 92
        0
176
     1
 66
   257
176
     1
 43
1.0
176
     1
 76
     1
176
     1
 77
     6
176
     1
 78
     2
176
     1
 67
     7
176
     1
 79
     5
176
     1
170
     0
176
     1
171
     0
176
     1
290
     0
176
     1
 93
       13
176
     1
 44
0.0
176
     1
173
     0
176
     1
  0
VISUALSTYLE
  5
38
102
{ACAD_REACTORS
330
2A
102
}
330
2A
100
AcDbVisualStyle
  2
Linepattern
 70
    14
177
     2
291
     1
 71
     2
176
     1
 72
     2
176
     1
 73
     0
176
     1
 90
        0
176
     1
 40
-0.6
176
     1
 41
-30.0
176
     1
 62
     5
 63
     7
421
 16777215
176
     1
 74
     1
176
     1
 91
        4
176
     1
 64
     7
176
     1
 65
   257
176
     1
 75
     7
176
     1
175
     7
176
     1
 42
1.0
176
     1
 92
        8
176
     1
 66
     7
176
     1
 43
1.0
176
     1
 76
     1
176
     1
 77
     6
176
     1
 78
     2
176
     1
 67
     7
176
     1
 79
     5
176
     1
170
     0
176
     1
171
     0
176
     1
290
     0
176
     1
 93
        1
176
     1
 44
0.0
176
     1
173
     0
176
     1
  0
VISUALSTYLE
  5
33
102
{ACAD_REACTORS
330
2A
102
}
330
2A
100
AcDbVisualStyle
  2
Realistic
 70
     8
177
     2
291
     0
 71
     2
176
     1
 72
     2
176
     1
 73
     0
176
     1
 90
        0
176
     1
 40
-0.6
176
     1
 41
-30.0
176
     1
 62
     5
 63
     7
421
 16777215
176
     1
 74
     1
176
     1
 91
        0
176
     1
 64
     7
176
     1
 65
   257
176
     1
 75
     1
176
     1
175
     1
176
     1
 42
1.0
176
     1
 92
        8
176
     1
 66
     8
424
  7895160
176
     1
 43
1.0
176
     1
 76
     1
176
     1
 77
     6
176
     1
 78
     2
176
     1
 67
     7
176
     1
 79
     5
176
     1
170
     0
176
     1
171
     0
176
     1
290
     0
176
     1
 93
       13
176
     1
 44
0.0
176
     1
173
     0
176
     1
  0
VISUALSTYLE
  5
37
102
{ACAD_REACTORS
330
2A
102
}
330
2A
100
AcDbVisualStyle
  2
Thicken
 70
    13
177
     2
291
     1
 71
     2
176
     1
 72
     2
176
     1
 73
     0
176
     1
 90
        0
176
     1
 40
-0.6
176
     1
 41
-30.0
176
     1
 62
     5
 63
     7
421
 16777215
176
     1
 74
     1
176
     1
 91
        4
176
     1
 64
     7
176
     1
 65
   257
176
     1
 75
     1
176
     1
175
     1
176
     1
 42
1.0
176
     1
 92
       12
176
     1
 66
     7
176
     1
 43
1.0
176
     1
 76
     1
176
     1
 77
     6
176
     1
 78
     2
176
     1
 67
     7
176
     1
 79
     5
176
     1
170
     0
176
     1
171
     0
176
     1
290
     0
176
     1
 93
        1
176
     1
 44
0.0
176
     1
173
     0
176
     1
  0
ENDSEC
  0
EOF
