  0
SECTION
  2
HEADER
  9
$ACADVER
  1
AC1024
  9
$ACADMAINTVER
 70
     6
  9
$DWGCODEPAGE
  3
UNDEFINED
  9
$INSBASE
 10
0.0
 20
0.0
 30
0.0
  9
$EXTMIN
 10
1.000000000000000E+20
 20
1.000000000000000E+20
 30
1.000000000000000E+20
  9
$EXTMAX
 10
-1.000000000000000E+20
 20
-1.000000000000000E+20
 30
-1.000000000000000E+20
  9
$LIMMIN
 10
0.0
 20
0.0
  9
$LIMMAX
 10
12.0
 20
9.0
  9
$ORTHOMODE
 70
     0
  9
$REGENMODE
 70
     1
  9
$FILLMODE
 70
     1
  9
$QTEXTMODE
 70
     0
  9
$MIRRTEXT
 70
     1
  9
$LTSCALE
 40
1.0
  9
$ATTMODE
 70
     1
  9
$TEXTSIZE
 40
0.2
  9
$TRACEWID
 40
0.05
  9
$TEXTSTYLE
  7
Standard
  9
$CLAYER
  8
0
  9
$CELTYPE
  6
ByLayer
  9
$CECOLOR
 62
   256
  9
$CELTSCALE
 40
1.0
  9
$DISPSILH
 70
     0
  9
$DIMSCALE
 40
1.0
  9
$DIMASZ
 40
0.18
  9
$DIMEXO
 40
0.0625
  9
$DIMDLI
 40
0.38
  9
$DIMRND
 40
0.0
  9
$DIMDLE
 40
0.0
  9
$DIMEXE
 40
0.18
  9
$DIMTP
 40
0.0
  9
$DIMTM
 40
0.0
  9
$DIMTXT
 40
0.18
  9
$DIMCEN
 40
0.09
  9
$DIMTSZ
 40
0.0
  9
$DIMTOL
 70
     0
  9
$DIMLIM
 70
     0
  9
$DIMTIH
 70
     1
  9
$DIMTOH
 70
     1
  9
$DIMSE1
 70
     0
  9
$DIMSE2
 70
     0
  9
$DIMTAD
 70
     0
  9
$DIMZIN
 70
     0
  9
$DIMBLK
  1

  9
$DIMASO
 70
     1
  9
$DIMSHO
 70
     1
  9
$DIMPOST
  1

  9
$DIMAPOST
  1

  9
$DIMALT
 70
     0
  9
$DIMALTD
 70
     2
  9
$DIMALTF
 40
25.4
  9
$DIMLFAC
 40
1.0
  9
$DIMTOFL
 70
     0
  9
$DIMTVP
 40
0.0
  9
$DIMTIX
 70
     0
  9
$DIMSOXD
 70
     0
  9
$DIMSAH
 70
     0
  9
$DIMBLK1
  1

  9
$DIMBLK2
  1

  9
$DIMSTYLE
  2
Standard
  9
$DIMCLRD
 70
     0
  9
$DIMCLRE
 70
     0
  9
$DIMCLRT
 70
     0
  9
$DIMTFAC
 40
1.0
  9
$DIMGAP
 40
0.09
  9
$DIMJUST
 70
     0
  9
$DIMSD1
 70
     0
  9
$DIMSD2
 70
     0
  9
$DIMTOLJ
 70
     1
  9
$DIMTZIN
 70
     0
  9
$DIMALTZ
 70
     0
  9
$DIMALTTZ
 70
     0
  9
$DIMUPT
 70
     0
  9
$DIMDEC
 70
     4
  9
$DIMTDEC
 70
     4
  9
$DIMALTU
 70
     2
  9
$DIMALTTD
 70
     2
  9
$DIMTXSTY
  7
Standard
  9
$DIMAUNIT
 70
     0
  9
$DIMADEC
 70
     0
  9
$DIMALTRND
 40
0.0
  9
$DIMAZIN
 70
     0
  9
$DIMDSEP
 70
    46
  9
$DIMATFIT
 70
     3
  9
$DIMFRAC
 70
     0
  9
$DIMLDRBLK
  1

  9
$DIMLUNIT
 70
     2
  9
$DIMLWD
 70
    -2
  9
$DIMLWE
 70
    -2
  9
$DIMTMOVE
 70
     0
  9
$DIMFXL
 40
1.0
  9
$DIMFXLON
 70
     0
  9
$DIMJOGANG
 40
0.7853981633974483
  9
$DIMTFILL
 70
     0
  9
$DIMTFILLCLR
 70
     0
  9
$DIMARCSYM
 70
     0
  9
$DIMLTYPE
  6

  9
$DIMLTEX1
  6

  9
$DIMLTEX2
  6

  9
$DIMTXTDIRECTION
 70
     0
  9
$LUNITS
 70
     2
  9
$LUPREC
 70
     4
  9
$SKETCHINC
 40
0.1
  9
$FILLETRAD
 40
0.5
  9
$AUNITS
 70
     0
  9
$AUPREC
 70
     0
  9
$MENU
  1
.
  9
$ELEVATION
 40
0.0
  9
$PELEVATION
 40
0.0
  9
$THICKNESS
 40
0.0
  9
$LIMCHECK
 70
     0
  9
$CHAMFERA
 40
0.5
  9
$CHAMFERB
 40
0.5
  9
$CHAMFERC
 40
1.0
  9
$CHAMFERD
 40
0.0
  9
$SKPOLY
 70
     0
  9
$TDCREATE
 40
2457917.591712951
  9
$TDUCREATE
 40
2457917.216712963
  9
$TDUPDATE
 40
2457917.591712951
  9
$TDUUPDATE
 40
2457917.216712963
  9
$TDINDWG
 40
0.0000000116
  9
$TDUSRTIMER
 40
0.0000000116
  9
$USRTIMER
 70
     1
  9
$ANGBASE
 50
0.0
  9
$ANGDIR
 70
     0
  9
$PDMODE
 70
     0
  9
$PDSIZE
 40
0.0
  9
$PLINEWID
 40
0.0
  9
$SPLFRAME
 70
     0
  9
$SPLINETYPE
 70
     6
  9
$SPLINESEGS
 70
     8
  9
$HANDSEED
  5
EC
  9
$SURFTAB1
 70
     6
  9
$SURFTAB2
 70
     6
  9
$SURFTYPE
 70
     6
  9
$SURFU
 70
     6
  9
$SURFV
 70
     6
  9
$UCSBASE
  2

  9
$UCSNAME
  2

  9
$UCSORG
 10
0.0
 20
0.0
 30
0.0
  9
$UCSXDIR
 10
1.0
 20
0.0
 30
0.0
  9
$UCSYDIR
 10
0.0
 20
1.0
 30
0.0
  9
$UCSORTHOREF
  2

  9
$UCSORTHOVIEW
 70
     0
  9
$UCSORGTOP
 10
0.0
 20
0.0
 30
0.0
  9
$UCSORGBOTTOM
 10
0.0
 20
0.0
 30
0.0
  9
$UCSORGLEFT
 10
0.0
 20
0.0
 30
0.0
  9
$UCSORGRIGHT
 10
0.0
 20
0.0
 30
0.0
  9
$UCSORGFRONT
 10
0.0
 20
0.0
 30
0.0
  9
$UCSORGBACK
 10
0.0
 20
0.0
 30
0.0
  9
$PUCSBASE
  2

  9
$PUCSNAME
  2

  9
$PUCSORG
 10
0.0
 20
0.0
 30
0.0
  9
$PUCSXDIR
 10
1.0
 20
0.0
 30
0.0
  9
$PUCSYDIR
 10
0.0
 20
1.0
 30
0.0
  9
$PUCSORTHOREF
  2

  9
$PUCSORTHOVIEW
 70
     0
  9
$PUCSORGTOP
 10
0.0
 20
0.0
 30
0.0
  9
$PUCSORGBOTTOM
 10
0.0
 20
0.0
 30
0.0
  9
$PUCSORGLEFT
 10
0.0
 20
0.0
 30
0.0
  9
$PUCSORGRIGHT
 10
0.0
 20
0.0
 30
0.0
  9
$PUCSORGFRONT
 10
0.0
 20
0.0
 30
0.0
  9
$PUCSORGBACK
 10
0.0
 20
0.0
 30
0.0
  9
$USERI1
 70
     0
  9
$USERI2
 70
     0
  9
$USERI3
 70
     0
  9
$USERI4
 70
     0
  9
$USERI5
 70
     0
  9
$USERR1
 40
0.0
  9
$USERR2
 40
0.0
  9
$USERR3
 40
0.0
  9
$USERR4
 40
0.0
  9
$USERR5
 40
0.0
  9
$WORLDVIEW
 70
     1
  9
$SHADEDGE
 70
     3
  9
$SHADEDIF
 70
    70
  9
$TILEMODE
 70
     1
  9
$MAXACTVP
 70
    64
  9
$PINSBASE
 10
0.0
 20
0.0
 30
0.0
  9
$PLIMCHECK
 70
     0
  9
$PEXTMIN
 10
1.000000000000000E+20
 20
1.000000000000000E+20
 30
1.000000000000000E+20
  9
$PEXTMAX
 10
-1.000000000000000E+20
 20
-1.000000000000000E+20
 30
-1.000000000000000E+20
  9
$PLIMMIN
 10
0.0
 20
0.0
  9
$PLIMMAX
 10
12.0
 20
9.0
  9
$UNITMODE
 70
     0
  9
$VISRETAIN
 70
     1
  9
$PLINEGEN
 70
     0
  9
$PSLTSCALE
 70
     1
  9
$TREEDEPTH
 70
  3020
  9
$CMLSTYLE
  2
Standard
  9
$CMLJUST
 70
     0
  9
$CMLSCALE
 40
1.0
  9
$PROXYGRAPHICS
 70
     1
  9
$MEASUREMENT
 70
     0
  9
$CELWEIGHT
370
    -1
  9
$ENDCAPS
280
     0
  9
$JOINSTYLE
280
     0
  9
$LWDISPLAY
290
     1
  9
$INSUNITS
 70
     1
  9
$HYPERLINKBASE
  1

  9
$STYLESHEET
  1

  9
$XEDIT
290
     1
  9
$CEPSNTYPE
380
     0
  9
$PSTYLEMODE
290
     1
  9
$FINGERPRINTGUID
  2
{83E65E3A-E0ED-9AB8-41E6-CCAF021DDD67}
  9
$VERSIONGUID
  2
{FAEB1C32-E019-11D5-929B-00C0DF256EC4}
  9
$EXTNAMES
290
     1
  9
$PSVPSCALE
 40
0.0
  9
$OLESTARTUP
290
     0
  9
$SORTENTS
280
   127
  9
$INDEXCTL
280
     0
  9
$HIDETEXT
280
     1
  9
$XCLIPFRAME
280
     2
  9
$HALOGAP
280
     0
  9
$OBSCOLOR
 70
   257
  9
$OBSLTYPE
280
     0
  9
$INTERSECTIONDISPLAY
280
     0
  9
$INTERSECTIONCOLOR
 70
   257
  9
$DIMASSOC
280
     2
  9
$PROJECTNAME
  1

  9
$CAMERADISPLAY
290
     0
  9
$LENSLENGTH
 40
50.0
  9
$CAMERAHEIGHT
 40
0.0
  9
$STEPSPERSEC
 40
2.0
  9
$STEPSIZE
 40
6.0
  9
$3DDWFPREC
 40
2.0
  9
$PSOLWIDTH
 40
0.25
  9
$PSOLHEIGHT
 40
4.0
  9
$LOFTANG1
 40
1.570796326794897
  9
$LOFTANG2
 40
1.570796326794897
  9
$LOFTMAG1
 40
0.0
  9
$LOFTMAG2
 40
0.0
  9
$LOFTPARAM
 70
     7
  9
$LOFTNORMALS
280
     1
  9
$LATITUDE
 40
37.795
  9
$LONGITUDE
 40
-122.394
  9
$NORTHDIRECTION
 40
0.0
  9
$TIMEZONE
 70
 -8000
  9
$LIGHTGLYPHDISPLAY
280
     1
  9
$TILEMODELIGHTSYNCH
280
     1
  9
$CMATERIAL
347
3C
  9
$SOLIDHIST
280
     1
  9
$SHOWHIST
280
     1
  9
$DWFFRAME
280
     2
  9
$DGNFRAME
280
     2
  9
$REALWORLDSCALE
290
     1
  9
$INTERFERECOLOR
 62
   256
  9
$CSHADOW
280
     0
  9
$SHADOWPLANELOCATION
 40
0.0
  0
ENDSEC
  0
SECTION
  2
CLASSES
  0
CLASS
  1
ACDBDICTIONARYWDFLT
  2
AcDbDictionaryWithDefault
  3
ObjectDBX Classes
 90
        0
 91
        4
280
     0
281
     0
  0
CLASS
  1
VISUALSTYLE
  2
AcDbVisualStyle
  3
ObjectDBX Classes
 90
     4095
 91
        4
280
     0
281
     0
  0
CLASS
  1
MATERIAL
  2
AcDbMaterial
  3
ObjectDBX Classes
 90
     1153
 91
        4
280
     0
281
     0
  0
CLASS
  1
SUN
  2
AcDbSun
  3
SCENEOE
 90
     1024
 91
        4
280
     0
281
     0
  0
ENDSEC
  0
SECTION
  2
TABLES
  0
TABLE
  2
VPORT
  5
8
330
0
100
AcDbSymbolTable
 70
     1
  0
VPORT
  5
29
330
8
100
AcDbSymbolTableRecord
100
AcDbViewportTableRecord
  2
*Active
 70
     0
 10
0.0
 20
0.0
 11
1.0
 21
1.0
 12
0.0
 22
0.0
 13
0.0
 23
0.0
 14
0.5
 24
0.5
 15
0.5
 25
0.5
 16
0.0
 26
0.0
 36
1.0
 17
91.00082462281999
 27
-128.4993055234307
 37
0.0
 40
256.9986110468615
 41
0.7081814508812795
 42
50.0
 43
0.0
 44
0.0
 50
0.0
 51
0.0
 71
     0
 72
   100
 73
     1
 74
     3
 75
     0
 76
     0
 77
     0
 78
     0
281
     0
 65
     1
110
0.0
120
0.0
130
0.0
111
1.0
121
0.0
131
0.0
112
0.0
122
1.0
132
0.0
 79
     0
146
0.0
 60
     3
 61
     5
292
     1
282
     1
141
0.0
142
0.0
 63
   250
361
3F
  0
ENDTAB
  0
TABLE
  2
LTYPE
  5
5
330
0
100
AcDbSymbolTable
 70
     1
  0
LTYPE
  5
14
330
5
100
AcDbSymbolTableRecord
100
AcDbLinetypeTableRecord
  2
ByBlock
 70
     0
  3

 72
    65
 73
     0
 40
0.0
  0
LTYPE
  5
15
330
5
100
AcDbSymbolTableRecord
100
AcDbLinetypeTableRecord
  2
ByLayer
 70
     0
  3

 72
    65
 73
     0
 40
0.0
  0
LTYPE
  5
16
330
5
100
AcDbSymbolTableRecord
100
AcDbLinetypeTableRecord
  2
Continuous
 70
     0
  3
Solid line
 72
    65
 73
     0
 40
0.0
  0
ENDTAB
  0
TABLE
  2
LAYER
  5
2
330
0
100
AcDbSymbolTable
 70
     2
  0
LAYER
  5
10
330
2
100
AcDbSymbolTableRecord
100
AcDbLayerTableRecord
  2
0
 70
     0
 62
     7
  6
Continuous
370
    -3
390
F
347
3E
  0
LAYER
  5
40
330
2
100
AcDbSymbolTableRecord
100
AcDbLayerTableRecord
  2
_U+30EC_U+30A4_U+30E4_U+30FC 1
 70
     0
 62
     7
  6
Continuous
370
    -3
390
F
347
3E
  0
ENDTAB
  0
TABLE
  2
STYLE
  5
3
330
0
100
AcDbSymbolTable
 70
     1
  0
STYLE
  5
11
330
3
100
AcDbSymbolTableRecord
100
AcDbTextStyleTableRecord
  2
Standard
 70
     0
 40
0.0
 41
1.0
 50
0.0
 71
     0
 42
0.2
  3
txt
  4

  0
ENDTAB
  0
TABLE
  2
VIEW
  5
6
330
0
100
AcDbSymbolTable
 70
     0
  0
ENDTAB
  0
TABLE
  2
UCS
  5
7
330
0
100
AcDbSymbolTable
 70
     0
  0
ENDTAB
  0
TABLE
  2
APPID
  5
9
330
0
100
AcDbSymbolTable
 70
     1
  0
APPID
  5
12
330
9
100
AcDbSymbolTableRecord
100
AcDbRegAppTableRecord
  2
ACAD
 70
     0
  0
ENDTAB
  0
TABLE
  2
DIMSTYLE
  5
A
330
0
100
AcDbSymbolTable
 70
     1
100
AcDbDimStyleTable
  0
DIMSTYLE
105
27
330
A
100
AcDbSymbolTableRecord
100
AcDbDimStyleTableRecord
  2
Standard
 70
     0
178
     0
340
11
  0
ENDTAB
  0
TABLE
  2
BLOCK_RECORD
  5
1
330
0
100
AcDbSymbolTable
 70
     8
  0
BLOCK_RECORD
  5
1F
330
1
100
AcDbSymbolTableRecord
100
AcDbBlockTableRecord
  2
*Model_Space
340
22
 70
     0
280
     1
281
     0
  0
BLOCK_RECORD
  5
1B
330
1
100
AcDbSymbolTableRecord
100
AcDbBlockTableRecord
  2
*Paper_Space
340
1E
 70
     0
280
     1
281
     0
  0
BLOCK_RECORD
  5
23
330
1
100
AcDbSymbolTableRecord
100
AcDbBlockTableRecord
  2
*Paper_Space0
340
26
 70
     0
280
     1
281
     0
  0
BLOCK_RECORD
  5
59
330
1
100
AcDbSymbolTableRecord
100
AcDbBlockTableRecord
  2
block 2
340
0
102
{BLKREFS
331
5A
102
}
 70
     0
280
     1
281
     0
  0
BLOCK_RECORD
  5
60
330
1
100
AcDbSymbolTableRecord
100
AcDbBlockTableRecord
  2
block 3
340
0
102
{BLKREFS
331
61
102
}
 70
     0
280
     1
281
     0
  0
BLOCK_RECORD
  5
66
330
1
100
AcDbSymbolTableRecord
100
AcDbBlockTableRecord
  2
block 4
340
0
102
{BLKREFS
331
67
102
}
 70
     0
280
     1
281
     0
  0
BLOCK_RECORD
  5
7A
330
1
100
AcDbSymbolTableRecord
100
AcDbBlockTableRecord
  2
block 5
340
0
102
{BLKREFS
331
7B
102
}
 70
     0
280
     1
281
     0
  0
BLOCK_RECORD
  5
91
330
1
100
AcDbSymbolTableRecord
100
AcDbBlockTableRecord
  2
block 6
340
0
102
{BLKREFS
331
92
102
}
 70
     0
280
     1
281
     0
  0
BLOCK_RECORD
  5
C8
330
1
100
AcDbSymbolTableRecord
100
AcDbBlockTableRecord
  2
block 7
340
0
102
{BLKREFS
331
C9
102
}
 70
     0
280
     1
281
     0
  0
BLOCK_RECORD
  5
E4
330
1
100
AcDbSymbolTableRecord
100
AcDbBlockTableRecord
  2
block 8
340
0
102
{BLKREFS
331
E5
102
}
 70
     0
280
     1
281
     0
  0
ENDTAB
  0
ENDSEC
  0
SECTION
  2
BLOCKS
  0
BLOCK
  5
20
330
1F
100
AcDbEntity
  8
0
100
AcDbBlockBegin
  2
*Model_Space
 70
     0
 10
0.0
 20
0.0
 30
0.0
  3
*Model_Space
  1

  0
ENDBLK
  5
21
330
1F
100
AcDbEntity
  8
0
100
AcDbBlockEnd
  0
BLOCK
  5
1C
330
1B
100
AcDbEntity
 67
     1
  8
0
100
AcDbBlockBegin
  2
*Paper_Space
 70
     0
 10
0.0
 20
0.0
 30
0.0
  3
*Paper_Space
  1

  0
ENDBLK
  5
1D
330
1B
100
AcDbEntity
 67
     1
  8
0
100
AcDbBlockEnd
  0
BLOCK
  5
24
330
23
100
AcDbEntity
  8
0
100
AcDbBlockBegin
  2
*Paper_Space0
 70
     0
 10
0.0
 20
0.0
 30
0.0
  3
*Paper_Space0
  1

  0
ENDBLK
  5
25
330
23
100
AcDbEntity
  8
0
100
AcDbBlockEnd
  0
BLOCK
  5
5B
330
59
100
AcDbEntity
  8
0
100
AcDbBlockBegin
  2
block 2
 70
     0
 10
0.0
 20
0.0
 30
0.0
  3
block 2
  1

  0
SPLINE
  5
5D
330
59
100
AcDbEntity
  8
_U+30EC_U+30A4_U+30E4_U+30FC 1
370
     0
100
AcDbSpline
210
0.0
220
0.0
230
1.0
 70
    11
 71
     3
 72
    32
 73
    28
 74
     0
 42
0.0000000001
 43
0.0000000001
 12
1.0
 22
0.0
 32
0.0
 13
1.0
 23
0.0
 33
0.0
 40
0.0
 40
0.0
 40
0.0
 40
0.0
 40
1.0
 40
1.0
 40
1.0
 40
2.0
 40
2.0
 40
2.0
 40
3.0
 40
3.0
 40
3.0
 40
4.0
 40
4.0
 40
4.0
 40
5.0
 40
5.0
 40
5.0
 40
6.0
 40
6.0
 40
6.0
 40
7.0
 40
7.0
 40
7.0
 40
8.0
 40
8.0
 40
8.0
 40
9.0
 40
9.0
 40
9.0
 40
9.0
 10
117.3623453482636
 20
-131.2295436954912
 30
0.0
 10
117.3623453482636
 20
-131.7456189991817
 30
0.0
 10
116.8083739942354
 20
-131.7542317378948
 30
0.0
 10
116.5944335646014
 20
-131.7542317378948
 30
0.0
 10
116.3639566766382
 20
-131.7542317378948
 30
0.0
 10
115.7166232349597
 20
-131.7349392031774
 30
0.0
 10
115.7166232349597
 20
-131.191303135605
 30
0.0
 10
115.7166232349597
 20
-131.0180148326969
 30
0.0
 10
115.7865586733103
 20
-130.7723795245986
 30
0.0
 10
116.1186658780884
 20
-130.7344834742608
 30
0.0
 10
116.1186658780884
 20
-130.7344834742608
 30
0.0
 10
116.1186658780884
 20
-130.9480793943463
 30
0.0
 10
116.1186658780884
 20
-130.9480793943463
 30
0.0
 10
116.0614772930332
 20
-130.9587591903506
 30
0.0
 10
115.9133381871675
 20
-130.9904540688149
 30
0.0
 10
115.9133381871675
 20
-131.1933701928961
 30
0.0
 10
115.9133381871675
 20
-131.4855142900453
 30
0.0
 10
116.2413112773633
 20
-131.5254773976742
 30
0.0
 10
116.4462944587357
 20
-131.5382242509696
 30
0.0
 10
116.3680907912205
 20
-131.4452066728679
 30
0.0
 10
116.3088351488742
 20
-131.3773382918085
 30
0.0
 10
116.3088351488742
 20
-131.1954372501873
 30
0.0
 10
116.3088351488742
 20
-131.0156032658572
 30
0.0
 10
116.417011147111
 20
-130.7131238822523
 30
0.0
 10
116.823187904822
 20
-130.7131238822523
 30
0.0
 10
117.1425482563047
 20
-130.7131238822523
 30
0.0
 10
117.3623453482636
 20
-130.9122504012997
 30
0.0
 10
117.3623453482636
 20
-131.2295436954912
 30
0.0
  0
SPLINE
  5
5E
330
59
100
AcDbEntity
  8
_U+30EC_U+30A4_U+30E4_U+30FC 1
370
     0
100
AcDbSpline
210
0.0
220
0.0
230
1.0
 70
    11
 71
     3
 72
    17
 73
    13
 74
     0
 42
0.0000000001
 43
0.0000000001
 12
1.0
 22
0.0
 32
0.0
 13
1.0
 23
0.0
 33
0.0
 40
0.0
 40
0.0
 40
0.0
 40
0.0
 40
1.0
 40
1.0
 40
1.0
 40
2.0
 40
2.0
 40
2.0
 40
3.0
 40
3.0
 40
3.0
 40
4.0
 40
4.0
 40
4.0
 40
4.0
 10
116.5034830437908
 20
-131.2126627276135
 30
0.0
 10
116.5034830437908
 20
-131.474834494041
 30
0.0
 10
116.7150119065851
 20
-131.5127305443788
 30
0.0
 10
116.8314561339866
 20
-131.5127305443788
 30
0.0
 10
117.0071560037343
 20
-131.5127305443788
 30
0.0
 10
117.1701090201866
 20
-131.4176459089859
 30
0.0
 10
117.1701090201866
 20
-131.2336778100735
 30
0.0
 10
117.1701090201866
 20
-131.1130994680898
 30
0.0
 10
117.1108533778403
 20
-130.937399598342
 30
0.0
 10
116.8252549621131
 20
-130.937399598342
 30
0.0
 10
116.6009792460234
 20
-130.937399598342
 30
0.0
 10
116.5034830437908
 20
-131.0769259654947
 30
0.0
 10
116.5034830437908
 20
-131.2126627276135
 30
0.0
  0
HATCH
  5
5F
330
59
100
AcDbEntity
  8
_U+30EC_U+30A4_U+30E4_U+30FC 1
 62
   179
420
  2234388
100
AcDbHatch
 10
0.0
 20
0.0
 30
0.0
210
0.0
220
0.0
230
1.0
  2
SOLID
 70
     1
 71
     0
 91
        2
 92
        1
 93
        1
 72
     4
 94
        3
 73
     0
 74
     1
 95
       32
 96
       28
 40
0.0
 40
0.0
 40
0.0
 40
0.0
 40
1.0
 40
1.0
 40
1.0
 40
2.0
 40
2.0
 40
2.0
 40
3.0
 40
3.0
 40
3.0
 40
4.0
 40
4.0
 40
4.0
 40
5.0
 40
5.0
 40
5.0
 40
6.0
 40
6.0
 40
6.0
 40
7.0
 40
7.0
 40
7.0
 40
8.0
 40
8.0
 40
8.0
 40
9.0
 40
9.0
 40
9.0
 40
9.0
 10
117.3623453482636
 20
-131.2295436954912
 10
117.3623453482636
 20
-131.7456189991817
 10
116.8083739942354
 20
-131.7542317378948
 10
116.5944335646014
 20
-131.7542317378948
 10
116.3639566766382
 20
-131.7542317378948
 10
115.7166232349597
 20
-131.7349392031774
 10
115.7166232349597
 20
-131.191303135605
 10
115.7166232349597
 20
-131.0180148326969
 10
115.7865586733103
 20
-130.7723795245986
 10
116.1186658780884
 20
-130.7344834742608
 10
116.1186658780884
 20
-130.7344834742608
 10
116.1186658780884
 20
-130.9480793943463
 10
116.1186658780884
 20
-130.9480793943463
 10
116.0614772930332
 20
-130.9587591903506
 10
115.9133381871675
 20
-130.9904540688149
 10
115.9133381871675
 20
-131.1933701928961
 10
115.9133381871675
 20
-131.4855142900453
 10
116.2413112773633
 20
-131.5254773976742
 10
116.4462944587357
 20
-131.5382242509696
 10
116.3680907912205
 20
-131.4452066728679
 10
116.3088351488742
 20
-131.3773382918085
 10
116.3088351488742
 20
-131.1954372501873
 10
116.3088351488742
 20
-131.0156032658572
 10
116.417011147111
 20
-130.7131238822523
 10
116.823187904822
 20
-130.7131238822523
 10
117.1425482563047
 20
-130.7131238822523
 10
117.3623453482636
 20
-130.9122504012997
 10
117.3623453482636
 20
-131.2295436954912
 97
        0
 97
        0
 92
        1
 93
        1
 72
     4
 94
        3
 73
     0
 74
     1
 95
       17
 96
       13
 40
0.0
 40
0.0
 40
0.0
 40
0.0
 40
1.0
 40
1.0
 40
1.0
 40
2.0
 40
2.0
 40
2.0
 40
3.0
 40
3.0
 40
3.0
 40
4.0
 40
4.0
 40
4.0
 40
4.0
 10
116.5034830437908
 20
-131.2126627276135
 10
116.5034830437908
 20
-131.474834494041
 10
116.7150119065851
 20
-131.5127305443788
 10
116.8314561339866
 20
-131.5127305443788
 10
117.0071560037343
 20
-131.5127305443788
 10
117.1701090201866
 20
-131.4176459089859
 10
117.1701090201866
 20
-131.2336778100735
 10
117.1701090201866
 20
-131.1130994680898
 10
117.1108533778403
 20
-130.937399598342
 10
116.8252549621131
 20
-130.937399598342
 10
116.6009792460234
 20
-130.937399598342
 10
116.5034830437908
 20
-131.0769259654947
 10
116.5034830437908
 20
-131.2126627276135
 97
        0
 97
        0
 75
     2
 76
     1
 98
        0
  0
ENDBLK
  5
5C
330
59
100
AcDbEntity
  8
0
100
AcDbBlockEnd
  0
BLOCK
  5
62
330
60
100
AcDbEntity
  8
0
100
AcDbBlockBegin
  2
block 3
 70
     0
 10
0.0
 20
0.0
 30
0.0
  3
block 3
  1

  0
SPLINE
  5
64
330
60
100
AcDbEntity
  8
_U+30EC_U+30A4_U+30E4_U+30FC 1
370
     0
100
AcDbSpline
210
0.0
220
0.0
230
1.0
 70
    11
 71
     3
 72
    26
 73
    22
 74
     0
 42
0.0000000001
 43
0.0000000001
 12
1.0
 22
0.0
 32
0.0
 13
1.0
 23
0.0
 33
0.0
 40
0.0
 40
0.0
 40
0.0
 40
0.0
 40
1.0
 40
1.0
 40
1.0
 40
2.0
 40
2.0
 40
2.0
 40
3.0
 40
3.0
 40
3.0
 40
4.0
 40
4.0
 40
4.0
 40
5.0
 40
5.0
 40
5.0
 40
6.0
 40
6.0
 40
6.0
 40
7.0
 40
7.0
 40
7.0
 40
7.0
 10
117.3117024446304
 20
-126.2999565656472
 30
0.0
 10
117.3117024446304
 20
-126.2999565656472
 30
0.0
 10
116.2075493416078
 20
-126.2999565656472
 30
0.0
 10
116.2075493416078
 20
-126.2999565656472
 30
0.0
 10
116.2075493416078
 20
-126.2999565656472
 30
0.0
 10
116.2075493416078
 20
-126.6299967131342
 30
0.0
 10
116.2075493416078
 20
-126.6299967131342
 30
0.0
 10
116.2075493416078
 20
-126.6299967131342
 30
0.0
 10
116.0594102357421
 20
-126.6299967131342
 30
0.0
 10
116.0594102357421
 20
-126.6299967131342
 30
0.0
 10
116.0445963251555
 20
-126.2978895083561
 30
0.0
 10
115.8816433087032
 20
-126.2513807193052
 30
0.0
 10
115.7672661385929
 20
-126.2217528981321
 30
0.0
 10
115.7672661385929
 20
-126.2217528981321
 30
0.0
 10
115.7672661385929
 20
-126.0756808495575
 30
0.0
 10
115.7672661385929
 20
-126.0756808495575
 30
0.0
 10
115.7672661385929
 20
-126.0756808495575
 30
0.0
 10
117.3117024446304
 20
-126.0756808495575
 30
0.0
 10
117.3117024446304
 20
-126.0756808495575
 30
0.0
 10
117.3117024446304
 20
-126.0756808495575
 30
0.0
 10
117.3117024446304
 20
-126.2999565656472
 30
0.0
 10
117.3117024446304
 20
-126.2999565656472
 30
0.0
  0
HATCH
  5
65
330
60
100
AcDbEntity
  8
_U+30EC_U+30A4_U+30E4_U+30FC 1
 62
   179
420
  2234388
100
AcDbHatch
 10
0.0
 20
0.0
 30
0.0
210
0.0
220
0.0
230
1.0
  2
SOLID
 70
     1
 71
     0
 91
        1
 92
        1
 93
        1
 72
     4
 94
        3
 73
     0
 74
     1
 95
       26
 96
       22
 40
0.0
 40
0.0
 40
0.0
 40
0.0
 40
1.0
 40
1.0
 40
1.0
 40
2.0
 40
2.0
 40
2.0
 40
3.0
 40
3.0
 40
3.0
 40
4.0
 40
4.0
 40
4.0
 40
5.0
 40
5.0
 40
5.0
 40
6.0
 40
6.0
 40
6.0
 40
7.0
 40
7.0
 40
7.0
 40
7.0
 10
117.3117024446304
 20
-126.2999565656472
 10
117.3117024446304
 20
-126.2999565656472
 10
116.2075493416078
 20
-126.2999565656472
 10
116.2075493416078
 20
-126.2999565656472
 10
116.2075493416078
 20
-126.2999565656472
 10
116.2075493416078
 20
-126.6299967131342
 10
116.2075493416078
 20
-126.6299967131342
 10
116.2075493416078
 20
-126.6299967131342
 10
116.0594102357421
 20
-126.6299967131342
 10
116.0594102357421
 20
-126.6299967131342
 10
116.0445963251555
 20
-126.2978895083561
 10
115.8816433087032
 20
-126.2513807193052
 10
115.7672661385929
 20
-126.2217528981321
 10
115.7672661385929
 20
-126.2217528981321
 10
115.7672661385929
 20
-126.0756808495575
 10
115.7672661385929
 20
-126.0756808495575
 10
115.7672661385929
 20
-126.0756808495575
 10
117.3117024446304
 20
-126.0756808495575
 10
117.3117024446304
 20
-126.0756808495575
 10
117.3117024446304
 20
-126.0756808495575
 10
117.3117024446304
 20
-126.2999565656472
 10
117.3117024446304
 20
-126.2999565656472
 97
        0
 97
        0
 75
     2
 76
     1
 98
        0
  0
ENDBLK
  5
63
330
60
100
AcDbEntity
  8
0
100
AcDbBlockEnd
  0
BLOCK
  5
68
330
66
100
AcDbEntity
  8
0
100
AcDbBlockBegin
  2
block 4
 70
     0
 10
0.0
 20
0.0
 30
0.0
  3
block 4
  1

  0
SPLINE
  5
6A
330
66
100
AcDbEntity
  8
_U+30EC_U+30A4_U+30E4_U+30FC 1
370
     0
100
AcDbSpline
210
0.0
220
0.0
230
1.0
 70
    11
 71
     3
 72
    62
 73
    58
 74
     0
 42
0.0000000001
 43
0.0000000001
 12
1.0
 22
0.0
 32
0.0
 13
1.0
 23
0.0
 33
0.0
 40
0.0
 40
0.0
 40
0.0
 40
0.0
 40
1.0
 40
1.0
 40
1.0
 40
2.0
 40
2.0
 40
2.0
 40
3.0
 40
3.0
 40
3.0
 40
4.0
 40
4.0
 40
4.0
 40
5.0
 40
5.0
 40
5.0
 40
6.0
 40
6.0
 40
6.0
 40
7.0
 40
7.0
 40
7.0
 40
8.0
 40
8.0
 40
8.0
 40
9.0
 40
9.0
 40
9.0
 40
10.0
 40
10.0
 40
10.0
 40
11.0
 40
11.0
 40
11.0
 40
12.0
 40
12.0
 40
12.0
 40
13.0
 40
13.0
 40
13.0
 40
14.0
 40
14.0
 40
14.0
 40
15.0
 40
15.0
 40
15.0
 40
16.0
 40
16.0
 40
16.0
 40
17.0
 40
17.0
 40
17.0
 40
18.0
 40
18.0
 40
18.0
 40
19.0
 40
19.0
 40
19.0
 40
19.0
 10
117.3623453482636
 20
-135.7288383992275
 30
0.0
 10
117.3623453482636
 20
-135.8242675441689
 30
0.0
 10
117.3413302658036
 20
-136.0419975788367
 30
0.0
 10
117.1552951096001
 20
-136.1670545449513
 30
0.0
 10
117.0429849967809
 20
-136.2411240978842
 30
0.0
 10
116.9437662468057
 20
-136.2452582124665
 30
0.0
 10
116.8590168978686
 20
-136.2493923270488
 30
0.0
 10
116.8590168978686
 20
-136.2493923270488
 30
0.0
 10
116.8590168978686
 20
-136.0292507255413
 30
0.0
 10
116.8590168978686
 20
-136.0292507255413
 30
0.0
 10
116.9330864508015
 20
-136.0271836682502
 30
0.0
 10
117.167697453347
 20
-136.0168483817944
 30
0.0
 10
117.167697453347
 20
-135.7333170233584
 30
0.0
 10
117.167697453347
 20
-135.5958577134969
 30
0.0
 10
117.0981065245449
 20
-135.4432399835003
 30
0.0
 10
116.8696966938729
 20
-135.4432399835003
 30
0.0
 10
116.7532524664714
 20
-135.4432399835003
 30
0.0
 10
116.7046766201294
 20
-135.4814805433866
 30
0.0
 10
116.6729817416651
 20
-135.5131754218509
 30
0.0
 10
116.5989121887322
 20
-135.5872449747837
 30
0.0
 10
116.5861653354368
 20
-135.7036892021852
 30
0.0
 10
116.5861653354368
 20
-135.7584662204007
 30
0.0
 10
116.5861653354368
 20
-135.7777587551181
 30
0.0
 10
116.5882323927279
 20
-135.8135877481647
 30
0.0
 10
116.5923665073102
 20
-135.8411485120467
 30
0.0
 10
116.5923665073102
 20
-135.8411485120467
 30
0.0
 10
116.3977186123936
 20
-135.8411485120467
 30
0.0
 10
116.3977186123936
 20
-135.8411485120467
 30
0.0
 10
116.4042642938156
 20
-135.8029079521604
 30
0.0
 10
116.4063313511068
 20
-135.7608777872403
 30
0.0
 10
116.4063313511068
 20
-135.7543321058184
 30
0.0
 10
116.4063313511068
 20
-135.6888752915986
 30
0.0
 10
116.3849717590982
 20
-135.4900932820997
 30
0.0
 10
116.1482936992615
 20
-135.4900932820997
 30
0.0
 10
115.9705267722227
 20
-135.4900932820997
 30
0.0
 10
115.9154052444587
 20
-135.6210069105392
 30
0.0
 10
115.9154052444587
 20
-135.7312499660672
 30
0.0
 10
115.9154052444587
 20
-135.9954887897859
 30
0.0
 10
116.1482936992615
 20
-136.004101528499
 30
0.0
 10
116.2199516853547
 20
-136.0082356430813
 30
0.0
 10
116.2199516853547
 20
-136.0082356430813
 30
0.0
 10
116.2199516853547
 20
-136.211496276711
 30
0.0
 10
116.2199516853547
 20
-136.211496276711
 30
0.0
 10
116.0952392287887
 20
-136.2028835379979
 30
0.0
 10
115.7186902922509
 20
-136.1753227741159
 30
0.0
 10
115.7186902922509
 20
-135.7185031127718
 30
0.0
 10
115.7186902922509
 20
-135.494227396682
 30
0.0
 10
115.8458143156566
 20
-135.2530707127145
 30
0.0
 10
116.1417480178396
 20
-135.2530707127145
 30
0.0
 10
116.3281276835916
 20
-135.2530707127145
 30
0.0
 10
116.4104654656891
 20
-135.3481553481074
 30
0.0
 10
116.4717881653265
 20
-135.4477186076311
 30
0.0
 10
116.4993489292085
 20
-135.3863959079937
 30
0.0
 10
116.5796196540148
 20
-135.2044948663725
 30
0.0
 10
116.8569498405774
 20
-135.2044948663725
 30
0.0
 10
117.195258217229
 20
-135.2044948663725
 30
0.0
 10
117.3623453482636
 20
-135.4518527222134
 30
0.0
 10
117.3623453482636
 20
-135.7288383992275
 30
0.0
  0
HATCH
  5
6B
330
66
100
AcDbEntity
  8
_U+30EC_U+30A4_U+30E4_U+30FC 1
 62
   179
420
  2234388
100
AcDbHatch
 10
0.0
 20
0.0
 30
0.0
210
0.0
220
0.0
230
1.0
  2
SOLID
 70
     1
 71
     0
 91
        1
 92
        1
 93
        1
 72
     4
 94
        3
 73
     0
 74
     1
 95
       62
 96
       58
 40
0.0
 40
0.0
 40
0.0
 40
0.0
 40
1.0
 40
1.0
 40
1.0
 40
2.0
 40
2.0
 40
2.0
 40
3.0
 40
3.0
 40
3.0
 40
4.0
 40
4.0
 40
4.0
 40
5.0
 40
5.0
 40
5.0
 40
6.0
 40
6.0
 40
6.0
 40
7.0
 40
7.0
 40
7.0
 40
8.0
 40
8.0
 40
8.0
 40
9.0
 40
9.0
 40
9.0
 40
10.0
 40
10.0
 40
10.0
 40
11.0
 40
11.0
 40
11.0
 40
12.0
 40
12.0
 40
12.0
 40
13.0
 40
13.0
 40
13.0
 40
14.0
 40
14.0
 40
14.0
 40
15.0
 40
15.0
 40
15.0
 40
16.0
 40
16.0
 40
16.0
 40
17.0
 40
17.0
 40
17.0
 40
18.0
 40
18.0
 40
18.0
 40
19.0
 40
19.0
 40
19.0
 40
19.0
 10
117.3623453482636
 20
-135.7288383992275
 10
117.3623453482636
 20
-135.8242675441689
 10
117.3413302658036
 20
-136.0419975788367
 10
117.1552951096001
 20
-136.1670545449513
 10
117.0429849967809
 20
-136.2411240978842
 10
116.9437662468057
 20
-136.2452582124665
 10
116.8590168978686
 20
-136.2493923270488
 10
116.8590168978686
 20
-136.2493923270488
 10
116.8590168978686
 20
-136.0292507255413
 10
116.8590168978686
 20
-136.0292507255413
 10
116.9330864508015
 20
-136.0271836682502
 10
117.167697453347
 20
-136.0168483817944
 10
117.167697453347
 20
-135.7333170233584
 10
117.167697453347
 20
-135.5958577134969
 10
117.0981065245449
 20
-135.4432399835003
 10
116.8696966938729
 20
-135.4432399835003
 10
116.7532524664714
 20
-135.4432399835003
 10
116.7046766201294
 20
-135.4814805433866
 10
116.6729817416651
 20
-135.5131754218509
 10
116.5989121887322
 20
-135.5872449747837
 10
116.5861653354368
 20
-135.7036892021852
 10
116.5861653354368
 20
-135.7584662204007
 10
116.5861653354368
 20
-135.7777587551181
 10
116.5882323927279
 20
-135.8135877481647
 10
116.5923665073102
 20
-135.8411485120467
 10
116.5923665073102
 20
-135.8411485120467
 10
116.3977186123936
 20
-135.8411485120467
 10
116.3977186123936
 20
-135.8411485120467
 10
116.4042642938156
 20
-135.8029079521604
 10
116.4063313511068
 20
-135.7608777872403
 10
116.4063313511068
 20
-135.7543321058184
 10
116.4063313511068
 20
-135.6888752915986
 10
116.3849717590982
 20
-135.4900932820997
 10
116.1482936992615
 20
-135.4900932820997
 10
115.9705267722227
 20
-135.4900932820997
 10
115.9154052444587
 20
-135.6210069105392
 10
115.9154052444587
 20
-135.7312499660672
 10
115.9154052444587
 20
-135.9954887897859
 10
116.1482936992615
 20
-136.004101528499
 10
116.2199516853547
 20
-136.0082356430813
 10
116.2199516853547
 20
-136.0082356430813
 10
116.2199516853547
 20
-136.211496276711
 10
116.2199516853547
 20
-136.211496276711
 10
116.0952392287887
 20
-136.2028835379979
 10
115.7186902922509
 20
-136.1753227741159
 10
115.7186902922509
 20
-135.7185031127718
 10
115.7186902922509
 20
-135.494227396682
 10
115.8458143156566
 20
-135.2530707127145
 10
116.1417480178396
 20
-135.2530707127145
 10
116.3281276835916
 20
-135.2530707127145
 10
116.4104654656891
 20
-135.3481553481074
 10
116.4717881653265
 20
-135.4477186076311
 10
116.4993489292085
 20
-135.3863959079937
 10
116.5796196540148
 20
-135.2044948663725
 10
116.8569498405774
 20
-135.2044948663725
 10
117.195258217229
 20
-135.2044948663725
 10
117.3623453482636
 20
-135.4518527222134
 10
117.3623453482636
 20
-135.7288383992275
 97
        0
 97
        0
 75
     2
 76
     1
 98
        0
  0
ENDBLK
  5
69
330
66
100
AcDbEntity
  8
0
100
AcDbBlockEnd
  0
BLOCK
  5
7C
330
7A
100
AcDbEntity
  8
0
100
AcDbBlockBegin
  2
block 5
 70
     0
 10
0.0
 20
0.0
 30
0.0
  3
block 5
  1

  0
SPLINE
  5
7E
330
7A
100
AcDbEntity
  8
_U+30EC_U+30A4_U+30E4_U+30FC 1
370
     0
100
AcDbSpline
210
0.0
220
0.0
230
1.0
 70
    11
 71
     3
 72
    26
 73
    22
 74
     0
 42
0.0000000001
 43
0.0000000001
 12
1.0
 22
0.0
 32
0.0
 13
1.0
 23
0.0
 33
0.0
 40
0.0
 40
0.0
 40
0.0
 40
0.0
 40
1.0
 40
1.0
 40
1.0
 40
2.0
 40
2.0
 40
2.0
 40
3.0
 40
3.0
 40
3.0
 40
4.0
 40
4.0
 40
4.0
 40
5.0
 40
5.0
 40
5.0
 40
6.0
 40
6.0
 40
6.0
 40
7.0
 40
7.0
 40
7.0
 40
7.0
 10
74.94701875296464
 20
-143.492361075238
 30
0.0
 10
74.94701875296464
 20
-143.492361075238
 30
0.0
 10
74.94701875296464
 20
-142.3882079722155
 30
0.0
 10
74.94701875296464
 20
-142.3882079722155
 30
0.0
 10
74.94701875296464
 20
-142.3882079722155
 30
0.0
 10
74.6169786054777
 20
-142.3882079722155
 30
0.0
 10
74.6169786054777
 20
-142.3882079722155
 30
0.0
 10
74.6169786054777
 20
-142.3882079722155
 30
0.0
 10
74.6169786054777
 20
-142.2400688663497
 30
0.0
 10
74.6169786054777
 20
-142.2400688663497
 30
0.0
 10
74.94908581025578
 20
-142.2252549557631
 30
0.0
 10
74.99559459930666
 20
-142.0623019393108
 30
0.0
 10
75.0252224204798
 20
-141.9479247692005
 30
0.0
 10
75.0252224204798
 20
-141.9479247692005
 30
0.0
 10
75.1712944690544
 20
-141.9479247692005
 30
0.0
 10
75.1712944690544
 20
-141.9479247692005
 30
0.0
 10
75.1712944690544
 20
-141.9479247692005
 30
0.0
 10
75.1712944690544
 20
-143.492361075238
 30
0.0
 10
75.1712944690544
 20
-143.492361075238
 30
0.0
 10
75.1712944690544
 20
-143.492361075238
 30
0.0
 10
74.94701875296464
 20
-143.492361075238
 30
0.0
 10
74.94701875296464
 20
-143.492361075238
 30
0.0
  0
HATCH
  5
7F
330
7A
100
AcDbEntity
  8
_U+30EC_U+30A4_U+30E4_U+30FC 1
 62
   179
420
  2234388
100
AcDbHatch
 10
0.0
 20
0.0
 30
0.0
210
0.0
220
0.0
230
1.0
  2
SOLID
 70
     1
 71
     0
 91
        1
 92
        1
 93
        1
 72
     4
 94
        3
 73
     0
 74
     1
 95
       26
 96
       22
 40
0.0
 40
0.0
 40
0.0
 40
0.0
 40
1.0
 40
1.0
 40
1.0
 40
2.0
 40
2.0
 40
2.0
 40
3.0
 40
3.0
 40
3.0
 40
4.0
 40
4.0
 40
4.0
 40
5.0
 40
5.0
 40
5.0
 40
6.0
 40
6.0
 40
6.0
 40
7.0
 40
7.0
 40
7.0
 40
7.0
 10
74.94701875296464
 20
-143.492361075238
 10
74.94701875296464
 20
-143.492361075238
 10
74.94701875296464
 20
-142.3882079722155
 10
74.94701875296464
 20
-142.3882079722155
 10
74.94701875296464
 20
-142.3882079722155
 10
74.6169786054777
 20
-142.3882079722155
 10
74.6169786054777
 20
-142.3882079722155
 10
74.6169786054777
 20
-142.3882079722155
 10
74.6169786054777
 20
-142.2400688663497
 10
74.6169786054777
 20
-142.2400688663497
 10
74.94908581025578
 20
-142.2252549557631
 10
74.99559459930666
 20
-142.0623019393108
 10
75.0252224204798
 20
-141.9479247692005
 10
75.0252224204798
 20
-141.9479247692005
 10
75.1712944690544
 20
-141.9479247692005
 10
75.1712944690544
 20
-141.9479247692005
 10
75.1712944690544
 20
-141.9479247692005
 10
75.1712944690544
 20
-143.492361075238
 10
75.1712944690544
 20
-143.492361075238
 10
75.1712944690544
 20
-143.492361075238
 10
74.94701875296464
 20
-143.492361075238
 10
74.94701875296464
 20
-143.492361075238
 97
        0
 97
        0
 75
     2
 76
     1
 98
        0
  0
SPLINE
  5
80
330
7A
100
AcDbEntity
  8
_U+30EC_U+30A4_U+30E4_U+30FC 1
370
     0
100
AcDbSpline
210
0.0
220
0.0
230
1.0
 70
    11
 71
     3
 72
    29
 73
    25
 74
     0
 42
0.0000000001
 43
0.0000000001
 12
1.0
 22
0.0
 32
0.0
 13
1.0
 23
0.0
 33
0.0
 40
0.0
 40
0.0
 40
0.0
 40
0.0
 40
1.0
 40
1.0
 40
1.0
 40
2.0
 40
2.0
 40
2.0
 40
3.0
 40
3.0
 40
3.0
 40
4.0
 40
4.0
 40
4.0
 40
5.0
 40
5.0
 40
5.0
 40
6.0
 40
6.0
 40
6.0
 40
7.0
 40
7.0
 40
7.0
 40
8.0
 40
8.0
 40
8.0
 40
8.0
 10
76.57034774561436
 20
-143.3145941481991
 30
0.0
 10
76.46217174737751
 20
-143.5240559537023
 30
0.0
 10
76.28888344446945
 20
-143.5430039788712
 30
0.0
 10
76.172439217068
 20
-143.5430039788712
 30
0.0
 10
76.01155325790684
 20
-143.5430039788712
 30
0.0
 10
75.86995983346307
 20
-143.4964951898203
 30
0.0
 10
75.77487519807018
 20
-143.3145941481991
 30
0.0
 10
75.67117782396416
 20
-143.1199462532825
 30
0.0
 10
75.65222979879528
 20
-142.8832681934458
 30
0.0
 10
75.65222979879528
 20
-142.7203151769936
 30
0.0
 10
75.65222979879528
 20
-142.5763101857101
 30
0.0
 10
75.669110766673
 20
-142.3244737057383
 30
0.0
 10
75.77487519807018
 20
-142.1256916962394
 30
0.0
 10
75.8827066867585
 20
-141.9227755721582
 30
0.0
 10
76.04359264591966
 20
-141.8993489228585
 30
0.0
 10
76.172439217068
 20
-141.8993489228585
 30
0.0
 10
76.33125811893802
 20
-141.8993489228585
 30
0.0
 10
76.47491860067294
 20
-141.9437906546182
 30
0.0
 10
76.57034774561436
 20
-142.1256916962394
 30
0.0
 10
76.66956649558955
 20
-142.3182725338649
 30
0.0
 10
76.69299314488926
 20
-142.5466823645369
 30
0.0
 10
76.69299314488926
 20
-142.7203151769936
 30
0.0
 10
76.69299314488926
 20
-142.8915364226104
 30
0.0
 10
76.6716335528807
 20
-143.1220133105737
 30
0.0
 10
76.57034774561436
 20
-143.3145941481991
 30
0.0
  0
SPLINE
  5
81
330
7A
100
AcDbEntity
  8
_U+30EC_U+30A4_U+30E4_U+30FC 1
370
     0
100
AcDbSpline
210
0.0
220
0.0
230
1.0
 70
    11
 71
     3
 72
    17
 73
    13
 74
     0
 42
0.0000000001
 43
0.0000000001
 12
1.0
 22
0.0
 32
0.0
 13
1.0
 23
0.0
 33
0.0
 40
0.0
 40
0.0
 40
0.0
 40
0.0
 40
1.0
 40
1.0
 40
1.0
 40
2.0
 40
2.0
 40
2.0
 40
3.0
 40
3.0
 40
3.0
 40
4.0
 40
4.0
 40
4.0
 40
4.0
 10
76.172439217068
 20
-142.091929760484
 30
0.0
 10
75.92301430393591
 20
-142.091929760484
 30
0.0
 10
75.87616100533651
 20
-142.37546111892
 30
0.0
 10
75.87616100533651
 20
-142.7203151769936
 30
0.0
 10
75.87616100533651
 20
-143.0396755284762
 30
0.0
 10
75.91233450793165
 20
-143.3483560839546
 30
0.0
 10
76.172439217068
 20
-143.3483560839546
 30
0.0
 10
76.42014158245746
 20
-143.3483560839546
 30
0.0
 10
76.4687174287995
 20
-143.0672362923582
 30
0.0
 10
76.4687174287995
 20
-142.7203151769936
 30
0.0
 10
76.4687174287995
 20
-142.4006103159624
 30
0.0
 10
76.43047686891322
 20
-142.091929760484
 30
0.0
 10
76.172439217068
 20
-142.091929760484
 30
0.0
  0
HATCH
  5
82
330
7A
100
AcDbEntity
  8
_U+30EC_U+30A4_U+30E4_U+30FC 1
 62
   179
420
  2234388
100
AcDbHatch
 10
0.0
 20
0.0
 30
0.0
210
0.0
220
0.0
230
1.0
  2
SOLID
 70
     1
 71
     0
 91
        2
 92
        1
 93
        1
 72
     4
 94
        3
 73
     0
 74
     1
 95
       29
 96
       25
 40
0.0
 40
0.0
 40
0.0
 40
0.0
 40
1.0
 40
1.0
 40
1.0
 40
2.0
 40
2.0
 40
2.0
 40
3.0
 40
3.0
 40
3.0
 40
4.0
 40
4.0
 40
4.0
 40
5.0
 40
5.0
 40
5.0
 40
6.0
 40
6.0
 40
6.0
 40
7.0
 40
7.0
 40
7.0
 40
8.0
 40
8.0
 40
8.0
 40
8.0
 10
76.57034774561436
 20
-143.3145941481991
 10
76.46217174737751
 20
-143.5240559537023
 10
76.28888344446945
 20
-143.5430039788712
 10
76.172439217068
 20
-143.5430039788712
 10
76.01155325790684
 20
-143.5430039788712
 10
75.86995983346307
 20
-143.4964951898203
 10
75.77487519807018
 20
-143.3145941481991
 10
75.67117782396416
 20
-143.1199462532825
 10
75.65222979879528
 20
-142.8832681934458
 10
75.65222979879528
 20
-142.7203151769936
 10
75.65222979879528
 20
-142.5763101857101
 10
75.669110766673
 20
-142.3244737057383
 10
75.77487519807018
 20
-142.1256916962394
 10
75.8827066867585
 20
-141.9227755721582
 10
76.04359264591966
 20
-141.8993489228585
 10
76.172439217068
 20
-141.8993489228585
 10
76.33125811893802
 20
-141.8993489228585
 10
76.47491860067294
 20
-141.9437906546182
 10
76.57034774561436
 20
-142.1256916962394
 10
76.66956649558955
 20
-142.3182725338649
 10
76.69299314488926
 20
-142.5466823645369
 10
76.69299314488926
 20
-142.7203151769936
 10
76.69299314488926
 20
-142.8915364226104
 10
76.6716335528807
 20
-143.1220133105737
 10
76.57034774561436
 20
-143.3145941481991
 97
        0
 97
        0
 92
        1
 93
        1
 72
     4
 94
        3
 73
     0
 74
     1
 95
       17
 96
       13
 40
0.0
 40
0.0
 40
0.0
 40
0.0
 40
1.0
 40
1.0
 40
1.0
 40
2.0
 40
2.0
 40
2.0
 40
3.0
 40
3.0
 40
3.0
 40
4.0
 40
4.0
 40
4.0
 40
4.0
 10
76.172439217068
 20
-142.091929760484
 10
75.92301430393591
 20
-142.091929760484
 10
75.87616100533651
 20
-142.37546111892
 10
75.87616100533651
 20
-142.7203151769936
 10
75.87616100533651
 20
-143.0396755284762
 10
75.91233450793165
 20
-143.3483560839546
 10
76.172439217068
 20
-143.3483560839546
 10
76.42014158245746
 20
-143.3483560839546
 10
76.4687174287995
 20
-143.0672362923582
 10
76.4687174287995
 20
-142.7203151769936
 10
76.4687174287995
 20
-142.4006103159624
 10
76.43047686891322
 20
-142.091929760484
 10
76.172439217068
 20
-142.091929760484
 97
        0
 97
        0
 75
     2
 76
     1
 98
        0
  0
ENDBLK
  5
7D
330
7A
100
AcDbEntity
  8
0
100
AcDbBlockEnd
  0
BLOCK
  5
93
330
91
100
AcDbEntity
  8
0
100
AcDbBlockBegin
  2
block 6
 70
     0
 10
0.0
 20
0.0
 30
0.0
  3
block 6
  1

  0
SPLINE
  5
95
330
91
100
AcDbEntity
  8
_U+30EC_U+30A4_U+30E4_U+30FC 1
370
     0
100
AcDbSpline
210
0.0
220
0.0
230
1.0
 70
    11
 71
     3
 72
    26
 73
    22
 74
     0
 42
0.0000000001
 43
0.0000000001
 12
1.0
 22
0.0
 32
0.0
 13
1.0
 23
0.0
 33
0.0
 40
0.0
 40
0.0
 40
0.0
 40
0.0
 40
1.0
 40
1.0
 40
1.0
 40
2.0
 40
2.0
 40
2.0
 40
3.0
 40
3.0
 40
3.0
 40
4.0
 40
4.0
 40
4.0
 40
5.0
 40
5.0
 40
5.0
 40
6.0
 40
6.0
 40
6.0
 40
7.0
 40
7.0
 40
7.0
 40
7.0
 10
66.00182832551343
 20
-130.3989311739975
 30
0.0
 10
66.00182832551343
 20
-130.3989311739975
 30
0.0
 10
64.8975029677166
 20
-130.3989311739975
 30
0.0
 10
64.8975029677166
 20
-130.3989311739975
 30
0.0
 10
64.8975029677166
 20
-130.3989311739975
 30
0.0
 10
64.8975029677166
 20
-130.7289713214844
 30
0.0
 10
64.8975029677166
 20
-130.7289713214844
 30
0.0
 10
64.8975029677166
 20
-130.7289713214844
 30
0.0
 10
64.74936386185085
 20
-130.7289713214844
 30
0.0
 10
64.74936386185085
 20
-130.7289713214844
 30
0.0
 10
64.73472220603854
 20
-130.3968641167064
 30
0.0
 10
64.57176918958622
 20
-130.3503553276555
 30
0.0
 10
64.45756427425019
 20
-130.3207275064823
 30
0.0
 10
64.45756427425019
 20
-130.3207275064823
 30
0.0
 10
64.45756427425019
 20
-130.1746554579077
 30
0.0
 10
64.45756427425019
 20
-130.1746554579077
 30
0.0
 10
64.45756427425019
 20
-130.1746554579077
 30
0.0
 10
66.00182832551343
 20
-130.1746554579077
 30
0.0
 10
66.00182832551343
 20
-130.1746554579077
 30
0.0
 10
66.00182832551343
 20
-130.1746554579077
 30
0.0
 10
66.00182832551343
 20
-130.3989311739975
 30
0.0
 10
66.00182832551343
 20
-130.3989311739975
 30
0.0
  0
HATCH
  5
96
330
91
100
AcDbEntity
  8
_U+30EC_U+30A4_U+30E4_U+30FC 1
 62
     7
420
 16777215
100
AcDbHatch
 10
0.0
 20
0.0
 30
0.0
210
0.0
220
0.0
230
1.0
  2
SOLID
 70
     1
 71
     0
 91
        1
 92
        1
 93
        1
 72
     4
 94
        3
 73
     0
 74
     1
 95
       26
 96
       22
 40
0.0
 40
0.0
 40
0.0
 40
0.0
 40
1.0
 40
1.0
 40
1.0
 40
2.0
 40
2.0
 40
2.0
 40
3.0
 40
3.0
 40
3.0
 40
4.0
 40
4.0
 40
4.0
 40
5.0
 40
5.0
 40
5.0
 40
6.0
 40
6.0
 40
6.0
 40
7.0
 40
7.0
 40
7.0
 40
7.0
 10
66.00182832551343
 20
-130.3989311739975
 10
66.00182832551343
 20
-130.3989311739975
 10
64.8975029677166
 20
-130.3989311739975
 10
64.8975029677166
 20
-130.3989311739975
 10
64.8975029677166
 20
-130.3989311739975
 10
64.8975029677166
 20
-130.7289713214844
 10
64.8975029677166
 20
-130.7289713214844
 10
64.8975029677166
 20
-130.7289713214844
 10
64.74936386185085
 20
-130.7289713214844
 10
64.74936386185085
 20
-130.7289713214844
 10
64.73472220603854
 20
-130.3968641167064
 10
64.57176918958622
 20
-130.3503553276555
 10
64.45756427425019
 20
-130.3207275064823
 10
64.45756427425019
 20
-130.3207275064823
 10
64.45756427425019
 20
-130.1746554579077
 10
64.45756427425019
 20
-130.1746554579077
 10
64.45756427425019
 20
-130.1746554579077
 10
66.00182832551343
 20
-130.1746554579077
 10
66.00182832551343
 20
-130.1746554579077
 10
66.00182832551343
 20
-130.1746554579077
 10
66.00182832551343
 20
-130.3989311739975
 10
66.00182832551343
 20
-130.3989311739975
 97
        0
 97
        0
 75
     2
 76
     1
 98
        0
  0
SPLINE
  5
97
330
91
100
AcDbEntity
  8
_U+30EC_U+30A4_U+30E4_U+30FC 1
370
     0
100
AcDbSpline
210
0.0
220
0.0
230
1.0
 70
    11
 71
     3
 72
    53
 73
    49
 74
     0
 42
0.0000000001
 43
0.0000000001
 12
1.0
 22
0.0
 32
0.0
 13
1.0
 23
0.0
 33
0.0
 40
0.0
 40
0.0
 40
0.0
 40
0.0
 40
1.0
 40
1.0
 40
1.0
 40
2.0
 40
2.0
 40
2.0
 40
3.0
 40
3.0
 40
3.0
 40
4.0
 40
4.0
 40
4.0
 40
5.0
 40
5.0
 40
5.0
 40
6.0
 40
6.0
 40
6.0
 40
7.0
 40
7.0
 40
7.0
 40
8.0
 40
8.0
 40
8.0
 40
9.0
 40
9.0
 40
9.0
 40
10.0
 40
10.0
 40
10.0
 40
11.0
 40
11.0
 40
11.0
 40
12.0
 40
12.0
 40
12.0
 40
13.0
 40
13.0
 40
13.0
 40
14.0
 40
14.0
 40
14.0
 40
15.0
 40
15.0
 40
15.0
 40
16.0
 40
16.0
 40
16.0
 40
16.0
 10
66.05264348392087
 20
-129.192458735063
 30
0.0
 10
66.05264348392087
 20
-129.2706624025782
 30
0.0
 10
66.03576251604315
 20
-129.372292719393
 30
0.0
 10
65.9722005043403
 20
-129.4739230362079
 30
0.0
 10
65.86212970358656
 20
-129.647211339116
 30
0.0
 10
65.7310438203728
 20
-129.6685709311245
 30
0.0
 10
65.62321233168447
 20
-129.6875189562934
 30
0.0
 10
65.62321233168447
 20
-129.6875189562934
 30
0.0
 10
65.62321233168447
 20
-129.4653102974948
 30
0.0
 10
65.62321233168447
 20
-129.4653102974948
 30
0.0
 10
65.8219943411834
 20
-129.4101887697308
 30
0.0
 10
65.85162216235655
 20
-129.2834092558736
 30
0.0
 10
65.85162216235655
 20
-129.1903916777719
 30
0.0
 10
65.85162216235655
 20
-129.0508653106192
 30
0.0
 10
65.75223115760708
 20
-128.8982475806227
 30
0.0
 10
65.51951495757845
 20
-128.8982475806227
 30
0.0
 10
65.2635443630244
 20
-128.8982475806227
 30
0.0
 10
65.19378117944808
 20
-129.0780815649527
 30
0.0
 10
65.19378117944808
 20
-129.1986599069365
 30
0.0
 10
65.19378117944808
 20
-129.2303547854007
 30
0.0
 10
65.19378117944808
 20
-129.372292719393
 30
0.0
 10
65.3228000053707
 20
-129.4611761829125
 30
0.0
 10
65.3228000053707
 20
-129.4611761829125
 30
0.0
 10
65.30367972542756
 20
-129.6365315431117
 30
0.0
 10
65.30367972542756
 20
-129.6365315431117
 30
0.0
 10
65.30367972542756
 20
-129.6365315431117
 30
0.0
 10
64.45756427425019
 20
-129.515953201128
 30
0.0
 10
64.45756427425019
 20
-129.515953201128
 30
0.0
 10
64.45756427425019
 20
-129.515953201128
 30
0.0
 10
64.45756427425019
 20
-128.73770613101
 30
0.0
 10
64.45756427425019
 20
-128.73770613101
 30
0.0
 10
64.45756427425019
 20
-128.73770613101
 30
0.0
 10
64.65221216916682
 20
-128.73770613101
 30
0.0
 10
64.65221216916682
 20
-128.73770613101
 30
0.0
 10
64.65221216916682
 20
-128.73770613101
 30
0.0
 10
64.65221216916682
 20
-129.3533446942242
 30
0.0
 10
64.65221216916682
 20
-129.3533446942242
 30
0.0
 10
64.65221216916682
 20
-129.3533446942242
 30
0.0
 10
65.0752698947555
 20
-129.4188015084439
 30
0.0
 10
65.0752698947555
 20
-129.4188015084439
 30
0.0
 10
65.04133570422579
 20
-129.3574788088065
 30
0.0
 10
65.00120034182262
 20
-129.2747965171605
 30
0.0
 10
65.00120034182262
 20
-129.1566297420164
 30
0.0
 10
65.00120034182262
 20
-128.9027262047535
 30
0.0
 10
65.18740775280037
 20
-128.6657036353683
 30
0.0
 10
65.50039467763533
 20
-128.6657036353683
 30
0.0
 10
65.8178602266011
 20
-128.6657036353683
 30
0.0
 10
66.05264348392087
 20
-128.8899793514581
 30
0.0
 10
66.05264348392087
 20
-129.192458735063
 30
0.0
  0
HATCH
  5
98
330
91
100
AcDbEntity
  8
_U+30EC_U+30A4_U+30E4_U+30FC 1
 62
     7
420
 16777215
100
AcDbHatch
 10
0.0
 20
0.0
 30
0.0
210
0.0
220
0.0
230
1.0
  2
SOLID
 70
     1
 71
     0
 91
        1
 92
        1
 93
        1
 72
     4
 94
        3
 73
     0
 74
     1
 95
       53
 96
       49
 40
0.0
 40
0.0
 40
0.0
 40
0.0
 40
1.0
 40
1.0
 40
1.0
 40
2.0
 40
2.0
 40
2.0
 40
3.0
 40
3.0
 40
3.0
 40
4.0
 40
4.0
 40
4.0
 40
5.0
 40
5.0
 40
5.0
 40
6.0
 40
6.0
 40
6.0
 40
7.0
 40
7.0
 40
7.0
 40
8.0
 40
8.0
 40
8.0
 40
9.0
 40
9.0
 40
9.0
 40
10.0
 40
10.0
 40
10.0
 40
11.0
 40
11.0
 40
11.0
 40
12.0
 40
12.0
 40
12.0
 40
13.0
 40
13.0
 40
13.0
 40
14.0
 40
14.0
 40
14.0
 40
15.0
 40
15.0
 40
15.0
 40
16.0
 40
16.0
 40
16.0
 40
16.0
 10
66.05264348392087
 20
-129.192458735063
 10
66.05264348392087
 20
-129.2706624025782
 10
66.03576251604315
 20
-129.372292719393
 10
65.9722005043403
 20
-129.4739230362079
 10
65.86212970358656
 20
-129.647211339116
 10
65.7310438203728
 20
-129.6685709311245
 10
65.62321233168447
 20
-129.6875189562934
 10
65.62321233168447
 20
-129.6875189562934
 10
65.62321233168447
 20
-129.4653102974948
 10
65.62321233168447
 20
-129.4653102974948
 10
65.8219943411834
 20
-129.4101887697308
 10
65.85162216235655
 20
-129.2834092558736
 10
65.85162216235655
 20
-129.1903916777719
 10
65.85162216235655
 20
-129.0508653106192
 10
65.75223115760708
 20
-128.8982475806227
 10
65.51951495757845
 20
-128.8982475806227
 10
65.2635443630244
 20
-128.8982475806227
 10
65.19378117944808
 20
-129.0780815649527
 10
65.19378117944808
 20
-129.1986599069365
 10
65.19378117944808
 20
-129.2303547854007
 10
65.19378117944808
 20
-129.372292719393
 10
65.3228000053707
 20
-129.4611761829125
 10
65.3228000053707
 20
-129.4611761829125
 10
65.30367972542756
 20
-129.6365315431117
 10
65.30367972542756
 20
-129.6365315431117
 10
65.30367972542756
 20
-129.6365315431117
 10
64.45756427425019
 20
-129.515953201128
 10
64.45756427425019
 20
-129.515953201128
 10
64.45756427425019
 20
-129.515953201128
 10
64.45756427425019
 20
-128.73770613101
 10
64.45756427425019
 20
-128.73770613101
 10
64.45756427425019
 20
-128.73770613101
 10
64.65221216916682
 20
-128.73770613101
 10
64.65221216916682
 20
-128.73770613101
 10
64.65221216916682
 20
-128.73770613101
 10
64.65221216916682
 20
-129.3533446942242
 10
64.65221216916682
 20
-129.3533446942242
 10
64.65221216916682
 20
-129.3533446942242
 10
65.0752698947555
 20
-129.4188015084439
 10
65.0752698947555
 20
-129.4188015084439
 10
65.04133570422579
 20
-129.3574788088065
 10
65.00120034182262
 20
-129.2747965171605
 10
65.00120034182262
 20
-129.1566297420164
 10
65.00120034182262
 20
-128.9027262047535
 10
65.18740775280037
 20
-128.6657036353683
 10
65.50039467763533
 20
-128.6657036353683
 10
65.8178602266011
 20
-128.6657036353683
 10
66.05264348392087
 20
-128.8899793514581
 10
66.05264348392087
 20
-129.192458735063
 97
        0
 97
        0
 75
     2
 76
     1
 98
        0
  0
ENDBLK
  5
94
330
91
100
AcDbEntity
  8
0
100
AcDbBlockEnd
  0
BLOCK
  5
CA
330
C8
100
AcDbEntity
  8
0
100
AcDbBlockBegin
  2
block 7
 70
     0
 10
0.0
 20
0.0
 30
0.0
  3
block 7
  1

  0
POLYLINE
  5
CC
330
C8
100
AcDbEntity
  8
_U+30EC_U+30A4_U+30E4_U+30FC 1
370
     0
100
AcDb2dPolyline
 66
     1
 10
0.0
 20
0.0
 30
0.0
  0
VERTEX
  5
CD
330
CC
100
AcDbEntity
  8
_U+30EC_U+30A4_U+30E4_U+30FC 1
370
     0
100
AcDbVertex
100
AcDb2dVertex
 10
90.32006833679499
 20
-116.9475558518395
 30
0.0
  0
VERTEX
  5
CE
330
CC
100
AcDbEntity
  8
_U+30EC_U+30A4_U+30E4_U+30FC 1
370
     0
100
AcDbVertex
100
AcDb2dVertex
 10
90.32006833679499
 20
-117.2944769672042
 30
0.0
  0
VERTEX
  5
CF
330
CC
100
AcDbEntity
  8
_U+30EC_U+30A4_U+30E4_U+30FC 1
370
     0
100
AcDbVertex
100
AcDb2dVertex
 10
90.0871798819921
 20
-117.2944769672042
 30
0.0
  0
VERTEX
  5
D0
330
CC
100
AcDbEntity
  8
_U+30EC_U+30A4_U+30E4_U+30FC 1
370
     0
100
AcDbVertex
100
AcDb2dVertex
 10
90.0871798819921
 20
-116.9475558518395
 30
0.0
  0
VERTEX
  5
D1
330
CC
100
AcDbEntity
  8
_U+30EC_U+30A4_U+30E4_U+30FC 1
370
     0
100
AcDbVertex
100
AcDb2dVertex
 10
89.38610295074376
 20
-116.9475558518395
 30
0.0
  0
VERTEX
  5
D2
330
CC
100
AcDbEntity
  8
_U+30EC_U+30A4_U+30E4_U+30FC 1
370
     0
100
AcDbVertex
100
AcDb2dVertex
 10
89.38610295074376
 20
-116.7232801357497
 30
0.0
  0
VERTEX
  5
D3
330
CC
100
AcDbEntity
  8
_U+30EC_U+30A4_U+30E4_U+30FC 1
370
     0
100
AcDbVertex
100
AcDb2dVertex
 10
90.1119845694859
 20
-115.7500406611667
 30
0.0
  0
VERTEX
  5
D4
330
CC
100
AcDbEntity
  8
_U+30EC_U+30A4_U+30E4_U+30FC 1
370
     0
100
AcDbVertex
100
AcDb2dVertex
 10
90.32006833679499
 20
-115.7500406611667
 30
0.0
  0
VERTEX
  5
D5
330
CC
100
AcDbEntity
  8
_U+30EC_U+30A4_U+30E4_U+30FC 1
370
     0
100
AcDbVertex
100
AcDb2dVertex
 10
90.32006833679499
 20
-116.7487738423406
 30
0.0
  0
VERTEX
  5
D6
330
CC
100
AcDbEntity
  8
_U+30EC_U+30A4_U+30E4_U+30FC 1
370
     0
100
AcDbVertex
100
AcDb2dVertex
 10
90.54158797649656
 20
-116.7487738423406
 30
0.0
  0
VERTEX
  5
D7
330
CC
100
AcDbEntity
  8
_U+30EC_U+30A4_U+30E4_U+30FC 1
370
     0
100
AcDbVertex
100
AcDb2dVertex
 10
90.54158797649656
 20
-116.9475558518395
 30
0.0
  0
VERTEX
  5
D8
330
CC
100
AcDbEntity
  8
_U+30EC_U+30A4_U+30E4_U+30FC 1
370
     0
100
AcDbVertex
100
AcDb2dVertex
 10
90.32006833679499
 20
-116.9475558518395
 30
0.0
  0
SEQEND
  5
D9
330
CC
100
AcDbEntity
  8
_U+30EC_U+30A4_U+30E4_U+30FC 1
370
     0
  0
POLYLINE
  5
DA
330
C8
100
AcDbEntity
  8
_U+30EC_U+30A4_U+30E4_U+30FC 1
370
     0
100
AcDb2dPolyline
 66
     1
 10
0.0
 20
0.0
 30
0.0
  0
VERTEX
  5
DB
330
DA
100
AcDbEntity
  8
_U+30EC_U+30A4_U+30E4_U+30FC 1
370
     0
100
AcDbVertex
100
AcDb2dVertex
 10
90.0871798819921
 20
-116.092827661949
 30
0.0
  0
VERTEX
  5
DC
330
DA
100
AcDbEntity
  8
_U+30EC_U+30A4_U+30E4_U+30FC 1
370
     0
100
AcDbVertex
100
AcDb2dVertex
 10
89.59866534218366
 20
-116.7487738423406
 30
0.0
  0
VERTEX
  5
DD
330
DA
100
AcDbEntity
  8
_U+30EC_U+30A4_U+30E4_U+30FC 1
370
     0
100
AcDbVertex
100
AcDb2dVertex
 10
90.0871798819921
 20
-116.7487738423406
 30
0.0
  0
VERTEX
  5
DE
330
DA
100
AcDbEntity
  8
_U+30EC_U+30A4_U+30E4_U+30FC 1
370
     0
100
AcDbVertex
100
AcDb2dVertex
 10
90.0871798819921
 20
-116.092827661949
 30
0.0
  0
SEQEND
  5
DF
330
DA
100
AcDbEntity
  8
_U+30EC_U+30A4_U+30E4_U+30FC 1
370
     0
  0
HATCH
  5
E0
330
C8
100
AcDbEntity
  8
_U+30EC_U+30A4_U+30E4_U+30FC 1
 62
   179
420
  2234388
100
AcDbHatch
 10
0.0
 20
0.0
 30
0.0
210
0.0
220
0.0
230
1.0
  2
SOLID
 70
     1
 71
     0
 91
        2
 92
        1
 93
       11
 72
     1
 10
90.32006833679499
 20
-116.9475558518395
 11
90.32006833679499
 21
-117.2944769672042
 72
     1
 10
90.32006833679499
 20
-117.2944769672042
 11
90.0871798819921
 21
-117.2944769672042
 72
     1
 10
90.0871798819921
 20
-117.2944769672042
 11
90.0871798819921
 21
-116.9475558518395
 72
     1
 10
90.0871798819921
 20
-116.9475558518395
 11
89.38610295074376
 21
-116.9475558518395
 72
     1
 10
89.38610295074376
 20
-116.9475558518395
 11
89.38610295074376
 21
-116.7232801357497
 72
     1
 10
89.38610295074376
 20
-116.7232801357497
 11
90.1119845694859
 21
-115.7500406611667
 72
     1
 10
90.1119845694859
 20
-115.7500406611667
 11
90.32006833679499
 21
-115.7500406611667
 72
     1
 10
90.32006833679499
 20
-115.7500406611667
 11
90.32006833679499
 21
-116.7487738423406
 72
     1
 10
90.32006833679499
 20
-116.7487738423406
 11
90.54158797649656
 21
-116.7487738423406
 72
     1
 10
90.54158797649656
 20
-116.7487738423406
 11
90.54158797649656
 21
-116.9475558518395
 72
     1
 10
90.54158797649656
 20
-116.9475558518395
 11
90.32006833679499
 21
-116.9475558518395
 97
        0
 92
        1
 93
        3
 72
     1
 10
90.0871798819921
 20
-116.092827661949
 11
89.59866534218366
 21
-116.7487738423406
 72
     1
 10
89.59866534218366
 20
-116.7487738423406
 11
90.0871798819921
 21
-116.7487738423406
 72
     1
 10
90.0871798819921
 20
-116.7487738423406
 11
90.0871798819921
 21
-116.092827661949
 97
        0
 75
     2
 76
     1
 98
        0
  0
SPLINE
  5
E1
330
C8
100
AcDbEntity
  8
_U+30EC_U+30A4_U+30E4_U+30FC 1
370
     0
100
AcDbSpline
210
0.0
220
0.0
230
1.0
 70
    11
 71
     3
 72
    29
 73
    25
 74
     0
 42
0.0000000001
 43
0.0000000001
 12
1.0
 22
0.0
 32
0.0
 13
1.0
 23
0.0
 33
0.0
 40
0.0
 40
0.0
 40
0.0
 40
0.0
 40
1.0
 40
1.0
 40
1.0
 40
2.0
 40
2.0
 40
2.0
 40
3.0
 40
3.0
 40
3.0
 40
4.0
 40
4.0
 40
4.0
 40
5.0
 40
5.0
 40
5.0
 40
6.0
 40
6.0
 40
6.0
 40
7.0
 40
7.0
 40
7.0
 40
8.0
 40
8.0
 40
8.0
 40
8.0
 10
91.64780813681027
 20
-117.1167100401653
 30
0.0
 10
91.5323974380544
 20
-117.3261718456685
 30
0.0
 10
91.34705130094797
 20
-117.3451198708373
 30
0.0
 10
91.22268335393045
 20
-117.3451198708373
 30
0.0
 10
91.051117598765
 20
-117.3451198708373
 30
0.0
 10
90.899533397414
 20
-117.2986110817865
 30
0.0
 10
90.79790308059914
 20
-117.1167100401653
 30
0.0
 10
90.6869710059741
 20
-116.9220621452487
 30
0.0
 10
90.66664494261111
 20
-116.6850395758635
 30
0.0
 10
90.66664494261111
 20
-116.5224310689597
 30
0.0
 10
90.66664494261111
 20
-116.3784260776762
 30
0.0
 10
90.68455943913442
 20
-116.1265895977045
 30
0.0
 10
90.79790308059914
 20
-115.9278075882056
 30
0.0
 10
90.91296926980648
 20
-115.7248914641243
 30
0.0
 10
91.08487953452045
 20
-115.7014648148246
 30
0.0
 10
91.22268335393045
 20
-115.7014648148246
 30
0.0
 10
91.39252656135326
 20
-115.7014648148246
 30
0.0
 10
91.5461778199954
 20
-115.7459065465844
 30
0.0
 10
91.64780813681027
 20
-115.9278075882056
 30
0.0
 10
91.7542615873045
 20
-116.120388425831
 30
0.0
 10
91.7790662747983
 20
-116.3487982565031
 30
0.0
 10
91.7790662747983
 20
-116.5224310689597
 30
0.0
 10
91.7790662747983
 20
-116.6936523145766
 30
0.0
 10
91.75632864459564
 20
-116.9241292025398
 30
0.0
 10
91.64780813681027
 20
-117.1167100401653
 30
0.0
  0
SPLINE
  5
E2
330
C8
100
AcDbEntity
  8
_U+30EC_U+30A4_U+30E4_U+30FC 1
370
     0
100
AcDbSpline
210
0.0
220
0.0
230
1.0
 70
    11
 71
     3
 72
    17
 73
    13
 74
     0
 42
0.0000000001
 43
0.0000000001
 12
1.0
 22
0.0
 32
0.0
 13
1.0
 23
0.0
 33
0.0
 40
0.0
 40
0.0
 40
0.0
 40
0.0
 40
1.0
 40
1.0
 40
1.0
 40
2.0
 40
2.0
 40
2.0
 40
3.0
 40
3.0
 40
3.0
 40
4.0
 40
4.0
 40
4.0
 40
4.0
 10
91.22268335393045
 20
-115.8940456524501
 30
0.0
 10
90.95603296337211
 20
-115.8940456524501
 30
0.0
 10
90.90642358838451
 20
-116.1775770108862
 30
0.0
 10
90.90642358838451
 20
-116.5224310689597
 30
0.0
 10
90.90642358838451
 20
-116.8417914204423
 30
0.0
 10
90.94466414827079
 20
-117.1504719759207
 30
0.0
 10
91.22268335393045
 20
-117.1504719759207
 30
0.0
 10
91.48726668719763
 20
-117.1504719759207
 30
0.0
 10
91.5392876290249
 20
-116.8693521843243
 30
0.0
 10
91.5392876290249
 20
-116.5224310689597
 30
0.0
 10
91.5392876290249
 20
-116.2027262079285
 30
0.0
 10
91.49863550229895
 20
-115.8940456524501
 30
0.0
 10
91.22268335393045
 20
-115.8940456524501
 30
0.0
  0
HATCH
  5
E3
330
C8
100
AcDbEntity
  8
_U+30EC_U+30A4_U+30E4_U+30FC 1
 62
   179
420
  2234388
100
AcDbHatch
 10
0.0
 20
0.0
 30
0.0
210
0.0
220
0.0
230
1.0
  2
SOLID
 70
     1
 71
     0
 91
        2
 92
        1
 93
        1
 72
     4
 94
        3
 73
     0
 74
     1
 95
       29
 96
       25
 40
0.0
 40
0.0
 40
0.0
 40
0.0
 40
1.0
 40
1.0
 40
1.0
 40
2.0
 40
2.0
 40
2.0
 40
3.0
 40
3.0
 40
3.0
 40
4.0
 40
4.0
 40
4.0
 40
5.0
 40
5.0
 40
5.0
 40
6.0
 40
6.0
 40
6.0
 40
7.0
 40
7.0
 40
7.0
 40
8.0
 40
8.0
 40
8.0
 40
8.0
 10
91.64780813681027
 20
-117.1167100401653
 10
91.5323974380544
 20
-117.3261718456685
 10
91.34705130094797
 20
-117.3451198708373
 10
91.22268335393045
 20
-117.3451198708373
 10
91.051117598765
 20
-117.3451198708373
 10
90.899533397414
 20
-117.2986110817865
 10
90.79790308059914
 20
-117.1167100401653
 10
90.6869710059741
 20
-116.9220621452487
 10
90.66664494261111
 20
-116.6850395758635
 10
90.66664494261111
 20
-116.5224310689597
 10
90.66664494261111
 20
-116.3784260776762
 10
90.68455943913442
 20
-116.1265895977045
 10
90.79790308059914
 20
-115.9278075882056
 10
90.91296926980648
 20
-115.7248914641243
 10
91.08487953452045
 20
-115.7014648148246
 10
91.22268335393045
 20
-115.7014648148246
 10
91.39252656135326
 20
-115.7014648148246
 10
91.5461778199954
 20
-115.7459065465844
 10
91.64780813681027
 20
-115.9278075882056
 10
91.7542615873045
 20
-116.120388425831
 10
91.7790662747983
 20
-116.3487982565031
 10
91.7790662747983
 20
-116.5224310689597
 10
91.7790662747983
 20
-116.6936523145766
 10
91.75632864459564
 20
-116.9241292025398
 10
91.64780813681027
 20
-117.1167100401653
 97
        0
 97
        0
 92
        1
 93
        1
 72
     4
 94
        3
 73
     0
 74
     1
 95
       17
 96
       13
 40
0.0
 40
0.0
 40
0.0
 40
0.0
 40
1.0
 40
1.0
 40
1.0
 40
2.0
 40
2.0
 40
2.0
 40
3.0
 40
3.0
 40
3.0
 40
4.0
 40
4.0
 40
4.0
 40
4.0
 10
91.22268335393045
 20
-115.8940456524501
 10
90.95603296337211
 20
-115.8940456524501
 10
90.90642358838451
 20
-116.1775770108862
 10
90.90642358838451
 20
-116.5224310689597
 10
90.90642358838451
 20
-116.8417914204423
 10
90.94466414827079
 20
-117.1504719759207
 10
91.22268335393045
 20
-117.1504719759207
 10
91.48726668719763
 20
-117.1504719759207
 10
91.5392876290249
 20
-116.8693521843243
 10
91.5392876290249
 20
-116.5224310689597
 10
91.5392876290249
 20
-116.2027262079285
 10
91.49863550229895
 20
-115.8940456524501
 10
91.22268335393045
 20
-115.8940456524501
 97
        0
 97
        0
 75
     2
 76
     1
 98
        0
  0
ENDBLK
  5
CB
330
C8
100
AcDbEntity
  8
0
100
AcDbBlockEnd
  0
BLOCK
  5
E6
330
E4
100
AcDbEntity
  8
0
100
AcDbBlockBegin
  2
block 8
 70
     0
 10
0.0
 20
0.0
 30
0.0
  3
block 8
  1

  0
SPLINE
  5
E8
330
E4
100
AcDbEntity
  8
_U+30EC_U+30A4_U+30E4_U+30FC 1
370
     0
100
AcDbSpline
210
0.0
220
0.0
230
1.0
 70
    11
 71
     3
 72
    62
 73
    58
 74
     0
 42
0.0000000001
 43
0.0000000001
 12
1.0
 22
0.0
 32
0.0
 13
1.0
 23
0.0
 33
0.0
 40
0.0
 40
0.0
 40
0.0
 40
0.0
 40
1.0
 40
1.0
 40
1.0
 40
2.0
 40
2.0
 40
2.0
 40
3.0
 40
3.0
 40
3.0
 40
4.0
 40
4.0
 40
4.0
 40
5.0
 40
5.0
 40
5.0
 40
6.0
 40
6.0
 40
6.0
 40
7.0
 40
7.0
 40
7.0
 40
8.0
 40
8.0
 40
8.0
 40
9.0
 40
9.0
 40
9.0
 40
10.0
 40
10.0
 40
10.0
 40
11.0
 40
11.0
 40
11.0
 40
12.0
 40
12.0
 40
12.0
 40
13.0
 40
13.0
 40
13.0
 40
14.0
 40
14.0
 40
14.0
 40
15.0
 40
15.0
 40
15.0
 40
16.0
 40
16.0
 40
16.0
 40
17.0
 40
17.0
 40
17.0
 40
18.0
 40
18.0
 40
18.0
 40
19.0
 40
19.0
 40
19.0
 40
19.0
 10
72.08535018814186
 20
-114.7563028684463
 30
0.0
 10
71.983719871327
 20
-114.7563028684463
 30
0.0
 10
71.75083141652411
 20
-114.7351155312121
 30
0.0
 10
71.61733396647067
 20
-114.5489081202343
 30
0.0
 10
71.53826902508419
 20
-114.4367702621894
 30
0.0
 10
71.53379040095336
 20
-114.33737925744
 30
0.0
 10
71.52913952204827
 20
-114.2528021632771
 30
0.0
 10
71.52913952204827
 20
-114.2528021632771
 30
0.0
 10
71.76443954369084
 20
-114.2528021632771
 30
0.0
 10
71.76443954369084
 20
-114.2528021632771
 30
0.0
 10
71.76667885575625
 20
-114.32687171621
 30
0.0
 10
71.77787541608332
 20
-114.5616549735297
 30
0.0
 10
72.08087156401103
 20
-114.5616549735297
 30
0.0
 10
72.22780488645694
 20
-114.5616549735297
 30
0.0
 10
72.390585648135
 20
-114.4918917899534
 30
0.0
 10
72.390585648135
 20
-114.2633097045071
 30
0.0
 10
72.390585648135
 20
-114.1470377318799
 30
0.0
 10
72.34993352140904
 20
-114.0982896307636
 30
0.0
 10
72.31599933087934
 20
-114.0665947522993
 30
0.0
 10
72.23693438949286
 20
-113.9925251993665
 30
0.0
 10
72.11256644247534
 20
-113.9799506008453
 30
0.0
 10
72.05382756445182
 20
-113.9799506008453
 30
0.0
 10
72.0333292463146
 20
-113.9799506008453
 30
0.0
 10
71.99491643165405
 20
-113.9820176581364
 30
0.0
 10
71.96563312002942
 20
-113.9861517727187
 30
0.0
 10
71.96563312002942
 20
-113.9861517727187
 30
0.0
 10
71.96563312002942
 20
-113.7915038778021
 30
0.0
 10
71.96563312002942
 20
-113.7915038778021
 30
0.0
 10
72.00628524675538
 20
-113.7978773044498
 30
0.0
 10
72.05141599761215
 20
-113.8001166165153
 30
0.0
 10
72.05830618858265
 20
-113.8001166165153
 30
0.0
 10
72.12841388170749
 20
-113.8001166165153
 30
0.0
 10
72.34080401837313
 20
-113.778929279281
 30
0.0
 10
72.34080401837313
 20
-113.5419067098958
 30
0.0
 10
72.34080401837313
 20
-113.3643120376312
 30
0.0
 10
72.20076088689773
 20
-113.3091905098672
 30
0.0
 10
72.08311087607645
 20
-113.3091905098672
 30
0.0
 10
71.80061304628596
 20
-113.3091905098672
 30
0.0
 10
71.79148354325005
 20
-113.5419067098958
 30
0.0
 10
71.78700491911923
 20
-113.6139092055375
 30
0.0
 10
71.78700491911923
 20
-113.6139092055375
 30
0.0
 10
71.56996390354848
 20
-113.6139092055375
 30
0.0
 10
71.56996390354848
 20
-113.6139092055375
 30
0.0
 10
71.57892115181014
 20
-113.4890244941972
 30
0.0
 10
71.60837671820902
 20
-113.1124755576594
 30
0.0
 10
72.09671900324318
 20
-113.1124755576594
 30
0.0
 10
72.33632539424231
 20
-113.1124755576594
 30
0.0
 10
72.594018536539
 20
-113.2394273262908
 30
0.0
 10
72.594018536539
 20
-113.5355332832481
 30
0.0
 10
72.594018536539
 20
-113.7217406942258
 30
0.0
 10
72.49238821972413
 20
-113.8042507310976
 30
0.0
 10
72.38610702400418
 20
-113.865573430735
 30
0.0
 10
72.45173609299817
 20
-113.893134194617
 30
0.0
 10
72.64603947836628
 20
-113.9735771741976
 30
0.0
 10
72.64603947836628
 20
-114.2507351059859
 30
0.0
 10
72.64603947836628
 20
-114.5892157374117
 30
0.0
 10
72.38162839987335
 20
-114.7563028684463
 30
0.0
 10
72.08535018814186
 20
-114.7563028684463
 30
0.0
  0
HATCH
  5
E9
330
E4
100
AcDbEntity
  8
_U+30EC_U+30A4_U+30E4_U+30FC 1
 62
   179
420
  2234388
100
AcDbHatch
 10
0.0
 20
0.0
 30
0.0
210
0.0
220
0.0
230
1.0
  2
SOLID
 70
     1
 71
     0
 91
        1
 92
        1
 93
        1
 72
     4
 94
        3
 73
     0
 74
     1
 95
       62
 96
       58
 40
0.0
 40
0.0
 40
0.0
 40
0.0
 40
1.0
 40
1.0
 40
1.0
 40
2.0
 40
2.0
 40
2.0
 40
3.0
 40
3.0
 40
3.0
 40
4.0
 40
4.0
 40
4.0
 40
5.0
 40
5.0
 40
5.0
 40
6.0
 40
6.0
 40
6.0
 40
7.0
 40
7.0
 40
7.0
 40
8.0
 40
8.0
 40
8.0
 40
9.0
 40
9.0
 40
9.0
 40
10.0
 40
10.0
 40
10.0
 40
11.0
 40
11.0
 40
11.0
 40
12.0
 40
12.0
 40
12.0
 40
13.0
 40
13.0
 40
13.0
 40
14.0
 40
14.0
 40
14.0
 40
15.0
 40
15.0
 40
15.0
 40
16.0
 40
16.0
 40
16.0
 40
17.0
 40
17.0
 40
17.0
 40
18.0
 40
18.0
 40
18.0
 40
19.0
 40
19.0
 40
19.0
 40
19.0
 10
72.08535018814186
 20
-114.7563028684463
 10
71.983719871327
 20
-114.7563028684463
 10
71.75083141652411
 20
-114.7351155312121
 10
71.61733396647067
 20
-114.5489081202343
 10
71.53826902508419
 20
-114.4367702621894
 10
71.53379040095336
 20
-114.33737925744
 10
71.52913952204827
 20
-114.2528021632771
 10
71.52913952204827
 20
-114.2528021632771
 10
71.76443954369084
 20
-114.2528021632771
 10
71.76443954369084
 20
-114.2528021632771
 10
71.76667885575625
 20
-114.32687171621
 10
71.77787541608332
 20
-114.5616549735297
 10
72.08087156401103
 20
-114.5616549735297
 10
72.22780488645694
 20
-114.5616549735297
 10
72.390585648135
 20
-114.4918917899534
 10
72.390585648135
 20
-114.2633097045071
 10
72.390585648135
 20
-114.1470377318799
 10
72.34993352140904
 20
-114.0982896307636
 10
72.31599933087934
 20
-114.0665947522993
 10
72.23693438949286
 20
-113.9925251993665
 10
72.11256644247534
 20
-113.9799506008453
 10
72.05382756445182
 20
-113.9799506008453
 10
72.0333292463146
 20
-113.9799506008453
 10
71.99491643165405
 20
-113.9820176581364
 10
71.96563312002942
 20
-113.9861517727187
 10
71.96563312002942
 20
-113.9861517727187
 10
71.96563312002942
 20
-113.7915038778021
 10
71.96563312002942
 20
-113.7915038778021
 10
72.00628524675538
 20
-113.7978773044498
 10
72.05141599761215
 20
-113.8001166165153
 10
72.05830618858265
 20
-113.8001166165153
 10
72.12841388170749
 20
-113.8001166165153
 10
72.34080401837313
 20
-113.778929279281
 10
72.34080401837313
 20
-113.5419067098958
 10
72.34080401837313
 20
-113.3643120376312
 10
72.20076088689773
 20
-113.3091905098672
 10
72.08311087607645
 20
-113.3091905098672
 10
71.80061304628596
 20
-113.3091905098672
 10
71.79148354325005
 20
-113.5419067098958
 10
71.78700491911923
 20
-113.6139092055375
 10
71.78700491911923
 20
-113.6139092055375
 10
71.56996390354848
 20
-113.6139092055375
 10
71.56996390354848
 20
-113.6139092055375
 10
71.57892115181014
 20
-113.4890244941972
 10
71.60837671820902
 20
-113.1124755576594
 10
72.09671900324318
 20
-113.1124755576594
 10
72.33632539424231
 20
-113.1124755576594
 10
72.594018536539
 20
-113.2394273262908
 10
72.594018536539
 20
-113.5355332832481
 10
72.594018536539
 20
-113.7217406942258
 10
72.49238821972413
 20
-113.8042507310976
 10
72.38610702400418
 20
-113.865573430735
 10
72.45173609299817
 20
-113.893134194617
 10
72.64603947836628
 20
-113.9735771741976
 10
72.64603947836628
 20
-114.2507351059859
 10
72.64603947836628
 20
-114.5892157374117
 10
72.38162839987335
 20
-114.7563028684463
 10
72.08535018814186
 20
-114.7563028684463
 97
        0
 97
        0
 75
     2
 76
     1
 98
        0
  0
ENDBLK
  5
E7
330
E4
100
AcDbEntity
  8
0
100
AcDbBlockEnd
  0
ENDSEC
  0
SECTION
  2
ENTITIES
  0
SPLINE
  5
41
330
1F
100
AcDbEntity
  8
_U+30EC_U+30A4_U+30E4_U+30FC 1
 62
   179
420
  2234388
370
     9
100
AcDbSpline
210
0.0
220
0.0
230
1.0
 70
    11
 71
     3
 72
    17
 73
    13
 74
     0
 42
0.0000000001
 43
0.0000000001
 12
1.0
 22
0.0
 32
0.0
 13
1.0
 23
0.0
 33
0.0
 40
0.0
 40
0.0
 40
0.0
 40
0.0
 40
1.0
 40
1.0
 40
1.0
 40
2.0
 40
2.0
 40
2.0
 40
3.0
 40
3.0
 40
3.0
 40
4.0
 40
4.0
 40
4.0
 40
4.0
 10
114.4553604133338
 20
-137.2512282990206
 30
0.0
 10
114.4553604133338
 20
-137.3063321878955
 30
0.0
 10
114.5001631899686
 20
-137.3511349656623
 30
0.0
 10
114.5552670774517
 20
-137.3511349656623
 30
0.0
 10
114.6104062427116
 20
-137.3511349656623
 30
0.0
 10
114.6551737415695
 20
-137.3063321878955
 30
0.0
 10
114.6551737415695
 20
-137.2512282990206
 30
0.0
 10
114.6551737415695
 20
-137.1960891323675
 30
0.0
 10
114.6104062427116
 20
-137.151321632379
 30
0.0
 10
114.5552670774517
 20
-137.151321632379
 30
0.0
 10
114.5001631899686
 20
-137.151321632379
 30
0.0
 10
114.4553604133338
 20
-137.1960891323675
 30
0.0
 10
114.4553604133338
 20
-137.2512282990206
 30
0.0
  0
SPLINE
  5
42
330
1F
100
AcDbEntity
  8
_U+30EC_U+30A4_U+30E4_U+30FC 1
 62
   179
420
  2234388
370
     9
100
AcDbSpline
210
0.0
220
0.0
230
1.0
 70
    11
 71
     3
 72
    17
 73
    13
 74
     0
 42
0.0000000001
 43
0.0000000001
 12
1.0
 22
0.0
 32
0.0
 13
1.0
 23
0.0
 33
0.0
 40
0.0
 40
0.0
 40
0.0
 40
0.0
 40
1.0
 40
1.0
 40
1.0
 40
2.0
 40
2.0
 40
2.0
 40
3.0
 40
3.0
 40
3.0
 40
4.0
 40
4.0
 40
4.0
 40
4.0
 10
114.4553604133338
 20
-128.2507383012706
 30
0.0
 10
114.4553604133338
 20
-128.3058774679234
 30
0.0
 10
114.5001631899686
 20
-128.3506449679123
 30
0.0
 10
114.5552670774517
 20
-128.3506449679123
 30
0.0
 10
114.6104062427116
 20
-128.3506449679123
 30
0.0
 10
114.6551737415695
 20
-128.3058774679234
 30
0.0
 10
114.6551737415695
 20
-128.2507383012706
 30
0.0
 10
114.6551737415695
 20
-128.1949288568402
 30
0.0
 10
114.6104062427116
 20
-128.1501613568513
 30
0.0
 10
114.5552670774517
 20
-128.1501613568513
 30
0.0
 10
114.5001631899686
 20
-128.1501613568513
 30
0.0
 10
114.4553604133338
 20
-128.1949288568402
 30
0.0
 10
114.4553604133338
 20
-128.2507383012706
 30
0.0
  0
POLYLINE
  5
43
330
1F
100
AcDbEntity
  8
_U+30EC_U+30A4_U+30E4_U+30FC 1
 62
   179
420
  2234388
370
     9
100
AcDb2dPolyline
 66
     1
 10
0.0
 20
0.0
 30
0.0
  0
VERTEX
  5
44
330
43
100
AcDbEntity
  8
_U+30EC_U+30A4_U+30E4_U+30FC 1
 62
   179
420
  2234388
370
     9
100
AcDbVertex
100
AcDb2dVertex
 10
114.5552670774517
 20
-123.4804771913521
 30
0.0
  0
VERTEX
  5
45
330
43
100
AcDbEntity
  8
_U+30EC_U+30A4_U+30E4_U+30FC 1
 62
   179
420
  2234388
370
     9
100
AcDbVertex
100
AcDb2dVertex
 10
114.5552670774517
 20
-137.2512282990206
 30
0.0
  0
SEQEND
  5
46
330
43
100
AcDbEntity
  8
_U+30EC_U+30A4_U+30E4_U+30FC 1
 62
   179
420
  2234388
370
     9
  0
POLYLINE
  5
47
330
1F
100
AcDbEntity
  8
_U+30EC_U+30A4_U+30E4_U+30FC 1
 62
   179
420
  2234388
370
     9
100
AcDb2dPolyline
 66
     1
 10
0.0
 20
0.0
 30
0.0
  0
VERTEX
  5
48
330
47
100
AcDbEntity
  8
_U+30EC_U+30A4_U+30E4_U+30FC 1
 62
   179
420
  2234388
370
     9
100
AcDbVertex
100
AcDb2dVertex
 10
113.0949110828377
 20
-128.2507383012706
 30
0.0
  0
VERTEX
  5
49
330
47
100
AcDbEntity
  8
_U+30EC_U+30A4_U+30E4_U+30FC 1
 62
   179
420
  2234388
370
     9
100
AcDbVertex
100
AcDb2dVertex
 10
115.5550392741676
 20
-128.2507383012706
 30
0.0
  0
SEQEND
  5
4A
330
47
100
AcDbEntity
  8
_U+30EC_U+30A4_U+30E4_U+30FC 1
 62
   179
420
  2234388
370
     9
  0
SPLINE
  5
4B
330
1F
100
AcDbEntity
  8
_U+30EC_U+30A4_U+30E4_U+30FC 1
 62
   179
420
  2234388
370
     9
100
AcDbSpline
210
0.0
220
0.0
230
1.0
 70
    11
 71
     3
 72
    17
 73
    13
 74
     0
 42
0.0000000001
 43
0.0000000001
 12
1.0
 22
0.0
 32
0.0
 13
1.0
 23
0.0
 33
0.0
 40
0.0
 40
0.0
 40
0.0
 40
0.0
 40
1.0
 40
1.0
 40
1.0
 40
2.0
 40
2.0
 40
2.0
 40
3.0
 40
3.0
 40
3.0
 40
4.0
 40
4.0
 40
4.0
 40
4.0
 10
114.4553604133338
 20
-127.2507896904095
 30
0.0
 10
114.4553604133338
 20
-127.3059288570623
 30
0.0
 10
114.5001631899686
 20
-127.3506963570512
 30
0.0
 10
114.5552670774517
 20
-127.3506963570512
 30
0.0
 10
114.6104062427116
 20
-127.3506963570512
 30
0.0
 10
114.6551737415695
 20
-127.3059288570623
 30
0.0
 10
114.6551737415695
 20
-127.2507896904095
 30
0.0
 10
114.6551737415695
 20
-127.1949802459791
 30
0.0
 10
114.6104062427116
 20
-127.1502127459902
 30
0.0
 10
114.5552670774517
 20
-127.1502127459902
 30
0.0
 10
114.5001631899686
 20
-127.1502127459902
 30
0.0
 10
114.4553604133338
 20
-127.1949802459791
 30
0.0
 10
114.4553604133338
 20
-127.2507896904095
 30
0.0
  0
POLYLINE
  5
4C
330
1F
100
AcDbEntity
  8
_U+30EC_U+30A4_U+30E4_U+30FC 1
 62
   179
420
  2234388
370
     9
100
AcDb2dPolyline
 66
     1
 10
0.0
 20
0.0
 30
0.0
  0
VERTEX
  5
4D
330
4C
100
AcDbEntity
  8
_U+30EC_U+30A4_U+30E4_U+30FC 1
 62
   179
420
  2234388
370
     9
100
AcDbVertex
100
AcDb2dVertex
 10
113.0949110828377
 20
-127.2507896904095
 30
0.0
  0
VERTEX
  5
4E
330
4C
100
AcDbEntity
  8
_U+30EC_U+30A4_U+30E4_U+30FC 1
 62
   179
420
  2234388
370
     9
100
AcDbVertex
100
AcDb2dVertex
 10
115.5550392741676
 20
-127.2507896904095
 30
0.0
  0
SEQEND
  5
4F
330
4C
100
AcDbEntity
  8
_U+30EC_U+30A4_U+30E4_U+30FC 1
 62
   179
420
  2234388
370
     9
  0
POLYLINE
  5
50
330
1F
100
AcDbEntity
  8
_U+30EC_U+30A4_U+30E4_U+30FC 1
 62
   179
420
  2234388
370
     9
100
AcDb2dPolyline
 66
     1
 10
0.0
 20
0.0
 30
0.0
  0
VERTEX
  5
51
330
50
100
AcDbEntity
  8
_U+30EC_U+30A4_U+30E4_U+30FC 1
 62
   179
420
  2234388
370
     9
100
AcDbVertex
100
AcDb2dVertex
 10
83.09500426895872
 20
-137.2512282990206
 30
0.0
  0
VERTEX
  5
52
330
50
100
AcDbEntity
  8
_U+30EC_U+30A4_U+30E4_U+30FC 1
 62
   179
420
  2234388
370
     9
100
AcDbVertex
100
AcDb2dVertex
 10
115.5550392741676
 20
-137.2512282990206
 30
0.0
  0
SEQEND
  5
53
330
50
100
AcDbEntity
  8
_U+30EC_U+30A4_U+30E4_U+30FC 1
 62
   179
420
  2234388
370
     9
  0
SPLINE
  5
54
330
1F
100
AcDbEntity
  8
_U+30EC_U+30A4_U+30E4_U+30FC 1
 62
   179
420
  2234388
370
     9
100
AcDbSpline
210
0.0
220
0.0
230
1.0
 70
    11
 71
     3
 72
    17
 73
    13
 74
     0
 42
0.0000000001
 43
0.0000000001
 12
1.0
 22
0.0
 32
0.0
 13
1.0
 23
0.0
 33
0.0
 40
0.0
 40
0.0
 40
0.0
 40
0.0
 40
1.0
 40
1.0
 40
1.0
 40
2.0
 40
2.0
 40
2.0
 40
3.0
 40
3.0
 40
3.0
 40
4.0
 40
4.0
 40
4.0
 40
4.0
 10
114.4553604133338
 20
-134.2512413553263
 30
0.0
 10
114.4553604133338
 20
-134.3063452442012
 30
0.0
 10
114.5001631899686
 20
-134.3511480219679
 30
0.0
 10
114.5552670774517
 20
-134.3511480219679
 30
0.0
 10
114.6104062427116
 20
-134.3511480219679
 30
0.0
 10
114.6551737415695
 20
-134.3063452442012
 30
0.0
 10
114.6551737415695
 20
-134.2512413553263
 30
0.0
 10
114.6551737415695
 20
-134.1961021886732
 30
0.0
 10
114.6104062427116
 20
-134.1513346886847
 30
0.0
 10
114.5552670774517
 20
-134.1513346886847
 30
0.0
 10
114.5001631899686
 20
-134.1513346886847
 30
0.0
 10
114.4553604133338
 20
-134.1961021886732
 30
0.0
 10
114.4553604133338
 20
-134.2512413553263
 30
0.0
  0
POLYLINE
  5
55
330
1F
100
AcDbEntity
  8
_U+30EC_U+30A4_U+30E4_U+30FC 1
 62
   179
420
  2234388
370
     9
100
AcDb2dPolyline
 66
     1
 10
0.0
 20
0.0
 30
0.0
  0
VERTEX
  5
56
330
55
100
AcDbEntity
  8
_U+30EC_U+30A4_U+30E4_U+30FC 1
 62
   179
420
  2234388
370
     9
100
AcDbVertex
100
AcDb2dVertex
 10
83.09500426895872
 20
-134.2512413553263
 30
0.0
  0
VERTEX
  5
57
330
55
100
AcDbEntity
  8
_U+30EC_U+30A4_U+30E4_U+30FC 1
 62
   179
420
  2234388
370
     9
100
AcDbVertex
100
AcDb2dVertex
 10
115.5550392741676
 20
-134.2512413553263
 30
0.0
  0
SEQEND
  5
58
330
55
100
AcDbEntity
  8
_U+30EC_U+30A4_U+30E4_U+30FC 1
 62
   179
420
  2234388
370
     9
  0
INSERT
  5
5A
330
1F
100
AcDbEntity
  8
_U+30EC_U+30A4_U+30E4_U+30FC 1
100
AcDbBlockReference
  2
block 2
 10
0.0
 20
0.0
 30
0.0
  0
INSERT
  5
61
330
1F
100
AcDbEntity
  8
_U+30EC_U+30A4_U+30E4_U+30FC 1
100
AcDbBlockReference
  2
block 3
 10
0.0
 20
0.0
 30
0.0
  0
INSERT
  5
67
330
1F
100
AcDbEntity
  8
_U+30EC_U+30A4_U+30E4_U+30FC 1
100
AcDbBlockReference
  2
block 4
 10
0.0
 20
0.0
 30
0.0
  0
SPLINE
  5
6C
330
1F
100
AcDbEntity
  8
_U+30EC_U+30A4_U+30E4_U+30FC 1
 62
   179
420
  2234388
370
     9
100
AcDbSpline
210
0.0
220
0.0
230
1.0
 70
    11
 71
     3
 72
    17
 73
    13
 74
     0
 42
0.0000000001
 43
0.0000000001
 12
1.0
 22
0.0
 32
0.0
 13
1.0
 23
0.0
 33
0.0
 40
0.0
 40
0.0
 40
0.0
 40
0.0
 40
1.0
 40
1.0
 40
1.0
 40
2.0
 40
2.0
 40
2.0
 40
3.0
 40
3.0
 40
3.0
 40
4.0
 40
4.0
 40
4.0
 40
4.0
 10
70.67697986354669
 20
-141.2520105202426
 30
0.0
 10
70.67697986354669
 20
-141.1969066313677
 30
0.0
 10
70.63221236468881
 20
-141.152103853601
 30
0.0
 10
70.57640292166818
 20
-141.152103853601
 30
0.0
 10
70.52126375640823
 20
-141.152103853601
 30
0.0
 10
70.47649625755034
 20
-141.1969066313677
 30
0.0
 10
70.47649625755034
 20
-141.2520105202426
 30
0.0
 10
70.47649625755034
 20
-141.3071496868957
 30
0.0
 10
70.52126375640823
 20
-141.3519171868843
 30
0.0
 10
70.57640292166818
 20
-141.3519171868843
 30
0.0
 10
70.63221236468881
 20
-141.3519171868843
 30
0.0
 10
70.67697986354669
 20
-141.3071496868957
 30
0.0
 10
70.67697986354669
 20
-141.2520105202426
 30
0.0
  0
POLYLINE
  5
6D
330
1F
100
AcDbEntity
  8
_U+30EC_U+30A4_U+30E4_U+30FC 1
 62
   179
420
  2234388
370
     9
100
AcDb2dPolyline
 66
     1
 10
0.0
 20
0.0
 30
0.0
  0
VERTEX
  5
6E
330
6D
100
AcDbEntity
  8
_U+30EC_U+30A4_U+30E4_U+30FC 1
 62
   179
420
  2234388
370
     9
100
AcDbVertex
100
AcDb2dVertex
 10
70.57640292166818
 20
-141.2520105202426
 30
0.0
  0
VERTEX
  5
6F
330
6D
100
AcDbEntity
  8
_U+30EC_U+30A4_U+30E4_U+30FC 1
 62
   179
420
  2234388
370
     9
100
AcDbVertex
100
AcDb2dVertex
 10
80.5761357221093
 20
-141.2520105202426
 30
0.0
  0
SEQEND
  5
70
330
6D
100
AcDbEntity
  8
_U+30EC_U+30A4_U+30E4_U+30FC 1
 62
   179
420
  2234388
370
     9
  0
POLYLINE
  5
71
330
1F
100
AcDbEntity
  8
_U+30EC_U+30A4_U+30E4_U+30FC 1
 62
   179
420
  2234388
370
     9
100
AcDb2dPolyline
 66
     1
 10
0.0
 20
0.0
 30
0.0
  0
VERTEX
  5
72
330
71
100
AcDbEntity
  8
_U+30EC_U+30A4_U+30E4_U+30FC 1
 62
   179
420
  2234388
370
     9
100
AcDbVertex
100
AcDb2dVertex
 10
70.57640292166818
 20
-139.7919691317189
 30
0.0
  0
VERTEX
  5
73
330
71
100
AcDbEntity
  8
_U+30EC_U+30A4_U+30E4_U+30FC 1
 62
   179
420
  2234388
370
     9
100
AcDbVertex
100
AcDb2dVertex
 10
70.57640292166818
 20
-142.2517827422145
 30
0.0
  0
SEQEND
  5
74
330
71
100
AcDbEntity
  8
_U+30EC_U+30A4_U+30E4_U+30FC 1
 62
   179
420
  2234388
370
     9
  0
SPLINE
  5
75
330
1F
100
AcDbEntity
  8
_U+30EC_U+30A4_U+30E4_U+30FC 1
 62
   179
420
  2234388
370
     9
100
AcDbSpline
210
0.0
220
0.0
230
1.0
 70
    11
 71
     3
 72
    17
 73
    13
 74
     0
 42
0.0000000001
 43
0.0000000001
 12
1.0
 22
0.0
 32
0.0
 13
1.0
 23
0.0
 33
0.0
 40
0.0
 40
0.0
 40
0.0
 40
0.0
 40
1.0
 40
1.0
 40
1.0
 40
2.0
 40
2.0
 40
2.0
 40
3.0
 40
3.0
 40
3.0
 40
4.0
 40
4.0
 40
4.0
 40
4.0
 10
80.67671266398781
 20
-141.2520105202426
 30
0.0
 10
80.67671266398781
 20
-141.1969066313677
 30
0.0
 10
80.63194720206428
 20
-141.152103853601
 30
0.0
 10
80.5761357221093
 20
-141.152103853601
 30
0.0
 10
80.52099655684934
 20
-141.152103853601
 30
0.0
 10
80.47622905799146
 20
-141.1969066313677
 30
0.0
 10
80.47622905799146
 20
-141.2520105202426
 30
0.0
 10
80.47622905799146
 20
-141.3071496868957
 30
0.0
 10
80.52099655684934
 20
-141.3519171868843
 30
0.0
 10
80.5761357221093
 20
-141.3519171868843
 30
0.0
 10
80.63194720206428
 20
-141.3519171868843
 30
0.0
 10
80.67671266398781
 20
-141.3071496868957
 30
0.0
 10
80.67671266398781
 20
-141.2520105202426
 30
0.0
  0
POLYLINE
  5
76
330
1F
100
AcDbEntity
  8
_U+30EC_U+30A4_U+30E4_U+30FC 1
 62
   179
420
  2234388
370
     9
100
AcDb2dPolyline
 66
     1
 10
0.0
 20
0.0
 30
0.0
  0
VERTEX
  5
77
330
76
100
AcDbEntity
  8
_U+30EC_U+30A4_U+30E4_U+30FC 1
 62
   179
420
  2234388
370
     9
100
AcDbVertex
100
AcDb2dVertex
 10
80.5761357221093
 20
-139.7919691317189
 30
0.0
  0
VERTEX
  5
78
330
76
100
AcDbEntity
  8
_U+30EC_U+30A4_U+30E4_U+30FC 1
 62
   179
420
  2234388
370
     9
100
AcDbVertex
100
AcDb2dVertex
 10
80.5761357221093
 20
-142.2517827422145
 30
0.0
  0
SEQEND
  5
79
330
76
100
AcDbEntity
  8
_U+30EC_U+30A4_U+30E4_U+30FC 1
 62
   179
420
  2234388
370
     9
  0
INSERT
  5
7B
330
1F
100
AcDbEntity
  8
_U+30EC_U+30A4_U+30E4_U+30FC 1
100
AcDbBlockReference
  2
block 5
 10
0.0
 20
0.0
 30
0.0
  0
SPLINE
  5
83
330
1F
100
AcDbEntity
  8
_U+30EC_U+30A4_U+30E4_U+30FC 1
 62
     7
420
 16777215
370
     9
100
AcDbSpline
210
0.0
220
0.0
230
1.0
 70
    11
 71
     3
 72
    17
 73
    13
 74
     0
 42
0.0000000001
 43
0.0000000001
 12
1.0
 22
0.0
 32
0.0
 13
1.0
 23
0.0
 33
0.0
 40
0.0
 40
0.0
 40
0.0
 40
0.0
 40
1.0
 40
1.0
 40
1.0
 40
2.0
 40
2.0
 40
2.0
 40
3.0
 40
3.0
 40
3.0
 40
4.0
 40
4.0
 40
4.0
 40
4.0
 10
66.69824635394153
 20
-122.2512935805483
 30
0.0
 10
66.69824635394153
 20
-122.1961544138955
 30
0.0
 10
66.6534805388923
 20
-122.1513869139066
 30
0.0
 10
66.59833968982369
 20
-122.1513869139066
 30
0.0
 10
66.54323580234062
 20
-122.1513869139066
 30
0.0
 10
66.49843302570586
 20
-122.1961544138955
 30
0.0
 10
66.49843302570586
 20
-122.2512935805483
 30
0.0
 10
66.49843302570586
 20
-122.3063974694235
 30
0.0
 10
66.54323580234062
 20
-122.3512002471899
 30
0.0
 10
66.59833968982369
 20
-122.3512002471899
 30
0.0
 10
66.6534805388923
 20
-122.3512002471899
 30
0.0
 10
66.69824635394153
 20
-122.3063974694235
 30
0.0
 10
66.69824635394153
 20
-122.2512935805483
 30
0.0
  0
POLYLINE
  5
84
330
1F
100
AcDbEntity
  8
_U+30EC_U+30A4_U+30E4_U+30FC 1
 62
     7
420
 16777215
370
     9
100
AcDb2dPolyline
 66
     1
 10
0.0
 20
0.0
 30
0.0
  0
VERTEX
  5
85
330
84
100
AcDbEntity
  8
_U+30EC_U+30A4_U+30E4_U+30FC 1
 62
     7
420
 16777215
370
     9
100
AcDbVertex
100
AcDb2dVertex
 10
66.59833968982369
 20
-137.2522513545757
 30
0.0
  0
VERTEX
  5
86
330
84
100
AcDbEntity
  8
_U+30EC_U+30A4_U+30E4_U+30FC 1
 62
     7
420
 16777215
370
     9
100
AcDbVertex
100
AcDb2dVertex
 10
66.59833968982369
 20
-122.2523166361037
 30
0.0
  0
SEQEND
  5
87
330
84
100
AcDbEntity
  8
_U+30EC_U+30A4_U+30E4_U+30FC 1
 62
     7
420
 16777215
370
     9
  0
POLYLINE
  5
88
330
1F
100
AcDbEntity
  8
_U+30EC_U+30A4_U+30E4_U+30FC 1
 62
     7
420
 16777215
370
     9
100
AcDb2dPolyline
 66
     1
 10
0.0
 20
0.0
 30
0.0
  0
VERTEX
  5
89
330
88
100
AcDbEntity
  8
_U+30EC_U+30A4_U+30E4_U+30FC 1
 62
     7
420
 16777215
370
     9
100
AcDbVertex
100
AcDb2dVertex
 10
68.02772465335704
 20
-122.2512935805483
 30
0.0
  0
VERTEX
  5
8A
330
88
100
AcDbEntity
  8
_U+30EC_U+30A4_U+30E4_U+30FC 1
 62
     7
420
 16777215
370
     9
100
AcDbVertex
100
AcDb2dVertex
 10
65.59856749310778
 20
-122.2512935805483
 30
0.0
  0
SEQEND
  5
8B
330
88
100
AcDbEntity
  8
_U+30EC_U+30A4_U+30E4_U+30FC 1
 62
     7
420
 16777215
370
     9
  0
SPLINE
  5
8C
330
1F
100
AcDbEntity
  8
_U+30EC_U+30A4_U+30E4_U+30FC 1
 62
     7
420
 16777215
370
     9
100
AcDbSpline
210
0.0
220
0.0
230
1.0
 70
    11
 71
     3
 72
    17
 73
    13
 74
     0
 42
0.0000000001
 43
0.0000000001
 12
1.0
 22
0.0
 32
0.0
 13
1.0
 23
0.0
 33
0.0
 40
0.0
 40
0.0
 40
0.0
 40
0.0
 40
1.0
 40
1.0
 40
1.0
 40
2.0
 40
2.0
 40
2.0
 40
3.0
 40
3.0
 40
3.0
 40
4.0
 40
4.0
 40
4.0
 40
4.0
 10
66.69824635394153
 20
-137.2512282990206
 30
0.0
 10
66.69824635394153
 20
-137.1960891323675
 30
0.0
 10
66.6534805388923
 20
-137.151321632379
 30
0.0
 10
66.59833968982369
 20
-137.151321632379
 30
0.0
 10
66.54323580234062
 20
-137.151321632379
 30
0.0
 10
66.49843302570586
 20
-137.1960891323675
 30
0.0
 10
66.49843302570586
 20
-137.2512282990206
 30
0.0
 10
66.49843302570586
 20
-137.3063321878955
 30
0.0
 10
66.54323580234062
 20
-137.3511349656623
 30
0.0
 10
66.59833968982369
 20
-137.3511349656623
 30
0.0
 10
66.6534805388923
 20
-137.3511349656623
 30
0.0
 10
66.69824635394153
 20
-137.3063321878955
 30
0.0
 10
66.69824635394153
 20
-137.2512282990206
 30
0.0
  0
POLYLINE
  5
8D
330
1F
100
AcDbEntity
  8
_U+30EC_U+30A4_U+30E4_U+30FC 1
 62
     7
420
 16777215
370
     9
100
AcDb2dPolyline
 66
     1
 10
0.0
 20
0.0
 30
0.0
  0
VERTEX
  5
8E
330
8D
100
AcDbEntity
  8
_U+30EC_U+30A4_U+30E4_U+30FC 1
 62
     7
420
 16777215
370
     9
100
AcDbVertex
100
AcDb2dVertex
 10
68.02772465335704
 20
-137.2512282990206
 30
0.0
  0
VERTEX
  5
8F
330
8D
100
AcDbEntity
  8
_U+30EC_U+30A4_U+30E4_U+30FC 1
 62
     7
420
 16777215
370
     9
100
AcDbVertex
100
AcDb2dVertex
 10
65.59856749310778
 20
-137.2512282990206
 30
0.0
  0
SEQEND
  5
90
330
8D
100
AcDbEntity
  8
_U+30EC_U+30A4_U+30E4_U+30FC 1
 62
     7
420
 16777215
370
     9
  0
INSERT
  5
92
330
1F
100
AcDbEntity
  8
_U+30EC_U+30A4_U+30E4_U+30FC 1
100
AcDbBlockReference
  2
block 6
 10
0.0
 20
0.0
 30
0.0
  0
POLYLINE
  5
99
330
1F
100
AcDbEntity
  8
_U+30EC_U+30A4_U+30E4_U+30FC 1
 62
   179
420
  2234388
370
    25
100
AcDb2dPolyline
 66
     1
 10
0.0
 20
0.0
 30
0.0
  0
VERTEX
  5
9A
330
99
100
AcDbEntity
  8
_U+30EC_U+30A4_U+30E4_U+30FC 1
 62
   179
420
  2234388
370
    25
100
AcDbVertex
100
AcDb2dVertex
 10
71.59511928456745
 20
-136.2511032992703
 30
0.0
  0
VERTEX
  5
9B
330
99
100
AcDbEntity
  8
_U+30EC_U+30A4_U+30E4_U+30FC 1
 62
   179
420
  2234388
370
    25
100
AcDbVertex
100
AcDb2dVertex
 10
71.59511928456745
 20
-128.2512674679373
 30
0.0
  0
VERTEX
  5
9C
330
99
100
AcDbEntity
  8
_U+30EC_U+30A4_U+30E4_U+30FC 1
 62
   179
420
  2234388
370
    25
100
AcDbVertex
100
AcDb2dVertex
 10
110.5951277501289
 20
-128.2512674679373
 30
0.0
  0
VERTEX
  5
9D
330
99
100
AcDbEntity
  8
_U+30EC_U+30A4_U+30E4_U+30FC 1
 62
   179
420
  2234388
370
    25
100
AcDbVertex
100
AcDb2dVertex
 10
110.5951277501289
 20
-127.2511424681873
 30
0.0
  0
VERTEX
  5
9E
330
99
100
AcDbEntity
  8
_U+30EC_U+30A4_U+30E4_U+30FC 1
 62
   179
420
  2234388
370
    25
100
AcDbVertex
100
AcDb2dVertex
 10
71.59511928456745
 20
-127.2511424681873
 30
0.0
  0
VERTEX
  5
9F
330
99
100
AcDbEntity
  8
_U+30EC_U+30A4_U+30E4_U+30FC 1
 62
   179
420
  2234388
370
    25
100
AcDbVertex
100
AcDb2dVertex
 10
71.59511928456745
 20
-123.2513833025204
 30
0.0
  0
VERTEX
  5
A0
330
99
100
AcDbEntity
  8
_U+30EC_U+30A4_U+30E4_U+30FC 1
 62
   179
420
  2234388
370
    25
100
AcDbVertex
100
AcDb2dVertex
 10
73.59498117799116
 20
-123.2513833025204
 30
0.0
  0
VERTEX
  5
A1
330
99
100
AcDbEntity
  8
_U+30EC_U+30A4_U+30E4_U+30FC 1
 62
   179
420
  2234388
370
    25
100
AcDbVertex
100
AcDb2dVertex
 10
73.59498117799116
 20
-122.2512935805483
 30
0.0
  0
VERTEX
  5
A2
330
99
100
AcDbEntity
  8
_U+30EC_U+30A4_U+30E4_U+30FC 1
 62
   179
420
  2234388
370
    25
100
AcDbVertex
100
AcDb2dVertex
 10
70.59499431008277
 20
-122.2512935805483
 30
0.0
  0
VERTEX
  5
A3
330
99
100
AcDbEntity
  8
_U+30EC_U+30A4_U+30E4_U+30FC 1
 62
   179
420
  2234388
370
    25
100
AcDbVertex
100
AcDb2dVertex
 10
70.59499431008277
 20
-137.2512282990206
 30
0.0
  0
VERTEX
  5
A4
330
99
100
AcDbEntity
  8
_U+30EC_U+30A4_U+30E4_U+30FC 1
 62
   179
420
  2234388
370
    25
100
AcDbVertex
100
AcDb2dVertex
 10
80.59507988829266
 20
-137.2512282990206
 30
0.0
  0
VERTEX
  5
A5
330
99
100
AcDbEntity
  8
_U+30EC_U+30A4_U+30E4_U+30FC 1
 62
   179
420
  2234388
370
    25
100
AcDbVertex
100
AcDb2dVertex
 10
80.59507988829266
 20
-134.2512413553263
 30
0.0
  0
VERTEX
  5
A6
330
99
100
AcDbEntity
  8
_U+30EC_U+30A4_U+30E4_U+30FC 1
 62
   179
420
  2234388
370
    25
100
AcDbVertex
100
AcDb2dVertex
 10
77.59509302038425
 20
-134.2512413553263
 30
0.0
  0
VERTEX
  5
A7
330
99
100
AcDbEntity
  8
_U+30EC_U+30A4_U+30E4_U+30FC 1
 62
   179
420
  2234388
370
    25
100
AcDbVertex
100
AcDb2dVertex
 10
77.59509302038425
 20
-135.2513310772984
 30
0.0
  0
VERTEX
  5
A8
330
99
100
AcDbEntity
  8
_U+30EC_U+30A4_U+30E4_U+30FC 1
 62
   179
420
  2234388
370
    25
100
AcDbVertex
100
AcDb2dVertex
 10
79.59495491380797
 20
-135.2513310772984
 30
0.0
  0
VERTEX
  5
A9
330
99
100
AcDbEntity
  8
_U+30EC_U+30A4_U+30E4_U+30FC 1
 62
   179
420
  2234388
370
    25
100
AcDbVertex
100
AcDb2dVertex
 10
79.59495491380797
 20
-136.2511032992703
 30
0.0
  0
VERTEX
  5
AA
330
99
100
AcDbEntity
  8
_U+30EC_U+30A4_U+30E4_U+30FC 1
 62
   179
420
  2234388
370
    25
100
AcDbVertex
100
AcDb2dVertex
 10
71.59511928456745
 20
-136.2511032992703
 30
0.0
  0
SEQEND
  5
AB
330
99
100
AcDbEntity
  8
_U+30EC_U+30A4_U+30E4_U+30FC 1
 62
   179
420
  2234388
370
    25
  0
SPLINE
  5
AC
330
1F
100
AcDbEntity
  8
_U+30EC_U+30A4_U+30E4_U+30FC 1
 62
   179
420
  2234388
370
     9
100
AcDbSpline
210
0.0
220
0.0
230
1.0
 70
    11
 71
     3
 72
    17
 73
    13
 74
     0
 42
0.0000000001
 43
0.0000000001
 12
1.0
 22
0.0
 32
0.0
 13
1.0
 23
0.0
 33
0.0
 40
0.0
 40
0.0
 40
0.0
 40
0.0
 40
1.0
 40
1.0
 40
1.0
 40
2.0
 40
2.0
 40
2.0
 40
3.0
 40
3.0
 40
3.0
 40
4.0
 40
4.0
 40
4.0
 40
4.0
 10
110.5944546785004
 20
-118.136811081577
 30
0.0
 10
110.6495585659835
 20
-118.136811081577
 30
0.0
 10
110.6943613426182
 20
-118.1815785815659
 30
0.0
 10
110.6943613426182
 20
-118.2367177482186
 30
0.0
 10
110.6943613426182
 20
-118.2918216370939
 30
0.0
 10
110.6495585659835
 20
-118.3366244148603
 30
0.0
 10
110.5944546785004
 20
-118.3366244148603
 30
0.0
 10
110.5393155132405
 20
-118.3366244148603
 30
0.0
 10
110.4945480143826
 20
-118.2918216370939
 30
0.0
 10
110.4945480143826
 20
-118.2367177482186
 30
0.0
 10
110.4945480143826
 20
-118.1815785815659
 30
0.0
 10
110.5393155132405
 20
-118.136811081577
 30
0.0
 10
110.5944546785004
 20
-118.136811081577
 30
0.0
  0
SPLINE
  5
AD
330
1F
100
AcDbEntity
  8
_U+30EC_U+30A4_U+30E4_U+30FC 1
 62
   179
420
  2234388
370
     9
100
AcDbSpline
210
0.0
220
0.0
230
1.0
 70
    11
 71
     3
 72
    17
 73
    13
 74
     0
 42
0.0000000001
 43
0.0000000001
 12
1.0
 22
0.0
 32
0.0
 13
1.0
 23
0.0
 33
0.0
 40
0.0
 40
0.0
 40
0.0
 40
0.0
 40
1.0
 40
1.0
 40
1.0
 40
2.0
 40
2.0
 40
2.0
 40
3.0
 40
3.0
 40
3.0
 40
4.0
 40
4.0
 40
4.0
 40
4.0
 10
70.59499431008277
 20
-118.136811081577
 30
0.0
 10
70.65013347534271
 20
-118.136811081577
 30
0.0
 10
70.69490276010421
 20
-118.1815785815659
 30
0.0
 10
70.69490276010421
 20
-118.2367177482186
 30
0.0
 10
70.69490276010421
 20
-118.2918216370939
 30
0.0
 10
70.65013347534271
 20
-118.3366244148603
 30
0.0
 10
70.59499431008277
 20
-118.3366244148603
 30
0.0
 10
70.53989042259968
 20
-118.3366244148603
 30
0.0
 10
70.49508764596493
 20
-118.2918216370939
 30
0.0
 10
70.49508764596493
 20
-118.2367177482186
 30
0.0
 10
70.49508764596493
 20
-118.1815785815659
 30
0.0
 10
70.53989042259968
 20
-118.136811081577
 30
0.0
 10
70.59499431008277
 20
-118.136811081577
 30
0.0
  0
SPLINE
  5
AE
330
1F
100
AcDbEntity
  8
_U+30EC_U+30A4_U+30E4_U+30FC 1
 62
   179
420
  2234388
370
     9
100
AcDbSpline
210
0.0
220
0.0
230
1.0
 70
    11
 71
     3
 72
    17
 73
    13
 74
     0
 42
0.0000000001
 43
0.0000000001
 12
1.0
 22
0.0
 32
0.0
 13
1.0
 23
0.0
 33
0.0
 40
0.0
 40
0.0
 40
0.0
 40
0.0
 40
1.0
 40
1.0
 40
1.0
 40
2.0
 40
2.0
 40
2.0
 40
3.0
 40
3.0
 40
3.0
 40
4.0
 40
4.0
 40
4.0
 40
4.0
 10
73.67216895379971
 20
-115.6184363599842
 30
0.0
 10
73.72797839682035
 20
-115.6184363599842
 30
0.0
 10
73.77274589567823
 20
-115.6632391377509
 30
0.0
 10
73.77274589567823
 20
-115.7183430266258
 30
0.0
 10
73.77274589567823
 20
-115.7734821932789
 30
0.0
 10
73.72797839682035
 20
-115.8182496932678
 30
0.0
 10
73.67216895379971
 20
-115.8182496932678
 30
0.0
 10
73.61702978853977
 20
-115.8182496932678
 30
0.0
 10
73.57226228968189
 20
-115.7734821932789
 30
0.0
 10
73.57226228968189
 20
-115.7183430266258
 30
0.0
 10
73.57226228968189
 20
-115.6632391377509
 30
0.0
 10
73.61702978853977
 20
-115.6184363599842
 30
0.0
 10
73.67216895379971
 20
-115.6184363599842
 30
0.0
  0
SPLINE
  5
AF
330
1F
100
AcDbEntity
  8
_U+30EC_U+30A4_U+30E4_U+30FC 1
 62
   179
420
  2234388
370
     9
100
AcDbSpline
210
0.0
220
0.0
230
1.0
 70
    11
 71
     3
 72
    17
 73
    13
 74
     0
 42
0.0000000001
 43
0.0000000001
 12
1.0
 22
0.0
 32
0.0
 13
1.0
 23
0.0
 33
0.0
 40
0.0
 40
0.0
 40
0.0
 40
0.0
 40
1.0
 40
1.0
 40
1.0
 40
2.0
 40
2.0
 40
2.0
 40
3.0
 40
3.0
 40
3.0
 40
4.0
 40
4.0
 40
4.0
 40
4.0
 10
70.67010069705553
 20
-115.6184363599842
 30
0.0
 10
70.72591014007615
 20
-115.6184363599842
 30
0.0
 10
70.77071291671092
 20
-115.6632391377509
 30
0.0
 10
70.77071291671092
 20
-115.7183430266258
 30
0.0
 10
70.77071291671092
 20
-115.7734821932789
 30
0.0
 10
70.72591014007615
 20
-115.8182496932678
 30
0.0
 10
70.67010069705553
 20
-115.8182496932678
 30
0.0
 10
70.61499680957246
 20
-115.8182496932678
 30
0.0
 10
70.57019403293769
 20
-115.7734821932789
 30
0.0
 10
70.57019403293769
 20
-115.7183430266258
 30
0.0
 10
70.57019403293769
 20
-115.6632391377509
 30
0.0
 10
70.61499680957246
 20
-115.6184363599842
 30
0.0
 10
70.67010069705553
 20
-115.6184363599842
 30
0.0
  0
POLYLINE
  5
B0
330
1F
100
AcDbEntity
  8
_U+30EC_U+30A4_U+30E4_U+30FC 1
 62
   179
420
  2234388
370
     9
100
AcDb2dPolyline
 66
     1
 10
0.0
 20
0.0
 30
0.0
  0
VERTEX
  5
B1
330
B0
100
AcDbEntity
  8
_U+30EC_U+30A4_U+30E4_U+30FC 1
 62
   179
420
  2234388
370
     9
100
AcDbVertex
100
AcDb2dVertex
 10
70.59499431008277
 20
-118.2367177482186
 30
0.0
  0
VERTEX
  5
B2
330
B0
100
AcDbEntity
  8
_U+30EC_U+30A4_U+30E4_U+30FC 1
 62
   179
420
  2234388
370
     9
100
AcDbVertex
100
AcDb2dVertex
 10
110.5944546785004
 20
-118.2367177482186
 30
0.0
  0
SEQEND
  5
B3
330
B0
100
AcDbEntity
  8
_U+30EC_U+30A4_U+30E4_U+30FC 1
 62
   179
420
  2234388
370
     9
  0
POLYLINE
  5
B4
330
1F
100
AcDbEntity
  8
_U+30EC_U+30A4_U+30E4_U+30FC 1
 62
   179
420
  2234388
370
     9
100
AcDb2dPolyline
 66
     1
 10
0.0
 20
0.0
 30
0.0
  0
VERTEX
  5
B5
330
B4
100
AcDbEntity
  8
_U+30EC_U+30A4_U+30E4_U+30FC 1
 62
   179
420
  2234388
370
     9
100
AcDbVertex
100
AcDb2dVertex
 10
70.59499431008277
 20
-119.6967591367423
 30
0.0
  0
VERTEX
  5
B6
330
B4
100
AcDbEntity
  8
_U+30EC_U+30A4_U+30E4_U+30FC 1
 62
   179
420
  2234388
370
     9
100
AcDbVertex
100
AcDb2dVertex
 10
70.59499431008277
 20
-117.2362399706909
 30
0.0
  0
SEQEND
  5
B7
330
B4
100
AcDbEntity
  8
_U+30EC_U+30A4_U+30E4_U+30FC 1
 62
   179
420
  2234388
370
     9
  0
POLYLINE
  5
B8
330
1F
100
AcDbEntity
  8
_U+30EC_U+30A4_U+30E4_U+30FC 1
 62
   179
420
  2234388
370
     9
100
AcDb2dPolyline
 66
     1
 10
0.0
 20
0.0
 30
0.0
  0
VERTEX
  5
B9
330
B8
100
AcDbEntity
  8
_U+30EC_U+30A4_U+30E4_U+30FC 1
 62
   179
420
  2234388
370
     9
100
AcDbVertex
100
AcDb2dVertex
 10
110.5944546785004
 20
-124.7512180243678
 30
0.0
  0
VERTEX
  5
BA
330
B8
100
AcDbEntity
  8
_U+30EC_U+30A4_U+30E4_U+30FC 1
 62
   179
420
  2234388
370
     9
100
AcDbVertex
100
AcDb2dVertex
 10
110.5944546785004
 20
-117.2362399706909
 30
0.0
  0
SEQEND
  5
BB
330
B8
100
AcDbEntity
  8
_U+30EC_U+30A4_U+30E4_U+30FC 1
 62
   179
420
  2234388
370
     9
  0
POLYLINE
  5
BC
330
1F
100
AcDbEntity
  8
_U+30EC_U+30A4_U+30E4_U+30FC 1
 62
   179
420
  2234388
370
     9
100
AcDb2dPolyline
 66
     1
 10
0.0
 20
0.0
 30
0.0
  0
VERTEX
  5
BD
330
BC
100
AcDbEntity
  8
_U+30EC_U+30A4_U+30E4_U+30FC 1
 62
   179
420
  2234388
370
     9
100
AcDbVertex
100
AcDb2dVertex
 10
73.6687117316657
 20
-116.423898582005
 30
0.0
  0
VERTEX
  5
BE
330
BC
100
AcDbEntity
  8
_U+30EC_U+30A4_U+30E4_U+30FC 1
 62
   179
420
  2234388
370
     9
100
AcDbVertex
100
AcDb2dVertex
 10
73.6687117316657
 20
-115.0127874712467
 30
0.0
  0
SEQEND
  5
BF
330
BC
100
AcDbEntity
  8
_U+30EC_U+30A4_U+30E4_U+30FC 1
 62
   179
420
  2234388
370
     9
  0
POLYLINE
  5
C0
330
1F
100
AcDbEntity
  8
_U+30EC_U+30A4_U+30E4_U+30FC 1
 62
   179
420
  2234388
370
     9
100
AcDb2dPolyline
 66
     1
 10
0.0
 20
0.0
 30
0.0
  0
VERTEX
  5
C1
330
C0
100
AcDbEntity
  8
_U+30EC_U+30A4_U+30E4_U+30FC 1
 62
   179
420
  2234388
370
     9
100
AcDbVertex
100
AcDb2dVertex
 10
70.67010069705553
 20
-116.423898582005
 30
0.0
  0
VERTEX
  5
C2
330
C0
100
AcDbEntity
  8
_U+30EC_U+30A4_U+30E4_U+30FC 1
 62
   179
420
  2234388
370
     9
100
AcDbVertex
100
AcDb2dVertex
 10
70.67010069705553
 20
-115.0127874712467
 30
0.0
  0
SEQEND
  5
C3
330
C0
100
AcDbEntity
  8
_U+30EC_U+30A4_U+30E4_U+30FC 1
 62
   179
420
  2234388
370
     9
  0
POLYLINE
  5
C4
330
1F
100
AcDbEntity
  8
_U+30EC_U+30A4_U+30E4_U+30FC 1
 62
   179
420
  2234388
370
     9
100
AcDb2dPolyline
 66
     1
 10
0.0
 20
0.0
 30
0.0
  0
VERTEX
  5
C5
330
C4
100
AcDbEntity
  8
_U+30EC_U+30A4_U+30E4_U+30FC 1
 62
   179
420
  2234388
370
     9
100
AcDbVertex
100
AcDb2dVertex
 10
69.40849684035284
 20
-115.7183430266258
 30
0.0
  0
VERTEX
  5
C6
330
C4
100
AcDbEntity
  8
_U+30EC_U+30A4_U+30E4_U+30FC 1
 62
   179
420
  2234388
370
     9
100
AcDbVertex
100
AcDb2dVertex
 10
74.7773511478264
 20
-115.7183430266258
 30
0.0
  0
SEQEND
  5
C7
330
C4
100
AcDbEntity
  8
_U+30EC_U+30A4_U+30E4_U+30FC 1
 62
   179
420
  2234388
370
     9
  0
INSERT
  5
C9
330
1F
100
AcDbEntity
  8
_U+30EC_U+30A4_U+30E4_U+30FC 1
100
AcDbBlockReference
  2
block 7
 10
0.0
 20
0.0
 30
0.0
  0
INSERT
  5
E5
330
1F
100
AcDbEntity
  8
_U+30EC_U+30A4_U+30E4_U+30FC 1
100
AcDbBlockReference
  2
block 8
 10
0.0
 20
0.0
 30
0.0
  0
ENDSEC
  0
SECTION
  2
OBJECTS
  0
DICTIONARY
  5
C
330
0
100
AcDbDictionary
281
     1
  3
ACAD_GROUP
350
D
  3
ACAD_LAYOUT
350
1A
  3
ACAD_MATERIAL
350
3B
  3
ACAD_MLEADERSTYLE
350
EB
  3
ACAD_MLINESTYLE
350
17
  3
ACAD_PLOTSETTINGS
350
19
  3
ACAD_PLOTSTYLENAME
350
E
  3
ACAD_TABLESTYLE
350
EA
  3
ACAD_VISUALSTYLE
350
2A
  0
SUN
  5
3F
330
29
100
AcDbSun
 90
        1
290
     0
 63
     7
421
 16777215
 40
1.0
291
     1
 91
  2455826
 92
 54000000
292
     0
 70
     2
 71
   256
280
     1
  0
DICTIONARY
  5
D
102
{ACAD_REACTORS
330
C
102
}
330
C
100
AcDbDictionary
281
     1
  0
DICTIONARY
  5
1A
102
{ACAD_REACTORS
330
C
102
}
330
C
100
AcDbDictionary
281
     1
  3
Layout1
350
1E
  3
Layout2
350
26
  3
Model
350
22
  0
DICTIONARY
  5
3B
102
{ACAD_REACTORS
330
C
102
}
330
C
100
AcDbDictionary
281
     1
  3
ByBlock
350
3D
  3
ByLayer
350
3C
  3
Global
350
3E
  0
DICTIONARY
  5
EB
102
{ACAD_REACTORS
330
C
102
}
330
C
100
AcDbDictionary
281
     1
  0
DICTIONARY
  5
17
102
{ACAD_REACTORS
330
C
102
}
330
C
100
AcDbDictionary
281
     1
  3
Standard
350
18
  0
DICTIONARY
  5
19
102
{ACAD_REACTORS
330
C
102
}
330
C
100
AcDbDictionary
281
     1
  0
ACDBDICTIONARYWDFLT
  5
E
102
{ACAD_REACTORS
330
C
102
}
330
C
100
AcDbDictionary
281
     1
  3
Normal
350
F
100
AcDbDictionaryWithDefault
340
F
  0
DICTIONARY
  5
EA
102
{ACAD_REACTORS
330
C
102
}
330
C
100
AcDbDictionary
281
     1
  0
DICTIONARY
  5
2A
102
{ACAD_REACTORS
330
C
102
}
330
C
100
AcDbDictionary
281
     1
  3
2dWireframe
350
2F
  3
3D Hidden
350
31
  3
3dWireframe
350
30
  3
Basic
350
32
  3
Brighten
350
36
  3
ColorChange
350
3A
  3
Conceptual
350
34
  3
Dim
350
35
  3
Facepattern
350
39
  3
Flat
350
2B
  3
FlatWithEdges
350
2C
  3
Gouraud
350
2D
  3
GouraudWithEdges
350
2E
  3
Linepattern
350
38
  3
Realistic
350
33
  3
Thicken
350
37
  0
LAYOUT
  5
1E
102
{ACAD_REACTORS
330
1A
102
}
330
1A
100
AcDbPlotSettings
  1

  2
none_device
  4

  6

 40
0.0
 41
0.0
 42
0.0
 43
0.0
 44
0.0
 45
0.0
 46
0.0
 47
0.0
 48
0.0
 49
0.0
140
0.0
141
0.0
142
1.0
143
1.0
 70
   688
 72
     0
 73
     0
 74
     5
  7

 75
    16
 76
     0
 77
     2
 78
   300
147
1.0
148
0.0
149
0.0
100
AcDbLayout
  1
Layout1
 70
     1
 71
     1
 10
0.0
 20
0.0
 11
12.0
 21
9.0
 12
0.0
 22
0.0
 32
0.0
 14
1.000000000000000E+20
 24
1.000000000000000E+20
 34
1.000000000000000E+20
 15
-1.000000000000000E+20
 25
-1.000000000000000E+20
 35
-1.000000000000000E+20
146
0.0
 13
0.0
 23
0.0
 33
0.0
 16
1.0
 26
0.0
 36
0.0
 17
0.0
 27
1.0
 37
0.0
 76
     0
330
1B
  0
LAYOUT
  5
26
102
{ACAD_REACTORS
330
1A
102
}
330
1A
100
AcDbPlotSettings
  1

  2
none_device
  4

  6

 40
0.0
 41
0.0
 42
0.0
 43
0.0
 44
0.0
 45
0.0
 46
0.0
 47
0.0
 48
0.0
 49
0.0
140
0.0
141
0.0
142
1.0
143
1.0
 70
   688
 72
     0
 73
     0
 74
     5
  7

 75
    16
 76
     0
 77
     2
 78
   300
147
1.0
148
0.0
149
0.0
100
AcDbLayout
  1
Layout2
 70
     1
 71
     2
 10
0.0
 20
0.0
 11
0.0
 21
0.0
 12
0.0
 22
0.0
 32
0.0
 14
0.0
 24
0.0
 34
0.0
 15
0.0
 25
0.0
 35
0.0
146
0.0
 13
0.0
 23
0.0
 33
0.0
 16
1.0
 26
0.0
 36
0.0
 17
0.0
 27
1.0
 37
0.0
 76
     0
330
23
  0
LAYOUT
  5
22
102
{ACAD_REACTORS
330
1A
102
}
330
1A
100
AcDbPlotSettings
  1

  2
none_device
  4

  6

 40
0.0
 41
0.0
 42
0.0
 43
0.0
 44
0.0
 45
0.0
 46
0.0
 47
0.0
 48
0.0
 49
0.0
140
0.0
141
0.0
142
1.0
143
1.0
 70
  1712
 72
     0
 73
     0
 74
     0
  7

 75
     0
 76
     0
 77
     2
 78
   300
147
1.0
148
0.0
149
0.0
100
AcDbLayout
  1
Model
 70
     1
 71
     0
 10
0.0
 20
0.0
 11
12.0
 21
9.0
 12
0.0
 22
0.0
 32
0.0
 14
1.000000000000000E+20
 24
1.000000000000000E+20
 34
1.000000000000000E+20
 15
-1.000000000000000E+20
 25
-1.000000000000000E+20
 35
-1.000000000000000E+20
146
0.0
 13
0.0
 23
0.0
 33
0.0
 16
1.0
 26
0.0
 36
0.0
 17
0.0
 27
1.0
 37
0.0
 76
     0
330
1F
331
29
  0
MATERIAL
  5
3D
102
{ACAD_REACTORS
330
3B
102
}
330
3B
100
AcDbMaterial
  1
ByBlock
 72
     1
 94
      127
  0
MATERIAL
  5
3C
102
{ACAD_REACTORS
330
3B
102
}
330
3B
100
AcDbMaterial
  1
ByLayer
 72
     1
 94
      127
  0
MATERIAL
  5
3E
102
{ACAD_REACTORS
330
3B
102
}
330
3B
100
AcDbMaterial
  1
Global
 72
     1
 94
      127
  0
MLINESTYLE
  5
18
102
{ACAD_REACTORS
330
17
102
}
330
17
100
AcDbMlineStyle
  2
Standard
 70
     0
  3

 62
   256
 51
90.0
 52
90.0
 71
     2
 49
0.5
 62
   256
  6
BYLAYER
 49
-0.5
 62
   256
  6
BYLAYER
  0
ACDBPLACEHOLDER
  5
F
102
{ACAD_REACTORS
330
E
102
}
330
E
  0
VISUALSTYLE
  5
2F
102
{ACAD_REACTORS
330
2A
102
}
330
2A
100
AcDbVisualStyle
  2
2dWireframe
 70
     4
177
     2
291
     0
 71
     0
176
     1
 72
     2
176
     1
 73
     0
176
     1
 90
        0
176
     1
 40
-0.6
176
     1
 41
-30.0
176
     1
 62
     5
 63
     7
421
 16777215
176
     1
 74
     1
176
     1
 91
        4
176
     1
 64
     7
176
     1
 65
   257
176
     1
 75
     1
176
     1
175
     1
176
     1
 42
1.0
176
     1
 92
        0
176
     1
 66
   257
176
     1
 43
1.0
176
     1
 76
     1
176
     1
 77
     6
176
     1
 78
     2
176
     1
 67
     7
176
     1
 79
     5
176
     1
170
     0
176
     1
171
     0
176
     1
290
     0
176
     1
 93
        1
176
     1
 44
0.0
176
     1
173
     0
176
     1
  0
VISUALSTYLE
  5
31
102
{ACAD_REACTORS
330
2A
102
}
330
2A
100
AcDbVisualStyle
  2
3D Hidden
 70
     6
177
     2
291
     0
 71
     1
176
     1
 72
     2
176
     1
 73
     2
176
     1
 90
        0
176
     1
 40
-0.6
176
     1
 41
-30.0
176
     1
 62
     5
 63
     7
421
 16777215
176
     1
 74
     2
176
     1
 91
        2
176
     1
 64
     7
176
     1
 65
   257
176
     1
 75
     2
176
     1
175
     1
176
     1
 42
40.0
176
     1
 92
        0
176
     1
 66
   257
176
     1
 43
1.0
176
     1
 76
     1
176
     1
 77
     6
176
     1
 78
     2
176
     1
 67
     7
176
     1
 79
     3
176
     1
170
     0
176
     1
171
     0
176
     1
290
     0
176
     1
 93
        1
176
     1
 44
0.0
176
     1
173
     0
176
     1
  0
VISUALSTYLE
  5
30
102
{ACAD_REACTORS
330
2A
102
}
330
2A
100
AcDbVisualStyle
  2
3dWireframe
 70
     5
177
     2
291
     0
 71
     0
176
     1
 72
     2
176
     1
 73
     0
176
     1
 90
        0
176
     1
 40
-0.6
176
     1
 41
-30.0
176
     1
 62
     5
 63
     7
421
 16777215
176
     1
 74
     1
176
     1
 91
        4
176
     1
 64
     7
176
     1
 65
   257
176
     1
 75
     1
176
     1
175
     1
176
     1
 42
1.0
176
     1
 92
        0
176
     1
 66
   257
176
     1
 43
1.0
176
     1
 76
     1
176
     1
 77
     6
176
     1
 78
     2
176
     1
 67
     7
176
     1
 79
     5
176
     1
170
     0
176
     1
171
     0
176
     1
290
     0
176
     1
 93
        1
176
     1
 44
0.0
176
     1
173
     0
176
     1
  0
VISUALSTYLE
  5
32
102
{ACAD_REACTORS
330
2A
102
}
330
2A
100
AcDbVisualStyle
  2
Basic
 70
     7
177
     2
291
     1
 71
     1
176
     1
 72
     0
176
     1
 73
     1
176
     1
 90
        0
176
     1
 40
-0.6
176
     1
 41
-30.0
176
     1
 62
     5
 63
     7
421
 16777215
176
     1
 74
     0
176
     1
 91
        4
176
     1
 64
     7
176
     1
 65
   257
176
     1
 75
     1
176
     1
175
     1
176
     1
 42
1.0
176
     1
 92
        8
176
     1
 66
     7
176
     1
 43
1.0
176
     1
 76
     1
176
     1
 77
     6
176
     1
 78
     2
176
     1
 67
     7
176
     1
 79
     5
176
     1
170
     0
176
     1
171
     0
176
     1
290
     0
176
     1
 93
        1
176
     1
 44
0.0
176
     1
173
     0
176
     1
  0
VISUALSTYLE
  5
36
102
{ACAD_REACTORS
330
2A
102
}
330
2A
100
AcDbVisualStyle
  2
Brighten
 70
    12
177
     2
291
     1
 71
     2
176
     1
 72
     2
176
     1
 73
     0
176
     1
 90
        0
176
     1
 40
-0.6
176
     1
 41
-30.0
176
     1
 62
     5
 63
     7
421
 16777215
176
     1
 74
     1
176
     1
 91
        4
176
     1
 64
     7
176
     1
 65
   257
176
     1
 75
     1
176
     1
175
     1
176
     1
 42
1.0
176
     1
 92
        8
176
     1
 66
     7
176
     1
 43
1.0
176
     1
 76
     1
176
     1
 77
     6
176
     1
 78
     2
176
     1
 67
     7
176
     1
 79
     5
176
     1
170
     0
176
     1
171
     0
176
     1
290
     0
176
     1
 93
        1
176
     1
 44
50.0
176
     1
173
     0
176
     1
  0
VISUALSTYLE
  5
3A
102
{ACAD_REACTORS
330
2A
102
}
330
2A
100
AcDbVisualStyle
  2
ColorChange
 70
    16
177
     2
291
     1
 71
     2
176
     1
 72
     2
176
     1
 73
     3
176
     1
 90
        0
176
     1
 40
-0.6
176
     1
 41
-30.0
176
     1
 62
     5
 63
     8
421
  8421504
176
     1
 74
     1
176
     1
 91
        4
176
     1
 64
     7
176
     1
 65
   257
176
     1
 75
     1
176
     1
175
     1
176
     1
 42
1.0
176
     1
 92
        8
176
     1
 66
     8
424
  8421504
176
     1
 43
1.0
176
     1
 76
     1
176
     1
 77
     6
176
     1
 78
     2
176
     1
 67
     7
176
     1
 79
     5
176
     1
170
     0
176
     1
171
     0
176
     1
290
     0
176
     1
 93
        1
176
     1
 44
0.0
176
     1
173
     0
176
     1
  0
VISUALSTYLE
  5
34
102
{ACAD_REACTORS
330
2A
102
}
330
2A
100
AcDbVisualStyle
  2
Conceptual
 70
     9
177
     2
291
     0
 71
     3
176
     1
 72
     2
176
     1
 73
     0
176
     1
 90
        0
176
     1
 40
-0.6
176
     1
 41
-30.0
176
     1
 62
     5
 63
     7
421
 16777215
176
     1
 74
     2
176
     1
 91
        2
176
     1
 64
     7
176
     1
 65
   257
176
     1
 75
     1
176
     1
175
     1
176
     1
 42
40.0
176
     1
 92
        8
176
     1
 66
     7
176
     1
 43
1.0
176
     1
 76
     1
176
     1
 77
     6
176
     1
 78
     2
176
     1
 67
     7
176
     1
 79
     3
176
     1
170
     0
176
     1
171
     0
176
     1
290
     0
176
     1
 93
        1
176
     1
 44
0.0
176
     1
173
     0
176
     1
  0
VISUALSTYLE
  5
35
102
{ACAD_REACTORS
330
2A
102
}
330
2A
100
AcDbVisualStyle
  2
Dim
 70
    11
177
     2
291
     1
 71
     2
176
     1
 72
     2
176
     1
 73
     0
176
     1
 90
        0
176
     1
 40
-0.6
176
     1
 41
-30.0
176
     1
 62
     5
 63
     7
421
 16777215
176
     1
 74
     1
176
     1
 91
        4
176
     1
 64
     7
176
     1
 65
   257
176
     1
 75
     1
176
     1
175
     1
176
     1
 42
1.0
176
     1
 92
        8
176
     1
 66
     7
176
     1
 43
1.0
176
     1
 76
     1
176
     1
 77
     6
176
     1
 78
     2
176
     1
 67
     7
176
     1
 79
     5
176
     1
170
     0
176
     1
171
     0
176
     1
290
     0
176
     1
 93
        1
176
     1
 44
-50.0
176
     1
173
     0
176
     1
  0
VISUALSTYLE
  5
39
102
{ACAD_REACTORS
330
2A
102
}
330
2A
100
AcDbVisualStyle
  2
Facepattern
 70
    15
177
     2
291
     1
 71
     2
176
     1
 72
     2
176
     1
 73
     0
176
     1
 90
        0
176
     1
 40
-0.6
176
     1
 41
-30.0
176
     1
 62
     5
 63
     7
421
 16777215
176
     1
 74
     1
176
     1
 91
        4
176
     1
 64
     7
176
     1
 65
   257
176
     1
 75
     1
176
     1
175
     1
176
     1
 42
1.0
176
     1
 92
        8
176
     1
 66
     7
176
     1
 43
1.0
176
     1
 76
     1
176
     1
 77
     6
176
     1
 78
     2
176
     1
 67
     7
176
     1
 79
     5
176
     1
170
     0
176
     1
171
     0
176
     1
290
     0
176
     1
 93
        1
176
     1
 44
0.0
176
     1
173
     0
176
     1
  0
VISUALSTYLE
  5
2B
102
{ACAD_REACTORS
330
2A
102
}
330
2A
100
AcDbVisualStyle
  2
Flat
 70
     0
177
     2
291
     1
 71
     2
176
     1
 72
     1
176
     1
 73
     1
176
     1
 90
        2
176
     1
 40
-0.6
176
     1
 41
30.0
176
     1
 62
     5
 63
     7
421
 16777215
176
     1
 74
     0
176
     1
 91
        4
176
     1
 64
     7
176
     1
 65
   257
176
     1
 75
     1
176
     1
175
     1
176
     1
 42
1.0
176
     1
 92
        8
176
     1
 66
     7
176
     1
 43
1.0
176
     1
 76
     1
176
     1
 77
     6
176
     1
 78
     2
176
     1
 67
     7
176
     1
 79
     5
176
     1
170
     0
176
     1
171
     0
176
     1
290
     0
176
     1
 93
       13
176
     1
 44
0.0
176
     1
173
     0
176
     1
  0
VISUALSTYLE
  5
2C
102
{ACAD_REACTORS
330
2A
102
}
330
2A
100
AcDbVisualStyle
  2
FlatWithEdges
 70
     1
177
     2
291
     1
 71
     2
176
     1
 72
     1
176
     1
 73
     1
176
     1
 90
        2
176
     1
 40
-0.6
176
     1
 41
30.0
176
     1
 62
     5
 63
     7
421
 16777215
176
     1
 74
     1
176
     1
 91
        4
176
     1
 64
     7
176
     1
 65
   257
176
     1
 75
     1
176
     1
175
     1
176
     1
 42
1.0
176
     1
 92
        0
176
     1
 66
   257
176
     1
 43
1.0
176
     1
 76
     1
176
     1
 77
     6
176
     1
 78
     2
176
     1
 67
     7
176
     1
 79
     5
176
     1
170
     0
176
     1
171
     0
176
     1
290
     0
176
     1
 93
       13
176
     1
 44
0.0
176
     1
173
     0
176
     1
  0
VISUALSTYLE
  5
2D
102
{ACAD_REACTORS
330
2A
102
}
330
2A
100
AcDbVisualStyle
  2
Gouraud
 70
     2
177
     2
291
     1
 71
     2
176
     1
 72
     2
176
     1
 73
     1
176
     1
 90
        2
176
     1
 40
-0.6
176
     1
 41
30.0
176
     1
 62
     5
 63
     7
421
 16777215
176
     1
 74
     0
176
     1
 91
        4
176
     1
 64
     7
176
     1
 65
   257
176
     1
 75
     1
176
     1
175
     1
176
     1
 42
1.0
176
     1
 92
        0
176
     1
 66
     7
176
     1
 43
1.0
176
     1
 76
     1
176
     1
 77
     6
176
     1
 78
     2
176
     1
 67
     7
176
     1
 79
     5
176
     1
170
     0
176
     1
171
     0
176
     1
290
     0
176
     1
 93
       13
176
     1
 44
0.0
176
     1
173
     0
176
     1
  0
VISUALSTYLE
  5
2E
102
{ACAD_REACTORS
330
2A
102
}
330
2A
100
AcDbVisualStyle
  2
GouraudWithEdges
 70
     3
177
     2
291
     1
 71
     2
176
     1
 72
     2
176
     1
 73
     1
176
     1
 90
        2
176
     1
 40
-0.6
176
     1
 41
30.0
176
     1
 62
     5
 63
     7
421
 16777215
176
     1
 74
     1
176
     1
 91
        4
176
     1
 64
     7
176
     1
 65
   257
176
     1
 75
     1
176
     1
175
     1
176
     1
 42
1.0
176
     1
 92
        0
176
     1
 66
   257
176
     1
 43
1.0
176
     1
 76
     1
176
     1
 77
     6
176
     1
 78
     2
176
     1
 67
     7
176
     1
 79
     5
176
     1
170
     0
176
     1
171
     0
176
     1
290
     0
176
     1
 93
       13
176
     1
 44
0.0
176
     1
173
     0
176
     1
  0
VISUALSTYLE
  5
38
102
{ACAD_REACTORS
330
2A
102
}
330
2A
100
AcDbVisualStyle
  2
Linepattern
 70
    14
177
     2
291
     1
 71
     2
176
     1
 72
     2
176
     1
 73
     0
176
     1
 90
        0
176
     1
 40
-0.6
176
     1
 41
-30.0
176
     1
 62
     5
 63
     7
421
 16777215
176
     1
 74
     1
176
     1
 91
        4
176
     1
 64
     7
176
     1
 65
   257
176
     1
 75
     7
176
     1
175
     7
176
     1
 42
1.0
176
     1
 92
        8
176
     1
 66
     7
176
     1
 43
1.0
176
     1
 76
     1
176
     1
 77
     6
176
     1
 78
     2
176
     1
 67
     7
176
     1
 79
     5
176
     1
170
     0
176
     1
171
     0
176
     1
290
     0
176
     1
 93
        1
176
     1
 44
0.0
176
     1
173
     0
176
     1
  0
VISUALSTYLE
  5
33
102
{ACAD_REACTORS
330
2A
102
}
330
2A
100
AcDbVisualStyle
  2
Realistic
 70
     8
177
     2
291
     0
 71
     2
176
     1
 72
     2
176
     1
 73
     0
176
     1
 90
        0
176
     1
 40
-0.6
176
     1
 41
-30.0
176
     1
 62
     5
 63
     7
421
 16777215
176
     1
 74
     1
176
     1
 91
        0
176
     1
 64
     7
176
     1
 65
   257
176
     1
 75
     1
176
     1
175
     1
176
     1
 42
1.0
176
     1
 92
        8
176
     1
 66
     8
424
  7895160
176
     1
 43
1.0
176
     1
 76
     1
176
     1
 77
     6
176
     1
 78
     2
176
     1
 67
     7
176
     1
 79
     5
176
     1
170
     0
176
     1
171
     0
176
     1
290
     0
176
     1
 93
       13
176
     1
 44
0.0
176
     1
173
     0
176
     1
  0
VISUALSTYLE
  5
37
102
{ACAD_REACTORS
330
2A
102
}
330
2A
100
AcDbVisualStyle
  2
Thicken
 70
    13
177
     2
291
     1
 71
     2
176
     1
 72
     2
176
     1
 73
     0
176
     1
 90
        0
176
     1
 40
-0.6
176
     1
 41
-30.0
176
     1
 62
     5
 63
     7
421
 16777215
176
     1
 74
     1
176
     1
 91
        4
176
     1
 64
     7
176
     1
 65
   257
176
     1
 75
     1
176
     1
175
     1
176
     1
 42
1.0
176
     1
 92
       12
176
     1
 66
     7
176
     1
 43
1.0
176
     1
 76
     1
176
     1
 77
     6
176
     1
 78
     2
176
     1
 67
     7
176
     1
 79
     5
176
     1
170
     0
176
     1
171
     0
176
     1
290
     0
176
     1
 93
        1
176
     1
 44
0.0
176
     1
173
     0
176
     1
  0
ENDSEC
  0
EOF
