  0
SECTION
  2
HEADER
  9
$ACADVER
  1
AC1024
  9
$ACADMAINTVER
 70
     6
  9
$DWGCODEPAGE
  3
UNDEFINED
  9
$INSBASE
 10
0.0
 20
0.0
 30
0.0
  9
$EXTMIN
 10
1.000000000000000E+20
 20
1.000000000000000E+20
 30
1.000000000000000E+20
  9
$EXTMAX
 10
-1.000000000000000E+20
 20
-1.000000000000000E+20
 30
-1.000000000000000E+20
  9
$LIMMIN
 10
0.0
 20
0.0
  9
$LIMMAX
 10
12.0
 20
9.0
  9
$ORTHOMODE
 70
     0
  9
$REGENMODE
 70
     1
  9
$FILLMODE
 70
     1
  9
$QTEXTMODE
 70
     0
  9
$MIRRTEXT
 70
     1
  9
$LTSCALE
 40
1.0
  9
$ATTMODE
 70
     1
  9
$TEXTSIZE
 40
0.2
  9
$TRACEWID
 40
0.05
  9
$TEXTSTYLE
  7
Standard
  9
$CLAYER
  8
0
  9
$CELTYPE
  6
ByLayer
  9
$CECOLOR
 62
   256
  9
$CELTSCALE
 40
1.0
  9
$DISPSILH
 70
     0
  9
$DIMSCALE
 40
1.0
  9
$DIMASZ
 40
0.18
  9
$DIMEXO
 40
0.0625
  9
$DIMDLI
 40
0.38
  9
$DIMRND
 40
0.0
  9
$DIMDLE
 40
0.0
  9
$DIMEXE
 40
0.18
  9
$DIMTP
 40
0.0
  9
$DIMTM
 40
0.0
  9
$DIMTXT
 40
0.18
  9
$DIMCEN
 40
0.09
  9
$DIMTSZ
 40
0.0
  9
$DIMTOL
 70
     0
  9
$DIMLIM
 70
     0
  9
$DIMTIH
 70
     1
  9
$DIMTOH
 70
     1
  9
$DIMSE1
 70
     0
  9
$DIMSE2
 70
     0
  9
$DIMTAD
 70
     0
  9
$DIMZIN
 70
     0
  9
$DIMBLK
  1

  9
$DIMASO
 70
     1
  9
$DIMSHO
 70
     1
  9
$DIMPOST
  1

  9
$DIMAPOST
  1

  9
$DIMALT
 70
     0
  9
$DIMALTD
 70
     2
  9
$DIMALTF
 40
25.4
  9
$DIMLFAC
 40
1.0
  9
$DIMTOFL
 70
     0
  9
$DIMTVP
 40
0.0
  9
$DIMTIX
 70
     0
  9
$DIMSOXD
 70
     0
  9
$DIMSAH
 70
     0
  9
$DIMBLK1
  1

  9
$DIMBLK2
  1

  9
$DIMSTYLE
  2
Standard
  9
$DIMCLRD
 70
     0
  9
$DIMCLRE
 70
     0
  9
$DIMCLRT
 70
     0
  9
$DIMTFAC
 40
1.0
  9
$DIMGAP
 40
0.09
  9
$DIMJUST
 70
     0
  9
$DIMSD1
 70
     0
  9
$DIMSD2
 70
     0
  9
$DIMTOLJ
 70
     1
  9
$DIMTZIN
 70
     0
  9
$DIMALTZ
 70
     0
  9
$DIMALTTZ
 70
     0
  9
$DIMUPT
 70
     0
  9
$DIMDEC
 70
     4
  9
$DIMTDEC
 70
     4
  9
$DIMALTU
 70
     2
  9
$DIMALTTD
 70
     2
  9
$DIMTXSTY
  7
Standard
  9
$DIMAUNIT
 70
     0
  9
$DIMADEC
 70
     0
  9
$DIMALTRND
 40
0.0
  9
$DIMAZIN
 70
     0
  9
$DIMDSEP
 70
    46
  9
$DIMATFIT
 70
     3
  9
$DIMFRAC
 70
     0
  9
$DIMLDRBLK
  1

  9
$DIMLUNIT
 70
     2
  9
$DIMLWD
 70
    -2
  9
$DIMLWE
 70
    -2
  9
$DIMTMOVE
 70
     0
  9
$DIMFXL
 40
1.0
  9
$DIMFXLON
 70
     0
  9
$DIMJOGANG
 40
0.7853981633974483
  9
$DIMTFILL
 70
     0
  9
$DIMTFILLCLR
 70
     0
  9
$DIMARCSYM
 70
     0
  9
$DIMLTYPE
  6

  9
$DIMLTEX1
  6

  9
$DIMLTEX2
  6

  9
$DIMTXTDIRECTION
 70
     0
  9
$LUNITS
 70
     2
  9
$LUPREC
 70
     4
  9
$SKETCHINC
 40
0.1
  9
$FILLETRAD
 40
0.5
  9
$AUNITS
 70
     0
  9
$AUPREC
 70
     0
  9
$MENU
  1
.
  9
$ELEVATION
 40
0.0
  9
$PELEVATION
 40
0.0
  9
$THICKNESS
 40
0.0
  9
$LIMCHECK
 70
     0
  9
$CHAMFERA
 40
0.5
  9
$CHAMFERB
 40
0.5
  9
$CHAMFERC
 40
1.0
  9
$CHAMFERD
 40
0.0
  9
$SKPOLY
 70
     0
  9
$TDCREATE
 40
2457917.591620359
  9
$TDUCREATE
 40
2457917.21662037
  9
$TDUPDATE
 40
2457917.591620359
  9
$TDUUPDATE
 40
2457917.21662037
  9
$TDINDWG
 40
0.0000000116
  9
$TDUSRTIMER
 40
0.0000000116
  9
$USRTIMER
 70
     1
  9
$ANGBASE
 50
0.0
  9
$ANGDIR
 70
     0
  9
$PDMODE
 70
     0
  9
$PDSIZE
 40
0.0
  9
$PLINEWID
 40
0.0
  9
$SPLFRAME
 70
     0
  9
$SPLINETYPE
 70
     6
  9
$SPLINESEGS
 70
     8
  9
$HANDSEED
  5
167
  9
$SURFTAB1
 70
     6
  9
$SURFTAB2
 70
     6
  9
$SURFTYPE
 70
     6
  9
$SURFU
 70
     6
  9
$SURFV
 70
     6
  9
$UCSBASE
  2

  9
$UCSNAME
  2

  9
$UCSORG
 10
0.0
 20
0.0
 30
0.0
  9
$UCSXDIR
 10
1.0
 20
0.0
 30
0.0
  9
$UCSYDIR
 10
0.0
 20
1.0
 30
0.0
  9
$UCSORTHOREF
  2

  9
$UCSORTHOVIEW
 70
     0
  9
$UCSORGTOP
 10
0.0
 20
0.0
 30
0.0
  9
$UCSORGBOTTOM
 10
0.0
 20
0.0
 30
0.0
  9
$UCSORGLEFT
 10
0.0
 20
0.0
 30
0.0
  9
$UCSORGRIGHT
 10
0.0
 20
0.0
 30
0.0
  9
$UCSORGFRONT
 10
0.0
 20
0.0
 30
0.0
  9
$UCSORGBACK
 10
0.0
 20
0.0
 30
0.0
  9
$PUCSBASE
  2

  9
$PUCSNAME
  2

  9
$PUCSORG
 10
0.0
 20
0.0
 30
0.0
  9
$PUCSXDIR
 10
1.0
 20
0.0
 30
0.0
  9
$PUCSYDIR
 10
0.0
 20
1.0
 30
0.0
  9
$PUCSORTHOREF
  2

  9
$PUCSORTHOVIEW
 70
     0
  9
$PUCSORGTOP
 10
0.0
 20
0.0
 30
0.0
  9
$PUCSORGBOTTOM
 10
0.0
 20
0.0
 30
0.0
  9
$PUCSORGLEFT
 10
0.0
 20
0.0
 30
0.0
  9
$PUCSORGRIGHT
 10
0.0
 20
0.0
 30
0.0
  9
$PUCSORGFRONT
 10
0.0
 20
0.0
 30
0.0
  9
$PUCSORGBACK
 10
0.0
 20
0.0
 30
0.0
  9
$USERI1
 70
     0
  9
$USERI2
 70
     0
  9
$USERI3
 70
     0
  9
$USERI4
 70
     0
  9
$USERI5
 70
     0
  9
$USERR1
 40
0.0
  9
$USERR2
 40
0.0
  9
$USERR3
 40
0.0
  9
$USERR4
 40
0.0
  9
$USERR5
 40
0.0
  9
$WORLDVIEW
 70
     1
  9
$SHADEDGE
 70
     3
  9
$SHADEDIF
 70
    70
  9
$TILEMODE
 70
     1
  9
$MAXACTVP
 70
    64
  9
$PINSBASE
 10
0.0
 20
0.0
 30
0.0
  9
$PLIMCHECK
 70
     0
  9
$PEXTMIN
 10
1.000000000000000E+20
 20
1.000000000000000E+20
 30
1.000000000000000E+20
  9
$PEXTMAX
 10
-1.000000000000000E+20
 20
-1.000000000000000E+20
 30
-1.000000000000000E+20
  9
$PLIMMIN
 10
0.0
 20
0.0
  9
$PLIMMAX
 10
12.0
 20
9.0
  9
$UNITMODE
 70
     0
  9
$VISRETAIN
 70
     1
  9
$PLINEGEN
 70
     0
  9
$PSLTSCALE
 70
     1
  9
$TREEDEPTH
 70
  3020
  9
$CMLSTYLE
  2
Standard
  9
$CMLJUST
 70
     0
  9
$CMLSCALE
 40
1.0
  9
$PROXYGRAPHICS
 70
     1
  9
$MEASUREMENT
 70
     0
  9
$CELWEIGHT
370
    -1
  9
$ENDCAPS
280
     0
  9
$JOINSTYLE
280
     0
  9
$LWDISPLAY
290
     1
  9
$INSUNITS
 70
     1
  9
$HYPERLINKBASE
  1

  9
$STYLESHEET
  1

  9
$XEDIT
290
     1
  9
$CEPSNTYPE
380
     0
  9
$PSTYLEMODE
290
     1
  9
$FINGERPRINTGUID
  2
{3806136C-BC6A-2393-81F8-100FD94BC66B}
  9
$VERSIONGUID
  2
{FAEB1C32-E019-11D5-929B-00C0DF256EC4}
  9
$EXTNAMES
290
     1
  9
$PSVPSCALE
 40
0.0
  9
$OLESTARTUP
290
     0
  9
$SORTENTS
280
   127
  9
$INDEXCTL
280
     0
  9
$HIDETEXT
280
     1
  9
$XCLIPFRAME
280
     2
  9
$HALOGAP
280
     0
  9
$OBSCOLOR
 70
   257
  9
$OBSLTYPE
280
     0
  9
$INTERSECTIONDISPLAY
280
     0
  9
$INTERSECTIONCOLOR
 70
   257
  9
$DIMASSOC
280
     2
  9
$PROJECTNAME
  1

  9
$CAMERADISPLAY
290
     0
  9
$LENSLENGTH
 40
50.0
  9
$CAMERAHEIGHT
 40
0.0
  9
$STEPSPERSEC
 40
2.0
  9
$STEPSIZE
 40
6.0
  9
$3DDWFPREC
 40
2.0
  9
$PSOLWIDTH
 40
0.25
  9
$PSOLHEIGHT
 40
4.0
  9
$LOFTANG1
 40
1.570796326794897
  9
$LOFTANG2
 40
1.570796326794897
  9
$LOFTMAG1
 40
0.0
  9
$LOFTMAG2
 40
0.0
  9
$LOFTPARAM
 70
     7
  9
$LOFTNORMALS
280
     1
  9
$LATITUDE
 40
37.795
  9
$LONGITUDE
 40
-122.394
  9
$NORTHDIRECTION
 40
0.0
  9
$TIMEZONE
 70
 -8000
  9
$LIGHTGLYPHDISPLAY
280
     1
  9
$TILEMODELIGHTSYNCH
280
     1
  9
$CMATERIAL
347
3C
  9
$SOLIDHIST
280
     1
  9
$SHOWHIST
280
     1
  9
$DWFFRAME
280
     2
  9
$DGNFRAME
280
     2
  9
$REALWORLDSCALE
290
     1
  9
$INTERFERECOLOR
 62
   256
  9
$CSHADOW
280
     0
  9
$SHADOWPLANELOCATION
 40
0.0
  0
ENDSEC
  0
SECTION
  2
CLASSES
  0
CLASS
  1
ACDBDICTIONARYWDFLT
  2
AcDbDictionaryWithDefault
  3
ObjectDBX Classes
 90
        0
 91
        4
280
     0
281
     0
  0
CLASS
  1
VISUALSTYLE
  2
AcDbVisualStyle
  3
ObjectDBX Classes
 90
     4095
 91
        4
280
     0
281
     0
  0
CLASS
  1
MATERIAL
  2
AcDbMaterial
  3
ObjectDBX Classes
 90
     1153
 91
        4
280
     0
281
     0
  0
CLASS
  1
SUN
  2
AcDbSun
  3
SCENEOE
 90
     1024
 91
        4
280
     0
281
     0
  0
ENDSEC
  0
SECTION
  2
TABLES
  0
TABLE
  2
VPORT
  5
8
330
0
100
AcDbSymbolTable
 70
     1
  0
VPORT
  5
29
330
8
100
AcDbSymbolTableRecord
100
AcDbViewportTableRecord
  2
*Active
 70
     0
 10
0.0
 20
0.0
 11
1.0
 21
1.0
 12
0.0
 22
0.0
 13
0.0
 23
0.0
 14
0.5
 24
0.5
 15
0.5
 25
0.5
 16
0.0
 26
0.0
 36
1.0
 17
91.00082462281999
 27
-128.4993055234307
 37
0.0
 40
256.9986110468615
 41
0.7081814508812795
 42
50.0
 43
0.0
 44
0.0
 50
0.0
 51
0.0
 71
     0
 72
   100
 73
     1
 74
     3
 75
     0
 76
     0
 77
     0
 78
     0
281
     0
 65
     1
110
0.0
120
0.0
130
0.0
111
1.0
121
0.0
131
0.0
112
0.0
122
1.0
132
0.0
 79
     0
146
0.0
 60
     3
 61
     5
292
     1
282
     1
141
0.0
142
0.0
 63
   250
361
3F
  0
ENDTAB
  0
TABLE
  2
LTYPE
  5
5
330
0
100
AcDbSymbolTable
 70
     1
  0
LTYPE
  5
14
330
5
100
AcDbSymbolTableRecord
100
AcDbLinetypeTableRecord
  2
ByBlock
 70
     0
  3

 72
    65
 73
     0
 40
0.0
  0
LTYPE
  5
15
330
5
100
AcDbSymbolTableRecord
100
AcDbLinetypeTableRecord
  2
ByLayer
 70
     0
  3

 72
    65
 73
     0
 40
0.0
  0
LTYPE
  5
16
330
5
100
AcDbSymbolTableRecord
100
AcDbLinetypeTableRecord
  2
Continuous
 70
     0
  3
Solid line
 72
    65
 73
     0
 40
0.0
  0
ENDTAB
  0
TABLE
  2
LAYER
  5
2
330
0
100
AcDbSymbolTable
 70
     2
  0
LAYER
  5
10
330
2
100
AcDbSymbolTableRecord
100
AcDbLayerTableRecord
  2
0
 70
     0
 62
     7
  6
Continuous
370
    -3
390
F
347
3E
  0
LAYER
  5
40
330
2
100
AcDbSymbolTableRecord
100
AcDbLayerTableRecord
  2
_U+30EC_U+30A4_U+30E4_U+30FC 1
 70
     0
 62
     7
  6
Continuous
370
    -3
390
F
347
3E
  0
ENDTAB
  0
TABLE
  2
STYLE
  5
3
330
0
100
AcDbSymbolTable
 70
     1
  0
STYLE
  5
11
330
3
100
AcDbSymbolTableRecord
100
AcDbTextStyleTableRecord
  2
Standard
 70
     0
 40
0.0
 41
1.0
 50
0.0
 71
     0
 42
0.2
  3
txt
  4

  0
ENDTAB
  0
TABLE
  2
VIEW
  5
6
330
0
100
AcDbSymbolTable
 70
     0
  0
ENDTAB
  0
TABLE
  2
UCS
  5
7
330
0
100
AcDbSymbolTable
 70
     0
  0
ENDTAB
  0
TABLE
  2
APPID
  5
9
330
0
100
AcDbSymbolTable
 70
     1
  0
APPID
  5
12
330
9
100
AcDbSymbolTableRecord
100
AcDbRegAppTableRecord
  2
ACAD
 70
     0
  0
ENDTAB
  0
TABLE
  2
DIMSTYLE
  5
A
330
0
100
AcDbSymbolTable
 70
     1
100
AcDbDimStyleTable
  0
DIMSTYLE
105
27
330
A
100
AcDbSymbolTableRecord
100
AcDbDimStyleTableRecord
  2
Standard
 70
     0
178
     0
340
11
  0
ENDTAB
  0
TABLE
  2
BLOCK_RECORD
  5
1
330
0
100
AcDbSymbolTable
 70
     9
  0
BLOCK_RECORD
  5
1F
330
1
100
AcDbSymbolTableRecord
100
AcDbBlockTableRecord
  2
*Model_Space
340
22
 70
     0
280
     1
281
     0
  0
BLOCK_RECORD
  5
1B
330
1
100
AcDbSymbolTableRecord
100
AcDbBlockTableRecord
  2
*Paper_Space
340
1E
 70
     0
280
     1
281
     0
  0
BLOCK_RECORD
  5
23
330
1
100
AcDbSymbolTableRecord
100
AcDbBlockTableRecord
  2
*Paper_Space0
340
26
 70
     0
280
     1
281
     0
  0
BLOCK_RECORD
  5
91
330
1
100
AcDbSymbolTableRecord
100
AcDbBlockTableRecord
  2
block 2
340
0
102
{BLKREFS
331
92
102
}
 70
     0
280
     1
281
     0
  0
BLOCK_RECORD
  5
CC
330
1
100
AcDbSymbolTableRecord
100
AcDbBlockTableRecord
  2
block 3
340
0
102
{BLKREFS
331
CD
102
}
 70
     0
280
     1
281
     0
  0
BLOCK_RECORD
  5
FE
330
1
100
AcDbSymbolTableRecord
100
AcDbBlockTableRecord
  2
block 4
340
0
102
{BLKREFS
331
FF
102
}
 70
     0
280
     1
281
     0
  0
BLOCK_RECORD
  5
10C
330
1
100
AcDbSymbolTableRecord
100
AcDbBlockTableRecord
  2
block 5
340
0
102
{BLKREFS
331
10D
102
}
 70
     0
280
     1
281
     0
  0
BLOCK_RECORD
  5
122
330
1
100
AcDbSymbolTableRecord
100
AcDbBlockTableRecord
  2
block 6
340
0
102
{BLKREFS
331
123
102
}
 70
     0
280
     1
281
     0
  0
BLOCK_RECORD
  5
134
330
1
100
AcDbSymbolTableRecord
100
AcDbBlockTableRecord
  2
block 7
340
0
102
{BLKREFS
331
135
102
}
 70
     0
280
     1
281
     0
  0
BLOCK_RECORD
  5
148
330
1
100
AcDbSymbolTableRecord
100
AcDbBlockTableRecord
  2
block 8
340
0
102
{BLKREFS
331
149
102
}
 70
     0
280
     1
281
     0
  0
BLOCK_RECORD
  5
15D
330
1
100
AcDbSymbolTableRecord
100
AcDbBlockTableRecord
  2
block 9
340
0
102
{BLKREFS
331
15E
102
}
 70
     0
280
     1
281
     0
  0
ENDTAB
  0
ENDSEC
  0
SECTION
  2
BLOCKS
  0
BLOCK
  5
20
330
1F
100
AcDbEntity
  8
0
100
AcDbBlockBegin
  2
*Model_Space
 70
     0
 10
0.0
 20
0.0
 30
0.0
  3
*Model_Space
  1

  0
ENDBLK
  5
21
330
1F
100
AcDbEntity
  8
0
100
AcDbBlockEnd
  0
BLOCK
  5
1C
330
1B
100
AcDbEntity
 67
     1
  8
0
100
AcDbBlockBegin
  2
*Paper_Space
 70
     0
 10
0.0
 20
0.0
 30
0.0
  3
*Paper_Space
  1

  0
ENDBLK
  5
1D
330
1B
100
AcDbEntity
 67
     1
  8
0
100
AcDbBlockEnd
  0
BLOCK
  5
24
330
23
100
AcDbEntity
  8
0
100
AcDbBlockBegin
  2
*Paper_Space0
 70
     0
 10
0.0
 20
0.0
 30
0.0
  3
*Paper_Space0
  1

  0
ENDBLK
  5
25
330
23
100
AcDbEntity
  8
0
100
AcDbBlockEnd
  0
BLOCK
  5
93
330
91
100
AcDbEntity
  8
0
100
AcDbBlockBegin
  2
block 2
 70
     0
 10
0.0
 20
0.0
 30
0.0
  3
block 2
  1

  0
SPLINE
  5
95
330
91
100
AcDbEntity
  8
_U+30EC_U+30A4_U+30E4_U+30FC 1
370
     0
100
AcDbSpline
210
0.0
220
0.0
230
1.0
 70
    11
 71
     3
 72
   110
 73
   106
 74
     0
 42
0.0000000001
 43
0.0000000001
 12
1.0
 22
0.0
 32
0.0
 13
1.0
 23
0.0
 33
0.0
 40
0.0
 40
0.0
 40
0.0
 40
0.0
 40
1.0
 40
1.0
 40
1.0
 40
2.0
 40
2.0
 40
2.0
 40
3.0
 40
3.0
 40
3.0
 40
4.0
 40
4.0
 40
4.0
 40
5.0
 40
5.0
 40
5.0
 40
6.0
 40
6.0
 40
6.0
 40
7.0
 40
7.0
 40
7.0
 40
8.0
 40
8.0
 40
8.0
 40
9.0
 40
9.0
 40
9.0
 40
10.0
 40
10.0
 40
10.0
 40
11.0
 40
11.0
 40
11.0
 40
12.0
 40
12.0
 40
12.0
 40
13.0
 40
13.0
 40
13.0
 40
14.0
 40
14.0
 40
14.0
 40
15.0
 40
15.0
 40
15.0
 40
16.0
 40
16.0
 40
16.0
 40
17.0
 40
17.0
 40
17.0
 40
18.0
 40
18.0
 40
18.0
 40
19.0
 40
19.0
 40
19.0
 40
20.0
 40
20.0
 40
20.0
 40
21.0
 40
21.0
 40
21.0
 40
22.0
 40
22.0
 40
22.0
 40
23.0
 40
23.0
 40
23.0
 40
24.0
 40
24.0
 40
24.0
 40
25.0
 40
25.0
 40
25.0
 40
26.0
 40
26.0
 40
26.0
 40
27.0
 40
27.0
 40
27.0
 40
28.0
 40
28.0
 40
28.0
 40
29.0
 40
29.0
 40
29.0
 40
30.0
 40
30.0
 40
30.0
 40
31.0
 40
31.0
 40
31.0
 40
32.0
 40
32.0
 40
32.0
 40
33.0
 40
33.0
 40
33.0
 40
34.0
 40
34.0
 40
34.0
 40
35.0
 40
35.0
 40
35.0
 40
35.0
 10
84.3736612744795
 20
-132.6372097107643
 30
0.0
 10
84.37572833177066
 20
-132.6013807177177
 30
0.0
 10
84.38003470112722
 20
-132.4342935866831
 30
0.0
 10
84.38003470112722
 20
-132.4215467333877
 30
0.0
 10
84.38003470112722
 20
-132.4215467333877
 30
0.0
 10
84.38003470112722
 20
-132.2944227099819
 30
0.0
 10
84.38003470112722
 20
-132.2944227099819
 30
0.0
 10
84.38003470112722
 20
-132.2944227099819
 30
0.0
 10
82.9436021385523
 20
-132.2944227099819
 30
0.0
 10
82.9436021385523
 20
-132.2944227099819
 30
0.0
 10
82.9436021385523
 20
-132.2944227099819
 30
0.0
 10
82.9436021385523
 20
-132.3960530267968
 30
0.0
 10
82.9436021385523
 20
-132.3960530267968
 30
0.0
 10
82.9436021385523
 20
-132.44669593043
 30
0.0
 10
82.94566919584345
 20
-132.5379909607891
 30
0.0
 10
82.9499755652
 20
-132.6372097107643
 30
0.0
 10
82.9499755652
 20
-132.6372097107643
 30
0.0
 10
82.74482012905338
 20
-132.6372097107643
 30
0.0
 10
82.74482012905338
 20
-132.6372097107643
 30
0.0
 10
82.74895424363568
 20
-132.6034477750089
 30
0.0
 10
82.75739472757455
 20
-132.4997504009029
 30
0.0
 10
82.75739472757455
 20
-132.4615098410166
 30
0.0
 10
82.75739472757455
 20
-132.4615098410166
 30
0.0
 10
82.75739472757455
 20
-132.3092366205685
 30
0.0
 10
82.75739472757455
 20
-132.3092366205685
 30
0.0
 10
82.75739472757455
 20
-132.2796087993954
 30
0.0
 10
82.74895424363568
 20
-132.1486951709559
 30
0.0
 10
82.74895424363568
 20
-132.1232014643651
 30
0.0
 10
82.75739472757455
 20
-132.1232014643651
 30
0.0
 10
83.14875757469892
 20
-132.1338812603693
 30
0.0
 10
83.18045245316323
 20
-132.1338812603693
 30
0.0
 10
83.10862221229577
 20
-132.0322509435544
 30
0.0
 10
83.05987411117948
 20
-131.9898762690859
 30
0.0
 10
83.0092312075463
 20
-131.9495686519084
 30
0.0
 10
83.0092312075463
 20
-131.9495686519084
 30
0.0
 10
83.15306394405549
 20
-131.8334689340555
 30
0.0
 10
83.15306394405549
 20
-131.8334689340555
 30
0.0
 10
83.23350692363607
 20
-131.8906575191107
 30
0.0
 10
83.2925903112081
 20
-131.9475015946173
 30
0.0
 10
83.36665986414098
 20
-132.0618787647276
 30
0.0
 10
83.36665986414098
 20
-132.0618787647276
 30
0.0
 10
83.27157522874808
 20
-132.1359483176604
 30
0.0
 10
83.27157522874808
 20
-132.1359483176604
 30
0.0
 10
83.27157522874808
 20
-132.1359483176604
 30
0.0
 10
83.32652450173782
 20
-132.1359483176604
 30
0.0
 10
83.32652450173782
 20
-132.1359483176604
 30
0.0
 10
83.32652450173782
 20
-132.1359483176604
 30
0.0
 10
83.56768118570531
 20
-132.1359483176604
 30
0.0
 10
83.56768118570531
 20
-132.1359483176604
 30
0.0
 10
83.56768118570531
 20
-132.1359483176604
 30
0.0
 10
83.56768118570531
 20
-132.074625618023
 30
0.0
 10
83.56768118570531
 20
-132.074625618023
 30
0.0
 10
83.56768118570531
 20
-131.9878092117947
 30
0.0
 10
83.56337481634874
 20
-131.9030598628576
 30
0.0
 10
83.5571736444753
 20
-131.8165879661778
 30
0.0
 10
83.5571736444753
 20
-131.8165879661778
 30
0.0
 10
83.75802271126535
 20
-131.8376030486378
 30
0.0
 10
83.75802271126535
 20
-131.8376030486378
 30
0.0
 10
83.81727835361166
 20
-131.8438042205113
 30
0.0
 10
83.82365178025937
 20
-131.8438042205113
 30
0.0
 10
83.82365178025937
 20
-131.867230869811
 30
0.0
 10
83.82365178025937
 20
-131.8820447803976
 30
0.0
 10
83.78558347514736
 20
-131.9096055442795
 30
0.0
 10
83.76439613791307
 20
-131.9244194548661
 30
0.0
 10
83.76232908062192
 20
-131.9791964730816
 30
0.0
 10
83.75802271126535
 20
-132.0343180008456
 30
0.0
 10
83.75802271126535
 20
-132.0873724713184
 30
0.0
 10
83.75802271126535
 20
-132.0873724713184
 30
0.0
 10
83.75802271126535
 20
-132.1359483176604
 30
0.0
 10
83.75802271126535
 20
-132.1359483176604
 30
0.0
 10
83.75802271126535
 20
-132.1359483176604
 30
0.0
 10
84.03724770034486
 20
-132.1359483176604
 30
0.0
 10
84.03724770034486
 20
-132.1359483176604
 30
0.0
 10
84.03724770034486
 20
-132.1359483176604
 30
0.0
 10
83.93992375288656
 20
-132.0701469938922
 30
0.0
 10
83.93992375288656
 20
-132.0701469938922
 30
0.0
 10
84.02243378975828
 20
-131.9898762690859
 30
0.0
 10
84.06687552151801
 20
-131.9244194548661
 30
0.0
 10
84.10080971204772
 20
-131.8334689340555
 30
0.0
 10
84.10080971204772
 20
-131.8334689340555
 30
0.0
 10
84.28271075366891
 20
-131.9264865121573
 30
0.0
 10
84.28271075366891
 20
-131.9264865121573
 30
0.0
 10
84.29321829489892
 20
-131.9306206267396
 30
0.0
 10
84.3102715175509
 20
-131.943367480035
 30
0.0
 10
84.3102715175509
 20
-131.9602484479127
 30
0.0
 10
84.3102715175509
 20
-131.9898762690859
 30
0.0
 10
84.2763373270212
 20
-131.9898762690859
 30
0.0
 10
84.23413490732689
 20
-131.991943326377
 30
0.0
 10
84.19382729014946
 20
-132.0598117074364
 30
0.0
 10
84.17694632227175
 20
-132.0873724713184
 30
0.0
 10
84.13887801715973
 20
-132.1359483176604
 30
0.0
 10
84.43929034347352
 20
-132.1294026362385
 30
0.0
 10
84.47735864858552
 20
-132.1294026362385
 30
0.0
 10
84.57468259604383
 20
-132.1252685216562
 30
0.0
 10
84.57261553875269
 20
-132.1635090815425
 30
0.0
 10
84.56830916939612
 20
-132.2565266596442
 30
0.0
 10
84.56830916939612
 20
-132.2944227099819
 30
0.0
 10
84.56830916939612
 20
-132.2944227099819
 30
0.0
 10
84.56830916939612
 20
-132.4639214078562
 30
0.0
 10
84.56830916939612
 20
-132.4639214078562
 30
0.0
 10
84.56830916939612
 20
-132.5166313687806
 30
0.0
 10
84.57037622668727
 20
-132.577954068418
 30
0.0
 10
84.57674965333499
 20
-132.6372097107643
 30
0.0
 10
84.57674965333499
 20
-132.6372097107643
 30
0.0
 10
84.3736612744795
 20
-132.6372097107643
 30
0.0
 10
84.3736612744795
 20
-132.6372097107643
 30
0.0
  0
SPLINE
  5
96
330
91
100
AcDbEntity
  8
_U+30EC_U+30A4_U+30E4_U+30FC 1
370
     0
100
AcDbSpline
210
0.0
220
0.0
230
1.0
 70
    11
 71
     3
 72
   131
 73
   127
 74
     0
 42
0.0000000001
 43
0.0000000001
 12
1.0
 22
0.0
 32
0.0
 13
1.0
 23
0.0
 33
0.0
 40
0.0
 40
0.0
 40
0.0
 40
0.0
 40
1.0
 40
1.0
 40
1.0
 40
2.0
 40
2.0
 40
2.0
 40
3.0
 40
3.0
 40
3.0
 40
4.0
 40
4.0
 40
4.0
 40
5.0
 40
5.0
 40
5.0
 40
6.0
 40
6.0
 40
6.0
 40
7.0
 40
7.0
 40
7.0
 40
8.0
 40
8.0
 40
8.0
 40
9.0
 40
9.0
 40
9.0
 40
10.0
 40
10.0
 40
10.0
 40
11.0
 40
11.0
 40
11.0
 40
12.0
 40
12.0
 40
12.0
 40
13.0
 40
13.0
 40
13.0
 40
14.0
 40
14.0
 40
14.0
 40
15.0
 40
15.0
 40
15.0
 40
16.0
 40
16.0
 40
16.0
 40
17.0
 40
17.0
 40
17.0
 40
18.0
 40
18.0
 40
18.0
 40
19.0
 40
19.0
 40
19.0
 40
20.0
 40
20.0
 40
20.0
 40
21.0
 40
21.0
 40
21.0
 40
22.0
 40
22.0
 40
22.0
 40
23.0
 40
23.0
 40
23.0
 40
24.0
 40
24.0
 40
24.0
 40
25.0
 40
25.0
 40
25.0
 40
26.0
 40
26.0
 40
26.0
 40
27.0
 40
27.0
 40
27.0
 40
28.0
 40
28.0
 40
28.0
 40
29.0
 40
29.0
 40
29.0
 40
30.0
 40
30.0
 40
30.0
 40
31.0
 40
31.0
 40
31.0
 40
32.0
 40
32.0
 40
32.0
 40
33.0
 40
33.0
 40
33.0
 40
34.0
 40
34.0
 40
34.0
 40
35.0
 40
35.0
 40
35.0
 40
36.0
 40
36.0
 40
36.0
 40
37.0
 40
37.0
 40
37.0
 40
38.0
 40
38.0
 40
38.0
 40
39.0
 40
39.0
 40
39.0
 40
40.0
 40
40.0
 40
40.0
 40
41.0
 40
41.0
 40
41.0
 40
42.0
 40
42.0
 40
42.0
 40
42.0
 10
84.39691566900494
 20
-133.219086338223
 30
0.0
 10
84.39691566900494
 20
-133.219086338223
 30
0.0
 10
84.3989827262961
 20
-133.3923746411311
 30
0.0
 10
84.3989827262961
 20
-133.3923746411311
 30
0.0
 10
84.3989827262961
 20
-133.3923746411311
 30
0.0
 10
84.3989827262961
 20
-133.5108859258237
 30
0.0
 10
84.3989827262961
 20
-133.5108859258237
 30
0.0
 10
84.3989827262961
 20
-133.646278178394
 30
0.0
 10
84.27840438431235
 20
-133.6610920889806
 30
0.0
 10
84.16850583833288
 20
-133.6610920889806
 30
0.0
 10
84.10080971204772
 20
-133.6610920889806
 30
0.0
 10
84.07962237481343
 20
-133.6590250316894
 30
0.0
 10
84.04792749634913
 20
-133.6548909171071
 30
0.0
 10
84.04792749634913
 20
-133.6548909171071
 30
0.0
 10
83.9717908861251
 20
-133.4433620543128
 30
0.0
 10
83.9717908861251
 20
-133.4433620543128
 30
0.0
 10
84.0246731018237
 20
-133.4561089076082
 30
0.0
 10
84.09443628540001
 20
-133.4729898754859
 30
0.0
 10
84.13043753322087
 20
-133.4729898754859
 30
0.0
 10
84.19382729014946
 20
-133.4729898754859
 30
0.0
 10
84.19813365950603
 20
-133.4454291116039
 30
0.0
 10
84.19813365950603
 20
-133.350344476211
 30
0.0
 10
84.19813365950603
 20
-133.350344476211
 30
0.0
 10
84.19813365950603
 20
-133.1556965812944
 30
0.0
 10
84.19813365950603
 20
-133.1556965812944
 30
0.0
 10
84.19813365950603
 20
-133.1556965812944
 30
0.0
 10
83.75802271126535
 20
-133.1556965812944
 30
0.0
 10
83.75802271126535
 20
-133.1556965812944
 30
0.0
 10
83.75802271126535
 20
-133.1556965812944
 30
0.0
 10
83.75802271126535
 20
-133.2487141593962
 30
0.0
 10
83.75802271126535
 20
-133.2487141593962
 30
0.0
 10
83.75802271126535
 20
-133.2783419805693
 30
0.0
 10
83.76026202333077
 20
-133.3121039163248
 30
0.0
 10
83.76026202333077
 20
-133.3248507696202
 30
0.0
 10
83.77283662185194
 20
-133.5639403962965
 30
0.0
 10
83.77283662185194
 20
-133.5890895933389
 30
0.0
 10
83.77714299120849
 20
-133.7392957564957
 30
0.0
 10
83.77714299120849
 20
-133.7392957564957
 30
0.0
 10
83.54649384847102
 20
-133.7392957564957
 30
0.0
 10
83.54649384847102
 20
-133.7392957564957
 30
0.0
 10
83.55080021782759
 20
-133.6845187382803
 30
0.0
 10
83.56768118570531
 20
-133.3034911776116
 30
0.0
 10
83.56768118570531
 20
-133.2445800448139
 30
0.0
 10
83.56768118570531
 20
-133.2445800448139
 30
0.0
 10
83.56768118570531
 20
-133.1556965812944
 30
0.0
 10
83.56768118570531
 20
-133.1556965812944
 30
0.0
 10
83.56768118570531
 20
-133.1556965812944
 30
0.0
 10
83.1382500334689
 20
-133.1556965812944
 30
0.0
 10
83.1382500334689
 20
-133.1556965812944
 30
0.0
 10
83.1382500334689
 20
-133.1556965812944
 30
0.0
 10
83.1382500334689
 20
-133.3458658520802
 30
0.0
 10
83.1382500334689
 20
-133.3458658520802
 30
0.0
 10
83.1382500334689
 20
-133.3923746411311
 30
0.0
 10
83.15099688676433
 20
-133.597702332052
 30
0.0
 10
83.15306394405549
 20
-133.6400770065206
 30
0.0
 10
83.15306394405549
 20
-133.6400770065206
 30
0.0
 10
82.92241480131801
 20
-133.6400770065206
 30
0.0
 10
82.92241480131801
 20
-133.6400770065206
 30
0.0
 10
82.92672117067457
 20
-133.597702332052
 30
0.0
 10
82.93929576919574
 20
-133.4199354050131
 30
0.0
 10
82.93929576919574
 20
-133.3861734692576
 30
0.0
 10
82.93929576919574
 20
-133.3861734692576
 30
0.0
 10
82.93929576919574
 20
-133.2104735995099
 30
0.0
 10
82.93929576919574
 20
-133.2104735995099
 30
0.0
 10
82.93929576919574
 20
-133.1725775491721
 30
0.0
 10
82.93309459732228
 20
-133.060267436353
 30
0.0
 10
82.93085528525687
 20
-132.9906765075509
 30
0.0
 10
82.97753632908201
 20
-132.9927435648421
 30
0.0
 10
83.28208276997809
 20
-133.0030788512979
 30
0.0
 10
83.30327010721238
 20
-133.0030788512979
 30
0.0
 10
83.30327010721238
 20
-133.0030788512979
 30
0.0
 10
83.56768118570531
 20
-133.0030788512979
 30
0.0
 10
83.56768118570531
 20
-133.0030788512979
 30
0.0
 10
83.56768118570531
 20
-133.0030788512979
 30
0.0
 10
83.56768118570531
 20
-132.8911132480272
 30
0.0
 10
83.56768118570531
 20
-132.8911132480272
 30
0.0
 10
83.56768118570531
 20
-132.8911132480272
 30
0.0
 10
83.43659530249155
 20
-132.8911132480272
 30
0.0
 10
83.43659530249155
 20
-132.8911132480272
 30
0.0
 10
83.35615232291097
 20
-132.8911132480272
 30
0.0
 10
83.21008027433638
 20
-132.8952473626095
 30
0.0
 10
83.1382500334689
 20
-132.8973144199007
 30
0.0
 10
83.14031709076006
 20
-132.8721652228583
 30
0.0
 10
83.14462346011662
 20
-132.7198920024103
 30
0.0
 10
83.14462346011662
 20
-132.6985324104018
 30
0.0
 10
83.14462346011662
 20
-132.6985324104018
 30
0.0
 10
83.14462346011662
 20
-132.5590060432492
 30
0.0
 10
83.14462346011662
 20
-132.5590060432492
 30
0.0
 10
83.14462346011662
 20
-132.5335123366583
 30
0.0
 10
83.1382500334689
 20
-132.4174126188054
 30
0.0
 10
83.1382500334689
 20
-132.3939859695057
 30
0.0
 10
83.24194740757494
 20
-132.398120084088
 30
0.0
 10
83.26089543274381
 20
-132.4025987082188
 30
0.0
 10
83.43228893313498
 20
-132.4025987082188
 30
0.0
 10
83.43228893313498
 20
-132.4025987082188
 30
0.0
 10
83.8997883904834
 20
-132.4025987082188
 30
0.0
 10
83.8997883904834
 20
-132.4025987082188
 30
0.0
 10
83.94629717953427
 20
-132.4025987082188
 30
0.0
 10
84.14938555838974
 20
-132.3960530267968
 30
0.0
 10
84.19176023285831
 20
-132.3939859695057
 30
0.0
 10
84.18969317556716
 20
-132.4174126188054
 30
0.0
 10
84.1853868062106
 20
-132.5335123366583
 30
0.0
 10
84.1853868062106
 20
-132.5610731005403
 30
0.0
 10
84.1853868062106
 20
-132.5610731005403
 30
0.0
 10
84.1853868062106
 20
-132.7198920024103
 30
0.0
 10
84.1853868062106
 20
-132.7198920024103
 30
0.0
 10
84.1853868062106
 20
-132.7664007914612
 30
0.0
 10
84.18745386350174
 20
-132.852872688141
 30
0.0
 10
84.19176023285831
 20
-132.8973144199007
 30
0.0
 10
84.07118189087457
 20
-132.8911132480272
 30
0.0
 10
84.02036673246714
 20
-132.8911132480272
 30
0.0
 10
83.92097572771767
 20
-132.8911132480272
 30
0.0
 10
83.92097572771767
 20
-132.8911132480272
 30
0.0
 10
83.75802271126535
 20
-132.8911132480272
 30
0.0
 10
83.75802271126535
 20
-132.8911132480272
 30
0.0
 10
83.75802271126535
 20
-132.8911132480272
 30
0.0
 10
83.75802271126535
 20
-133.0030788512979
 30
0.0
 10
83.75802271126535
 20
-133.0030788512979
 30
0.0
 10
83.75802271126535
 20
-133.0030788512979
 30
0.0
 10
84.04792749634913
 20
-133.0030788512979
 30
0.0
 10
84.04792749634913
 20
-133.0030788512979
 30
0.0
 10
84.14938555838974
 20
-133.0030788512979
 30
0.0
 10
84.30803220548549
 20
-132.9968776794244
 30
0.0
 10
84.40122203836151
 20
-132.9968776794244
 30
0.0
 10
84.40122203836151
 20
-133.032706672471
 30
0.0
 10
84.39691566900494
 20
-133.1873914597587
 30
0.0
 10
84.39691566900494
 20
-133.219086338223
 30
0.0
  0
POLYLINE
  5
97
330
91
100
AcDbEntity
  8
_U+30EC_U+30A4_U+30E4_U+30FC 1
370
     0
100
AcDb2dPolyline
 66
     1
 10
0.0
 20
0.0
 30
0.0
  0
VERTEX
  5
98
330
97
100
AcDbEntity
  8
_U+30EC_U+30A4_U+30E4_U+30FC 1
370
     0
100
AcDbVertex
100
AcDb2dVertex
 10
83.9971123379417
 20
-132.550393304536
 30
0.0
  0
VERTEX
  5
99
330
97
100
AcDbEntity
  8
_U+30EC_U+30A4_U+30E4_U+30FC 1
370
     0
100
AcDbVertex
100
AcDb2dVertex
 10
83.32859155902896
 20
-132.550393304536
 30
0.0
  0
VERTEX
  5
9A
330
97
100
AcDbEntity
  8
_U+30EC_U+30A4_U+30E4_U+30FC 1
370
     0
100
AcDbVertex
100
AcDb2dVertex
 10
83.32859155902896
 20
-132.7409070848703
 30
0.0
  0
VERTEX
  5
9B
330
97
100
AcDbEntity
  8
_U+30EC_U+30A4_U+30E4_U+30FC 1
370
     0
100
AcDbVertex
100
AcDb2dVertex
 10
83.9971123379417
 20
-132.7409070848703
 30
0.0
  0
VERTEX
  5
9C
330
97
100
AcDbEntity
  8
_U+30EC_U+30A4_U+30E4_U+30FC 1
370
     0
100
AcDbVertex
100
AcDb2dVertex
 10
83.9971123379417
 20
-132.550393304536
 30
0.0
  0
SEQEND
  5
9D
330
97
100
AcDbEntity
  8
_U+30EC_U+30A4_U+30E4_U+30FC 1
370
     0
  0
HATCH
  5
9E
330
91
100
AcDbEntity
  8
_U+30EC_U+30A4_U+30E4_U+30FC 1
 62
   179
420
  2234388
100
AcDbHatch
 10
0.0
 20
0.0
 30
0.0
210
0.0
220
0.0
230
1.0
  2
SOLID
 70
     1
 71
     0
 91
        3
 92
        1
 93
        1
 72
     4
 94
        3
 73
     0
 74
     1
 95
      110
 96
      106
 40
0.0
 40
0.0
 40
0.0
 40
0.0
 40
1.0
 40
1.0
 40
1.0
 40
2.0
 40
2.0
 40
2.0
 40
3.0
 40
3.0
 40
3.0
 40
4.0
 40
4.0
 40
4.0
 40
5.0
 40
5.0
 40
5.0
 40
6.0
 40
6.0
 40
6.0
 40
7.0
 40
7.0
 40
7.0
 40
8.0
 40
8.0
 40
8.0
 40
9.0
 40
9.0
 40
9.0
 40
10.0
 40
10.0
 40
10.0
 40
11.0
 40
11.0
 40
11.0
 40
12.0
 40
12.0
 40
12.0
 40
13.0
 40
13.0
 40
13.0
 40
14.0
 40
14.0
 40
14.0
 40
15.0
 40
15.0
 40
15.0
 40
16.0
 40
16.0
 40
16.0
 40
17.0
 40
17.0
 40
17.0
 40
18.0
 40
18.0
 40
18.0
 40
19.0
 40
19.0
 40
19.0
 40
20.0
 40
20.0
 40
20.0
 40
21.0
 40
21.0
 40
21.0
 40
22.0
 40
22.0
 40
22.0
 40
23.0
 40
23.0
 40
23.0
 40
24.0
 40
24.0
 40
24.0
 40
25.0
 40
25.0
 40
25.0
 40
26.0
 40
26.0
 40
26.0
 40
27.0
 40
27.0
 40
27.0
 40
28.0
 40
28.0
 40
28.0
 40
29.0
 40
29.0
 40
29.0
 40
30.0
 40
30.0
 40
30.0
 40
31.0
 40
31.0
 40
31.0
 40
32.0
 40
32.0
 40
32.0
 40
33.0
 40
33.0
 40
33.0
 40
34.0
 40
34.0
 40
34.0
 40
35.0
 40
35.0
 40
35.0
 40
35.0
 10
84.3736612744795
 20
-132.6372097107643
 10
84.37572833177066
 20
-132.6013807177177
 10
84.38003470112722
 20
-132.4342935866831
 10
84.38003470112722
 20
-132.4215467333877
 10
84.38003470112722
 20
-132.4215467333877
 10
84.38003470112722
 20
-132.2944227099819
 10
84.38003470112722
 20
-132.2944227099819
 10
84.38003470112722
 20
-132.2944227099819
 10
82.9436021385523
 20
-132.2944227099819
 10
82.9436021385523
 20
-132.2944227099819
 10
82.9436021385523
 20
-132.2944227099819
 10
82.9436021385523
 20
-132.3960530267968
 10
82.9436021385523
 20
-132.3960530267968
 10
82.9436021385523
 20
-132.44669593043
 10
82.94566919584345
 20
-132.5379909607891
 10
82.9499755652
 20
-132.6372097107643
 10
82.9499755652
 20
-132.6372097107643
 10
82.74482012905338
 20
-132.6372097107643
 10
82.74482012905338
 20
-132.6372097107643
 10
82.74895424363568
 20
-132.6034477750089
 10
82.75739472757455
 20
-132.4997504009029
 10
82.75739472757455
 20
-132.4615098410166
 10
82.75739472757455
 20
-132.4615098410166
 10
82.75739472757455
 20
-132.3092366205685
 10
82.75739472757455
 20
-132.3092366205685
 10
82.75739472757455
 20
-132.2796087993954
 10
82.74895424363568
 20
-132.1486951709559
 10
82.74895424363568
 20
-132.1232014643651
 10
82.75739472757455
 20
-132.1232014643651
 10
83.14875757469892
 20
-132.1338812603693
 10
83.18045245316323
 20
-132.1338812603693
 10
83.10862221229577
 20
-132.0322509435544
 10
83.05987411117948
 20
-131.9898762690859
 10
83.0092312075463
 20
-131.9495686519084
 10
83.0092312075463
 20
-131.9495686519084
 10
83.15306394405549
 20
-131.8334689340555
 10
83.15306394405549
 20
-131.8334689340555
 10
83.23350692363607
 20
-131.8906575191107
 10
83.2925903112081
 20
-131.9475015946173
 10
83.36665986414098
 20
-132.0618787647276
 10
83.36665986414098
 20
-132.0618787647276
 10
83.27157522874808
 20
-132.1359483176604
 10
83.27157522874808
 20
-132.1359483176604
 10
83.27157522874808
 20
-132.1359483176604
 10
83.32652450173782
 20
-132.1359483176604
 10
83.32652450173782
 20
-132.1359483176604
 10
83.32652450173782
 20
-132.1359483176604
 10
83.56768118570531
 20
-132.1359483176604
 10
83.56768118570531
 20
-132.1359483176604
 10
83.56768118570531
 20
-132.1359483176604
 10
83.56768118570531
 20
-132.074625618023
 10
83.56768118570531
 20
-132.074625618023
 10
83.56768118570531
 20
-131.9878092117947
 10
83.56337481634874
 20
-131.9030598628576
 10
83.5571736444753
 20
-131.8165879661778
 10
83.5571736444753
 20
-131.8165879661778
 10
83.75802271126535
 20
-131.8376030486378
 10
83.75802271126535
 20
-131.8376030486378
 10
83.81727835361166
 20
-131.8438042205113
 10
83.82365178025937
 20
-131.8438042205113
 10
83.82365178025937
 20
-131.867230869811
 10
83.82365178025937
 20
-131.8820447803976
 10
83.78558347514736
 20
-131.9096055442795
 10
83.76439613791307
 20
-131.9244194548661
 10
83.76232908062192
 20
-131.9791964730816
 10
83.75802271126535
 20
-132.0343180008456
 10
83.75802271126535
 20
-132.0873724713184
 10
83.75802271126535
 20
-132.0873724713184
 10
83.75802271126535
 20
-132.1359483176604
 10
83.75802271126535
 20
-132.1359483176604
 10
83.75802271126535
 20
-132.1359483176604
 10
84.03724770034486
 20
-132.1359483176604
 10
84.03724770034486
 20
-132.1359483176604
 10
84.03724770034486
 20
-132.1359483176604
 10
83.93992375288656
 20
-132.0701469938922
 10
83.93992375288656
 20
-132.0701469938922
 10
84.02243378975828
 20
-131.9898762690859
 10
84.06687552151801
 20
-131.9244194548661
 10
84.10080971204772
 20
-131.8334689340555
 10
84.10080971204772
 20
-131.8334689340555
 10
84.28271075366891
 20
-131.9264865121573
 10
84.28271075366891
 20
-131.9264865121573
 10
84.29321829489892
 20
-131.9306206267396
 10
84.3102715175509
 20
-131.943367480035
 10
84.3102715175509
 20
-131.9602484479127
 10
84.3102715175509
 20
-131.9898762690859
 10
84.2763373270212
 20
-131.9898762690859
 10
84.23413490732689
 20
-131.991943326377
 10
84.19382729014946
 20
-132.0598117074364
 10
84.17694632227175
 20
-132.0873724713184
 10
84.13887801715973
 20
-132.1359483176604
 10
84.43929034347352
 20
-132.1294026362385
 10
84.47735864858552
 20
-132.1294026362385
 10
84.57468259604383
 20
-132.1252685216562
 10
84.57261553875269
 20
-132.1635090815425
 10
84.56830916939612
 20
-132.2565266596442
 10
84.56830916939612
 20
-132.2944227099819
 10
84.56830916939612
 20
-132.2944227099819
 10
84.56830916939612
 20
-132.4639214078562
 10
84.56830916939612
 20
-132.4639214078562
 10
84.56830916939612
 20
-132.5166313687806
 10
84.57037622668727
 20
-132.577954068418
 10
84.57674965333499
 20
-132.6372097107643
 10
84.57674965333499
 20
-132.6372097107643
 10
84.3736612744795
 20
-132.6372097107643
 10
84.3736612744795
 20
-132.6372097107643
 97
        0
 97
        0
 92
        1
 93
        1
 72
     4
 94
        3
 73
     0
 74
     1
 95
      131
 96
      127
 40
0.0
 40
0.0
 40
0.0
 40
0.0
 40
1.0
 40
1.0
 40
1.0
 40
2.0
 40
2.0
 40
2.0
 40
3.0
 40
3.0
 40
3.0
 40
4.0
 40
4.0
 40
4.0
 40
5.0
 40
5.0
 40
5.0
 40
6.0
 40
6.0
 40
6.0
 40
7.0
 40
7.0
 40
7.0
 40
8.0
 40
8.0
 40
8.0
 40
9.0
 40
9.0
 40
9.0
 40
10.0
 40
10.0
 40
10.0
 40
11.0
 40
11.0
 40
11.0
 40
12.0
 40
12.0
 40
12.0
 40
13.0
 40
13.0
 40
13.0
 40
14.0
 40
14.0
 40
14.0
 40
15.0
 40
15.0
 40
15.0
 40
16.0
 40
16.0
 40
16.0
 40
17.0
 40
17.0
 40
17.0
 40
18.0
 40
18.0
 40
18.0
 40
19.0
 40
19.0
 40
19.0
 40
20.0
 40
20.0
 40
20.0
 40
21.0
 40
21.0
 40
21.0
 40
22.0
 40
22.0
 40
22.0
 40
23.0
 40
23.0
 40
23.0
 40
24.0
 40
24.0
 40
24.0
 40
25.0
 40
25.0
 40
25.0
 40
26.0
 40
26.0
 40
26.0
 40
27.0
 40
27.0
 40
27.0
 40
28.0
 40
28.0
 40
28.0
 40
29.0
 40
29.0
 40
29.0
 40
30.0
 40
30.0
 40
30.0
 40
31.0
 40
31.0
 40
31.0
 40
32.0
 40
32.0
 40
32.0
 40
33.0
 40
33.0
 40
33.0
 40
34.0
 40
34.0
 40
34.0
 40
35.0
 40
35.0
 40
35.0
 40
36.0
 40
36.0
 40
36.0
 40
37.0
 40
37.0
 40
37.0
 40
38.0
 40
38.0
 40
38.0
 40
39.0
 40
39.0
 40
39.0
 40
40.0
 40
40.0
 40
40.0
 40
41.0
 40
41.0
 40
41.0
 40
42.0
 40
42.0
 40
42.0
 40
42.0
 10
84.39691566900494
 20
-133.219086338223
 10
84.39691566900494
 20
-133.219086338223
 10
84.3989827262961
 20
-133.3923746411311
 10
84.3989827262961
 20
-133.3923746411311
 10
84.3989827262961
 20
-133.3923746411311
 10
84.3989827262961
 20
-133.5108859258237
 10
84.3989827262961
 20
-133.5108859258237
 10
84.3989827262961
 20
-133.646278178394
 10
84.27840438431235
 20
-133.6610920889806
 10
84.16850583833288
 20
-133.6610920889806
 10
84.10080971204772
 20
-133.6610920889806
 10
84.07962237481343
 20
-133.6590250316894
 10
84.04792749634913
 20
-133.6548909171071
 10
84.04792749634913
 20
-133.6548909171071
 10
83.9717908861251
 20
-133.4433620543128
 10
83.9717908861251
 20
-133.4433620543128
 10
84.0246731018237
 20
-133.4561089076082
 10
84.09443628540001
 20
-133.4729898754859
 10
84.13043753322087
 20
-133.4729898754859
 10
84.19382729014946
 20
-133.4729898754859
 10
84.19813365950603
 20
-133.4454291116039
 10
84.19813365950603
 20
-133.350344476211
 10
84.19813365950603
 20
-133.350344476211
 10
84.19813365950603
 20
-133.1556965812944
 10
84.19813365950603
 20
-133.1556965812944
 10
84.19813365950603
 20
-133.1556965812944
 10
83.75802271126535
 20
-133.1556965812944
 10
83.75802271126535
 20
-133.1556965812944
 10
83.75802271126535
 20
-133.1556965812944
 10
83.75802271126535
 20
-133.2487141593962
 10
83.75802271126535
 20
-133.2487141593962
 10
83.75802271126535
 20
-133.2783419805693
 10
83.76026202333077
 20
-133.3121039163248
 10
83.76026202333077
 20
-133.3248507696202
 10
83.77283662185194
 20
-133.5639403962965
 10
83.77283662185194
 20
-133.5890895933389
 10
83.77714299120849
 20
-133.7392957564957
 10
83.77714299120849
 20
-133.7392957564957
 10
83.54649384847102
 20
-133.7392957564957
 10
83.54649384847102
 20
-133.7392957564957
 10
83.55080021782759
 20
-133.6845187382803
 10
83.56768118570531
 20
-133.3034911776116
 10
83.56768118570531
 20
-133.2445800448139
 10
83.56768118570531
 20
-133.2445800448139
 10
83.56768118570531
 20
-133.1556965812944
 10
83.56768118570531
 20
-133.1556965812944
 10
83.56768118570531
 20
-133.1556965812944
 10
83.1382500334689
 20
-133.1556965812944
 10
83.1382500334689
 20
-133.1556965812944
 10
83.1382500334689
 20
-133.1556965812944
 10
83.1382500334689
 20
-133.3458658520802
 10
83.1382500334689
 20
-133.3458658520802
 10
83.1382500334689
 20
-133.3923746411311
 10
83.15099688676433
 20
-133.597702332052
 10
83.15306394405549
 20
-133.6400770065206
 10
83.15306394405549
 20
-133.6400770065206
 10
82.92241480131801
 20
-133.6400770065206
 10
82.92241480131801
 20
-133.6400770065206
 10
82.92672117067457
 20
-133.597702332052
 10
82.93929576919574
 20
-133.4199354050131
 10
82.93929576919574
 20
-133.3861734692576
 10
82.93929576919574
 20
-133.3861734692576
 10
82.93929576919574
 20
-133.2104735995099
 10
82.93929576919574
 20
-133.2104735995099
 10
82.93929576919574
 20
-133.1725775491721
 10
82.93309459732228
 20
-133.060267436353
 10
82.93085528525687
 20
-132.9906765075509
 10
82.97753632908201
 20
-132.9927435648421
 10
83.28208276997809
 20
-133.0030788512979
 10
83.30327010721238
 20
-133.0030788512979
 10
83.30327010721238
 20
-133.0030788512979
 10
83.56768118570531
 20
-133.0030788512979
 10
83.56768118570531
 20
-133.0030788512979
 10
83.56768118570531
 20
-133.0030788512979
 10
83.56768118570531
 20
-132.8911132480272
 10
83.56768118570531
 20
-132.8911132480272
 10
83.56768118570531
 20
-132.8911132480272
 10
83.43659530249155
 20
-132.8911132480272
 10
83.43659530249155
 20
-132.8911132480272
 10
83.35615232291097
 20
-132.8911132480272
 10
83.21008027433638
 20
-132.8952473626095
 10
83.1382500334689
 20
-132.8973144199007
 10
83.14031709076006
 20
-132.8721652228583
 10
83.14462346011662
 20
-132.7198920024103
 10
83.14462346011662
 20
-132.6985324104018
 10
83.14462346011662
 20
-132.6985324104018
 10
83.14462346011662
 20
-132.5590060432492
 10
83.14462346011662
 20
-132.5590060432492
 10
83.14462346011662
 20
-132.5335123366583
 10
83.1382500334689
 20
-132.4174126188054
 10
83.1382500334689
 20
-132.3939859695057
 10
83.24194740757494
 20
-132.398120084088
 10
83.26089543274381
 20
-132.4025987082188
 10
83.43228893313498
 20
-132.4025987082188
 10
83.43228893313498
 20
-132.4025987082188
 10
83.8997883904834
 20
-132.4025987082188
 10
83.8997883904834
 20
-132.4025987082188
 10
83.94629717953427
 20
-132.4025987082188
 10
84.14938555838974
 20
-132.3960530267968
 10
84.19176023285831
 20
-132.3939859695057
 10
84.18969317556716
 20
-132.4174126188054
 10
84.1853868062106
 20
-132.5335123366583
 10
84.1853868062106
 20
-132.5610731005403
 10
84.1853868062106
 20
-132.5610731005403
 10
84.1853868062106
 20
-132.7198920024103
 10
84.1853868062106
 20
-132.7198920024103
 10
84.1853868062106
 20
-132.7664007914612
 10
84.18745386350174
 20
-132.852872688141
 10
84.19176023285831
 20
-132.8973144199007
 10
84.07118189087457
 20
-132.8911132480272
 10
84.02036673246714
 20
-132.8911132480272
 10
83.92097572771767
 20
-132.8911132480272
 10
83.92097572771767
 20
-132.8911132480272
 10
83.75802271126535
 20
-132.8911132480272
 10
83.75802271126535
 20
-132.8911132480272
 10
83.75802271126535
 20
-132.8911132480272
 10
83.75802271126535
 20
-133.0030788512979
 10
83.75802271126535
 20
-133.0030788512979
 10
83.75802271126535
 20
-133.0030788512979
 10
84.04792749634913
 20
-133.0030788512979
 10
84.04792749634913
 20
-133.0030788512979
 10
84.14938555838974
 20
-133.0030788512979
 10
84.30803220548549
 20
-132.9968776794244
 10
84.40122203836151
 20
-132.9968776794244
 10
84.40122203836151
 20
-133.032706672471
 10
84.39691566900494
 20
-133.1873914597587
 10
84.39691566900494
 20
-133.219086338223
 97
        0
 97
        0
 92
        1
 93
        4
 72
     1
 10
83.9971123379417
 20
-132.550393304536
 11
83.32859155902896
 21
-132.550393304536
 72
     1
 10
83.32859155902896
 20
-132.550393304536
 11
83.32859155902896
 21
-132.7409070848703
 72
     1
 10
83.32859155902896
 20
-132.7409070848703
 11
83.9971123379417
 21
-132.7409070848703
 72
     1
 10
83.9971123379417
 20
-132.7409070848703
 11
83.9971123379417
 21
-132.550393304536
 97
        0
 75
     2
 76
     1
 98
        0
  0
SPLINE
  5
9F
330
91
100
AcDbEntity
  8
_U+30EC_U+30A4_U+30E4_U+30FC 1
370
     0
100
AcDbSpline
210
0.0
220
0.0
230
1.0
 70
    11
 71
     3
 72
    26
 73
    22
 74
     0
 42
0.0000000001
 43
0.0000000001
 12
1.0
 22
0.0
 32
0.0
 13
1.0
 23
0.0
 33
0.0
 40
0.0
 40
0.0
 40
0.0
 40
0.0
 40
1.0
 40
1.0
 40
1.0
 40
2.0
 40
2.0
 40
2.0
 40
3.0
 40
3.0
 40
3.0
 40
4.0
 40
4.0
 40
4.0
 40
5.0
 40
5.0
 40
5.0
 40
6.0
 40
6.0
 40
6.0
 40
7.0
 40
7.0
 40
7.0
 40
7.0
 10
85.23803573172869
 20
-133.0413194111841
 30
0.0
 10
85.15965980943926
 20
-133.3627468199579
 30
0.0
 10
85.14071178427038
 20
-133.4347493155996
 30
0.0
 10
85.01376001563892
 20
-133.6039035039254
 30
0.0
 10
85.01376001563892
 20
-133.6039035039254
 30
0.0
 10
84.79155135684032
 20
-133.5470594284188
 30
0.0
 10
84.79155135684032
 20
-133.5470594284188
 30
0.0
 10
84.89094236158977
 20
-133.4071885517177
 30
0.0
 10
84.94606388935377
 20
-133.2845431524428
 30
0.0
 10
84.96087779994033
 20
-133.246647102105
 30
0.0
 10
84.9968790477612
 20
-133.1577636385856
 30
0.0
 10
85.03908146745552
 20
-132.9882649407113
 30
0.0
 10
85.04338783681207
 20
-132.9166069546181
 30
0.0
 10
85.04338783681207
 20
-132.9166069546181
 30
0.0
 10
85.25905081418871
 20
-132.9799967115467
 30
0.0
 10
85.25905081418871
 20
-132.9799967115467
 30
0.0
 10
85.28867863536186
 20
-132.9882649407113
 30
0.0
 10
85.29711911930072
 20
-132.9906765075509
 30
0.0
 10
85.29711911930072
 20
-133.0075574754287
 30
0.0
 10
85.29711911930072
 20
-133.0306396151798
 30
0.0
 10
85.26129012625412
 20
-133.0371852966018
 30
0.0
 10
85.23803573172869
 20
-133.0413194111841
 30
0.0
  0
SPLINE
  5
A0
330
91
100
AcDbEntity
  8
_U+30EC_U+30A4_U+30E4_U+30FC 1
370
     0
100
AcDbSpline
210
0.0
220
0.0
230
1.0
 70
    11
 71
     3
 72
    89
 73
    85
 74
     0
 42
0.0000000001
 43
0.0000000001
 12
1.0
 22
0.0
 32
0.0
 13
1.0
 23
0.0
 33
0.0
 40
0.0
 40
0.0
 40
0.0
 40
0.0
 40
1.0
 40
1.0
 40
1.0
 40
2.0
 40
2.0
 40
2.0
 40
3.0
 40
3.0
 40
3.0
 40
4.0
 40
4.0
 40
4.0
 40
5.0
 40
5.0
 40
5.0
 40
6.0
 40
6.0
 40
6.0
 40
7.0
 40
7.0
 40
7.0
 40
8.0
 40
8.0
 40
8.0
 40
9.0
 40
9.0
 40
9.0
 40
10.0
 40
10.0
 40
10.0
 40
11.0
 40
11.0
 40
11.0
 40
12.0
 40
12.0
 40
12.0
 40
13.0
 40
13.0
 40
13.0
 40
14.0
 40
14.0
 40
14.0
 40
15.0
 40
15.0
 40
15.0
 40
16.0
 40
16.0
 40
16.0
 40
17.0
 40
17.0
 40
17.0
 40
18.0
 40
18.0
 40
18.0
 40
19.0
 40
19.0
 40
19.0
 40
20.0
 40
20.0
 40
20.0
 40
21.0
 40
21.0
 40
21.0
 40
22.0
 40
22.0
 40
22.0
 40
23.0
 40
23.0
 40
23.0
 40
24.0
 40
24.0
 40
24.0
 40
25.0
 40
25.0
 40
25.0
 40
26.0
 40
26.0
 40
26.0
 40
27.0
 40
27.0
 40
27.0
 40
28.0
 40
28.0
 40
28.0
 40
28.0
 10
86.19198267159437
 20
-132.2861544808173
 30
0.0
 10
86.19198267159437
 20
-132.3581569764591
 30
0.0
 10
86.19835609824209
 20
-132.42568084797
 30
0.0
 10
86.20266246759864
 20
-132.4787353184428
 30
0.0
 10
86.20266246759864
 20
-132.4787353184428
 30
0.0
 10
85.98682723544775
 20
-132.4787353184428
 30
0.0
 10
85.98682723544775
 20
-132.4787353184428
 30
0.0
 10
85.99320066209545
 20
-132.4277479052611
 30
0.0
 10
85.99957408874316
 20
-132.3602240337502
 30
0.0
 10
85.99957408874316
 20
-132.2861544808173
 30
0.0
 10
85.99957408874316
 20
-132.2861544808173
 30
0.0
 10
85.54051511533362
 20
-132.2861544808173
 30
0.0
 10
85.54051511533362
 20
-132.2861544808173
 30
0.0
 10
85.54051511533362
 20
-132.3581569764591
 30
0.0
 10
85.54464922991592
 20
-132.4025987082188
 30
0.0
 10
85.55326196862904
 20
-132.4787353184428
 30
0.0
 10
85.55326196862904
 20
-132.4787353184428
 30
0.0
 10
85.32674694047387
 20
-132.4787353184428
 30
0.0
 10
85.32674694047387
 20
-132.4787353184428
 30
0.0
 10
85.33742673647815
 20
-132.4025987082188
 30
0.0
 10
85.345867220417
 20
-132.3347303271594
 30
0.0
 10
85.345867220417
 20
-132.2861544808173
 30
0.0
 10
85.17240666273467
 20
-132.2861544808173
 30
0.0
 10
84.9968790477612
 20
-132.2923556526908
 30
0.0
 10
84.82341849007886
 20
-132.3030354486951
 30
0.0
 10
84.82341849007886
 20
-132.3030354486951
 30
0.0
 10
84.82341849007886
 20
-132.095640700483
 30
0.0
 10
84.82341849007886
 20
-132.095640700483
 30
0.0
 10
84.9968790477612
 20
-132.1063204964873
 30
0.0
 10
85.17240666273467
 20
-132.1125216683608
 30
0.0
 10
85.345867220417
 20
-132.1125216683608
 30
0.0
 10
85.345867220417
 20
-132.1125216683608
 30
0.0
 10
85.345867220417
 20
-132.0429307395587
 30
0.0
 10
85.345867220417
 20
-132.0429307395587
 30
0.0
 10
85.345867220417
 20
-132.0067572369636
 30
0.0
 10
85.3394937937693
 20
-131.8482828446421
 30
0.0
 10
85.33742673647815
 20
-131.812109342047
 30
0.0
 10
85.33742673647815
 20
-131.812109342047
 30
0.0
 10
85.5553290259202
 20
-131.8334689340555
 30
0.0
 10
85.5553290259202
 20
-131.8334689340555
 30
0.0
 10
85.57858342044564
 20
-131.8355359913467
 30
0.0
 10
85.59546438832336
 20
-131.839670105929
 30
0.0
 10
85.59546438832336
 20
-131.8586181310978
 30
0.0
 10
85.59546438832336
 20
-131.8779106658153
 30
0.0
 10
85.57858342044564
 20
-131.8861788949798
 30
0.0
 10
85.54464922991592
 20
-131.9051269201487
 30
0.0
 10
85.54258217262478
 20
-131.9285535694484
 30
0.0
 10
85.54051511533362
 20
-132.0363850581367
 30
0.0
 10
85.54051511533362
 20
-132.0449977968499
 30
0.0
 10
85.54051511533362
 20
-132.0449977968499
 30
0.0
 10
85.54051511533362
 20
-132.1125216683608
 30
0.0
 10
85.54051511533362
 20
-132.1125216683608
 30
0.0
 10
85.54051511533362
 20
-132.1125216683608
 30
0.0
 10
85.99957408874316
 20
-132.1125216683608
 30
0.0
 10
85.99957408874316
 20
-132.1125216683608
 30
0.0
 10
85.99957408874316
 20
-132.1125216683608
 30
0.0
 10
85.99957408874316
 20
-132.0236382048413
 30
0.0
 10
85.99957408874316
 20
-132.0236382048413
 30
0.0
 10
85.99957408874316
 20
-131.9816080399213
 30
0.0
 10
85.9952677193866
 20
-131.8565510738067
 30
0.0
 10
85.99320066209545
 20
-131.8141763993381
 30
0.0
 10
85.99320066209545
 20
-131.8141763993381
 30
0.0
 10
86.20266246759864
 20
-131.8334689340555
 30
0.0
 10
86.20266246759864
 20
-131.8334689340555
 30
0.0
 10
86.21747637818522
 20
-131.8355359913467
 30
0.0
 10
86.2427978300018
 20
-131.8376030486378
 30
0.0
 10
86.2427978300018
 20
-131.8565510738067
 30
0.0
 10
86.2427978300018
 20
-131.8734320416844
 30
0.0
 10
86.22798391941522
 20
-131.8799777231064
 30
0.0
 10
86.19422198365979
 20
-131.894791633693
 30
0.0
 10
86.19198267159437
 20
-131.9413004227438
 30
0.0
 10
86.19198267159437
 20
-131.991943326377
 30
0.0
 10
86.19198267159437
 20
-132.0363850581367
 30
0.0
 10
86.19198267159437
 20
-132.0363850581367
 30
0.0
 10
86.19198267159437
 20
-132.1125216683608
 30
0.0
 10
86.19198267159437
 20
-132.1125216683608
 30
0.0
 10
86.55165064025445
 20
-132.1063204964873
 30
0.0
 10
86.59195825743187
 20
-132.1042534391962
 30
0.0
 10
86.73579099394105
 20
-132.095640700483
 30
0.0
 10
86.73579099394105
 20
-132.095640700483
 30
0.0
 10
86.73579099394105
 20
-132.3030354486951
 30
0.0
 10
86.73579099394105
 20
-132.3030354486951
 30
0.0
 10
86.53683672966788
 20
-132.2902885953997
 30
0.0
 10
86.37405596798982
 20
-132.2882215381085
 30
0.0
 10
86.19198267159437
 20
-132.2861544808173
 30
0.0
  0
SPLINE
  5
A1
330
91
100
AcDbEntity
  8
_U+30EC_U+30A4_U+30E4_U+30FC 1
370
     0
100
AcDbSpline
210
0.0
220
0.0
230
1.0
 70
    11
 71
     3
 72
    56
 73
    52
 74
     0
 42
0.0000000001
 43
0.0000000001
 12
1.0
 22
0.0
 32
0.0
 13
1.0
 23
0.0
 33
0.0
 40
0.0
 40
0.0
 40
0.0
 40
0.0
 40
1.0
 40
1.0
 40
1.0
 40
2.0
 40
2.0
 40
2.0
 40
3.0
 40
3.0
 40
3.0
 40
4.0
 40
4.0
 40
4.0
 40
5.0
 40
5.0
 40
5.0
 40
6.0
 40
6.0
 40
6.0
 40
7.0
 40
7.0
 40
7.0
 40
8.0
 40
8.0
 40
8.0
 40
9.0
 40
9.0
 40
9.0
 40
10.0
 40
10.0
 40
10.0
 40
11.0
 40
11.0
 40
11.0
 40
12.0
 40
12.0
 40
12.0
 40
13.0
 40
13.0
 40
13.0
 40
14.0
 40
14.0
 40
14.0
 40
15.0
 40
15.0
 40
15.0
 40
16.0
 40
16.0
 40
16.0
 40
17.0
 40
17.0
 40
17.0
 40
17.0
 10
86.28310544717922
 20
-133.5236327791191
 30
0.0
 10
86.23435734606294
 20
-133.6845187382803
 30
0.0
 10
86.18147513036436
 20
-133.7182806740357
 30
0.0
 10
86.04194876321174
 20
-133.7182806740357
 30
0.0
 10
86.04194876321174
 20
-133.7182806740357
 30
0.0
 10
85.69485539307281
 20
-133.7182806740357
 30
0.0
 10
85.69485539307281
 20
-133.7182806740357
 30
0.0
 10
85.5594631405025
 20
-133.7182806740357
 30
0.0
 10
85.50882023686933
 20
-133.7182806740357
 30
0.0
 10
85.46437850510961
 20
-133.6676377704025
 30
0.0
 10
85.41356334670216
 20
-133.6083821280562
 30
0.0
 10
85.41356334670216
 20
-133.5594617721657
 30
0.0
 10
85.41356334670216
 20
-133.3713595586711
 30
0.0
 10
85.41356334670216
 20
-133.3713595586711
 30
0.0
 10
85.41356334670216
 20
-133.0816270283615
 30
0.0
 10
85.41356334670216
 20
-133.0816270283615
 30
0.0
 10
85.41356334670216
 20
-133.0137586473021
 30
0.0
 10
85.4092569773456
 20
-132.8487385735586
 30
0.0
 10
85.40718992005445
 20
-132.7853488166301
 30
0.0
 10
85.40718992005445
 20
-132.7853488166301
 30
0.0
 10
85.62939857885307
 20
-132.8149766378032
 30
0.0
 10
85.62939857885307
 20
-132.8149766378032
 30
0.0
 10
85.65265297337851
 20
-132.8170436950944
 30
0.0
 10
85.66953394125623
 20
-132.8235893765163
 30
0.0
 10
85.66953394125623
 20
-132.8380587775544
 30
0.0
 10
85.66953394125623
 20
-132.8594183695629
 30
0.0
 10
85.6504136613131
 20
-132.8676865987275
 30
0.0
 10
85.62095809491422
 20
-132.8804334520229
 30
0.0
 10
85.6187187828488
 20
-132.9441677185001
 30
0.0
 10
85.6145846682665
 20
-132.9589816290867
 30
0.0
 10
85.6145846682665
 20
-133.094373881657
 30
0.0
 10
85.6145846682665
 20
-133.094373881657
 30
0.0
 10
85.6145846682665
 20
-133.438883430182
 30
0.0
 10
85.6145846682665
 20
-133.438883430182
 30
0.0
 10
85.6145846682665
 20
-133.5174316072456
 30
0.0
 10
85.63783906279194
 20
-133.5363796324145
 30
0.0
 10
85.74153643689796
 20
-133.5363796324145
 30
0.0
 10
85.74153643689796
 20
-133.5363796324145
 30
0.0
 10
85.95513235698344
 20
-133.5363796324145
 30
0.0
 10
85.95513235698344
 20
-133.5363796324145
 30
0.0
 10
86.04401582050289
 20
-133.5363796324145
 30
0.0
 10
86.05659041902405
 20
-133.5153645499545
 30
0.0
 10
86.06727021502833
 20
-133.4898708433637
 30
0.0
 10
86.09896509349262
 20
-133.4158012904308
 30
0.0
 10
86.10533852014034
 20
-133.3014241203205
 30
0.0
 10
86.10740557743149
 20
-133.267662184565
 30
0.0
 10
86.10740557743149
 20
-133.267662184565
 30
0.0
 10
86.31893444022583
 20
-133.3841064119665
 30
0.0
 10
86.31893444022583
 20
-133.3841064119665
 30
0.0
 10
86.31273326835237
 20
-133.4071885517177
 30
0.0
 10
86.28930661905268
 20
-133.5046847539502
 30
0.0
 10
86.28310544717922
 20
-133.5236327791191
 30
0.0
  0
SPLINE
  5
A2
330
91
100
AcDbEntity
  8
_U+30EC_U+30A4_U+30E4_U+30FC 1
370
     0
100
AcDbSpline
210
0.0
220
0.0
230
1.0
 70
    11
 71
     3
 72
    17
 73
    13
 74
     0
 42
0.0000000001
 43
0.0000000001
 12
1.0
 22
0.0
 32
0.0
 13
1.0
 23
0.0
 33
0.0
 40
0.0
 40
0.0
 40
0.0
 40
0.0
 40
1.0
 40
1.0
 40
1.0
 40
2.0
 40
2.0
 40
2.0
 40
3.0
 40
3.0
 40
3.0
 40
4.0
 40
4.0
 40
4.0
 40
4.0
 10
85.8621147788817
 20
-133.1808457783367
 30
0.0
 10
85.82611353106084
 20
-132.9228081264915
 30
0.0
 10
85.71810978759825
 20
-132.730227288866
 30
0.0
 10
85.69709470513823
 20
-132.6943982958195
 30
0.0
 10
85.69709470513823
 20
-132.6943982958195
 30
0.0
 10
85.88743623069828
 20
-132.6458224494774
 30
0.0
 10
85.88743623069828
 20
-132.6458224494774
 30
0.0
 10
85.92550453581029
 20
-132.7133463209883
 30
0.0
 10
85.97408038215232
 20
-132.8042968417989
 30
0.0
 10
86.05659041902405
 20
-133.0898952575261
 30
0.0
 10
86.05659041902405
 20
-133.0898952575261
 30
0.0
 10
85.8621147788817
 20
-133.1808457783367
 30
0.0
 10
85.8621147788817
 20
-133.1808457783367
 30
0.0
  0
SPLINE
  5
A3
330
91
100
AcDbEntity
  8
_U+30EC_U+30A4_U+30E4_U+30FC 1
370
     0
100
AcDbSpline
210
0.0
220
0.0
230
1.0
 70
    11
 71
     3
 72
    23
 73
    19
 74
     0
 42
0.0000000001
 43
0.0000000001
 12
1.0
 22
0.0
 32
0.0
 13
1.0
 23
0.0
 33
0.0
 40
0.0
 40
0.0
 40
0.0
 40
0.0
 40
1.0
 40
1.0
 40
1.0
 40
2.0
 40
2.0
 40
2.0
 40
3.0
 40
3.0
 40
3.0
 40
4.0
 40
4.0
 40
4.0
 40
5.0
 40
5.0
 40
5.0
 40
6.0
 40
6.0
 40
6.0
 40
6.0
 10
86.5432101563156
 20
-133.4833251619417
 30
0.0
 10
86.50514185120358
 20
-133.3713595586711
 30
0.0
 10
86.47551403003042
 20
-133.3079698017424
 30
0.0
 10
86.41212427310184
 20
-133.2022053703453
 30
0.0
 10
86.35700274533784
 20
-133.1133219068258
 30
0.0
 10
86.29361298840924
 20
-133.0075574754287
 30
0.0
 10
86.2386637154195
 20
-132.9417561516604
 30
0.0
 10
86.2386637154195
 20
-132.9417561516604
 30
0.0
 10
86.4310722982707
 20
-132.8466715162675
 30
0.0
 10
86.4310722982707
 20
-132.8466715162675
 30
0.0
 10
86.45019257821384
 20
-132.8762993374407
 30
0.0
 10
86.54114309902444
 20
-133.0075574754287
 30
0.0
 10
86.55802406690216
 20
-133.0351182393107
 30
0.0
 10
86.6129733398919
 20
-133.1195230786993
 30
0.0
 10
86.69978974612019
 20
-133.2783419805693
 30
0.0
 10
86.72097708335448
 20
-133.3248507696202
 30
0.0
 10
86.72097708335448
 20
-133.3248507696202
 30
0.0
 10
86.5432101563156
 20
-133.4833251619417
 30
0.0
 10
86.5432101563156
 20
-133.4833251619417
 30
0.0
  0
HATCH
  5
A4
330
91
100
AcDbEntity
  8
_U+30EC_U+30A4_U+30E4_U+30FC 1
 62
   179
420
  2234388
100
AcDbHatch
 10
0.0
 20
0.0
 30
0.0
210
0.0
220
0.0
230
1.0
  2
SOLID
 70
     1
 71
     0
 91
        5
 92
        1
 93
        1
 72
     4
 94
        3
 73
     0
 74
     1
 95
       26
 96
       22
 40
0.0
 40
0.0
 40
0.0
 40
0.0
 40
1.0
 40
1.0
 40
1.0
 40
2.0
 40
2.0
 40
2.0
 40
3.0
 40
3.0
 40
3.0
 40
4.0
 40
4.0
 40
4.0
 40
5.0
 40
5.0
 40
5.0
 40
6.0
 40
6.0
 40
6.0
 40
7.0
 40
7.0
 40
7.0
 40
7.0
 10
85.23803573172869
 20
-133.0413194111841
 10
85.15965980943926
 20
-133.3627468199579
 10
85.14071178427038
 20
-133.4347493155996
 10
85.01376001563892
 20
-133.6039035039254
 10
85.01376001563892
 20
-133.6039035039254
 10
84.79155135684032
 20
-133.5470594284188
 10
84.79155135684032
 20
-133.5470594284188
 10
84.89094236158977
 20
-133.4071885517177
 10
84.94606388935377
 20
-133.2845431524428
 10
84.96087779994033
 20
-133.246647102105
 10
84.9968790477612
 20
-133.1577636385856
 10
85.03908146745552
 20
-132.9882649407113
 10
85.04338783681207
 20
-132.9166069546181
 10
85.04338783681207
 20
-132.9166069546181
 10
85.25905081418871
 20
-132.9799967115467
 10
85.25905081418871
 20
-132.9799967115467
 10
85.28867863536186
 20
-132.9882649407113
 10
85.29711911930072
 20
-132.9906765075509
 10
85.29711911930072
 20
-133.0075574754287
 10
85.29711911930072
 20
-133.0306396151798
 10
85.26129012625412
 20
-133.0371852966018
 10
85.23803573172869
 20
-133.0413194111841
 97
        0
 97
        0
 92
        1
 93
        1
 72
     4
 94
        3
 73
     0
 74
     1
 95
       89
 96
       85
 40
0.0
 40
0.0
 40
0.0
 40
0.0
 40
1.0
 40
1.0
 40
1.0
 40
2.0
 40
2.0
 40
2.0
 40
3.0
 40
3.0
 40
3.0
 40
4.0
 40
4.0
 40
4.0
 40
5.0
 40
5.0
 40
5.0
 40
6.0
 40
6.0
 40
6.0
 40
7.0
 40
7.0
 40
7.0
 40
8.0
 40
8.0
 40
8.0
 40
9.0
 40
9.0
 40
9.0
 40
10.0
 40
10.0
 40
10.0
 40
11.0
 40
11.0
 40
11.0
 40
12.0
 40
12.0
 40
12.0
 40
13.0
 40
13.0
 40
13.0
 40
14.0
 40
14.0
 40
14.0
 40
15.0
 40
15.0
 40
15.0
 40
16.0
 40
16.0
 40
16.0
 40
17.0
 40
17.0
 40
17.0
 40
18.0
 40
18.0
 40
18.0
 40
19.0
 40
19.0
 40
19.0
 40
20.0
 40
20.0
 40
20.0
 40
21.0
 40
21.0
 40
21.0
 40
22.0
 40
22.0
 40
22.0
 40
23.0
 40
23.0
 40
23.0
 40
24.0
 40
24.0
 40
24.0
 40
25.0
 40
25.0
 40
25.0
 40
26.0
 40
26.0
 40
26.0
 40
27.0
 40
27.0
 40
27.0
 40
28.0
 40
28.0
 40
28.0
 40
28.0
 10
86.19198267159437
 20
-132.2861544808173
 10
86.19198267159437
 20
-132.3581569764591
 10
86.19835609824209
 20
-132.42568084797
 10
86.20266246759864
 20
-132.4787353184428
 10
86.20266246759864
 20
-132.4787353184428
 10
85.98682723544775
 20
-132.4787353184428
 10
85.98682723544775
 20
-132.4787353184428
 10
85.99320066209545
 20
-132.4277479052611
 10
85.99957408874316
 20
-132.3602240337502
 10
85.99957408874316
 20
-132.2861544808173
 10
85.99957408874316
 20
-132.2861544808173
 10
85.54051511533362
 20
-132.2861544808173
 10
85.54051511533362
 20
-132.2861544808173
 10
85.54051511533362
 20
-132.3581569764591
 10
85.54464922991592
 20
-132.4025987082188
 10
85.55326196862904
 20
-132.4787353184428
 10
85.55326196862904
 20
-132.4787353184428
 10
85.32674694047387
 20
-132.4787353184428
 10
85.32674694047387
 20
-132.4787353184428
 10
85.33742673647815
 20
-132.4025987082188
 10
85.345867220417
 20
-132.3347303271594
 10
85.345867220417
 20
-132.2861544808173
 10
85.17240666273467
 20
-132.2861544808173
 10
84.9968790477612
 20
-132.2923556526908
 10
84.82341849007886
 20
-132.3030354486951
 10
84.82341849007886
 20
-132.3030354486951
 10
84.82341849007886
 20
-132.095640700483
 10
84.82341849007886
 20
-132.095640700483
 10
84.9968790477612
 20
-132.1063204964873
 10
85.17240666273467
 20
-132.1125216683608
 10
85.345867220417
 20
-132.1125216683608
 10
85.345867220417
 20
-132.1125216683608
 10
85.345867220417
 20
-132.0429307395587
 10
85.345867220417
 20
-132.0429307395587
 10
85.345867220417
 20
-132.0067572369636
 10
85.3394937937693
 20
-131.8482828446421
 10
85.33742673647815
 20
-131.812109342047
 10
85.33742673647815
 20
-131.812109342047
 10
85.5553290259202
 20
-131.8334689340555
 10
85.5553290259202
 20
-131.8334689340555
 10
85.57858342044564
 20
-131.8355359913467
 10
85.59546438832336
 20
-131.839670105929
 10
85.59546438832336
 20
-131.8586181310978
 10
85.59546438832336
 20
-131.8779106658153
 10
85.57858342044564
 20
-131.8861788949798
 10
85.54464922991592
 20
-131.9051269201487
 10
85.54258217262478
 20
-131.9285535694484
 10
85.54051511533362
 20
-132.0363850581367
 10
85.54051511533362
 20
-132.0449977968499
 10
85.54051511533362
 20
-132.0449977968499
 10
85.54051511533362
 20
-132.1125216683608
 10
85.54051511533362
 20
-132.1125216683608
 10
85.54051511533362
 20
-132.1125216683608
 10
85.99957408874316
 20
-132.1125216683608
 10
85.99957408874316
 20
-132.1125216683608
 10
85.99957408874316
 20
-132.1125216683608
 10
85.99957408874316
 20
-132.0236382048413
 10
85.99957408874316
 20
-132.0236382048413
 10
85.99957408874316
 20
-131.9816080399213
 10
85.9952677193866
 20
-131.8565510738067
 10
85.99320066209545
 20
-131.8141763993381
 10
85.99320066209545
 20
-131.8141763993381
 10
86.20266246759864
 20
-131.8334689340555
 10
86.20266246759864
 20
-131.8334689340555
 10
86.21747637818522
 20
-131.8355359913467
 10
86.2427978300018
 20
-131.8376030486378
 10
86.2427978300018
 20
-131.8565510738067
 10
86.2427978300018
 20
-131.8734320416844
 10
86.22798391941522
 20
-131.8799777231064
 10
86.19422198365979
 20
-131.894791633693
 10
86.19198267159437
 20
-131.9413004227438
 10
86.19198267159437
 20
-131.991943326377
 10
86.19198267159437
 20
-132.0363850581367
 10
86.19198267159437
 20
-132.0363850581367
 10
86.19198267159437
 20
-132.1125216683608
 10
86.19198267159437
 20
-132.1125216683608
 10
86.55165064025445
 20
-132.1063204964873
 10
86.59195825743187
 20
-132.1042534391962
 10
86.73579099394105
 20
-132.095640700483
 10
86.73579099394105
 20
-132.095640700483
 10
86.73579099394105
 20
-132.3030354486951
 10
86.73579099394105
 20
-132.3030354486951
 10
86.53683672966788
 20
-132.2902885953997
 10
86.37405596798982
 20
-132.2882215381085
 10
86.19198267159437
 20
-132.2861544808173
 97
        0
 97
        0
 92
        1
 93
        1
 72
     4
 94
        3
 73
     0
 74
     1
 95
       56
 96
       52
 40
0.0
 40
0.0
 40
0.0
 40
0.0
 40
1.0
 40
1.0
 40
1.0
 40
2.0
 40
2.0
 40
2.0
 40
3.0
 40
3.0
 40
3.0
 40
4.0
 40
4.0
 40
4.0
 40
5.0
 40
5.0
 40
5.0
 40
6.0
 40
6.0
 40
6.0
 40
7.0
 40
7.0
 40
7.0
 40
8.0
 40
8.0
 40
8.0
 40
9.0
 40
9.0
 40
9.0
 40
10.0
 40
10.0
 40
10.0
 40
11.0
 40
11.0
 40
11.0
 40
12.0
 40
12.0
 40
12.0
 40
13.0
 40
13.0
 40
13.0
 40
14.0
 40
14.0
 40
14.0
 40
15.0
 40
15.0
 40
15.0
 40
16.0
 40
16.0
 40
16.0
 40
17.0
 40
17.0
 40
17.0
 40
17.0
 10
86.28310544717922
 20
-133.5236327791191
 10
86.23435734606294
 20
-133.6845187382803
 10
86.18147513036436
 20
-133.7182806740357
 10
86.04194876321174
 20
-133.7182806740357
 10
86.04194876321174
 20
-133.7182806740357
 10
85.69485539307281
 20
-133.7182806740357
 10
85.69485539307281
 20
-133.7182806740357
 10
85.5594631405025
 20
-133.7182806740357
 10
85.50882023686933
 20
-133.7182806740357
 10
85.46437850510961
 20
-133.6676377704025
 10
85.41356334670216
 20
-133.6083821280562
 10
85.41356334670216
 20
-133.5594617721657
 10
85.41356334670216
 20
-133.3713595586711
 10
85.41356334670216
 20
-133.3713595586711
 10
85.41356334670216
 20
-133.0816270283615
 10
85.41356334670216
 20
-133.0816270283615
 10
85.41356334670216
 20
-133.0137586473021
 10
85.4092569773456
 20
-132.8487385735586
 10
85.40718992005445
 20
-132.7853488166301
 10
85.40718992005445
 20
-132.7853488166301
 10
85.62939857885307
 20
-132.8149766378032
 10
85.62939857885307
 20
-132.8149766378032
 10
85.65265297337851
 20
-132.8170436950944
 10
85.66953394125623
 20
-132.8235893765163
 10
85.66953394125623
 20
-132.8380587775544
 10
85.66953394125623
 20
-132.8594183695629
 10
85.6504136613131
 20
-132.8676865987275
 10
85.62095809491422
 20
-132.8804334520229
 10
85.6187187828488
 20
-132.9441677185001
 10
85.6145846682665
 20
-132.9589816290867
 10
85.6145846682665
 20
-133.094373881657
 10
85.6145846682665
 20
-133.094373881657
 10
85.6145846682665
 20
-133.438883430182
 10
85.6145846682665
 20
-133.438883430182
 10
85.6145846682665
 20
-133.5174316072456
 10
85.63783906279194
 20
-133.5363796324145
 10
85.74153643689796
 20
-133.5363796324145
 10
85.74153643689796
 20
-133.5363796324145
 10
85.95513235698344
 20
-133.5363796324145
 10
85.95513235698344
 20
-133.5363796324145
 10
86.04401582050289
 20
-133.5363796324145
 10
86.05659041902405
 20
-133.5153645499545
 10
86.06727021502833
 20
-133.4898708433637
 10
86.09896509349262
 20
-133.4158012904308
 10
86.10533852014034
 20
-133.3014241203205
 10
86.10740557743149
 20
-133.267662184565
 10
86.10740557743149
 20
-133.267662184565
 10
86.31893444022583
 20
-133.3841064119665
 10
86.31893444022583
 20
-133.3841064119665
 10
86.31273326835237
 20
-133.4071885517177
 10
86.28930661905268
 20
-133.5046847539502
 10
86.28310544717922
 20
-133.5236327791191
 97
        0
 97
        0
 92
        1
 93
        1
 72
     4
 94
        3
 73
     0
 74
     1
 95
       17
 96
       13
 40
0.0
 40
0.0
 40
0.0
 40
0.0
 40
1.0
 40
1.0
 40
1.0
 40
2.0
 40
2.0
 40
2.0
 40
3.0
 40
3.0
 40
3.0
 40
4.0
 40
4.0
 40
4.0
 40
4.0
 10
85.8621147788817
 20
-133.1808457783367
 10
85.82611353106084
 20
-132.9228081264915
 10
85.71810978759825
 20
-132.730227288866
 10
85.69709470513823
 20
-132.6943982958195
 10
85.69709470513823
 20
-132.6943982958195
 10
85.88743623069828
 20
-132.6458224494774
 10
85.88743623069828
 20
-132.6458224494774
 10
85.92550453581029
 20
-132.7133463209883
 10
85.97408038215232
 20
-132.8042968417989
 10
86.05659041902405
 20
-133.0898952575261
 10
86.05659041902405
 20
-133.0898952575261
 10
85.8621147788817
 20
-133.1808457783367
 10
85.8621147788817
 20
-133.1808457783367
 97
        0
 97
        0
 92
        1
 93
        1
 72
     4
 94
        3
 73
     0
 74
     1
 95
       23
 96
       19
 40
0.0
 40
0.0
 40
0.0
 40
0.0
 40
1.0
 40
1.0
 40
1.0
 40
2.0
 40
2.0
 40
2.0
 40
3.0
 40
3.0
 40
3.0
 40
4.0
 40
4.0
 40
4.0
 40
5.0
 40
5.0
 40
5.0
 40
6.0
 40
6.0
 40
6.0
 40
6.0
 10
86.5432101563156
 20
-133.4833251619417
 10
86.50514185120358
 20
-133.3713595586711
 10
86.47551403003042
 20
-133.3079698017424
 10
86.41212427310184
 20
-133.2022053703453
 10
86.35700274533784
 20
-133.1133219068258
 10
86.29361298840924
 20
-133.0075574754287
 10
86.2386637154195
 20
-132.9417561516604
 10
86.2386637154195
 20
-132.9417561516604
 10
86.4310722982707
 20
-132.8466715162675
 10
86.4310722982707
 20
-132.8466715162675
 10
86.45019257821384
 20
-132.8762993374407
 10
86.54114309902444
 20
-133.0075574754287
 10
86.55802406690216
 20
-133.0351182393107
 10
86.6129733398919
 20
-133.1195230786993
 10
86.69978974612019
 20
-133.2783419805693
 10
86.72097708335448
 20
-133.3248507696202
 10
86.72097708335448
 20
-133.3248507696202
 10
86.5432101563156
 20
-133.4833251619417
 10
86.5432101563156
 20
-133.4833251619417
 97
        0
 97
        0
 75
     2
 76
     1
 98
        0
  0
SPLINE
  5
A5
330
91
100
AcDbEntity
  8
_U+30EC_U+30A4_U+30E4_U+30FC 1
370
     0
100
AcDbSpline
210
0.0
220
0.0
230
1.0
 70
    11
 71
     3
 72
   125
 73
   121
 74
     0
 42
0.0000000001
 43
0.0000000001
 12
1.0
 22
0.0
 32
0.0
 13
1.0
 23
0.0
 33
0.0
 40
0.0
 40
0.0
 40
0.0
 40
0.0
 40
1.0
 40
1.0
 40
1.0
 40
2.0
 40
2.0
 40
2.0
 40
3.0
 40
3.0
 40
3.0
 40
4.0
 40
4.0
 40
4.0
 40
5.0
 40
5.0
 40
5.0
 40
6.0
 40
6.0
 40
6.0
 40
7.0
 40
7.0
 40
7.0
 40
8.0
 40
8.0
 40
8.0
 40
9.0
 40
9.0
 40
9.0
 40
10.0
 40
10.0
 40
10.0
 40
11.0
 40
11.0
 40
11.0
 40
12.0
 40
12.0
 40
12.0
 40
13.0
 40
13.0
 40
13.0
 40
14.0
 40
14.0
 40
14.0
 40
15.0
 40
15.0
 40
15.0
 40
16.0
 40
16.0
 40
16.0
 40
17.0
 40
17.0
 40
17.0
 40
18.0
 40
18.0
 40
18.0
 40
19.0
 40
19.0
 40
19.0
 40
20.0
 40
20.0
 40
20.0
 40
21.0
 40
21.0
 40
21.0
 40
22.0
 40
22.0
 40
22.0
 40
23.0
 40
23.0
 40
23.0
 40
24.0
 40
24.0
 40
24.0
 40
25.0
 40
25.0
 40
25.0
 40
26.0
 40
26.0
 40
26.0
 40
27.0
 40
27.0
 40
27.0
 40
28.0
 40
28.0
 40
28.0
 40
29.0
 40
29.0
 40
29.0
 40
30.0
 40
30.0
 40
30.0
 40
31.0
 40
31.0
 40
31.0
 40
32.0
 40
32.0
 40
32.0
 40
33.0
 40
33.0
 40
33.0
 40
34.0
 40
34.0
 40
34.0
 40
35.0
 40
35.0
 40
35.0
 40
36.0
 40
36.0
 40
36.0
 40
37.0
 40
37.0
 40
37.0
 40
38.0
 40
38.0
 40
38.0
 40
39.0
 40
39.0
 40
39.0
 40
40.0
 40
40.0
 40
40.0
 40
40.0
 10
87.71850448110857
 20
-132.3939859695057
 30
0.0
 10
87.59155271247711
 20
-132.3261175884463
 30
0.0
 10
87.47734779714108
 20
-132.2100178705933
 30
0.0
 10
87.40534530149937
 20
-132.1273355789473
 30
0.0
 10
87.38846433362164
 20
-132.1466281136647
 30
0.0
 10
87.32076820733649
 20
-132.2375786344753
 30
0.0
 10
87.3059542967499
 20
-132.2544596023531
 30
0.0
 10
87.29320744345448
 20
-132.2692735129396
 30
0.0
 10
87.23825817046475
 20
-132.3347303271594
 30
0.0
 10
87.17056204417959
 20
-132.4025987082188
 30
0.0
 10
87.25100502376017
 20
-132.4067328228011
 30
0.0
 10
87.25737845040788
 20
-132.4067328228011
 30
0.0
 10
87.29544675551989
 20
-132.4067328228011
 30
0.0
 10
87.29544675551989
 20
-132.4067328228011
 30
0.0
 10
87.52178952890081
 20
-132.4067328228011
 30
0.0
 10
87.52178952890081
 20
-132.4067328228011
 30
0.0
 10
87.55141735007396
 20
-132.4067328228011
 30
0.0
 10
87.71419811175201
 20
-132.4001871413791
 30
0.0
 10
87.72901202233858
 20
-132.398120084088
 30
0.0
 10
87.72901202233858
 20
-132.398120084088
 30
0.0
 10
87.72901202233858
 20
-132.5717528965446
 30
0.0
 10
87.72901202233858
 20
-132.5717528965446
 30
0.0
 10
87.69938420116543
 20
-132.5696858392534
 30
0.0
 10
87.56829831795167
 20
-132.5631401578314
 30
0.0
 10
87.53867049677854
 20
-132.5631401578314
 30
0.0
 10
87.53867049677854
 20
-132.5631401578314
 30
0.0
 10
87.48785533837109
 20
-132.5631401578314
 30
0.0
 10
87.48785533837109
 20
-132.5631401578314
 30
0.0
 10
87.48785533837109
 20
-132.5631401578314
 30
0.0
 10
87.48785533837109
 20
-132.736772970288
 30
0.0
 10
87.48785533837109
 20
-132.736772970288
 30
0.0
 10
87.54711098071739
 20
-132.736772970288
 30
0.0
 10
87.6719956920577
 20
-132.7322943461572
 30
0.0
 10
87.7670803274506
 20
-132.7174804355706
 30
0.0
 10
87.7670803274506
 20
-132.7174804355706
 30
0.0
 10
87.7670803274506
 20
-132.9079942159049
 30
0.0
 10
87.7670803274506
 20
-132.9079942159049
 30
0.0
 10
87.68457029057886
 20
-132.8973144199007
 30
0.0
 10
87.58311222853825
 20
-132.8973144199007
 30
0.0
 10
87.48785533837109
 20
-132.8973144199007
 30
0.0
 10
87.48785533837109
 20
-132.8973144199007
 30
0.0
 10
87.48785533837109
 20
-133.4158012904308
 30
0.0
 10
87.48785533837109
 20
-133.4158012904308
 30
0.0
 10
87.56623126066053
 20
-133.4030544371354
 30
0.0
 10
87.67836911870542
 20
-133.3796277878357
 30
0.0
 10
87.75243867163829
 20
-133.3651583867976
 30
0.0
 10
87.75243867163829
 20
-133.3651583867976
 30
0.0
 10
87.69525008658313
 20
-133.5363796324145
 30
0.0
 10
87.69525008658313
 20
-133.5363796324145
 30
0.0
 10
87.65924883876228
 20
-133.5470594284188
 30
0.0
 10
87.36951630845276
 20
-133.6145832999297
 30
0.0
 10
87.04584958761355
 20
-133.6697048276937
 30
0.0
 10
87.04361027554813
 20
-133.6886528528626
 30
0.0
 10
87.03516979160926
 20
-133.7182806740357
 30
0.0
 10
87.0162217664404
 20
-133.7182806740357
 30
0.0
 10
86.99710148649726
 20
-133.7182806740357
 30
0.0
 10
86.99072805984954
 20
-133.701399706158
 30
0.0
 10
86.98659394526724
 20
-133.6886528528626
 30
0.0
 10
86.98659394526724
 20
-133.6886528528626
 30
0.0
 10
86.91665850691668
 20
-133.4791910473594
 30
0.0
 10
86.91665850691668
 20
-133.4791910473594
 30
0.0
 10
87.079611523369
 20
-133.4729898754859
 30
0.0
 10
87.09442543395556
 20
-133.4709228181948
 30
0.0
 10
87.31439478068877
 20
-133.4412949970216
 30
0.0
 10
87.31439478068877
 20
-133.4412949970216
 30
0.0
 10
87.31439478068877
 20
-132.8973144199007
 30
0.0
 10
87.31439478068877
 20
-132.8973144199007
 30
0.0
 10
87.31439478068877
 20
-132.8973144199007
 30
0.0
 10
87.23619111317359
 20
-132.8973144199007
 30
0.0
 10
87.23619111317359
 20
-132.8973144199007
 30
0.0
 10
87.1493747069453
 20
-132.8973144199007
 30
0.0
 10
87.04584958761355
 20
-132.8973144199007
 30
0.0
 10
86.96540660803296
 20
-132.9079942159049
 30
0.0
 10
86.96540660803296
 20
-132.9079942159049
 30
0.0
 10
86.96540660803296
 20
-132.7174804355706
 30
0.0
 10
86.96540660803296
 20
-132.7174804355706
 30
0.0
 10
87.0754774087867
 20
-132.7347059129969
 30
0.0
 10
87.22551131716932
 20
-132.736772970288
 30
0.0
 10
87.23619111317359
 20
-132.736772970288
 30
0.0
 10
87.23619111317359
 20
-132.736772970288
 30
0.0
 10
87.31439478068877
 20
-132.736772970288
 30
0.0
 10
87.31439478068877
 20
-132.736772970288
 30
0.0
 10
87.31439478068877
 20
-132.736772970288
 30
0.0
 10
87.31439478068877
 20
-132.5631401578314
 30
0.0
 10
87.31439478068877
 20
-132.5631401578314
 30
0.0
 10
87.23825817046475
 20
-132.5631401578314
 30
0.0
 10
87.22344425987816
 20
-132.5652072151226
 30
0.0
 10
87.08598495001671
 20
-132.5758870111269
 30
0.0
 10
87.08598495001671
 20
-132.5758870111269
 30
0.0
 10
87.08598495001671
 20
-132.4828694330251
 30
0.0
 10
87.08598495001671
 20
-132.4828694330251
 30
0.0
 10
87.0754774087867
 20
-132.4911376621897
 30
0.0
 10
87.07117103943013
 20
-132.4956162863205
 30
0.0
 10
87.0542900715524
 20
-132.5104301969071
 30
0.0
 10
87.0542900715524
 20
-132.5104301969071
 30
0.0
 10
86.87445608722236
 20
-132.3877847976322
 30
0.0
 10
86.87445608722236
 20
-132.3877847976322
 30
0.0
 10
86.94008515621637
 20
-132.3454101231636
 30
0.0
 10
87.05205075948699
 20
-132.2713405702308
 30
0.0
 10
87.16005450294958
 20
-132.1466281136647
 30
0.0
 10
87.21086966135701
 20
-132.0873724713184
 30
0.0
 10
87.31439478068877
 20
-131.9519802187481
 30
0.0
 10
87.36090356973963
 20
-131.8207220807601
 30
0.0
 10
87.36090356973963
 20
-131.8207220807601
 30
0.0
 10
87.53867049677854
 20
-131.8820447803976
 30
0.0
 10
87.53867049677854
 20
-131.8820447803976
 30
0.0
 10
87.5534844073651
 20
-131.8861788949798
 30
0.0
 10
87.57260468730824
 20
-131.894791633693
 30
0.0
 10
87.57260468730824
 20
-131.9116726015707
 30
0.0
 10
87.57260468730824
 20
-131.9326876840307
 30
0.0
 10
87.55779077672167
 20
-131.9347547413219
 30
0.0
 10
87.51334904496194
 20
-131.9454345373262
 30
0.0
 10
87.51334904496194
 20
-131.9454345373262
 30
0.0
 10
87.50490856102309
 20
-131.9688611866258
 30
0.0
 10
87.50490856102309
 20
-131.9688611866258
 30
0.0
 10
87.58311222853825
 20
-132.0808267898965
 30
0.0
 10
87.76501327015944
 20
-132.2034721891714
 30
0.0
 10
87.84545624974002
 20
-132.2499809782222
 30
0.0
 10
87.84545624974002
 20
-132.2499809782222
 30
0.0
 10
87.71850448110857
 20
-132.3939859695057
 30
0.0
 10
87.71850448110857
 20
-132.3939859695057
 30
0.0
  0
SPLINE
  5
A6
330
91
100
AcDbEntity
  8
_U+30EC_U+30A4_U+30E4_U+30FC 1
370
     0
100
AcDbSpline
210
0.0
220
0.0
230
1.0
 70
    11
 71
     3
 72
    17
 73
    13
 74
     0
 42
0.0000000001
 43
0.0000000001
 12
1.0
 22
0.0
 32
0.0
 13
1.0
 23
0.0
 33
0.0
 40
0.0
 40
0.0
 40
0.0
 40
0.0
 40
1.0
 40
1.0
 40
1.0
 40
2.0
 40
2.0
 40
2.0
 40
3.0
 40
3.0
 40
3.0
 40
4.0
 40
4.0
 40
4.0
 40
4.0
 10
87.07754446607784
 20
-133.3861734692576
 30
0.0
 10
87.06066349820011
 20
-133.2804090378605
 30
0.0
 10
87.03947616096583
 20
-133.1873914597587
 30
0.0
 10
86.96954072261526
 20
-133.0351182393107
 30
0.0
 10
86.96954072261526
 20
-133.0351182393107
 30
0.0
 10
87.13680010842414
 20
-132.9737955396732
 30
0.0
 10
87.13680010842414
 20
-132.9737955396732
 30
0.0
 10
87.2044962347093
 20
-133.1236571932816
 30
0.0
 10
87.22775062923473
 20
-133.2252875100965
 30
0.0
 10
87.24463159711246
 20
-133.3183050881982
 30
0.0
 10
87.24463159711246
 20
-133.3183050881982
 30
0.0
 10
87.07754446607784
 20
-133.3861734692576
 30
0.0
 10
87.07754446607784
 20
-133.3861734692576
 30
0.0
  0
SPLINE
  5
A7
330
91
100
AcDbEntity
  8
_U+30EC_U+30A4_U+30E4_U+30FC 1
370
     0
100
AcDbSpline
210
0.0
220
0.0
230
1.0
 70
    11
 71
     3
 72
    23
 73
    19
 74
     0
 42
0.0000000001
 43
0.0000000001
 12
1.0
 22
0.0
 32
0.0
 13
1.0
 23
0.0
 33
0.0
 40
0.0
 40
0.0
 40
0.0
 40
0.0
 40
1.0
 40
1.0
 40
1.0
 40
2.0
 40
2.0
 40
2.0
 40
3.0
 40
3.0
 40
3.0
 40
4.0
 40
4.0
 40
4.0
 40
5.0
 40
5.0
 40
5.0
 40
6.0
 40
6.0
 40
6.0
 40
6.0
 10
87.77138669680716
 20
-133.0730142896484
 30
0.0
 10
87.75450572892943
 20
-133.1680989250413
 30
0.0
 10
87.72694496504744
 20
-133.2866102097339
 30
0.0
 10
87.68457029057886
 20
-133.3651583867976
 30
0.0
 10
87.68457029057886
 20
-133.3651583867976
 30
0.0
 10
87.52178952890081
 20
-133.3207166550379
 30
0.0
 10
87.52178952890081
 20
-133.3207166550379
 30
0.0
 10
87.5810451712471
 20
-133.2001383130541
 30
0.0
 10
87.59999319641598
 20
-133.0371852966018
 30
0.0
 10
87.60223250848139
 20
-132.9631157436689
 30
0.0
 10
87.60223250848139
 20
-132.9631157436689
 30
0.0
 10
87.7905069767503
 20
-133.0137586473021
 30
0.0
 10
87.7905069767503
 20
-133.0137586473021
 30
0.0
 10
87.80308157527145
 20
-133.0178927618844
 30
0.0
 10
87.82220185521459
 20
-133.0223713860152
 30
0.0
 10
87.82220185521459
 20
-133.039252353893
 30
0.0
 10
87.82220185521459
 20
-133.0582003790618
 30
0.0
 10
87.80738794462802
 20
-133.0623344936442
 30
0.0
 10
87.77138669680716
 20
-133.0730142896484
 30
0.0
  0
SPLINE
  5
A8
330
91
100
AcDbEntity
  8
_U+30EC_U+30A4_U+30E4_U+30FC 1
370
     0
100
AcDbSpline
210
0.0
220
0.0
230
1.0
 70
    11
 71
     3
 72
   128
 73
   124
 74
     0
 42
0.0000000001
 43
0.0000000001
 12
1.0
 22
0.0
 32
0.0
 13
1.0
 23
0.0
 33
0.0
 40
0.0
 40
0.0
 40
0.0
 40
0.0
 40
1.0
 40
1.0
 40
1.0
 40
2.0
 40
2.0
 40
2.0
 40
3.0
 40
3.0
 40
3.0
 40
4.0
 40
4.0
 40
4.0
 40
5.0
 40
5.0
 40
5.0
 40
6.0
 40
6.0
 40
6.0
 40
7.0
 40
7.0
 40
7.0
 40
8.0
 40
8.0
 40
8.0
 40
9.0
 40
9.0
 40
9.0
 40
10.0
 40
10.0
 40
10.0
 40
11.0
 40
11.0
 40
11.0
 40
12.0
 40
12.0
 40
12.0
 40
13.0
 40
13.0
 40
13.0
 40
14.0
 40
14.0
 40
14.0
 40
15.0
 40
15.0
 40
15.0
 40
16.0
 40
16.0
 40
16.0
 40
17.0
 40
17.0
 40
17.0
 40
18.0
 40
18.0
 40
18.0
 40
19.0
 40
19.0
 40
19.0
 40
20.0
 40
20.0
 40
20.0
 40
21.0
 40
21.0
 40
21.0
 40
22.0
 40
22.0
 40
22.0
 40
23.0
 40
23.0
 40
23.0
 40
24.0
 40
24.0
 40
24.0
 40
25.0
 40
25.0
 40
25.0
 40
26.0
 40
26.0
 40
26.0
 40
27.0
 40
27.0
 40
27.0
 40
28.0
 40
28.0
 40
28.0
 40
29.0
 40
29.0
 40
29.0
 40
30.0
 40
30.0
 40
30.0
 40
31.0
 40
31.0
 40
31.0
 40
32.0
 40
32.0
 40
32.0
 40
33.0
 40
33.0
 40
33.0
 40
34.0
 40
34.0
 40
34.0
 40
35.0
 40
35.0
 40
35.0
 40
36.0
 40
36.0
 40
36.0
 40
37.0
 40
37.0
 40
37.0
 40
38.0
 40
38.0
 40
38.0
 40
39.0
 40
39.0
 40
39.0
 40
40.0
 40
40.0
 40
40.0
 40
41.0
 40
41.0
 40
41.0
 40
41.0
 10
88.76564125385026
 20
-133.7392957564957
 30
0.0
 10
88.57736678558136
 20
-133.6083821280562
 30
0.0
 10
88.46316187024533
 20
-133.4536973407685
 30
0.0
 10
88.3530910694916
 20
-133.1977267462145
 30
0.0
 10
88.31088864979728
 20
-133.3014241203205
 30
0.0
 10
88.262140548681
 20
-133.3882405265488
 30
0.0
 10
88.16481660122268
 20
-133.4898708433637
 30
0.0
 10
88.06749265376438
 20
-133.5890895933389
 30
0.0
 10
87.96172822236721
 20
-133.6800401141494
 30
0.0
 10
87.83701576580117
 20
-133.7417073233354
 30
0.0
 10
87.83701576580117
 20
-133.7417073233354
 30
0.0
 10
87.65080835482341
 20
-133.5828884214654
 30
0.0
 10
87.65080835482341
 20
-133.5828884214654
 30
0.0
 10
87.84752330703118
 20
-133.5194986645368
 30
0.0
 10
87.95966116507606
 20
-133.4536973407685
 30
0.0
 10
88.08661293370751
 20
-133.2824760951516
 30
0.0
 10
88.20719127569126
 20
-133.1195230786993
 30
0.0
 10
88.21993812898668
 20
-133.0178927618844
 30
0.0
 10
88.23251272750785
 20
-132.9079942159049
 30
0.0
 10
88.23251272750785
 20
-132.9079942159049
 30
0.0
 10
88.16274954393154
 20
-132.9079942159049
 30
0.0
 10
88.16274954393154
 20
-132.9079942159049
 30
0.0
 10
88.05267874317781
 20
-132.9079942159049
 30
0.0
 10
87.94071313990719
 20
-132.9145398973269
 30
0.0
 10
87.83064233915346
 20
-132.9269422410738
 30
0.0
 10
87.83064233915346
 20
-132.9269422410738
 30
0.0
 10
87.83064233915346
 20
-132.7198920024103
 30
0.0
 10
87.83064233915346
 20
-132.7198920024103
 30
0.0
 10
87.95328773842834
 20
-132.7322943461572
 30
0.0
 10
88.13312172275839
 20
-132.736772970288
 30
0.0
 10
88.16274954393154
 20
-132.736772970288
 30
0.0
 10
88.16274954393154
 20
-132.736772970288
 30
0.0
 10
88.24732663809442
 20
-132.736772970288
 30
0.0
 10
88.24732663809442
 20
-132.736772970288
 30
0.0
 10
88.24732663809442
 20
-132.736772970288
 30
0.0
 10
88.24732663809442
 20
-132.6943982958195
 30
0.0
 10
88.24732663809442
 20
-132.6943982958195
 30
0.0
 10
88.24732663809442
 20
-132.6943982958195
 30
0.0
 10
88.24732663809442
 20
-132.44669593043
 30
0.0
 10
88.24732663809442
 20
-132.44669593043
 30
0.0
 10
88.24732663809442
 20
-132.44669593043
 30
0.0
 10
88.05061168588665
 20
-132.44669593043
 30
0.0
 10
88.05061168588665
 20
-132.44669593043
 30
0.0
 10
87.99979652747922
 20
-132.5927679790046
 30
0.0
 10
87.98084850231035
 20
-132.6310085388909
 30
0.0
 10
87.93640677055062
 20
-132.6923312385283
 30
0.0
 10
87.93640677055062
 20
-132.6923312385283
 30
0.0
 10
87.72694496504744
 20
-132.6223958001777
 30
0.0
 10
87.72694496504744
 20
-132.6223958001777
 30
0.0
 10
87.94915362384604
 20
-132.370559320206
 30
0.0
 10
87.9512206811372
 20
-132.0236382048413
 30
0.0
 10
87.94691431178063
 20
-131.9581813906216
 30
0.0
 10
87.94691431178063
 20
-131.9581813906216
 30
0.0
 10
88.15637611728383
 20
-132.0005560650901
 30
0.0
 10
88.15637611728383
 20
-132.0005560650901
 30
0.0
 10
88.17756345451811
 20
-132.0046901796725
 30
0.0
 10
88.19031030781353
 20
-132.0112358610944
 30
0.0
 10
88.19031030781353
 20
-132.0236382048413
 30
0.0
 10
88.19031030781353
 20
-132.047064854141
 30
0.0
 10
88.16481660122268
 20
-132.0553330833056
 30
0.0
 10
88.14380151876267
 20
-132.0618787647276
 30
0.0
 10
88.13105466546725
 20
-132.1380153749516
 30
0.0
 10
88.11830781217182
 20
-132.2034721891714
 30
0.0
 10
88.09935978700294
 20
-132.2796087993954
 30
0.0
 10
88.09935978700294
 20
-132.2796087993954
 30
0.0
 10
88.24732663809442
 20
-132.2796087993954
 30
0.0
 10
88.24732663809442
 20
-132.2796087993954
 30
0.0
 10
88.24525958080328
 20
-132.1145887256519
 30
0.0
 10
88.24525958080328
 20
-132.0849609044788
 30
0.0
 10
88.23681909686441
 20
-131.8248561953424
 30
0.0
 10
88.23681909686441
 20
-131.8248561953424
 30
0.0
 10
88.4504150169499
 20
-131.846215787351
 30
0.0
 10
88.4504150169499
 20
-131.846215787351
 30
0.0
 10
88.46953529689304
 20
-131.8482828446421
 30
0.0
 10
88.49485674870962
 20
-131.8503499019332
 30
0.0
 10
88.49485674870962
 20
-131.8713649843933
 30
0.0
 10
88.49485674870962
 20
-131.8861788949798
 30
0.0
 10
88.48848332206191
 20
-131.888245952271
 30
0.0
 10
88.43990747571989
 20
-131.915806716153
 30
0.0
 10
88.43784041842873
 20
-132.0174370329679
 30
0.0
 10
88.43784041842873
 20
-132.178322992129
 30
0.0
 10
88.43560110636332
 20
-132.2796087993954
 30
0.0
 10
88.43560110636332
 20
-132.2796087993954
 30
0.0
 10
88.50123017535734
 20
-132.2796087993954
 30
0.0
 10
88.50123017535734
 20
-132.2796087993954
 30
0.0
 10
88.59855412281564
 20
-132.2796087993954
 30
0.0
 10
88.73825274474252
 20
-132.2734076275219
 30
0.0
 10
88.81215004290114
 20
-132.2692735129396
 30
0.0
 10
88.81215004290114
 20
-132.2692735129396
 30
0.0
 10
88.81215004290114
 20
-132.4594427837254
 30
0.0
 10
88.81215004290114
 20
-132.4594427837254
 30
0.0
 10
88.61336803340222
 20
-132.4491074972697
 30
0.0
 10
88.59218069616793
 20
-132.44669593043
 30
0.0
 10
88.48848332206191
 20
-132.44669593043
 30
0.0
 10
88.48848332206191
 20
-132.44669593043
 30
0.0
 10
88.43560110636332
 20
-132.44669593043
 30
0.0
 10
88.43560110636332
 20
-132.44669593043
 30
0.0
 10
88.43560110636332
 20
-132.44669593043
 30
0.0
 10
88.43560110636332
 20
-132.7050780918237
 30
0.0
 10
88.43560110636332
 20
-132.7050780918237
 30
0.0
 10
88.43560110636332
 20
-132.7050780918237
 30
0.0
 10
88.43560110636332
 20
-132.736772970288
 30
0.0
 10
88.43560110636332
 20
-132.736772970288
 30
0.0
 10
88.43560110636332
 20
-132.736772970288
 30
0.0
 10
88.50760360200505
 20
-132.736772970288
 30
0.0
 10
88.50760360200505
 20
-132.736772970288
 30
0.0
 10
88.61974146004992
 20
-132.736772970288
 30
0.0
 10
88.73394637538597
 20
-132.7322943461572
 30
0.0
 10
88.84608423343084
 20
-132.7198920024103
 30
0.0
 10
88.84608423343084
 20
-132.7198920024103
 30
0.0
 10
88.84608423343084
 20
-132.9269422410738
 30
0.0
 10
88.84608423343084
 20
-132.9269422410738
 30
0.0
 10
88.70018443963052
 20
-132.9100612731961
 30
0.0
 10
88.51397702865276
 20
-132.9079942159049
 30
0.0
 10
88.50760360200505
 20
-132.9079942159049
 30
0.0
 10
88.50760360200505
 20
-132.9079942159049
 30
0.0
 10
88.44404159030219
 20
-132.9079942159049
 30
0.0
 10
88.44404159030219
 20
-132.9079942159049
 30
0.0
 10
88.56048581770364
 20
-133.3034911776116
 30
0.0
 10
88.81438935496655
 20
-133.5256998364102
 30
0.0
 10
88.93703475424144
 20
-133.6063150707651
 30
0.0
 10
88.93703475424144
 20
-133.6063150707651
 30
0.0
 10
88.76564125385026
 20
-133.7392957564957
 30
0.0
 10
88.76564125385026
 20
-133.7392957564957
 30
0.0
  0
HATCH
  5
A9
330
91
100
AcDbEntity
  8
_U+30EC_U+30A4_U+30E4_U+30FC 1
 62
   179
420
  2234388
100
AcDbHatch
 10
0.0
 20
0.0
 30
0.0
210
0.0
220
0.0
230
1.0
  2
SOLID
 70
     1
 71
     0
 91
        4
 92
        1
 93
        1
 72
     4
 94
        3
 73
     0
 74
     1
 95
      125
 96
      121
 40
0.0
 40
0.0
 40
0.0
 40
0.0
 40
1.0
 40
1.0
 40
1.0
 40
2.0
 40
2.0
 40
2.0
 40
3.0
 40
3.0
 40
3.0
 40
4.0
 40
4.0
 40
4.0
 40
5.0
 40
5.0
 40
5.0
 40
6.0
 40
6.0
 40
6.0
 40
7.0
 40
7.0
 40
7.0
 40
8.0
 40
8.0
 40
8.0
 40
9.0
 40
9.0
 40
9.0
 40
10.0
 40
10.0
 40
10.0
 40
11.0
 40
11.0
 40
11.0
 40
12.0
 40
12.0
 40
12.0
 40
13.0
 40
13.0
 40
13.0
 40
14.0
 40
14.0
 40
14.0
 40
15.0
 40
15.0
 40
15.0
 40
16.0
 40
16.0
 40
16.0
 40
17.0
 40
17.0
 40
17.0
 40
18.0
 40
18.0
 40
18.0
 40
19.0
 40
19.0
 40
19.0
 40
20.0
 40
20.0
 40
20.0
 40
21.0
 40
21.0
 40
21.0
 40
22.0
 40
22.0
 40
22.0
 40
23.0
 40
23.0
 40
23.0
 40
24.0
 40
24.0
 40
24.0
 40
25.0
 40
25.0
 40
25.0
 40
26.0
 40
26.0
 40
26.0
 40
27.0
 40
27.0
 40
27.0
 40
28.0
 40
28.0
 40
28.0
 40
29.0
 40
29.0
 40
29.0
 40
30.0
 40
30.0
 40
30.0
 40
31.0
 40
31.0
 40
31.0
 40
32.0
 40
32.0
 40
32.0
 40
33.0
 40
33.0
 40
33.0
 40
34.0
 40
34.0
 40
34.0
 40
35.0
 40
35.0
 40
35.0
 40
36.0
 40
36.0
 40
36.0
 40
37.0
 40
37.0
 40
37.0
 40
38.0
 40
38.0
 40
38.0
 40
39.0
 40
39.0
 40
39.0
 40
40.0
 40
40.0
 40
40.0
 40
40.0
 10
87.71850448110857
 20
-132.3939859695057
 10
87.59155271247711
 20
-132.3261175884463
 10
87.47734779714108
 20
-132.2100178705933
 10
87.40534530149937
 20
-132.1273355789473
 10
87.38846433362164
 20
-132.1466281136647
 10
87.32076820733649
 20
-132.2375786344753
 10
87.3059542967499
 20
-132.2544596023531
 10
87.29320744345448
 20
-132.2692735129396
 10
87.23825817046475
 20
-132.3347303271594
 10
87.17056204417959
 20
-132.4025987082188
 10
87.25100502376017
 20
-132.4067328228011
 10
87.25737845040788
 20
-132.4067328228011
 10
87.29544675551989
 20
-132.4067328228011
 10
87.29544675551989
 20
-132.4067328228011
 10
87.52178952890081
 20
-132.4067328228011
 10
87.52178952890081
 20
-132.4067328228011
 10
87.55141735007396
 20
-132.4067328228011
 10
87.71419811175201
 20
-132.4001871413791
 10
87.72901202233858
 20
-132.398120084088
 10
87.72901202233858
 20
-132.398120084088
 10
87.72901202233858
 20
-132.5717528965446
 10
87.72901202233858
 20
-132.5717528965446
 10
87.69938420116543
 20
-132.5696858392534
 10
87.56829831795167
 20
-132.5631401578314
 10
87.53867049677854
 20
-132.5631401578314
 10
87.53867049677854
 20
-132.5631401578314
 10
87.48785533837109
 20
-132.5631401578314
 10
87.48785533837109
 20
-132.5631401578314
 10
87.48785533837109
 20
-132.5631401578314
 10
87.48785533837109
 20
-132.736772970288
 10
87.48785533837109
 20
-132.736772970288
 10
87.54711098071739
 20
-132.736772970288
 10
87.6719956920577
 20
-132.7322943461572
 10
87.7670803274506
 20
-132.7174804355706
 10
87.7670803274506
 20
-132.7174804355706
 10
87.7670803274506
 20
-132.9079942159049
 10
87.7670803274506
 20
-132.9079942159049
 10
87.68457029057886
 20
-132.8973144199007
 10
87.58311222853825
 20
-132.8973144199007
 10
87.48785533837109
 20
-132.8973144199007
 10
87.48785533837109
 20
-132.8973144199007
 10
87.48785533837109
 20
-133.4158012904308
 10
87.48785533837109
 20
-133.4158012904308
 10
87.56623126066053
 20
-133.4030544371354
 10
87.67836911870542
 20
-133.3796277878357
 10
87.75243867163829
 20
-133.3651583867976
 10
87.75243867163829
 20
-133.3651583867976
 10
87.69525008658313
 20
-133.5363796324145
 10
87.69525008658313
 20
-133.5363796324145
 10
87.65924883876228
 20
-133.5470594284188
 10
87.36951630845276
 20
-133.6145832999297
 10
87.04584958761355
 20
-133.6697048276937
 10
87.04361027554813
 20
-133.6886528528626
 10
87.03516979160926
 20
-133.7182806740357
 10
87.0162217664404
 20
-133.7182806740357
 10
86.99710148649726
 20
-133.7182806740357
 10
86.99072805984954
 20
-133.701399706158
 10
86.98659394526724
 20
-133.6886528528626
 10
86.98659394526724
 20
-133.6886528528626
 10
86.91665850691668
 20
-133.4791910473594
 10
86.91665850691668
 20
-133.4791910473594
 10
87.079611523369
 20
-133.4729898754859
 10
87.09442543395556
 20
-133.4709228181948
 10
87.31439478068877
 20
-133.4412949970216
 10
87.31439478068877
 20
-133.4412949970216
 10
87.31439478068877
 20
-132.8973144199007
 10
87.31439478068877
 20
-132.8973144199007
 10
87.31439478068877
 20
-132.8973144199007
 10
87.23619111317359
 20
-132.8973144199007
 10
87.23619111317359
 20
-132.8973144199007
 10
87.1493747069453
 20
-132.8973144199007
 10
87.04584958761355
 20
-132.8973144199007
 10
86.96540660803296
 20
-132.9079942159049
 10
86.96540660803296
 20
-132.9079942159049
 10
86.96540660803296
 20
-132.7174804355706
 10
86.96540660803296
 20
-132.7174804355706
 10
87.0754774087867
 20
-132.7347059129969
 10
87.22551131716932
 20
-132.736772970288
 10
87.23619111317359
 20
-132.736772970288
 10
87.23619111317359
 20
-132.736772970288
 10
87.31439478068877
 20
-132.736772970288
 10
87.31439478068877
 20
-132.736772970288
 10
87.31439478068877
 20
-132.736772970288
 10
87.31439478068877
 20
-132.5631401578314
 10
87.31439478068877
 20
-132.5631401578314
 10
87.23825817046475
 20
-132.5631401578314
 10
87.22344425987816
 20
-132.5652072151226
 10
87.08598495001671
 20
-132.5758870111269
 10
87.08598495001671
 20
-132.5758870111269
 10
87.08598495001671
 20
-132.4828694330251
 10
87.08598495001671
 20
-132.4828694330251
 10
87.0754774087867
 20
-132.4911376621897
 10
87.07117103943013
 20
-132.4956162863205
 10
87.0542900715524
 20
-132.5104301969071
 10
87.0542900715524
 20
-132.5104301969071
 10
86.87445608722236
 20
-132.3877847976322
 10
86.87445608722236
 20
-132.3877847976322
 10
86.94008515621637
 20
-132.3454101231636
 10
87.05205075948699
 20
-132.2713405702308
 10
87.16005450294958
 20
-132.1466281136647
 10
87.21086966135701
 20
-132.0873724713184
 10
87.31439478068877
 20
-131.9519802187481
 10
87.36090356973963
 20
-131.8207220807601
 10
87.36090356973963
 20
-131.8207220807601
 10
87.53867049677854
 20
-131.8820447803976
 10
87.53867049677854
 20
-131.8820447803976
 10
87.5534844073651
 20
-131.8861788949798
 10
87.57260468730824
 20
-131.894791633693
 10
87.57260468730824
 20
-131.9116726015707
 10
87.57260468730824
 20
-131.9326876840307
 10
87.55779077672167
 20
-131.9347547413219
 10
87.51334904496194
 20
-131.9454345373262
 10
87.51334904496194
 20
-131.9454345373262
 10
87.50490856102309
 20
-131.9688611866258
 10
87.50490856102309
 20
-131.9688611866258
 10
87.58311222853825
 20
-132.0808267898965
 10
87.76501327015944
 20
-132.2034721891714
 10
87.84545624974002
 20
-132.2499809782222
 10
87.84545624974002
 20
-132.2499809782222
 10
87.71850448110857
 20
-132.3939859695057
 10
87.71850448110857
 20
-132.3939859695057
 97
        0
 97
        0
 92
        1
 93
        1
 72
     4
 94
        3
 73
     0
 74
     1
 95
       17
 96
       13
 40
0.0
 40
0.0
 40
0.0
 40
0.0
 40
1.0
 40
1.0
 40
1.0
 40
2.0
 40
2.0
 40
2.0
 40
3.0
 40
3.0
 40
3.0
 40
4.0
 40
4.0
 40
4.0
 40
4.0
 10
87.07754446607784
 20
-133.3861734692576
 10
87.06066349820011
 20
-133.2804090378605
 10
87.03947616096583
 20
-133.1873914597587
 10
86.96954072261526
 20
-133.0351182393107
 10
86.96954072261526
 20
-133.0351182393107
 10
87.13680010842414
 20
-132.9737955396732
 10
87.13680010842414
 20
-132.9737955396732
 10
87.2044962347093
 20
-133.1236571932816
 10
87.22775062923473
 20
-133.2252875100965
 10
87.24463159711246
 20
-133.3183050881982
 10
87.24463159711246
 20
-133.3183050881982
 10
87.07754446607784
 20
-133.3861734692576
 10
87.07754446607784
 20
-133.3861734692576
 97
        0
 97
        0
 92
        1
 93
        1
 72
     4
 94
        3
 73
     0
 74
     1
 95
       23
 96
       19
 40
0.0
 40
0.0
 40
0.0
 40
0.0
 40
1.0
 40
1.0
 40
1.0
 40
2.0
 40
2.0
 40
2.0
 40
3.0
 40
3.0
 40
3.0
 40
4.0
 40
4.0
 40
4.0
 40
5.0
 40
5.0
 40
5.0
 40
6.0
 40
6.0
 40
6.0
 40
6.0
 10
87.77138669680716
 20
-133.0730142896484
 10
87.75450572892943
 20
-133.1680989250413
 10
87.72694496504744
 20
-133.2866102097339
 10
87.68457029057886
 20
-133.3651583867976
 10
87.68457029057886
 20
-133.3651583867976
 10
87.52178952890081
 20
-133.3207166550379
 10
87.52178952890081
 20
-133.3207166550379
 10
87.5810451712471
 20
-133.2001383130541
 10
87.59999319641598
 20
-133.0371852966018
 10
87.60223250848139
 20
-132.9631157436689
 10
87.60223250848139
 20
-132.9631157436689
 10
87.7905069767503
 20
-133.0137586473021
 10
87.7905069767503
 20
-133.0137586473021
 10
87.80308157527145
 20
-133.0178927618844
 10
87.82220185521459
 20
-133.0223713860152
 10
87.82220185521459
 20
-133.039252353893
 10
87.82220185521459
 20
-133.0582003790618
 10
87.80738794462802
 20
-133.0623344936442
 10
87.77138669680716
 20
-133.0730142896484
 97
        0
 97
        0
 92
        1
 93
        1
 72
     4
 94
        3
 73
     0
 74
     1
 95
      128
 96
      124
 40
0.0
 40
0.0
 40
0.0
 40
0.0
 40
1.0
 40
1.0
 40
1.0
 40
2.0
 40
2.0
 40
2.0
 40
3.0
 40
3.0
 40
3.0
 40
4.0
 40
4.0
 40
4.0
 40
5.0
 40
5.0
 40
5.0
 40
6.0
 40
6.0
 40
6.0
 40
7.0
 40
7.0
 40
7.0
 40
8.0
 40
8.0
 40
8.0
 40
9.0
 40
9.0
 40
9.0
 40
10.0
 40
10.0
 40
10.0
 40
11.0
 40
11.0
 40
11.0
 40
12.0
 40
12.0
 40
12.0
 40
13.0
 40
13.0
 40
13.0
 40
14.0
 40
14.0
 40
14.0
 40
15.0
 40
15.0
 40
15.0
 40
16.0
 40
16.0
 40
16.0
 40
17.0
 40
17.0
 40
17.0
 40
18.0
 40
18.0
 40
18.0
 40
19.0
 40
19.0
 40
19.0
 40
20.0
 40
20.0
 40
20.0
 40
21.0
 40
21.0
 40
21.0
 40
22.0
 40
22.0
 40
22.0
 40
23.0
 40
23.0
 40
23.0
 40
24.0
 40
24.0
 40
24.0
 40
25.0
 40
25.0
 40
25.0
 40
26.0
 40
26.0
 40
26.0
 40
27.0
 40
27.0
 40
27.0
 40
28.0
 40
28.0
 40
28.0
 40
29.0
 40
29.0
 40
29.0
 40
30.0
 40
30.0
 40
30.0
 40
31.0
 40
31.0
 40
31.0
 40
32.0
 40
32.0
 40
32.0
 40
33.0
 40
33.0
 40
33.0
 40
34.0
 40
34.0
 40
34.0
 40
35.0
 40
35.0
 40
35.0
 40
36.0
 40
36.0
 40
36.0
 40
37.0
 40
37.0
 40
37.0
 40
38.0
 40
38.0
 40
38.0
 40
39.0
 40
39.0
 40
39.0
 40
40.0
 40
40.0
 40
40.0
 40
41.0
 40
41.0
 40
41.0
 40
41.0
 10
88.76564125385026
 20
-133.7392957564957
 10
88.57736678558136
 20
-133.6083821280562
 10
88.46316187024533
 20
-133.4536973407685
 10
88.3530910694916
 20
-133.1977267462145
 10
88.31088864979728
 20
-133.3014241203205
 10
88.262140548681
 20
-133.3882405265488
 10
88.16481660122268
 20
-133.4898708433637
 10
88.06749265376438
 20
-133.5890895933389
 10
87.96172822236721
 20
-133.6800401141494
 10
87.83701576580117
 20
-133.7417073233354
 10
87.83701576580117
 20
-133.7417073233354
 10
87.65080835482341
 20
-133.5828884214654
 10
87.65080835482341
 20
-133.5828884214654
 10
87.84752330703118
 20
-133.5194986645368
 10
87.95966116507606
 20
-133.4536973407685
 10
88.08661293370751
 20
-133.2824760951516
 10
88.20719127569126
 20
-133.1195230786993
 10
88.21993812898668
 20
-133.0178927618844
 10
88.23251272750785
 20
-132.9079942159049
 10
88.23251272750785
 20
-132.9079942159049
 10
88.16274954393154
 20
-132.9079942159049
 10
88.16274954393154
 20
-132.9079942159049
 10
88.05267874317781
 20
-132.9079942159049
 10
87.94071313990719
 20
-132.9145398973269
 10
87.83064233915346
 20
-132.9269422410738
 10
87.83064233915346
 20
-132.9269422410738
 10
87.83064233915346
 20
-132.7198920024103
 10
87.83064233915346
 20
-132.7198920024103
 10
87.95328773842834
 20
-132.7322943461572
 10
88.13312172275839
 20
-132.736772970288
 10
88.16274954393154
 20
-132.736772970288
 10
88.16274954393154
 20
-132.736772970288
 10
88.24732663809442
 20
-132.736772970288
 10
88.24732663809442
 20
-132.736772970288
 10
88.24732663809442
 20
-132.736772970288
 10
88.24732663809442
 20
-132.6943982958195
 10
88.24732663809442
 20
-132.6943982958195
 10
88.24732663809442
 20
-132.6943982958195
 10
88.24732663809442
 20
-132.44669593043
 10
88.24732663809442
 20
-132.44669593043
 10
88.24732663809442
 20
-132.44669593043
 10
88.05061168588665
 20
-132.44669593043
 10
88.05061168588665
 20
-132.44669593043
 10
87.99979652747922
 20
-132.5927679790046
 10
87.98084850231035
 20
-132.6310085388909
 10
87.93640677055062
 20
-132.6923312385283
 10
87.93640677055062
 20
-132.6923312385283
 10
87.72694496504744
 20
-132.6223958001777
 10
87.72694496504744
 20
-132.6223958001777
 10
87.94915362384604
 20
-132.370559320206
 10
87.9512206811372
 20
-132.0236382048413
 10
87.94691431178063
 20
-131.9581813906216
 10
87.94691431178063
 20
-131.9581813906216
 10
88.15637611728383
 20
-132.0005560650901
 10
88.15637611728383
 20
-132.0005560650901
 10
88.17756345451811
 20
-132.0046901796725
 10
88.19031030781353
 20
-132.0112358610944
 10
88.19031030781353
 20
-132.0236382048413
 10
88.19031030781353
 20
-132.047064854141
 10
88.16481660122268
 20
-132.0553330833056
 10
88.14380151876267
 20
-132.0618787647276
 10
88.13105466546725
 20
-132.1380153749516
 10
88.11830781217182
 20
-132.2034721891714
 10
88.09935978700294
 20
-132.2796087993954
 10
88.09935978700294
 20
-132.2796087993954
 10
88.24732663809442
 20
-132.2796087993954
 10
88.24732663809442
 20
-132.2796087993954
 10
88.24525958080328
 20
-132.1145887256519
 10
88.24525958080328
 20
-132.0849609044788
 10
88.23681909686441
 20
-131.8248561953424
 10
88.23681909686441
 20
-131.8248561953424
 10
88.4504150169499
 20
-131.846215787351
 10
88.4504150169499
 20
-131.846215787351
 10
88.46953529689304
 20
-131.8482828446421
 10
88.49485674870962
 20
-131.8503499019332
 10
88.49485674870962
 20
-131.8713649843933
 10
88.49485674870962
 20
-131.8861788949798
 10
88.48848332206191
 20
-131.888245952271
 10
88.43990747571989
 20
-131.915806716153
 10
88.43784041842873
 20
-132.0174370329679
 10
88.43784041842873
 20
-132.178322992129
 10
88.43560110636332
 20
-132.2796087993954
 10
88.43560110636332
 20
-132.2796087993954
 10
88.50123017535734
 20
-132.2796087993954
 10
88.50123017535734
 20
-132.2796087993954
 10
88.59855412281564
 20
-132.2796087993954
 10
88.73825274474252
 20
-132.2734076275219
 10
88.81215004290114
 20
-132.2692735129396
 10
88.81215004290114
 20
-132.2692735129396
 10
88.81215004290114
 20
-132.4594427837254
 10
88.81215004290114
 20
-132.4594427837254
 10
88.61336803340222
 20
-132.4491074972697
 10
88.59218069616793
 20
-132.44669593043
 10
88.48848332206191
 20
-132.44669593043
 10
88.48848332206191
 20
-132.44669593043
 10
88.43560110636332
 20
-132.44669593043
 10
88.43560110636332
 20
-132.44669593043
 10
88.43560110636332
 20
-132.44669593043
 10
88.43560110636332
 20
-132.7050780918237
 10
88.43560110636332
 20
-132.7050780918237
 10
88.43560110636332
 20
-132.7050780918237
 10
88.43560110636332
 20
-132.736772970288
 10
88.43560110636332
 20
-132.736772970288
 10
88.43560110636332
 20
-132.736772970288
 10
88.50760360200505
 20
-132.736772970288
 10
88.50760360200505
 20
-132.736772970288
 10
88.61974146004992
 20
-132.736772970288
 10
88.73394637538597
 20
-132.7322943461572
 10
88.84608423343084
 20
-132.7198920024103
 10
88.84608423343084
 20
-132.7198920024103
 10
88.84608423343084
 20
-132.9269422410738
 10
88.84608423343084
 20
-132.9269422410738
 10
88.70018443963052
 20
-132.9100612731961
 10
88.51397702865276
 20
-132.9079942159049
 10
88.50760360200505
 20
-132.9079942159049
 10
88.50760360200505
 20
-132.9079942159049
 10
88.44404159030219
 20
-132.9079942159049
 10
88.44404159030219
 20
-132.9079942159049
 10
88.56048581770364
 20
-133.3034911776116
 10
88.81438935496655
 20
-133.5256998364102
 10
88.93703475424144
 20
-133.6063150707651
 10
88.93703475424144
 20
-133.6063150707651
 10
88.76564125385026
 20
-133.7392957564957
 10
88.76564125385026
 20
-133.7392957564957
 97
        0
 97
        0
 75
     2
 76
     1
 98
        0
  0
SPLINE
  5
AA
330
91
100
AcDbEntity
  8
_U+30EC_U+30A4_U+30E4_U+30FC 1
370
     0
100
AcDbSpline
210
0.0
220
0.0
230
1.0
 70
    11
 71
     3
 72
    86
 73
    82
 74
     0
 42
0.0000000001
 43
0.0000000001
 12
1.0
 22
0.0
 32
0.0
 13
1.0
 23
0.0
 33
0.0
 40
0.0
 40
0.0
 40
0.0
 40
0.0
 40
1.0
 40
1.0
 40
1.0
 40
2.0
 40
2.0
 40
2.0
 40
3.0
 40
3.0
 40
3.0
 40
4.0
 40
4.0
 40
4.0
 40
5.0
 40
5.0
 40
5.0
 40
6.0
 40
6.0
 40
6.0
 40
7.0
 40
7.0
 40
7.0
 40
8.0
 40
8.0
 40
8.0
 40
9.0
 40
9.0
 40
9.0
 40
10.0
 40
10.0
 40
10.0
 40
11.0
 40
11.0
 40
11.0
 40
12.0
 40
12.0
 40
12.0
 40
13.0
 40
13.0
 40
13.0
 40
14.0
 40
14.0
 40
14.0
 40
15.0
 40
15.0
 40
15.0
 40
16.0
 40
16.0
 40
16.0
 40
17.0
 40
17.0
 40
17.0
 40
18.0
 40
18.0
 40
18.0
 40
19.0
 40
19.0
 40
19.0
 40
20.0
 40
20.0
 40
20.0
 40
21.0
 40
21.0
 40
21.0
 40
22.0
 40
22.0
 40
22.0
 40
23.0
 40
23.0
 40
23.0
 40
24.0
 40
24.0
 40
24.0
 40
25.0
 40
25.0
 40
25.0
 40
26.0
 40
26.0
 40
26.0
 40
27.0
 40
27.0
 40
27.0
 40
27.0
 10
89.58350692204857
 20
-132.3939859695057
 30
0.0
 10
89.58350692204857
 20
-132.3939859695057
 30
0.0
 10
89.55163978881001
 20
-132.3939859695057
 30
0.0
 10
89.55163978881001
 20
-132.3939859695057
 30
0.0
 10
89.55163978881001
 20
-132.44669593043
 30
0.0
 10
89.59194740598744
 20
-132.5631401578314
 30
0.0
 10
89.63208276839059
 20
-132.6437553921863
 30
0.0
 10
89.70408526403232
 20
-132.7915499885035
 30
0.0
 10
89.79072941548635
 20
-132.8849120761538
 30
0.0
 10
89.83947751660263
 20
-132.935554979787
 30
0.0
 10
89.83947751660263
 20
-132.935554979787
 30
0.0
 10
89.71459280526233
 20
-133.0964409389481
 30
0.0
 10
89.71459280526233
 20
-133.0964409389481
 30
0.0
 10
89.6596435322726
 20
-133.039252353893
 30
0.0
 10
89.61933591509516
 20
-132.9948106221333
 30
0.0
 10
89.55163978881001
 20
-132.8676865987275
 30
0.0
 10
89.55163978881001
 20
-132.8676865987275
 30
0.0
 10
89.55163978881001
 20
-133.0647460604838
 30
0.0
 10
89.55163978881001
 20
-133.0647460604838
 30
0.0
 10
89.55163978881001
 20
-133.2318331915184
 30
0.0
 10
89.55163978881001
 20
-133.3331189987848
 30
0.0
 10
89.5728271260443
 20
-133.7372286992046
 30
0.0
 10
89.5728271260443
 20
-133.7372286992046
 30
0.0
 10
89.34648435266338
 20
-133.7372286992046
 30
0.0
 10
89.34648435266338
 20
-133.7372286992046
 30
0.0
 10
89.36129826324996
 20
-133.5956352747608
 30
0.0
 10
89.37404511654537
 20
-133.1556965812944
 30
0.0
 10
89.37404511654537
 20
-133.0771484042307
 30
0.0
 10
89.37404511654537
 20
-133.0771484042307
 30
0.0
 10
89.37404511654537
 20
-132.8594183695629
 30
0.0
 10
89.37404511654537
 20
-132.8594183695629
 30
0.0
 10
89.30634899026022
 20
-133.0623344936442
 30
0.0
 10
89.2238389533885
 20
-133.1746446064633
 30
0.0
 10
89.15614282710332
 20
-133.2655951272739
 30
0.0
 10
89.15614282710332
 20
-133.2655951272739
 30
0.0
 10
88.96562904676901
 20
-133.163964810459
 30
0.0
 10
88.96562904676901
 20
-133.163964810459
 30
0.0
 10
89.17733016433762
 20
-132.9631157436689
 30
0.0
 10
89.28516165302594
 20
-132.681651442524
 30
0.0
 10
89.33373749936796
 20
-132.3939859695057
 30
0.0
 10
89.24502629062277
 20
-132.3939859695057
 30
0.0
 10
89.15614282710332
 20
-132.398120084088
 30
0.0
 10
89.06932642087503
 20
-132.4108669373834
 30
0.0
 10
89.06932642087503
 20
-132.4108669373834
 30
0.0
 10
89.06932642087503
 20
-132.2034721891714
 30
0.0
 10
89.06932642087503
 20
-132.2034721891714
 30
0.0
 10
89.15820988439448
 20
-132.2182860997579
 30
0.0
 10
89.28929576760824
 20
-132.2203531570491
 30
0.0
 10
89.32753632749451
 20
-132.2203531570491
 30
0.0
 10
89.32753632749451
 20
-132.2203531570491
 30
0.0
 10
89.37404511654537
 20
-132.2203531570491
 30
0.0
 10
89.37404511654537
 20
-132.2203531570491
 30
0.0
 10
89.37180580447998
 20
-132.1717773107071
 30
0.0
 10
89.37180580447998
 20
-131.9519802187481
 30
0.0
 10
89.36973874718882
 20
-131.9075384869884
 30
0.0
 10
89.36973874718882
 20
-131.8651638125198
 30
0.0
 10
89.36973874718882
 20
-131.8524169592244
 30
0.0
 10
89.36560463260652
 20
-131.8141763993381
 30
0.0
 10
89.36560463260652
 20
-131.8141763993381
 30
0.0
 10
89.5728271260443
 20
-131.8269232526335
 30
0.0
 10
89.5728271260443
 20
-131.8269232526335
 30
0.0
 10
89.58350692204857
 20
-131.8269232526335
 30
0.0
 10
89.60676131657401
 20
-131.8289903099247
 30
0.0
 10
89.60676131657401
 20
-131.8482828446421
 30
0.0
 10
89.60676131657401
 20
-131.8713649843933
 30
0.0
 10
89.58126760998316
 20
-131.8820447803976
 30
0.0
 10
89.56008027274888
 20
-131.8927245764018
 30
0.0
 10
89.55801321545772
 20
-131.9264865121573
 30
0.0
 10
89.55387910087542
 20
-132.1738443679982
 30
0.0
 10
89.55387910087542
 20
-132.2203531570491
 30
0.0
 10
89.55387910087542
 20
-132.2203531570491
 30
0.0
 10
89.58350692204857
 20
-132.2203531570491
 30
0.0
 10
89.58350692204857
 20
-132.2203531570491
 30
0.0
 10
89.67015107350261
 20
-132.2203531570491
 30
0.0
 10
89.75903453702205
 20
-132.2162190424668
 30
0.0
 10
89.84361163118493
 20
-132.2034721891714
 30
0.0
 10
89.84361163118493
 20
-132.2034721891714
 30
0.0
 10
89.84361163118493
 20
-132.4108669373834
 30
0.0
 10
89.84361163118493
 20
-132.4108669373834
 30
0.0
 10
89.73147377314005
 20
-132.3939859695057
 30
0.0
 10
89.59401446327858
 20
-132.3939859695057
 30
0.0
 10
89.58350692204857
 20
-132.3939859695057
 30
0.0
  0
SPLINE
  5
AB
330
91
100
AcDbEntity
  8
_U+30EC_U+30A4_U+30E4_U+30FC 1
370
     0
100
AcDbSpline
210
0.0
220
0.0
230
1.0
 70
    11
 71
     3
 72
    80
 73
    76
 74
     0
 42
0.0000000001
 43
0.0000000001
 12
1.0
 22
0.0
 32
0.0
 13
1.0
 23
0.0
 33
0.0
 40
0.0
 40
0.0
 40
0.0
 40
0.0
 40
1.0
 40
1.0
 40
1.0
 40
2.0
 40
2.0
 40
2.0
 40
3.0
 40
3.0
 40
3.0
 40
4.0
 40
4.0
 40
4.0
 40
5.0
 40
5.0
 40
5.0
 40
6.0
 40
6.0
 40
6.0
 40
7.0
 40
7.0
 40
7.0
 40
8.0
 40
8.0
 40
8.0
 40
9.0
 40
9.0
 40
9.0
 40
10.0
 40
10.0
 40
10.0
 40
11.0
 40
11.0
 40
11.0
 40
12.0
 40
12.0
 40
12.0
 40
13.0
 40
13.0
 40
13.0
 40
14.0
 40
14.0
 40
14.0
 40
15.0
 40
15.0
 40
15.0
 40
16.0
 40
16.0
 40
16.0
 40
17.0
 40
17.0
 40
17.0
 40
18.0
 40
18.0
 40
18.0
 40
19.0
 40
19.0
 40
19.0
 40
20.0
 40
20.0
 40
20.0
 40
21.0
 40
21.0
 40
21.0
 40
22.0
 40
22.0
 40
22.0
 40
23.0
 40
23.0
 40
23.0
 40
24.0
 40
24.0
 40
24.0
 40
25.0
 40
25.0
 40
25.0
 40
25.0
 10
90.82098522035031
 20
-133.6907199101537
 30
0.0
 10
90.63908417872912
 20
-133.57014156817
 30
0.0
 10
90.56070825643968
 20
-133.4940049579459
 30
0.0
 10
90.48250458892451
 20
-133.4051214944265
 30
0.0
 10
90.33023136847648
 20
-133.5660074535877
 30
0.0
 10
90.21602645314044
 20
-133.6400770065206
 30
0.0
 10
90.09751516844784
 20
-133.6993326488668
 30
0.0
 10
90.09751516844784
 20
-133.6993326488668
 30
0.0
 10
89.9113077574701
 20
-133.5491264857099
 30
0.0
 10
89.9113077574701
 20
-133.5491264857099
 30
0.0
 10
90.08907468450899
 20
-133.4857367287813
 30
0.0
 10
90.23497447830931
 20
-133.4137342331396
 30
0.0
 10
90.37243378817078
 20
-133.2590494458519
 30
0.0
 10
90.2456542743136
 20
-133.0540662644796
 30
0.0
 10
90.17365177867187
 20
-132.8235893765163
 30
0.0
 10
90.14833032685529
 20
-132.58449974984
 30
0.0
 10
90.14833032685529
 20
-132.58449974984
 30
0.0
 10
90.08476831515242
 20
-132.58449974984
 30
0.0
 10
90.08476831515242
 20
-132.58449974984
 30
0.0
 10
90.08476831515242
 20
-132.58449974984
 30
0.0
 10
90.08476831515242
 20
-132.6733832133594
 30
0.0
 10
90.08476831515242
 20
-132.6733832133594
 30
0.0
 10
90.08476831515242
 20
-132.9100612731961
 30
0.0
 10
90.06582028998355
 20
-133.3923746411311
 30
0.0
 10
89.7927964727775
 20
-133.7076008780314
 30
0.0
 10
89.7927964727775
 20
-133.7076008780314
 30
0.0
 10
89.6045220045086
 20
-133.5956352747608
 30
0.0
 10
89.6045220045086
 20
-133.5956352747608
 30
0.0
 10
89.86686602571037
 20
-133.3692925013799
 30
0.0
 10
89.89856090417467
 20
-133.0178927618844
 30
0.0
 10
89.89856090417467
 20
-132.5738199538357
 30
0.0
 10
89.89856090417467
 20
-132.2417127490576
 30
0.0
 10
89.89442678959237
 20
-132.0281168289721
 30
0.0
 10
89.8859863056535
 20
-131.8779106658153
 30
0.0
 10
89.99175073705068
 20
-131.888245952271
 30
0.0
 10
90.0783948885047
 20
-131.8927245764018
 30
0.0
 10
90.23084036372701
 20
-131.8927245764018
 30
0.0
 10
90.23084036372701
 20
-131.8927245764018
 30
0.0
 10
90.59894881632596
 20
-131.8927245764018
 30
0.0
 10
90.59894881632596
 20
-131.8927245764018
 30
0.0
 10
90.69403345171885
 20
-131.8927245764018
 30
0.0
 10
90.87593449334005
 20
-131.8841118376887
 30
0.0
 10
90.95000404627292
 20
-131.8758436085241
 30
0.0
 10
90.95000404627292
 20
-131.8758436085241
 30
0.0
 10
90.95000404627292
 20
-132.0808267898965
 30
0.0
 10
90.95000404627292
 20
-132.0808267898965
 30
0.0
 10
90.85061304152346
 20
-132.0701469938922
 30
0.0
 10
90.73640812618743
 20
-132.068079936601
 30
0.0
 10
90.50369192615881
 20
-132.068079936601
 30
0.0
 10
90.50369192615881
 20
-132.068079936601
 30
0.0
 10
90.46131725169023
 20
-132.068079936601
 30
0.0
 10
90.46131725169023
 20
-132.068079936601
 30
0.0
 10
90.46131725169023
 20
-132.068079936601
 30
0.0
 10
90.08476831515242
 20
-132.068079936601
 30
0.0
 10
90.08476831515242
 20
-132.068079936601
 30
0.0
 10
90.08476831515242
 20
-132.068079936601
 30
0.0
 10
90.08476831515242
 20
-132.4108669373834
 30
0.0
 10
90.08476831515242
 20
-132.4108669373834
 30
0.0
 10
90.08476831515242
 20
-132.4108669373834
 30
0.0
 10
90.4380628571648
 20
-132.4108669373834
 30
0.0
 10
90.4380628571648
 20
-132.4108669373834
 30
0.0
 10
90.49094507286338
 20
-132.4108669373834
 30
0.0
 10
90.73003469953971
 20
-132.4046657655099
 30
0.0
 10
90.77861054588175
 20
-132.4025987082188
 30
0.0
 10
90.77861054588175
 20
-132.4025987082188
 30
0.0
 10
90.85491941088003
 20
-132.4935492290294
 30
0.0
 10
90.85491941088003
 20
-132.4935492290294
 30
0.0
 10
90.77240937400829
 20
-132.9059271586138
 30
0.0
 10
90.71522078895315
 20
-133.0730142896484
 30
0.0
 10
90.59894881632596
 20
-133.2528482739785
 30
0.0
 10
90.68766002507114
 20
-133.350344476211
 30
0.0
 10
90.78498397252945
 20
-133.438883430182
 30
0.0
 10
90.98600529409379
 20
-133.5363796324145
 30
0.0
 10
90.98600529409379
 20
-133.5363796324145
 30
0.0
 10
90.82098522035031
 20
-133.6907199101537
 30
0.0
 10
90.82098522035031
 20
-133.6907199101537
 30
0.0
  0
SPLINE
  5
AC
330
91
100
AcDbEntity
  8
_U+30EC_U+30A4_U+30E4_U+30FC 1
370
     0
100
AcDbSpline
210
0.0
220
0.0
230
1.0
 70
    11
 71
     3
 72
    14
 73
    10
 74
     0
 42
0.0000000001
 43
0.0000000001
 12
1.0
 22
0.0
 32
0.0
 13
1.0
 23
0.0
 33
0.0
 40
0.0
 40
0.0
 40
0.0
 40
0.0
 40
1.0
 40
1.0
 40
1.0
 40
2.0
 40
2.0
 40
2.0
 40
3.0
 40
3.0
 40
3.0
 40
3.0
 10
90.33436548305878
 20
-132.58449974984
 30
0.0
 10
90.35141870571076
 20
-132.7619221673304
 30
0.0
 10
90.39792749476163
 20
-132.935554979787
 30
0.0
 10
90.48250458892451
 20
-133.0919623148173
 30
0.0
 10
90.52901337797539
 20
-133.0010117940067
 30
0.0
 10
90.60738930026483
 20
-132.8211778096767
 30
0.0
 10
90.63271075208141
 20
-132.58449974984
 30
0.0
 10
90.63271075208141
 20
-132.58449974984
 30
0.0
 10
90.33436548305878
 20
-132.58449974984
 30
0.0
 10
90.33436548305878
 20
-132.58449974984
 30
0.0
  0
HATCH
  5
AD
330
91
100
AcDbEntity
  8
_U+30EC_U+30A4_U+30E4_U+30FC 1
 62
   179
420
  2234388
100
AcDbHatch
 10
0.0
 20
0.0
 30
0.0
210
0.0
220
0.0
230
1.0
  2
SOLID
 70
     1
 71
     0
 91
        3
 92
        1
 93
        1
 72
     4
 94
        3
 73
     0
 74
     1
 95
       86
 96
       82
 40
0.0
 40
0.0
 40
0.0
 40
0.0
 40
1.0
 40
1.0
 40
1.0
 40
2.0
 40
2.0
 40
2.0
 40
3.0
 40
3.0
 40
3.0
 40
4.0
 40
4.0
 40
4.0
 40
5.0
 40
5.0
 40
5.0
 40
6.0
 40
6.0
 40
6.0
 40
7.0
 40
7.0
 40
7.0
 40
8.0
 40
8.0
 40
8.0
 40
9.0
 40
9.0
 40
9.0
 40
10.0
 40
10.0
 40
10.0
 40
11.0
 40
11.0
 40
11.0
 40
12.0
 40
12.0
 40
12.0
 40
13.0
 40
13.0
 40
13.0
 40
14.0
 40
14.0
 40
14.0
 40
15.0
 40
15.0
 40
15.0
 40
16.0
 40
16.0
 40
16.0
 40
17.0
 40
17.0
 40
17.0
 40
18.0
 40
18.0
 40
18.0
 40
19.0
 40
19.0
 40
19.0
 40
20.0
 40
20.0
 40
20.0
 40
21.0
 40
21.0
 40
21.0
 40
22.0
 40
22.0
 40
22.0
 40
23.0
 40
23.0
 40
23.0
 40
24.0
 40
24.0
 40
24.0
 40
25.0
 40
25.0
 40
25.0
 40
26.0
 40
26.0
 40
26.0
 40
27.0
 40
27.0
 40
27.0
 40
27.0
 10
89.58350692204857
 20
-132.3939859695057
 10
89.58350692204857
 20
-132.3939859695057
 10
89.55163978881001
 20
-132.3939859695057
 10
89.55163978881001
 20
-132.3939859695057
 10
89.55163978881001
 20
-132.44669593043
 10
89.59194740598744
 20
-132.5631401578314
 10
89.63208276839059
 20
-132.6437553921863
 10
89.70408526403232
 20
-132.7915499885035
 10
89.79072941548635
 20
-132.8849120761538
 10
89.83947751660263
 20
-132.935554979787
 10
89.83947751660263
 20
-132.935554979787
 10
89.71459280526233
 20
-133.0964409389481
 10
89.71459280526233
 20
-133.0964409389481
 10
89.6596435322726
 20
-133.039252353893
 10
89.61933591509516
 20
-132.9948106221333
 10
89.55163978881001
 20
-132.8676865987275
 10
89.55163978881001
 20
-132.8676865987275
 10
89.55163978881001
 20
-133.0647460604838
 10
89.55163978881001
 20
-133.0647460604838
 10
89.55163978881001
 20
-133.2318331915184
 10
89.55163978881001
 20
-133.3331189987848
 10
89.5728271260443
 20
-133.7372286992046
 10
89.5728271260443
 20
-133.7372286992046
 10
89.34648435266338
 20
-133.7372286992046
 10
89.34648435266338
 20
-133.7372286992046
 10
89.36129826324996
 20
-133.5956352747608
 10
89.37404511654537
 20
-133.1556965812944
 10
89.37404511654537
 20
-133.0771484042307
 10
89.37404511654537
 20
-133.0771484042307
 10
89.37404511654537
 20
-132.8594183695629
 10
89.37404511654537
 20
-132.8594183695629
 10
89.30634899026022
 20
-133.0623344936442
 10
89.2238389533885
 20
-133.1746446064633
 10
89.15614282710332
 20
-133.2655951272739
 10
89.15614282710332
 20
-133.2655951272739
 10
88.96562904676901
 20
-133.163964810459
 10
88.96562904676901
 20
-133.163964810459
 10
89.17733016433762
 20
-132.9631157436689
 10
89.28516165302594
 20
-132.681651442524
 10
89.33373749936796
 20
-132.3939859695057
 10
89.24502629062277
 20
-132.3939859695057
 10
89.15614282710332
 20
-132.398120084088
 10
89.06932642087503
 20
-132.4108669373834
 10
89.06932642087503
 20
-132.4108669373834
 10
89.06932642087503
 20
-132.2034721891714
 10
89.06932642087503
 20
-132.2034721891714
 10
89.15820988439448
 20
-132.2182860997579
 10
89.28929576760824
 20
-132.2203531570491
 10
89.32753632749451
 20
-132.2203531570491
 10
89.32753632749451
 20
-132.2203531570491
 10
89.37404511654537
 20
-132.2203531570491
 10
89.37404511654537
 20
-132.2203531570491
 10
89.37180580447998
 20
-132.1717773107071
 10
89.37180580447998
 20
-131.9519802187481
 10
89.36973874718882
 20
-131.9075384869884
 10
89.36973874718882
 20
-131.8651638125198
 10
89.36973874718882
 20
-131.8524169592244
 10
89.36560463260652
 20
-131.8141763993381
 10
89.36560463260652
 20
-131.8141763993381
 10
89.5728271260443
 20
-131.8269232526335
 10
89.5728271260443
 20
-131.8269232526335
 10
89.58350692204857
 20
-131.8269232526335
 10
89.60676131657401
 20
-131.8289903099247
 10
89.60676131657401
 20
-131.8482828446421
 10
89.60676131657401
 20
-131.8713649843933
 10
89.58126760998316
 20
-131.8820447803976
 10
89.56008027274888
 20
-131.8927245764018
 10
89.55801321545772
 20
-131.9264865121573
 10
89.55387910087542
 20
-132.1738443679982
 10
89.55387910087542
 20
-132.2203531570491
 10
89.55387910087542
 20
-132.2203531570491
 10
89.58350692204857
 20
-132.2203531570491
 10
89.58350692204857
 20
-132.2203531570491
 10
89.67015107350261
 20
-132.2203531570491
 10
89.75903453702205
 20
-132.2162190424668
 10
89.84361163118493
 20
-132.2034721891714
 10
89.84361163118493
 20
-132.2034721891714
 10
89.84361163118493
 20
-132.4108669373834
 10
89.84361163118493
 20
-132.4108669373834
 10
89.73147377314005
 20
-132.3939859695057
 10
89.59401446327858
 20
-132.3939859695057
 10
89.58350692204857
 20
-132.3939859695057
 97
        0
 97
        0
 92
        1
 93
        1
 72
     4
 94
        3
 73
     0
 74
     1
 95
       80
 96
       76
 40
0.0
 40
0.0
 40
0.0
 40
0.0
 40
1.0
 40
1.0
 40
1.0
 40
2.0
 40
2.0
 40
2.0
 40
3.0
 40
3.0
 40
3.0
 40
4.0
 40
4.0
 40
4.0
 40
5.0
 40
5.0
 40
5.0
 40
6.0
 40
6.0
 40
6.0
 40
7.0
 40
7.0
 40
7.0
 40
8.0
 40
8.0
 40
8.0
 40
9.0
 40
9.0
 40
9.0
 40
10.0
 40
10.0
 40
10.0
 40
11.0
 40
11.0
 40
11.0
 40
12.0
 40
12.0
 40
12.0
 40
13.0
 40
13.0
 40
13.0
 40
14.0
 40
14.0
 40
14.0
 40
15.0
 40
15.0
 40
15.0
 40
16.0
 40
16.0
 40
16.0
 40
17.0
 40
17.0
 40
17.0
 40
18.0
 40
18.0
 40
18.0
 40
19.0
 40
19.0
 40
19.0
 40
20.0
 40
20.0
 40
20.0
 40
21.0
 40
21.0
 40
21.0
 40
22.0
 40
22.0
 40
22.0
 40
23.0
 40
23.0
 40
23.0
 40
24.0
 40
24.0
 40
24.0
 40
25.0
 40
25.0
 40
25.0
 40
25.0
 10
90.82098522035031
 20
-133.6907199101537
 10
90.63908417872912
 20
-133.57014156817
 10
90.56070825643968
 20
-133.4940049579459
 10
90.48250458892451
 20
-133.4051214944265
 10
90.33023136847648
 20
-133.5660074535877
 10
90.21602645314044
 20
-133.6400770065206
 10
90.09751516844784
 20
-133.6993326488668
 10
90.09751516844784
 20
-133.6993326488668
 10
89.9113077574701
 20
-133.5491264857099
 10
89.9113077574701
 20
-133.5491264857099
 10
90.08907468450899
 20
-133.4857367287813
 10
90.23497447830931
 20
-133.4137342331396
 10
90.37243378817078
 20
-133.2590494458519
 10
90.2456542743136
 20
-133.0540662644796
 10
90.17365177867187
 20
-132.8235893765163
 10
90.14833032685529
 20
-132.58449974984
 10
90.14833032685529
 20
-132.58449974984
 10
90.08476831515242
 20
-132.58449974984
 10
90.08476831515242
 20
-132.58449974984
 10
90.08476831515242
 20
-132.58449974984
 10
90.08476831515242
 20
-132.6733832133594
 10
90.08476831515242
 20
-132.6733832133594
 10
90.08476831515242
 20
-132.9100612731961
 10
90.06582028998355
 20
-133.3923746411311
 10
89.7927964727775
 20
-133.7076008780314
 10
89.7927964727775
 20
-133.7076008780314
 10
89.6045220045086
 20
-133.5956352747608
 10
89.6045220045086
 20
-133.5956352747608
 10
89.86686602571037
 20
-133.3692925013799
 10
89.89856090417467
 20
-133.0178927618844
 10
89.89856090417467
 20
-132.5738199538357
 10
89.89856090417467
 20
-132.2417127490576
 10
89.89442678959237
 20
-132.0281168289721
 10
89.8859863056535
 20
-131.8779106658153
 10
89.99175073705068
 20
-131.888245952271
 10
90.0783948885047
 20
-131.8927245764018
 10
90.23084036372701
 20
-131.8927245764018
 10
90.23084036372701
 20
-131.8927245764018
 10
90.59894881632596
 20
-131.8927245764018
 10
90.59894881632596
 20
-131.8927245764018
 10
90.69403345171885
 20
-131.8927245764018
 10
90.87593449334005
 20
-131.8841118376887
 10
90.95000404627292
 20
-131.8758436085241
 10
90.95000404627292
 20
-131.8758436085241
 10
90.95000404627292
 20
-132.0808267898965
 10
90.95000404627292
 20
-132.0808267898965
 10
90.85061304152346
 20
-132.0701469938922
 10
90.73640812618743
 20
-132.068079936601
 10
90.50369192615881
 20
-132.068079936601
 10
90.50369192615881
 20
-132.068079936601
 10
90.46131725169023
 20
-132.068079936601
 10
90.46131725169023
 20
-132.068079936601
 10
90.46131725169023
 20
-132.068079936601
 10
90.08476831515242
 20
-132.068079936601
 10
90.08476831515242
 20
-132.068079936601
 10
90.08476831515242
 20
-132.068079936601
 10
90.08476831515242
 20
-132.4108669373834
 10
90.08476831515242
 20
-132.4108669373834
 10
90.08476831515242
 20
-132.4108669373834
 10
90.4380628571648
 20
-132.4108669373834
 10
90.4380628571648
 20
-132.4108669373834
 10
90.49094507286338
 20
-132.4108669373834
 10
90.73003469953971
 20
-132.4046657655099
 10
90.77861054588175
 20
-132.4025987082188
 10
90.77861054588175
 20
-132.4025987082188
 10
90.85491941088003
 20
-132.4935492290294
 10
90.85491941088003
 20
-132.4935492290294
 10
90.77240937400829
 20
-132.9059271586138
 10
90.71522078895315
 20
-133.0730142896484
 10
90.59894881632596
 20
-133.2528482739785
 10
90.68766002507114
 20
-133.350344476211
 10
90.78498397252945
 20
-133.438883430182
 10
90.98600529409379
 20
-133.5363796324145
 10
90.98600529409379
 20
-133.5363796324145
 10
90.82098522035031
 20
-133.6907199101537
 10
90.82098522035031
 20
-133.6907199101537
 97
        0
 97
        0
 92
        1
 93
        1
 72
     4
 94
        3
 73
     0
 74
     1
 95
       14
 96
       10
 40
0.0
 40
0.0
 40
0.0
 40
0.0
 40
1.0
 40
1.0
 40
1.0
 40
2.0
 40
2.0
 40
2.0
 40
3.0
 40
3.0
 40
3.0
 40
3.0
 10
90.33436548305878
 20
-132.58449974984
 10
90.35141870571076
 20
-132.7619221673304
 10
90.39792749476163
 20
-132.935554979787
 10
90.48250458892451
 20
-133.0919623148173
 10
90.52901337797539
 20
-133.0010117940067
 10
90.60738930026483
 20
-132.8211778096767
 10
90.63271075208141
 20
-132.58449974984
 10
90.63271075208141
 20
-132.58449974984
 10
90.33436548305878
 20
-132.58449974984
 10
90.33436548305878
 20
-132.58449974984
 97
        0
 97
        0
 75
     2
 76
     1
 98
        0
  0
SPLINE
  5
AE
330
91
100
AcDbEntity
  8
_U+30EC_U+30A4_U+30E4_U+30FC 1
370
     0
100
AcDbSpline
210
0.0
220
0.0
230
1.0
 70
    11
 71
     3
 72
    53
 73
    49
 74
     0
 42
0.0000000001
 43
0.0000000001
 12
1.0
 22
0.0
 32
0.0
 13
1.0
 23
0.0
 33
0.0
 40
0.0
 40
0.0
 40
0.0
 40
0.0
 40
1.0
 40
1.0
 40
1.0
 40
2.0
 40
2.0
 40
2.0
 40
3.0
 40
3.0
 40
3.0
 40
4.0
 40
4.0
 40
4.0
 40
5.0
 40
5.0
 40
5.0
 40
6.0
 40
6.0
 40
6.0
 40
7.0
 40
7.0
 40
7.0
 40
8.0
 40
8.0
 40
8.0
 40
9.0
 40
9.0
 40
9.0
 40
10.0
 40
10.0
 40
10.0
 40
11.0
 40
11.0
 40
11.0
 40
12.0
 40
12.0
 40
12.0
 40
13.0
 40
13.0
 40
13.0
 40
14.0
 40
14.0
 40
14.0
 40
15.0
 40
15.0
 40
15.0
 40
16.0
 40
16.0
 40
16.0
 40
16.0
 10
91.54135468631605
 20
-133.6335313250986
 30
0.0
 10
91.351013160756
 20
-133.6335313250986
 30
0.0
 10
91.29175751840971
 20
-133.5088188685325
 30
0.0
 10
91.29175751840971
 20
-133.3606797626668
 30
0.0
 10
91.29175751840971
 20
-133.3606797626668
 30
0.0
 10
91.29175751840971
 20
-132.6668375319375
 30
0.0
 10
91.29175751840971
 20
-132.6668375319375
 30
0.0
 10
91.29175751840971
 20
-132.6668375319375
 30
0.0
 10
91.10985647678851
 20
-132.6668375319375
 30
0.0
 10
91.10985647678851
 20
-132.6668375319375
 30
0.0
 10
91.10985647678851
 20
-132.6668375319375
 30
0.0
 10
91.10985647678851
 20
-132.474256694312
 30
0.0
 10
91.10985647678851
 20
-132.474256694312
 30
0.0
 10
91.10985647678851
 20
-132.474256694312
 30
0.0
 10
91.29175751840971
 20
-132.474256694312
 30
0.0
 10
91.29175751840971
 20
-132.474256694312
 30
0.0
 10
91.29175751840971
 20
-132.474256694312
 30
0.0
 10
91.29175751840971
 20
-132.1590304574116
 30
0.0
 10
91.29175751840971
 20
-132.1590304574116
 30
0.0
 10
91.29175751840971
 20
-132.1590304574116
 30
0.0
 10
91.50965980785176
 20
-132.1590304574116
 30
0.0
 10
91.50965980785176
 20
-132.1590304574116
 30
0.0
 10
91.50965980785176
 20
-132.1590304574116
 30
0.0
 10
91.50965980785176
 20
-132.474256694312
 30
0.0
 10
91.50965980785176
 20
-132.474256694312
 30
0.0
 10
91.50965980785176
 20
-132.474256694312
 30
0.0
 10
91.70017358818608
 20
-132.474256694312
 30
0.0
 10
91.70017358818608
 20
-132.474256694312
 30
0.0
 10
91.70017358818608
 20
-132.474256694312
 30
0.0
 10
91.70017358818608
 20
-132.6668375319375
 30
0.0
 10
91.70017358818608
 20
-132.6668375319375
 30
0.0
 10
91.70017358818608
 20
-132.6668375319375
 30
0.0
 10
91.50965980785176
 20
-132.6668375319375
 30
0.0
 10
91.50965980785176
 20
-132.6668375319375
 30
0.0
 10
91.50965980785176
 20
-132.6668375319375
 30
0.0
 10
91.50965980785176
 20
-133.3355305656245
 30
0.0
 10
91.50965980785176
 20
-133.3355305656245
 30
0.0
 10
91.50965980785176
 20
-133.4199354050131
 30
0.0
 10
91.5627142783246
 20
-133.4433620543128
 30
0.0
 10
91.6343722644178
 20
-133.4433620543128
 30
0.0
 10
91.64505206042207
 20
-133.4433620543128
 30
0.0
 10
91.66847870972177
 20
-133.4433620543128
 30
0.0
 10
91.70017358818608
 20
-133.438883430182
 30
0.0
 10
91.70017358818608
 20
-133.438883430182
 30
0.0
 10
91.70017358818608
 20
-133.6104491853474
 30
0.0
 10
91.70017358818608
 20
-133.6104491853474
 30
0.0
 10
91.66641165243063
 20
-133.6231960386428
 30
0.0
 10
91.59234209949776
 20
-133.6335313250986
 30
0.0
 10
91.54135468631605
 20
-133.6335313250986
 30
0.0
  0
HATCH
  5
AF
330
91
100
AcDbEntity
  8
_U+30EC_U+30A4_U+30E4_U+30FC 1
 62
   179
420
  2234388
100
AcDbHatch
 10
0.0
 20
0.0
 30
0.0
210
0.0
220
0.0
230
1.0
  2
SOLID
 70
     1
 71
     0
 91
        1
 92
        1
 93
        1
 72
     4
 94
        3
 73
     0
 74
     1
 95
       53
 96
       49
 40
0.0
 40
0.0
 40
0.0
 40
0.0
 40
1.0
 40
1.0
 40
1.0
 40
2.0
 40
2.0
 40
2.0
 40
3.0
 40
3.0
 40
3.0
 40
4.0
 40
4.0
 40
4.0
 40
5.0
 40
5.0
 40
5.0
 40
6.0
 40
6.0
 40
6.0
 40
7.0
 40
7.0
 40
7.0
 40
8.0
 40
8.0
 40
8.0
 40
9.0
 40
9.0
 40
9.0
 40
10.0
 40
10.0
 40
10.0
 40
11.0
 40
11.0
 40
11.0
 40
12.0
 40
12.0
 40
12.0
 40
13.0
 40
13.0
 40
13.0
 40
14.0
 40
14.0
 40
14.0
 40
15.0
 40
15.0
 40
15.0
 40
16.0
 40
16.0
 40
16.0
 40
16.0
 10
91.54135468631605
 20
-133.6335313250986
 10
91.351013160756
 20
-133.6335313250986
 10
91.29175751840971
 20
-133.5088188685325
 10
91.29175751840971
 20
-133.3606797626668
 10
91.29175751840971
 20
-133.3606797626668
 10
91.29175751840971
 20
-132.6668375319375
 10
91.29175751840971
 20
-132.6668375319375
 10
91.29175751840971
 20
-132.6668375319375
 10
91.10985647678851
 20
-132.6668375319375
 10
91.10985647678851
 20
-132.6668375319375
 10
91.10985647678851
 20
-132.6668375319375
 10
91.10985647678851
 20
-132.474256694312
 10
91.10985647678851
 20
-132.474256694312
 10
91.10985647678851
 20
-132.474256694312
 10
91.29175751840971
 20
-132.474256694312
 10
91.29175751840971
 20
-132.474256694312
 10
91.29175751840971
 20
-132.474256694312
 10
91.29175751840971
 20
-132.1590304574116
 10
91.29175751840971
 20
-132.1590304574116
 10
91.29175751840971
 20
-132.1590304574116
 10
91.50965980785176
 20
-132.1590304574116
 10
91.50965980785176
 20
-132.1590304574116
 10
91.50965980785176
 20
-132.1590304574116
 10
91.50965980785176
 20
-132.474256694312
 10
91.50965980785176
 20
-132.474256694312
 10
91.50965980785176
 20
-132.474256694312
 10
91.70017358818608
 20
-132.474256694312
 10
91.70017358818608
 20
-132.474256694312
 10
91.70017358818608
 20
-132.474256694312
 10
91.70017358818608
 20
-132.6668375319375
 10
91.70017358818608
 20
-132.6668375319375
 10
91.70017358818608
 20
-132.6668375319375
 10
91.50965980785176
 20
-132.6668375319375
 10
91.50965980785176
 20
-132.6668375319375
 10
91.50965980785176
 20
-132.6668375319375
 10
91.50965980785176
 20
-133.3355305656245
 10
91.50965980785176
 20
-133.3355305656245
 10
91.50965980785176
 20
-133.4199354050131
 10
91.5627142783246
 20
-133.4433620543128
 10
91.6343722644178
 20
-133.4433620543128
 10
91.64505206042207
 20
-133.4433620543128
 10
91.66847870972177
 20
-133.4433620543128
 10
91.70017358818608
 20
-133.438883430182
 10
91.70017358818608
 20
-133.438883430182
 10
91.70017358818608
 20
-133.6104491853474
 10
91.70017358818608
 20
-133.6104491853474
 10
91.66641165243063
 20
-133.6231960386428
 10
91.59234209949776
 20
-133.6335313250986
 10
91.54135468631605
 20
-133.6335313250986
 97
        0
 97
        0
 75
     2
 76
     1
 98
        0
  0
POLYLINE
  5
B0
330
91
100
AcDbEntity
  8
_U+30EC_U+30A4_U+30E4_U+30FC 1
370
     0
100
AcDb2dPolyline
 66
     1
 10
0.0
 20
0.0
 30
0.0
  0
VERTEX
  5
B1
330
B0
100
AcDbEntity
  8
_U+30EC_U+30A4_U+30E4_U+30FC 1
370
     0
100
AcDbVertex
100
AcDb2dVertex
 10
91.87380640064266
 20
-132.6964653531106
 30
0.0
  0
VERTEX
  5
B2
330
B0
100
AcDbEntity
  8
_U+30EC_U+30A4_U+30E4_U+30FC 1
370
     0
100
AcDbVertex
100
AcDb2dVertex
 10
91.87380640064266
 20
-132.4911376621897
 30
0.0
  0
VERTEX
  5
B3
330
B0
100
AcDbEntity
  8
_U+30EC_U+30A4_U+30E4_U+30FC 1
370
     0
100
AcDbVertex
100
AcDb2dVertex
 10
93.05237356614663
 20
-132.4911376621897
 30
0.0
  0
VERTEX
  5
B4
330
B0
100
AcDbEntity
  8
_U+30EC_U+30A4_U+30E4_U+30FC 1
370
     0
100
AcDbVertex
100
AcDb2dVertex
 10
93.05237356614663
 20
-132.6964653531106
 30
0.0
  0
VERTEX
  5
B5
330
B0
100
AcDbEntity
  8
_U+30EC_U+30A4_U+30E4_U+30FC 1
370
     0
100
AcDbVertex
100
AcDb2dVertex
 10
91.87380640064266
 20
-132.6964653531106
 30
0.0
  0
SEQEND
  5
B6
330
B0
100
AcDbEntity
  8
_U+30EC_U+30A4_U+30E4_U+30FC 1
370
     0
  0
POLYLINE
  5
B7
330
91
100
AcDbEntity
  8
_U+30EC_U+30A4_U+30E4_U+30FC 1
370
     0
100
AcDb2dPolyline
 66
     1
 10
0.0
 20
0.0
 30
0.0
  0
VERTEX
  5
B8
330
B7
100
AcDbEntity
  8
_U+30EC_U+30A4_U+30E4_U+30FC 1
370
     0
100
AcDbVertex
100
AcDb2dVertex
 10
91.87380640064266
 20
-133.1302028747036
 30
0.0
  0
VERTEX
  5
B9
330
B7
100
AcDbEntity
  8
_U+30EC_U+30A4_U+30E4_U+30FC 1
370
     0
100
AcDbVertex
100
AcDb2dVertex
 10
91.87380640064266
 20
-132.9248751837827
 30
0.0
  0
VERTEX
  5
BA
330
B7
100
AcDbEntity
  8
_U+30EC_U+30A4_U+30E4_U+30FC 1
370
     0
100
AcDbVertex
100
AcDb2dVertex
 10
93.05237356614663
 20
-132.9248751837827
 30
0.0
  0
VERTEX
  5
BB
330
B7
100
AcDbEntity
  8
_U+30EC_U+30A4_U+30E4_U+30FC 1
370
     0
100
AcDbVertex
100
AcDb2dVertex
 10
93.05237356614663
 20
-133.1302028747036
 30
0.0
  0
VERTEX
  5
BC
330
B7
100
AcDbEntity
  8
_U+30EC_U+30A4_U+30E4_U+30FC 1
370
     0
100
AcDbVertex
100
AcDb2dVertex
 10
91.87380640064266
 20
-133.1302028747036
 30
0.0
  0
SEQEND
  5
BD
330
B7
100
AcDbEntity
  8
_U+30EC_U+30A4_U+30E4_U+30FC 1
370
     0
  0
HATCH
  5
BE
330
91
100
AcDbEntity
  8
_U+30EC_U+30A4_U+30E4_U+30FC 1
 62
   179
420
  2234388
100
AcDbHatch
 10
0.0
 20
0.0
 30
0.0
210
0.0
220
0.0
230
1.0
  2
SOLID
 70
     1
 71
     0
 91
        2
 92
        1
 93
        4
 72
     1
 10
91.87380640064266
 20
-132.6964653531106
 11
91.87380640064266
 21
-132.4911376621897
 72
     1
 10
91.87380640064266
 20
-132.4911376621897
 11
93.05237356614663
 21
-132.4911376621897
 72
     1
 10
93.05237356614663
 20
-132.4911376621897
 11
93.05237356614663
 21
-132.6964653531106
 72
     1
 10
93.05237356614663
 20
-132.6964653531106
 11
91.87380640064266
 21
-132.6964653531106
 97
        0
 92
        1
 93
        4
 72
     1
 10
91.87380640064266
 20
-133.1302028747036
 11
91.87380640064266
 21
-132.9248751837827
 72
     1
 10
91.87380640064266
 20
-132.9248751837827
 11
93.05237356614663
 21
-132.9248751837827
 72
     1
 10
93.05237356614663
 20
-132.9248751837827
 11
93.05237356614663
 21
-133.1302028747036
 72
     1
 10
93.05237356614663
 20
-133.1302028747036
 11
91.87380640064266
 21
-133.1302028747036
 97
        0
 75
     2
 76
     1
 98
        0
  0
SPLINE
  5
BF
330
91
100
AcDbEntity
  8
_U+30EC_U+30A4_U+30E4_U+30FC 1
370
     0
100
AcDbSpline
210
0.0
220
0.0
230
1.0
 70
    11
 71
     3
 72
    29
 73
    25
 74
     0
 42
0.0000000001
 43
0.0000000001
 12
1.0
 22
0.0
 32
0.0
 13
1.0
 23
0.0
 33
0.0
 40
0.0
 40
0.0
 40
0.0
 40
0.0
 40
1.0
 40
1.0
 40
1.0
 40
2.0
 40
2.0
 40
2.0
 40
3.0
 40
3.0
 40
3.0
 40
4.0
 40
4.0
 40
4.0
 40
5.0
 40
5.0
 40
5.0
 40
6.0
 40
6.0
 40
6.0
 40
7.0
 40
7.0
 40
7.0
 40
8.0
 40
8.0
 40
8.0
 40
8.0
 10
94.17409665614397
 20
-133.4051214944265
 30
0.0
 10
94.06626516745565
 20
-133.6145832999297
 30
0.0
 10
93.89297686454759
 20
-133.6335313250986
 30
0.0
 10
93.77653263714615
 20
-133.6335313250986
 30
0.0
 10
93.61564667798498
 20
-133.6335313250986
 30
0.0
 10
93.47405325354121
 20
-133.5870225360477
 30
0.0
 10
93.37896861814832
 20
-133.4051214944265
 30
0.0
 10
93.2752712440423
 20
-133.2104735995099
 30
0.0
 10
93.25597870932489
 20
-132.9737955396732
 30
0.0
 10
93.25597870932489
 20
-132.8108425232209
 30
0.0
 10
93.25597870932489
 20
-132.6668375319375
 30
0.0
 10
93.27320418675114
 20
-132.4150010519657
 30
0.0
 10
93.37896861814832
 20
-132.2162190424668
 30
0.0
 10
93.48680010683664
 20
-132.0133029183856
 30
0.0
 10
93.64734155644928
 20
-131.9898762690859
 30
0.0
 10
93.77653263714615
 20
-131.9898762690859
 30
0.0
 10
93.93535153901617
 20
-131.9898762690859
 30
0.0
 10
94.07901202075108
 20
-132.0343180008456
 30
0.0
 10
94.17409665614397
 20
-132.2162190424668
 30
0.0
 10
94.27365991566771
 20
-132.4087998800923
 30
0.0
 10
94.2970865649674
 20
-132.6372097107643
 30
0.0
 10
94.2970865649674
 20
-132.8108425232209
 30
0.0
 10
94.2970865649674
 20
-132.9820637688378
 30
0.0
 10
94.27572697295885
 20
-133.212540656801
 30
0.0
 10
94.17409665614397
 20
-133.4051214944265
 30
0.0
  0
SPLINE
  5
C0
330
91
100
AcDbEntity
  8
_U+30EC_U+30A4_U+30E4_U+30FC 1
370
     0
100
AcDbSpline
210
0.0
220
0.0
230
1.0
 70
    11
 71
     3
 72
    17
 73
    13
 74
     0
 42
0.0000000001
 43
0.0000000001
 12
1.0
 22
0.0
 32
0.0
 13
1.0
 23
0.0
 33
0.0
 40
0.0
 40
0.0
 40
0.0
 40
0.0
 40
1.0
 40
1.0
 40
1.0
 40
2.0
 40
2.0
 40
2.0
 40
3.0
 40
3.0
 40
3.0
 40
4.0
 40
4.0
 40
4.0
 40
4.0
 10
93.77653263714615
 20
-132.1824571067113
 30
0.0
 10
93.52676321446553
 20
-132.1824571067113
 30
0.0
 10
93.48025442541466
 20
-132.4659884651474
 30
0.0
 10
93.48025442541466
 20
-132.8108425232209
 30
0.0
 10
93.48025442541466
 20
-133.1302028747036
 30
0.0
 10
93.51642792800979
 20
-133.438883430182
 30
0.0
 10
93.77653263714615
 20
-133.438883430182
 30
0.0
 10
94.02389049298709
 20
-133.438883430182
 30
0.0
 10
94.07281084887764
 20
-133.1577636385856
 30
0.0
 10
94.07281084887764
 20
-132.8108425232209
 30
0.0
 10
94.07281084887764
 20
-132.4911376621897
 30
0.0
 10
94.03457028899136
 20
-132.1824571067113
 30
0.0
 10
93.77653263714615
 20
-132.1824571067113
 30
0.0
  0
HATCH
  5
C1
330
91
100
AcDbEntity
  8
_U+30EC_U+30A4_U+30E4_U+30FC 1
 62
   179
420
  2234388
100
AcDbHatch
 10
0.0
 20
0.0
 30
0.0
210
0.0
220
0.0
230
1.0
  2
SOLID
 70
     1
 71
     0
 91
        2
 92
        1
 93
        1
 72
     4
 94
        3
 73
     0
 74
     1
 95
       29
 96
       25
 40
0.0
 40
0.0
 40
0.0
 40
0.0
 40
1.0
 40
1.0
 40
1.0
 40
2.0
 40
2.0
 40
2.0
 40
3.0
 40
3.0
 40
3.0
 40
4.0
 40
4.0
 40
4.0
 40
5.0
 40
5.0
 40
5.0
 40
6.0
 40
6.0
 40
6.0
 40
7.0
 40
7.0
 40
7.0
 40
8.0
 40
8.0
 40
8.0
 40
8.0
 10
94.17409665614397
 20
-133.4051214944265
 10
94.06626516745565
 20
-133.6145832999297
 10
93.89297686454759
 20
-133.6335313250986
 10
93.77653263714615
 20
-133.6335313250986
 10
93.61564667798498
 20
-133.6335313250986
 10
93.47405325354121
 20
-133.5870225360477
 10
93.37896861814832
 20
-133.4051214944265
 10
93.2752712440423
 20
-133.2104735995099
 10
93.25597870932489
 20
-132.9737955396732
 10
93.25597870932489
 20
-132.8108425232209
 10
93.25597870932489
 20
-132.6668375319375
 10
93.27320418675114
 20
-132.4150010519657
 10
93.37896861814832
 20
-132.2162190424668
 10
93.48680010683664
 20
-132.0133029183856
 10
93.64734155644928
 20
-131.9898762690859
 10
93.77653263714615
 20
-131.9898762690859
 10
93.93535153901617
 20
-131.9898762690859
 10
94.07901202075108
 20
-132.0343180008456
 10
94.17409665614397
 20
-132.2162190424668
 10
94.27365991566771
 20
-132.4087998800923
 10
94.2970865649674
 20
-132.6372097107643
 10
94.2970865649674
 20
-132.8108425232209
 10
94.2970865649674
 20
-132.9820637688378
 10
94.27572697295885
 20
-133.212540656801
 10
94.17409665614397
 20
-133.4051214944265
 97
        0
 97
        0
 92
        1
 93
        1
 72
     4
 94
        3
 73
     0
 74
     1
 95
       17
 96
       13
 40
0.0
 40
0.0
 40
0.0
 40
0.0
 40
1.0
 40
1.0
 40
1.0
 40
2.0
 40
2.0
 40
2.0
 40
3.0
 40
3.0
 40
3.0
 40
4.0
 40
4.0
 40
4.0
 40
4.0
 10
93.77653263714615
 20
-132.1824571067113
 10
93.52676321446553
 20
-132.1824571067113
 10
93.48025442541466
 20
-132.4659884651474
 10
93.48025442541466
 20
-132.8108425232209
 10
93.48025442541466
 20
-133.1302028747036
 10
93.51642792800979
 20
-133.438883430182
 10
93.77653263714615
 20
-133.438883430182
 10
94.02389049298709
 20
-133.438883430182
 10
94.07281084887764
 20
-133.1577636385856
 10
94.07281084887764
 20
-132.8108425232209
 10
94.07281084887764
 20
-132.4911376621897
 10
94.03457028899136
 20
-132.1824571067113
 10
93.77653263714615
 20
-132.1824571067113
 97
        0
 97
        0
 75
     2
 76
     1
 98
        0
  0
POLYLINE
  5
C2
330
91
100
AcDbEntity
  8
_U+30EC_U+30A4_U+30E4_U+30FC 1
370
     0
100
AcDb2dPolyline
 66
     1
 10
0.0
 20
0.0
 30
0.0
  0
VERTEX
  5
C3
330
C2
100
AcDbEntity
  8
_U+30EC_U+30A4_U+30E4_U+30FC 1
370
     0
100
AcDbVertex
100
AcDb2dVertex
 10
94.51343856144109
 20
-133.5828884214654
 30
0.0
  0
VERTEX
  5
C4
330
C2
100
AcDbEntity
  8
_U+30EC_U+30A4_U+30E4_U+30FC 1
370
     0
100
AcDbVertex
100
AcDb2dVertex
 10
94.51343856144109
 20
-133.3310519414936
 30
0.0
  0
VERTEX
  5
C5
330
C2
100
AcDbEntity
  8
_U+30EC_U+30A4_U+30E4_U+30FC 1
370
     0
100
AcDbVertex
100
AcDb2dVertex
 10
94.76527504141285
 20
-133.3310519414936
 30
0.0
  0
VERTEX
  5
C6
330
C2
100
AcDbEntity
  8
_U+30EC_U+30A4_U+30E4_U+30FC 1
370
     0
100
AcDbVertex
100
AcDb2dVertex
 10
94.76527504141285
 20
-133.5828884214654
 30
0.0
  0
VERTEX
  5
C7
330
C2
100
AcDbEntity
  8
_U+30EC_U+30A4_U+30E4_U+30FC 1
370
     0
100
AcDbVertex
100
AcDb2dVertex
 10
94.51343856144109
 20
-133.5828884214654
 30
0.0
  0
SEQEND
  5
C8
330
C2
100
AcDbEntity
  8
_U+30EC_U+30A4_U+30E4_U+30FC 1
370
     0
  0
HATCH
  5
C9
330
91
100
AcDbEntity
  8
_U+30EC_U+30A4_U+30E4_U+30FC 1
 62
   179
420
  2234388
100
AcDbHatch
 10
0.0
 20
0.0
 30
0.0
210
0.0
220
0.0
230
1.0
  2
SOLID
 70
     1
 71
     0
 91
        1
 92
        1
 93
        4
 72
     1
 10
94.51343856144109
 20
-133.5828884214654
 11
94.51343856144109
 21
-133.3310519414936
 72
     1
 10
94.51343856144109
 20
-133.3310519414936
 11
94.76527504141285
 21
-133.3310519414936
 72
     1
 10
94.76527504141285
 20
-133.3310519414936
 11
94.76527504141285
 21
-133.5828884214654
 72
     1
 10
94.76527504141285
 20
-133.5828884214654
 11
94.51343856144109
 21
-133.5828884214654
 97
        0
 75
     2
 76
     1
 98
        0
  0
SPLINE
  5
CA
330
91
100
AcDbEntity
  8
_U+30EC_U+30A4_U+30E4_U+30FC 1
370
     0
100
AcDbSpline
210
0.0
220
0.0
230
1.0
 70
    11
 71
     3
 72
    53
 73
    49
 74
     0
 42
0.0000000001
 43
0.0000000001
 12
1.0
 22
0.0
 32
0.0
 13
1.0
 23
0.0
 33
0.0
 40
0.0
 40
0.0
 40
0.0
 40
0.0
 40
1.0
 40
1.0
 40
1.0
 40
2.0
 40
2.0
 40
2.0
 40
3.0
 40
3.0
 40
3.0
 40
4.0
 40
4.0
 40
4.0
 40
5.0
 40
5.0
 40
5.0
 40
6.0
 40
6.0
 40
6.0
 40
7.0
 40
7.0
 40
7.0
 40
8.0
 40
8.0
 40
8.0
 40
9.0
 40
9.0
 40
9.0
 40
10.0
 40
10.0
 40
10.0
 40
11.0
 40
11.0
 40
11.0
 40
12.0
 40
12.0
 40
12.0
 40
13.0
 40
13.0
 40
13.0
 40
14.0
 40
14.0
 40
14.0
 40
15.0
 40
15.0
 40
15.0
 40
16.0
 40
16.0
 40
16.0
 40
16.0
 10
95.48254392144187
 20
-133.6335313250986
 30
0.0
 10
95.40434025392669
 20
-133.6335313250986
 30
0.0
 10
95.30270993711183
 20
-133.6166503572208
 30
0.0
 10
95.20107962029695
 20
-133.5532606002922
 30
0.0
 10
95.02779131738889
 20
-133.4433620543128
 30
0.0
 10
95.00643172538034
 20
-133.3121039163248
 30
0.0
 10
94.98748370021147
 20
-133.2042724276364
 30
0.0
 10
94.98748370021147
 20
-133.2042724276364
 30
0.0
 10
95.20969235901008
 20
-133.2042724276364
 30
0.0
 10
95.20969235901008
 20
-133.2042724276364
 30
0.0
 10
95.26481388677408
 20
-133.4030544371354
 30
0.0
 10
95.39159340063128
 20
-133.4326822583085
 30
0.0
 10
95.48461097873302
 20
-133.4326822583085
 30
0.0
 10
95.62413734588564
 20
-133.4326822583085
 30
0.0
 10
95.7767550758822
 20
-133.3331189987848
 30
0.0
 10
95.7767550758822
 20
-133.1005750535304
 30
0.0
 10
95.7767550758822
 20
-132.8446044589764
 30
0.0
 10
95.59692109155216
 20
-132.7746690206258
 30
0.0
 10
95.47634274956842
 20
-132.7746690206258
 30
0.0
 10
95.4443033615556
 20
-132.7746690206258
 30
0.0
 10
95.30270993711183
 20
-132.7746690206258
 30
0.0
 10
95.21382647359238
 20
-132.9038601013227
 30
0.0
 10
95.21382647359238
 20
-132.9038601013227
 30
0.0
 10
95.03812660384465
 20
-132.8849120761538
 30
0.0
 10
95.03812660384465
 20
-132.8849120761538
 30
0.0
 10
95.03812660384465
 20
-132.8849120761538
 30
0.0
 10
95.1590494553769
 20
-132.0384521154279
 30
0.0
 10
95.1590494553769
 20
-132.0384521154279
 30
0.0
 10
95.1590494553769
 20
-132.0384521154279
 30
0.0
 10
95.93729652549484
 20
-132.0384521154279
 30
0.0
 10
95.93729652549484
 20
-132.0384521154279
 30
0.0
 10
95.93729652549484
 20
-132.0384521154279
 30
0.0
 10
95.93729652549484
 20
-132.2331000103445
 30
0.0
 10
95.93729652549484
 20
-132.2331000103445
 30
0.0
 10
95.93729652549484
 20
-132.2331000103445
 30
0.0
 10
95.3216579622807
 20
-132.2331000103445
 30
0.0
 10
95.3216579622807
 20
-132.2331000103445
 30
0.0
 10
95.3216579622807
 20
-132.2331000103445
 30
0.0
 10
95.25620114806095
 20
-132.6561577359332
 30
0.0
 10
95.25620114806095
 20
-132.6561577359332
 30
0.0
 10
95.3175238476984
 20
-132.6223958001777
 30
0.0
 10
95.40020613934439
 20
-132.5820881830003
 30
0.0
 10
95.51837291448847
 20
-132.5820881830003
 30
0.0
 10
95.77227645175138
 20
-132.5820881830003
 30
0.0
 10
96.00929902113657
 20
-132.7684678487523
 30
0.0
 10
96.00929902113657
 20
-133.0816270283615
 30
0.0
 10
96.00929902113657
 20
-133.3989203225531
 30
0.0
 10
95.7850233050468
 20
-133.6335313250986
 30
0.0
 10
95.48254392144187
 20
-133.6335313250986
 30
0.0
  0
HATCH
  5
CB
330
91
100
AcDbEntity
  8
_U+30EC_U+30A4_U+30E4_U+30FC 1
 62
   179
420
  2234388
100
AcDbHatch
 10
0.0
 20
0.0
 30
0.0
210
0.0
220
0.0
230
1.0
  2
SOLID
 70
     1
 71
     0
 91
        1
 92
        1
 93
        1
 72
     4
 94
        3
 73
     0
 74
     1
 95
       53
 96
       49
 40
0.0
 40
0.0
 40
0.0
 40
0.0
 40
1.0
 40
1.0
 40
1.0
 40
2.0
 40
2.0
 40
2.0
 40
3.0
 40
3.0
 40
3.0
 40
4.0
 40
4.0
 40
4.0
 40
5.0
 40
5.0
 40
5.0
 40
6.0
 40
6.0
 40
6.0
 40
7.0
 40
7.0
 40
7.0
 40
8.0
 40
8.0
 40
8.0
 40
9.0
 40
9.0
 40
9.0
 40
10.0
 40
10.0
 40
10.0
 40
11.0
 40
11.0
 40
11.0
 40
12.0
 40
12.0
 40
12.0
 40
13.0
 40
13.0
 40
13.0
 40
14.0
 40
14.0
 40
14.0
 40
15.0
 40
15.0
 40
15.0
 40
16.0
 40
16.0
 40
16.0
 40
16.0
 10
95.48254392144187
 20
-133.6335313250986
 10
95.40434025392669
 20
-133.6335313250986
 10
95.30270993711183
 20
-133.6166503572208
 10
95.20107962029695
 20
-133.5532606002922
 10
95.02779131738889
 20
-133.4433620543128
 10
95.00643172538034
 20
-133.3121039163248
 10
94.98748370021147
 20
-133.2042724276364
 10
94.98748370021147
 20
-133.2042724276364
 10
95.20969235901008
 20
-133.2042724276364
 10
95.20969235901008
 20
-133.2042724276364
 10
95.26481388677408
 20
-133.4030544371354
 10
95.39159340063128
 20
-133.4326822583085
 10
95.48461097873302
 20
-133.4326822583085
 10
95.62413734588564
 20
-133.4326822583085
 10
95.7767550758822
 20
-133.3331189987848
 10
95.7767550758822
 20
-133.1005750535304
 10
95.7767550758822
 20
-132.8446044589764
 10
95.59692109155216
 20
-132.7746690206258
 10
95.47634274956842
 20
-132.7746690206258
 10
95.4443033615556
 20
-132.7746690206258
 10
95.30270993711183
 20
-132.7746690206258
 10
95.21382647359238
 20
-132.9038601013227
 10
95.21382647359238
 20
-132.9038601013227
 10
95.03812660384465
 20
-132.8849120761538
 10
95.03812660384465
 20
-132.8849120761538
 10
95.03812660384465
 20
-132.8849120761538
 10
95.1590494553769
 20
-132.0384521154279
 10
95.1590494553769
 20
-132.0384521154279
 10
95.1590494553769
 20
-132.0384521154279
 10
95.93729652549484
 20
-132.0384521154279
 10
95.93729652549484
 20
-132.0384521154279
 10
95.93729652549484
 20
-132.0384521154279
 10
95.93729652549484
 20
-132.2331000103445
 10
95.93729652549484
 20
-132.2331000103445
 10
95.93729652549484
 20
-132.2331000103445
 10
95.3216579622807
 20
-132.2331000103445
 10
95.3216579622807
 20
-132.2331000103445
 10
95.3216579622807
 20
-132.2331000103445
 10
95.25620114806095
 20
-132.6561577359332
 10
95.25620114806095
 20
-132.6561577359332
 10
95.3175238476984
 20
-132.6223958001777
 10
95.40020613934439
 20
-132.5820881830003
 10
95.51837291448847
 20
-132.5820881830003
 10
95.77227645175138
 20
-132.5820881830003
 10
96.00929902113657
 20
-132.7684678487523
 10
96.00929902113657
 20
-133.0816270283615
 10
96.00929902113657
 20
-133.3989203225531
 10
95.7850233050468
 20
-133.6335313250986
 10
95.48254392144187
 20
-133.6335313250986
 97
        0
 97
        0
 75
     2
 76
     1
 98
        0
  0
ENDBLK
  5
94
330
91
100
AcDbEntity
  8
0
100
AcDbBlockEnd
  0
BLOCK
  5
CE
330
CC
100
AcDbEntity
  8
0
100
AcDbBlockBegin
  2
block 3
 70
     0
 10
0.0
 20
0.0
 30
0.0
  3
block 3
  1

  0
SPLINE
  5
D0
330
CC
100
AcDbEntity
  8
_U+30EC_U+30A4_U+30E4_U+30FC 1
370
     0
100
AcDbSpline
210
0.0
220
0.0
230
1.0
 70
    11
 71
     3
 72
    38
 73
    34
 74
     0
 42
0.0000000001
 43
0.0000000001
 12
1.0
 22
0.0
 32
0.0
 13
1.0
 23
0.0
 33
0.0
 40
0.0
 40
0.0
 40
0.0
 40
0.0
 40
1.0
 40
1.0
 40
1.0
 40
2.0
 40
2.0
 40
2.0
 40
3.0
 40
3.0
 40
3.0
 40
4.0
 40
4.0
 40
4.0
 40
5.0
 40
5.0
 40
5.0
 40
6.0
 40
6.0
 40
6.0
 40
7.0
 40
7.0
 40
7.0
 40
8.0
 40
8.0
 40
8.0
 40
9.0
 40
9.0
 40
9.0
 40
10.0
 40
10.0
 40
10.0
 40
11.0
 40
11.0
 40
11.0
 40
11.0
 10
95.11529674271424
 20
-141.361569517611
 30
0.0
 10
94.92891707696222
 20
-141.6216742267474
 30
0.0
 10
94.8486463521559
 20
-141.733639830018
 30
0.0
 10
94.64986434265698
 20
-141.9031385278923
 30
0.0
 10
94.64986434265698
 20
-141.9031385278923
 30
0.0
 10
94.48277721162236
 20
-141.7529323647354
 30
0.0
 10
94.48277721162236
 20
-141.7529323647354
 30
0.0
 10
94.68155922112128
 20
-141.6344210800428
 30
0.0
 10
94.83796655615163
 20
-141.4459743569996
 30
0.0
 10
94.9712917514308
 20
-141.2175645263275
 30
0.0
 10
94.9712917514308
 20
-141.2175645263275
 30
0.0
 10
94.12931041483573
 20
-141.2175645263275
 30
0.0
 10
94.12931041483573
 20
-141.2175645263275
 30
0.0
 10
93.96635739838341
 20
-141.2175645263275
 30
0.0
 10
93.71486542796018
 20
-141.223765698201
 30
0.0
 10
93.50747067974814
 20
-141.2323784369141
 30
0.0
 10
93.50747067974814
 20
-141.2323784369141
 30
0.0
 10
93.50747067974814
 20
-141.0397975992887
 30
0.0
 10
93.50747067974814
 20
-141.0397975992887
 30
0.0
 10
93.67455781078276
 20
-141.0504773952929
 30
0.0
 10
93.93052840533682
 20
-141.0546115098752
 30
0.0
 10
94.11897512837999
 20
-141.0546115098752
 30
0.0
 10
94.11897512837999
 20
-141.0546115098752
 30
0.0
 10
94.62437063606613
 20
-141.0546115098752
 30
0.0
 10
94.62437063606613
 20
-141.0546115098752
 30
0.0
 10
94.75976288863646
 20
-141.0546115098752
 30
0.0
 10
94.93339570109305
 20
-141.0397975992887
 30
0.0
 10
95.11116262813194
 20
-141.0146484022463
 30
0.0
 10
95.11116262813194
 20
-141.0146484022463
 30
0.0
 10
95.26756996316227
 20
-141.2068847303233
 30
0.0
 10
95.26756996316227
 20
-141.2068847303233
 30
0.0
 10
95.22106117411141
 20
-141.2282443223318
 30
0.0
 10
95.20624726352483
 20
-141.2344454942053
 30
0.0
 10
95.11529674271424
 20
-141.361569517611
 30
0.0
  0
SPLINE
  5
D1
330
CC
100
AcDbEntity
  8
_U+30EC_U+30A4_U+30E4_U+30FC 1
370
     0
100
AcDbSpline
210
0.0
220
0.0
230
1.0
 70
    11
 71
     3
 72
    29
 73
    25
 74
     0
 42
0.0000000001
 43
0.0000000001
 12
1.0
 22
0.0
 32
0.0
 13
1.0
 23
0.0
 33
0.0
 40
0.0
 40
0.0
 40
0.0
 40
0.0
 40
1.0
 40
1.0
 40
1.0
 40
2.0
 40
2.0
 40
2.0
 40
3.0
 40
3.0
 40
3.0
 40
4.0
 40
4.0
 40
4.0
 40
5.0
 40
5.0
 40
5.0
 40
6.0
 40
6.0
 40
6.0
 40
7.0
 40
7.0
 40
7.0
 40
8.0
 40
8.0
 40
8.0
 40
8.0
 10
94.45108233315807
 20
-141.4480414142908
 30
0.0
 10
94.4169758878541
 20
-141.809776440242
 30
0.0
 10
94.3770127802252
 20
-142.2352457326704
 30
0.0
 10
93.88815373086824
 20
-142.6031819304951
 30
0.0
 10
93.88815373086824
 20
-142.6031819304951
 30
0.0
 10
93.68110349220473
 20
-142.4698567352159
 30
0.0
 10
93.68110349220473
 20
-142.4698567352159
 30
0.0
 10
93.91984860933255
 20
-142.3344644826456
 30
0.0
 10
94.04697263273826
 20
-142.1377495304378
 30
0.0
 10
94.07246633932911
 20
-142.0977864228089
 30
0.0
 10
94.195111738604
 20
-141.9072726424746
 30
0.0
 10
94.2268066170683
 20
-141.7208929767226
 30
0.0
 10
94.2268066170683
 20
-141.4776692354639
 30
0.0
 10
94.2268066170683
 20
-141.4311604464131
 30
0.0
 10
94.2268066170683
 20
-141.3973985106576
 30
0.0
 10
94.222672502486
 20
-141.3253960150159
 30
0.0
 10
94.222672502486
 20
-141.3253960150159
 30
0.0
 10
94.45108233315807
 20
-141.3488226643156
 30
0.0
 10
94.45108233315807
 20
-141.3488226643156
 30
0.0
 10
94.49759112220895
 20
-141.3529567788979
 30
0.0
 10
94.50792640866469
 20
-141.3805175427799
 30
0.0
 10
94.50792640866469
 20
-141.3953314533665
 30
0.0
 10
94.50792640866469
 20
-141.4163465358265
 30
0.0
 10
94.50172523679124
 20
-141.4184135931176
 30
0.0
 10
94.45108233315807
 20
-141.4480414142908
 30
0.0
  0
HATCH
  5
D2
330
CC
100
AcDbEntity
  8
_U+30EC_U+30A4_U+30E4_U+30FC 1
 62
   179
420
  2234388
100
AcDbHatch
 10
0.0
 20
0.0
 30
0.0
210
0.0
220
0.0
230
1.0
  2
SOLID
 70
     1
 71
     0
 91
        2
 92
        1
 93
        1
 72
     4
 94
        3
 73
     0
 74
     1
 95
       38
 96
       34
 40
0.0
 40
0.0
 40
0.0
 40
0.0
 40
1.0
 40
1.0
 40
1.0
 40
2.0
 40
2.0
 40
2.0
 40
3.0
 40
3.0
 40
3.0
 40
4.0
 40
4.0
 40
4.0
 40
5.0
 40
5.0
 40
5.0
 40
6.0
 40
6.0
 40
6.0
 40
7.0
 40
7.0
 40
7.0
 40
8.0
 40
8.0
 40
8.0
 40
9.0
 40
9.0
 40
9.0
 40
10.0
 40
10.0
 40
10.0
 40
11.0
 40
11.0
 40
11.0
 40
11.0
 10
95.11529674271424
 20
-141.361569517611
 10
94.92891707696222
 20
-141.6216742267474
 10
94.8486463521559
 20
-141.733639830018
 10
94.64986434265698
 20
-141.9031385278923
 10
94.64986434265698
 20
-141.9031385278923
 10
94.48277721162236
 20
-141.7529323647354
 10
94.48277721162236
 20
-141.7529323647354
 10
94.68155922112128
 20
-141.6344210800428
 10
94.83796655615163
 20
-141.4459743569996
 10
94.9712917514308
 20
-141.2175645263275
 10
94.9712917514308
 20
-141.2175645263275
 10
94.12931041483573
 20
-141.2175645263275
 10
94.12931041483573
 20
-141.2175645263275
 10
93.96635739838341
 20
-141.2175645263275
 10
93.71486542796018
 20
-141.223765698201
 10
93.50747067974814
 20
-141.2323784369141
 10
93.50747067974814
 20
-141.2323784369141
 10
93.50747067974814
 20
-141.0397975992887
 10
93.50747067974814
 20
-141.0397975992887
 10
93.67455781078276
 20
-141.0504773952929
 10
93.93052840533682
 20
-141.0546115098752
 10
94.11897512837999
 20
-141.0546115098752
 10
94.11897512837999
 20
-141.0546115098752
 10
94.62437063606613
 20
-141.0546115098752
 10
94.62437063606613
 20
-141.0546115098752
 10
94.75976288863646
 20
-141.0546115098752
 10
94.93339570109305
 20
-141.0397975992887
 10
95.11116262813194
 20
-141.0146484022463
 10
95.11116262813194
 20
-141.0146484022463
 10
95.26756996316227
 20
-141.2068847303233
 10
95.26756996316227
 20
-141.2068847303233
 10
95.22106117411141
 20
-141.2282443223318
 10
95.20624726352483
 20
-141.2344454942053
 10
95.11529674271424
 20
-141.361569517611
 97
        0
 97
        0
 92
        1
 93
        1
 72
     4
 94
        3
 73
     0
 74
     1
 95
       29
 96
       25
 40
0.0
 40
0.0
 40
0.0
 40
0.0
 40
1.0
 40
1.0
 40
1.0
 40
2.0
 40
2.0
 40
2.0
 40
3.0
 40
3.0
 40
3.0
 40
4.0
 40
4.0
 40
4.0
 40
5.0
 40
5.0
 40
5.0
 40
6.0
 40
6.0
 40
6.0
 40
7.0
 40
7.0
 40
7.0
 40
8.0
 40
8.0
 40
8.0
 40
8.0
 10
94.45108233315807
 20
-141.4480414142908
 10
94.4169758878541
 20
-141.809776440242
 10
94.3770127802252
 20
-142.2352457326704
 10
93.88815373086824
 20
-142.6031819304951
 10
93.88815373086824
 20
-142.6031819304951
 10
93.68110349220473
 20
-142.4698567352159
 10
93.68110349220473
 20
-142.4698567352159
 10
93.91984860933255
 20
-142.3344644826456
 10
94.04697263273826
 20
-142.1377495304378
 10
94.07246633932911
 20
-142.0977864228089
 10
94.195111738604
 20
-141.9072726424746
 10
94.2268066170683
 20
-141.7208929767226
 10
94.2268066170683
 20
-141.4776692354639
 10
94.2268066170683
 20
-141.4311604464131
 10
94.2268066170683
 20
-141.3973985106576
 10
94.222672502486
 20
-141.3253960150159
 10
94.222672502486
 20
-141.3253960150159
 10
94.45108233315807
 20
-141.3488226643156
 10
94.45108233315807
 20
-141.3488226643156
 10
94.49759112220895
 20
-141.3529567788979
 10
94.50792640866469
 20
-141.3805175427799
 10
94.50792640866469
 20
-141.3953314533665
 10
94.50792640866469
 20
-141.4163465358265
 10
94.50172523679124
 20
-141.4184135931176
 10
94.45108233315807
 20
-141.4480414142908
 97
        0
 97
        0
 75
     2
 76
     1
 98
        0
  0
SPLINE
  5
D3
330
CC
100
AcDbEntity
  8
_U+30EC_U+30A4_U+30E4_U+30FC 1
370
     0
100
AcDbSpline
210
0.0
220
0.0
230
1.0
 70
    11
 71
     3
 72
    35
 73
    31
 74
     0
 42
0.0000000001
 43
0.0000000001
 12
1.0
 22
0.0
 32
0.0
 13
1.0
 23
0.0
 33
0.0
 40
0.0
 40
0.0
 40
0.0
 40
0.0
 40
1.0
 40
1.0
 40
1.0
 40
2.0
 40
2.0
 40
2.0
 40
3.0
 40
3.0
 40
3.0
 40
4.0
 40
4.0
 40
4.0
 40
5.0
 40
5.0
 40
5.0
 40
6.0
 40
6.0
 40
6.0
 40
7.0
 40
7.0
 40
7.0
 40
8.0
 40
8.0
 40
8.0
 40
9.0
 40
9.0
 40
9.0
 40
10.0
 40
10.0
 40
10.0
 40
10.0
 10
96.17845320946233
 20
-141.1669216226944
 30
0.0
 10
96.16984047074921
 20
-141.1731227945678
 30
0.0
 10
96.12746579628063
 20
-141.1986165011587
 30
0.0
 10
96.12126462440719
 20
-141.2048176730321
 30
0.0
 10
96.11919756711603
 20
-141.8586967961326
 30
0.0
 10
96.03651527547004
 20
-142.2900227508858
 30
0.0
 10
95.59864363929479
 20
-142.5356580589842
 30
0.0
 10
95.59864363929479
 20
-142.5356580589842
 30
0.0
 10
95.43155650826017
 20
-142.3578911319453
 30
0.0
 10
95.43155650826017
 20
-142.3578911319453
 30
0.0
 10
95.51423879990617
 20
-142.3217176293501
 30
0.0
 10
95.68339298823193
 20
-142.2521267005481
 30
0.0
 10
95.80810544479797
 20
-141.9834092526986
 30
0.0
 10
95.84634600468425
 20
-141.9007269610526
 30
0.0
 10
95.87149520172657
 20
-141.8035752683685
 30
0.0
 10
95.884242055022
 20
-141.6788628118025
 30
0.0
 10
95.89698890831743
 20
-141.5686197562745
 30
0.0
 10
95.89698890831743
 20
-141.4821478595948
 30
0.0
 10
95.89698890831743
 20
-141.4311604464131
 30
0.0
 10
95.89698890831743
 20
-141.2282443223318
 30
0.0
 10
95.88217499773084
 20
-141.1245469482258
 30
0.0
 10
95.87149520172657
 20
-141.0566785671664
 30
0.0
 10
95.87149520172657
 20
-141.0566785671664
 30
0.0
 10
96.12126462440719
 20
-141.0907850124704
 30
0.0
 10
96.12126462440719
 20
-141.0907850124704
 30
0.0
 10
96.17397458533151
 20
-141.0969861843438
 30
0.0
 10
96.19120006275776
 20
-141.1011202989261
 30
0.0
 10
96.19120006275776
 20
-141.1352267442301
 30
0.0
 10
96.19120006275776
 20
-141.1500406548166
 30
0.0
 10
96.18672143862693
 20
-141.1583088839812
 30
0.0
 10
96.17845320946233
 20
-141.1669216226944
 30
0.0
  0
SPLINE
  5
D4
330
CC
100
AcDbEntity
  8
_U+30EC_U+30A4_U+30E4_U+30FC 1
370
     0
100
AcDbSpline
210
0.0
220
0.0
230
1.0
 70
    11
 71
     3
 72
    50
 73
    46
 74
     0
 42
0.0000000001
 43
0.0000000001
 12
1.0
 22
0.0
 32
0.0
 13
1.0
 23
0.0
 33
0.0
 40
0.0
 40
0.0
 40
0.0
 40
0.0
 40
1.0
 40
1.0
 40
1.0
 40
2.0
 40
2.0
 40
2.0
 40
3.0
 40
3.0
 40
3.0
 40
4.0
 40
4.0
 40
4.0
 40
5.0
 40
5.0
 40
5.0
 40
6.0
 40
6.0
 40
6.0
 40
7.0
 40
7.0
 40
7.0
 40
8.0
 40
8.0
 40
8.0
 40
9.0
 40
9.0
 40
9.0
 40
10.0
 40
10.0
 40
10.0
 40
11.0
 40
11.0
 40
11.0
 40
12.0
 40
12.0
 40
12.0
 40
13.0
 40
13.0
 40
13.0
 40
14.0
 40
14.0
 40
14.0
 40
15.0
 40
15.0
 40
15.0
 40
15.0
 10
96.56774899929557
 20
-142.5101643523933
 30
0.0
 10
96.56774899929557
 20
-142.5101643523933
 30
0.0
 10
96.41754283613868
 20
-142.3978542395741
 30
0.0
 10
96.41754283613868
 20
-142.3978542395741
 30
0.0
 10
96.42581106530328
 20
-142.353757017363
 30
0.0
 10
96.42994517988558
 20
-142.215953197953
 30
0.0
 10
96.42994517988558
 20
-142.1632432370286
 30
0.0
 10
96.43235674672525
 20
-142.0933077986781
 30
0.0
 10
96.4344238040164
 20
-141.9792751381163
 30
0.0
 10
96.4344238040164
 20
-141.9114067570569
 30
0.0
 10
96.4344238040164
 20
-141.9114067570569
 30
0.0
 10
96.4344238040164
 20
-141.4797362927551
 30
0.0
 10
96.4344238040164
 20
-141.4797362927551
 30
0.0
 10
96.4344238040164
 20
-141.4459743569996
 30
0.0
 10
96.42374400801212
 20
-141.0863063883396
 30
0.0
 10
96.41960989342982
 20
-141.0208495741198
 30
0.0
 10
96.41960989342982
 20
-141.0208495741198
 30
0.0
 10
96.65628795326649
 20
-141.0463432807106
 30
0.0
 10
96.65628795326649
 20
-141.0463432807106
 30
0.0
 10
96.68384871714849
 20
-141.0484103380018
 30
0.0
 10
96.71347653832163
 20
-141.0587456244575
 30
0.0
 10
96.71347653832163
 20
-141.0883734456307
 30
0.0
 10
96.71347653832163
 20
-141.1055989230569
 30
0.0
 10
96.70520830915703
 20
-141.1159342095127
 30
0.0
 10
96.69039439857046
 20
-141.126614005517
 30
0.0
 10
96.67110186385307
 20
-141.1414279161035
 30
0.0
 10
96.66903480656191
 20
-141.1434949733947
 30
0.0
 10
96.65422089597534
 20
-141.1562418266901
 30
0.0
 10
96.64181855222844
 20
-141.2492594047919
 30
0.0
 10
96.63940698538876
 20
-141.5200439099325
 30
0.0
 10
96.63940698538876
 20
-141.6216742267474
 30
0.0
 10
96.63940698538876
 20
-141.6216742267474
 30
0.0
 10
96.63940698538876
 20
-142.2097520260795
 30
0.0
 10
96.63940698538876
 20
-142.2097520260795
 30
0.0
 10
96.69452851315276
 20
-142.1801242049064
 30
0.0
 10
96.82992076572307
 20
-142.1060546519735
 30
0.0
 10
96.99494083946655
 20
-141.9241536103523
 30
0.0
 10
97.10070527086371
 20
-141.8077093829509
 30
0.0
 10
97.14928111720575
 20
-141.7233045435623
 30
0.0
 10
97.20853675955203
 20
-141.6068603161608
 30
0.0
 10
97.20853675955203
 20
-141.6068603161608
 30
0.0
 10
97.35047469354433
 20
-141.7760145044866
 30
0.0
 10
97.35047469354433
 20
-141.7760145044866
 30
0.0
 10
97.07969018840369
 20
-142.2035508542061
 30
0.0
 10
96.7517170982079
 20
-142.4002658064138
 30
0.0
 10
96.56774899929557
 20
-142.5101643523933
 30
0.0
  0
HATCH
  5
D5
330
CC
100
AcDbEntity
  8
_U+30EC_U+30A4_U+30E4_U+30FC 1
 62
   179
420
  2234388
100
AcDbHatch
 10
0.0
 20
0.0
 30
0.0
210
0.0
220
0.0
230
1.0
  2
SOLID
 70
     1
 71
     0
 91
        2
 92
        1
 93
        1
 72
     4
 94
        3
 73
     0
 74
     1
 95
       35
 96
       31
 40
0.0
 40
0.0
 40
0.0
 40
0.0
 40
1.0
 40
1.0
 40
1.0
 40
2.0
 40
2.0
 40
2.0
 40
3.0
 40
3.0
 40
3.0
 40
4.0
 40
4.0
 40
4.0
 40
5.0
 40
5.0
 40
5.0
 40
6.0
 40
6.0
 40
6.0
 40
7.0
 40
7.0
 40
7.0
 40
8.0
 40
8.0
 40
8.0
 40
9.0
 40
9.0
 40
9.0
 40
10.0
 40
10.0
 40
10.0
 40
10.0
 10
96.17845320946233
 20
-141.1669216226944
 10
96.16984047074921
 20
-141.1731227945678
 10
96.12746579628063
 20
-141.1986165011587
 10
96.12126462440719
 20
-141.2048176730321
 10
96.11919756711603
 20
-141.8586967961326
 10
96.03651527547004
 20
-142.2900227508858
 10
95.59864363929479
 20
-142.5356580589842
 10
95.59864363929479
 20
-142.5356580589842
 10
95.43155650826017
 20
-142.3578911319453
 10
95.43155650826017
 20
-142.3578911319453
 10
95.51423879990617
 20
-142.3217176293501
 10
95.68339298823193
 20
-142.2521267005481
 10
95.80810544479797
 20
-141.9834092526986
 10
95.84634600468425
 20
-141.9007269610526
 10
95.87149520172657
 20
-141.8035752683685
 10
95.884242055022
 20
-141.6788628118025
 10
95.89698890831743
 20
-141.5686197562745
 10
95.89698890831743
 20
-141.4821478595948
 10
95.89698890831743
 20
-141.4311604464131
 10
95.89698890831743
 20
-141.2282443223318
 10
95.88217499773084
 20
-141.1245469482258
 10
95.87149520172657
 20
-141.0566785671664
 10
95.87149520172657
 20
-141.0566785671664
 10
96.12126462440719
 20
-141.0907850124704
 10
96.12126462440719
 20
-141.0907850124704
 10
96.17397458533151
 20
-141.0969861843438
 10
96.19120006275776
 20
-141.1011202989261
 10
96.19120006275776
 20
-141.1352267442301
 10
96.19120006275776
 20
-141.1500406548166
 10
96.18672143862693
 20
-141.1583088839812
 10
96.17845320946233
 20
-141.1669216226944
 97
        0
 97
        0
 92
        1
 93
        1
 72
     4
 94
        3
 73
     0
 74
     1
 95
       50
 96
       46
 40
0.0
 40
0.0
 40
0.0
 40
0.0
 40
1.0
 40
1.0
 40
1.0
 40
2.0
 40
2.0
 40
2.0
 40
3.0
 40
3.0
 40
3.0
 40
4.0
 40
4.0
 40
4.0
 40
5.0
 40
5.0
 40
5.0
 40
6.0
 40
6.0
 40
6.0
 40
7.0
 40
7.0
 40
7.0
 40
8.0
 40
8.0
 40
8.0
 40
9.0
 40
9.0
 40
9.0
 40
10.0
 40
10.0
 40
10.0
 40
11.0
 40
11.0
 40
11.0
 40
12.0
 40
12.0
 40
12.0
 40
13.0
 40
13.0
 40
13.0
 40
14.0
 40
14.0
 40
14.0
 40
15.0
 40
15.0
 40
15.0
 40
15.0
 10
96.56774899929557
 20
-142.5101643523933
 10
96.56774899929557
 20
-142.5101643523933
 10
96.41754283613868
 20
-142.3978542395741
 10
96.41754283613868
 20
-142.3978542395741
 10
96.42581106530328
 20
-142.353757017363
 10
96.42994517988558
 20
-142.215953197953
 10
96.42994517988558
 20
-142.1632432370286
 10
96.43235674672525
 20
-142.0933077986781
 10
96.4344238040164
 20
-141.9792751381163
 10
96.4344238040164
 20
-141.9114067570569
 10
96.4344238040164
 20
-141.9114067570569
 10
96.4344238040164
 20
-141.4797362927551
 10
96.4344238040164
 20
-141.4797362927551
 10
96.4344238040164
 20
-141.4459743569996
 10
96.42374400801212
 20
-141.0863063883396
 10
96.41960989342982
 20
-141.0208495741198
 10
96.41960989342982
 20
-141.0208495741198
 10
96.65628795326649
 20
-141.0463432807106
 10
96.65628795326649
 20
-141.0463432807106
 10
96.68384871714849
 20
-141.0484103380018
 10
96.71347653832163
 20
-141.0587456244575
 10
96.71347653832163
 20
-141.0883734456307
 10
96.71347653832163
 20
-141.1055989230569
 10
96.70520830915703
 20
-141.1159342095127
 10
96.69039439857046
 20
-141.126614005517
 10
96.67110186385307
 20
-141.1414279161035
 10
96.66903480656191
 20
-141.1434949733947
 10
96.65422089597534
 20
-141.1562418266901
 10
96.64181855222844
 20
-141.2492594047919
 10
96.63940698538876
 20
-141.5200439099325
 10
96.63940698538876
 20
-141.6216742267474
 10
96.63940698538876
 20
-141.6216742267474
 10
96.63940698538876
 20
-142.2097520260795
 10
96.63940698538876
 20
-142.2097520260795
 10
96.69452851315276
 20
-142.1801242049064
 10
96.82992076572307
 20
-142.1060546519735
 10
96.99494083946655
 20
-141.9241536103523
 10
97.10070527086371
 20
-141.8077093829509
 10
97.14928111720575
 20
-141.7233045435623
 10
97.20853675955203
 20
-141.6068603161608
 10
97.20853675955203
 20
-141.6068603161608
 10
97.35047469354433
 20
-141.7760145044866
 10
97.35047469354433
 20
-141.7760145044866
 10
97.07969018840369
 20
-142.2035508542061
 10
96.7517170982079
 20
-142.4002658064138
 10
96.56774899929557
 20
-142.5101643523933
 97
        0
 97
        0
 75
     2
 76
     1
 98
        0
  0
SPLINE
  5
D6
330
CC
100
AcDbEntity
  8
_U+30EC_U+30A4_U+30E4_U+30FC 1
370
     0
100
AcDbSpline
210
0.0
220
0.0
230
1.0
 70
    11
 71
     3
 72
    20
 73
    16
 74
     0
 42
0.0000000001
 43
0.0000000001
 12
1.0
 22
0.0
 32
0.0
 13
1.0
 23
0.0
 33
0.0
 40
0.0
 40
0.0
 40
0.0
 40
0.0
 40
1.0
 40
1.0
 40
1.0
 40
2.0
 40
2.0
 40
2.0
 40
3.0
 40
3.0
 40
3.0
 40
4.0
 40
4.0
 40
4.0
 40
5.0
 40
5.0
 40
5.0
 40
5.0
 10
98.60793454566053
 20
-142.7258273297699
 30
0.0
 10
98.47047523579906
 20
-142.6179958410816
 30
0.0
 10
98.34128415510219
 20
-142.5291123775622
 30
0.0
 10
98.10874020984782
 20
-142.4192138315827
 30
0.0
 10
97.91822642951351
 20
-142.3282633107721
 30
0.0
 10
97.72151147730574
 20
-142.2479925859658
 30
0.0
 10
97.5141167290937
 20
-142.2118190833707
 30
0.0
 10
97.5141167290937
 20
-142.2118190833707
 30
0.0
 10
97.60300019261314
 20
-142.0171711884541
 30
0.0
 10
97.60300019261314
 20
-142.0171711884541
 30
0.0
 10
98.02192380361953
 20
-142.1250026771424
 30
0.0
 10
98.4408474146259
 20
-142.3175835147678
 30
0.0
 10
98.70301918105342
 20
-142.5080972951021
 30
0.0
 10
98.70301918105342
 20
-142.5080972951021
 30
0.0
 10
98.60793454566053
 20
-142.7258273297699
 30
0.0
 10
98.60793454566053
 20
-142.7258273297699
 30
0.0
  0
SPLINE
  5
D7
330
CC
100
AcDbEntity
  8
_U+30EC_U+30A4_U+30E4_U+30FC 1
370
     0
100
AcDbSpline
210
0.0
220
0.0
230
1.0
 70
    11
 71
     3
 72
    17
 73
    13
 74
     0
 42
0.0000000001
 43
0.0000000001
 12
1.0
 22
0.0
 32
0.0
 13
1.0
 23
0.0
 33
0.0
 40
0.0
 40
0.0
 40
0.0
 40
0.0
 40
1.0
 40
1.0
 40
1.0
 40
2.0
 40
2.0
 40
2.0
 40
3.0
 40
3.0
 40
3.0
 40
4.0
 40
4.0
 40
4.0
 40
4.0
 10
98.50423717155451
 20
-141.9579155461078
 30
0.0
 10
98.27789439817359
 20
-141.7908284150731
 30
0.0
 10
97.94785425068665
 20
-141.6640489012159
 30
0.0
 10
97.71944442001458
 20
-141.6278753986208
 30
0.0
 10
97.71944442001458
 20
-141.6278753986208
 30
0.0
 10
97.78903534881664
 20
-141.4290933891219
 30
0.0
 10
97.78903534881664
 20
-141.4290933891219
 30
0.0
 10
97.97541501456865
 20
-141.4607882675862
 30
0.0
 10
98.34335121239333
 20
-141.6089273734519
 30
0.0
 10
98.58244083906968
 20
-141.7612005939
 30
0.0
 10
98.58244083906968
 20
-141.7612005939
 30
0.0
 10
98.50423717155451
 20
-141.9579155461078
 30
0.0
 10
98.50423717155451
 20
-141.9579155461078
 30
0.0
  0
SPLINE
  5
D8
330
CC
100
AcDbEntity
  8
_U+30EC_U+30A4_U+30E4_U+30FC 1
370
     0
100
AcDbSpline
210
0.0
220
0.0
230
1.0
 70
    11
 71
     3
 72
    20
 73
    16
 74
     0
 42
0.0000000001
 43
0.0000000001
 12
1.0
 22
0.0
 32
0.0
 13
1.0
 23
0.0
 33
0.0
 40
0.0
 40
0.0
 40
0.0
 40
0.0
 40
1.0
 40
1.0
 40
1.0
 40
2.0
 40
2.0
 40
2.0
 40
3.0
 40
3.0
 40
3.0
 40
4.0
 40
4.0
 40
4.0
 40
5.0
 40
5.0
 40
5.0
 40
5.0
 10
98.5359320500188
 20
-141.3911973387841
 30
0.0
 10
98.4725422930902
 20
-141.3360758110202
 30
0.0
 10
98.40053979744847
 20
-141.2726860540916
 30
0.0
 10
98.1552489988987
 20
-141.1624429985636
 30
0.0
 10
97.92029348680465
 20
-141.0587456244575
 30
0.0
 10
97.8231417941206
 20
-141.0418646565798
 30
0.0
 10
97.72357853459688
 20
-141.0249836887021
 30
0.0
 10
97.72357853459688
 20
-141.0249836887021
 30
0.0
 10
97.79144691565631
 20
-140.8200005073297
 30
0.0
 10
97.79144691565631
 20
-140.8200005073297
 30
0.0
 10
98.11080726713897
 20
-140.8833902642583
 30
0.0
 10
98.4808105222548
 20
-141.078038159175
 30
0.0
 10
98.61000160295167
 20
-141.175189851859
 30
0.0
 10
98.61000160295167
 20
-141.175189851859
 30
0.0
 10
98.5359320500188
 20
-141.3911973387841
 30
0.0
 10
98.5359320500188
 20
-141.3911973387841
 30
0.0
  0
HATCH
  5
D9
330
CC
100
AcDbEntity
  8
_U+30EC_U+30A4_U+30E4_U+30FC 1
 62
   179
420
  2234388
100
AcDbHatch
 10
0.0
 20
0.0
 30
0.0
210
0.0
220
0.0
230
1.0
  2
SOLID
 70
     1
 71
     0
 91
        3
 92
        1
 93
        1
 72
     4
 94
        3
 73
     0
 74
     1
 95
       20
 96
       16
 40
0.0
 40
0.0
 40
0.0
 40
0.0
 40
1.0
 40
1.0
 40
1.0
 40
2.0
 40
2.0
 40
2.0
 40
3.0
 40
3.0
 40
3.0
 40
4.0
 40
4.0
 40
4.0
 40
5.0
 40
5.0
 40
5.0
 40
5.0
 10
98.60793454566053
 20
-142.7258273297699
 10
98.47047523579906
 20
-142.6179958410816
 10
98.34128415510219
 20
-142.5291123775622
 10
98.10874020984782
 20
-142.4192138315827
 10
97.91822642951351
 20
-142.3282633107721
 10
97.72151147730574
 20
-142.2479925859658
 10
97.5141167290937
 20
-142.2118190833707
 10
97.5141167290937
 20
-142.2118190833707
 10
97.60300019261314
 20
-142.0171711884541
 10
97.60300019261314
 20
-142.0171711884541
 10
98.02192380361953
 20
-142.1250026771424
 10
98.4408474146259
 20
-142.3175835147678
 10
98.70301918105342
 20
-142.5080972951021
 10
98.70301918105342
 20
-142.5080972951021
 10
98.60793454566053
 20
-142.7258273297699
 10
98.60793454566053
 20
-142.7258273297699
 97
        0
 97
        0
 92
        1
 93
        1
 72
     4
 94
        3
 73
     0
 74
     1
 95
       17
 96
       13
 40
0.0
 40
0.0
 40
0.0
 40
0.0
 40
1.0
 40
1.0
 40
1.0
 40
2.0
 40
2.0
 40
2.0
 40
3.0
 40
3.0
 40
3.0
 40
4.0
 40
4.0
 40
4.0
 40
4.0
 10
98.50423717155451
 20
-141.9579155461078
 10
98.27789439817359
 20
-141.7908284150731
 10
97.94785425068665
 20
-141.6640489012159
 10
97.71944442001458
 20
-141.6278753986208
 10
97.71944442001458
 20
-141.6278753986208
 10
97.78903534881664
 20
-141.4290933891219
 10
97.78903534881664
 20
-141.4290933891219
 10
97.97541501456865
 20
-141.4607882675862
 10
98.34335121239333
 20
-141.6089273734519
 10
98.58244083906968
 20
-141.7612005939
 10
98.58244083906968
 20
-141.7612005939
 10
98.50423717155451
 20
-141.9579155461078
 10
98.50423717155451
 20
-141.9579155461078
 97
        0
 97
        0
 92
        1
 93
        1
 72
     4
 94
        3
 73
     0
 74
     1
 95
       20
 96
       16
 40
0.0
 40
0.0
 40
0.0
 40
0.0
 40
1.0
 40
1.0
 40
1.0
 40
2.0
 40
2.0
 40
2.0
 40
3.0
 40
3.0
 40
3.0
 40
4.0
 40
4.0
 40
4.0
 40
5.0
 40
5.0
 40
5.0
 40
5.0
 10
98.5359320500188
 20
-141.3911973387841
 10
98.4725422930902
 20
-141.3360758110202
 10
98.40053979744847
 20
-141.2726860540916
 10
98.1552489988987
 20
-141.1624429985636
 10
97.92029348680465
 20
-141.0587456244575
 10
97.8231417941206
 20
-141.0418646565798
 10
97.72357853459688
 20
-141.0249836887021
 10
97.72357853459688
 20
-141.0249836887021
 10
97.79144691565631
 20
-140.8200005073297
 10
97.79144691565631
 20
-140.8200005073297
 10
98.11080726713897
 20
-140.8833902642583
 10
98.4808105222548
 20
-141.078038159175
 10
98.61000160295167
 20
-141.175189851859
 10
98.61000160295167
 20
-141.175189851859
 10
98.5359320500188
 20
-141.3911973387841
 10
98.5359320500188
 20
-141.3911973387841
 97
        0
 97
        0
 75
     2
 76
     1
 98
        0
  0
SPLINE
  5
DA
330
CC
100
AcDbEntity
  8
_U+30EC_U+30A4_U+30E4_U+30FC 1
370
     0
100
AcDbSpline
210
0.0
220
0.0
230
1.0
 70
    11
 71
     3
 72
   104
 73
   100
 74
     0
 42
0.0000000001
 43
0.0000000001
 12
1.0
 22
0.0
 32
0.0
 13
1.0
 23
0.0
 33
0.0
 40
0.0
 40
0.0
 40
0.0
 40
0.0
 40
1.0
 40
1.0
 40
1.0
 40
2.0
 40
2.0
 40
2.0
 40
3.0
 40
3.0
 40
3.0
 40
4.0
 40
4.0
 40
4.0
 40
5.0
 40
5.0
 40
5.0
 40
6.0
 40
6.0
 40
6.0
 40
7.0
 40
7.0
 40
7.0
 40
8.0
 40
8.0
 40
8.0
 40
9.0
 40
9.0
 40
9.0
 40
10.0
 40
10.0
 40
10.0
 40
11.0
 40
11.0
 40
11.0
 40
12.0
 40
12.0
 40
12.0
 40
13.0
 40
13.0
 40
13.0
 40
14.0
 40
14.0
 40
14.0
 40
15.0
 40
15.0
 40
15.0
 40
16.0
 40
16.0
 40
16.0
 40
17.0
 40
17.0
 40
17.0
 40
18.0
 40
18.0
 40
18.0
 40
19.0
 40
19.0
 40
19.0
 40
20.0
 40
20.0
 40
20.0
 40
21.0
 40
21.0
 40
21.0
 40
22.0
 40
22.0
 40
22.0
 40
23.0
 40
23.0
 40
23.0
 40
24.0
 40
24.0
 40
24.0
 40
25.0
 40
25.0
 40
25.0
 40
26.0
 40
26.0
 40
26.0
 40
27.0
 40
27.0
 40
27.0
 40
28.0
 40
28.0
 40
28.0
 40
29.0
 40
29.0
 40
29.0
 40
30.0
 40
30.0
 40
30.0
 40
31.0
 40
31.0
 40
31.0
 40
32.0
 40
32.0
 40
32.0
 40
33.0
 40
33.0
 40
33.0
 40
33.0
 10
100.4217773186446
 20
-141.1965494438675
 30
0.0
 10
100.4534721971089
 20
-141.2533935193742
 30
0.0
 10
100.483100018282
 20
-141.3295301295982
 30
0.0
 10
100.4999809861597
 20
-141.4142794785353
 30
0.0
 10
100.4999809861597
 20
-141.4142794785353
 30
0.0
 10
100.3180799445385
 20
-141.4821478595948
 30
0.0
 10
100.3180799445385
 20
-141.4821478595948
 30
0.0
 10
100.2929307474962
 20
-141.3677706894844
 30
0.0
 10
100.2781168369096
 20
-141.3023138752647
 30
0.0
 10
100.2188611945633
 20
-141.1965494438675
 30
0.0
 10
100.2188611945633
 20
-141.1965494438675
 30
0.0
 10
100.0982828525796
 20
-141.1965494438675
 30
0.0
 10
100.0982828525796
 20
-141.1965494438675
 30
0.0
 10
100.0093993890601
 20
-141.361569517611
 30
0.0
 10
99.97115882917389
 20
-141.4035996825311
 30
0.0
 10
99.94153100800074
 20
-141.437706127835
 30
0.0
 10
99.94153100800074
 20
-141.437706127835
 30
0.0
 10
99.73861488391952
 20
-141.3657036321933
 30
0.0
 10
99.73861488391952
 20
-141.3657036321933
 30
0.0
 10
99.77892250109694
 20
-141.3295301295982
 30
0.0
 10
99.84437931531669
 20
-141.2726860540916
 30
0.0
 10
99.89088810436756
 20
-141.2048176730321
 30
0.0
 10
99.83576657660356
 20
-141.202750615741
 30
0.0
 10
99.66454533098664
 20
-141.202750615741
 30
0.0
 10
99.60115557405805
 20
-141.202750615741
 30
0.0
 10
99.60115557405805
 20
-141.202750615741
 30
0.0
 10
99.5715277528849
 20
-141.202750615741
 30
0.0
 10
99.5715277528849
 20
-141.202750615741
 30
0.0
 10
99.6073567459315
 20
-141.2726860540916
 30
0.0
 10
99.65179847769122
 20
-141.3698377467756
 30
0.0
 10
99.67729218428207
 20
-141.4501084715819
 30
0.0
 10
99.67729218428207
 20
-141.4501084715819
 30
0.0
 10
99.49539114266088
 20
-141.5241780245148
 30
0.0
 10
99.49539114266088
 20
-141.5241780245148
 30
0.0
 10
99.47851017478315
 20
-141.4649223821685
 30
0.0
 10
99.44440372947918
 20
-141.3508897216067
 30
0.0
 10
99.36826711925517
 20
-141.202750615741
 30
0.0
 10
99.36826711925517
 20
-141.202750615741
 30
0.0
 10
99.25836857327569
 20
-141.202750615741
 30
0.0
 10
99.25836857327569
 20
-141.202750615741
 30
0.0
 10
99.25182289185372
 20
-141.2089517876144
 30
0.0
 10
99.15673825646083
 20
-141.3191948431424
 30
0.0
 10
99.06165362106792
 20
-141.4015326252399
 30
0.0
 10
99.06165362106792
 20
-141.4015326252399
 30
0.0
 10
98.86907278344246
 20
-141.3023138752647
 30
0.0
 10
98.86907278344246
 20
-141.3023138752647
 30
0.0
 10
98.9620903615442
 20
-141.2492594047919
 30
0.0
 10
99.04270559589905
 20
-141.175189851859
 30
0.0
 10
99.1122965247011
 20
-141.0928520697615
 30
0.0
 10
99.19911293092939
 20
-140.9891546956555
 30
0.0
 10
99.23942054810682
 20
-140.8875243788406
 30
0.0
 10
99.27318248386227
 20
-140.7924397434477
 30
0.0
 10
99.27318248386227
 20
-140.7924397434477
 30
0.0
 10
99.46576332148773
 20
-140.8747775255452
 30
0.0
 10
99.46576332148773
 20
-140.8747775255452
 30
0.0
 10
99.48057723207431
 20
-140.8813232069672
 30
0.0
 10
99.49091251853005
 20
-140.8895914361318
 30
0.0
 10
99.49091251853005
 20
-140.900271232136
 30
0.0
 10
99.49091251853005
 20
-140.9212863145961
 30
0.0
 10
99.46576332148773
 20
-140.9257649387269
 30
0.0
 10
99.43613550031458
 20
-140.9298990533092
 30
0.0
 10
99.39996199771946
 20
-140.9912217529466
 30
0.0
 10
99.38721514442403
 20
-141.0122368354067
 30
0.0
 10
99.36826711925517
 20
-141.0418646565798
 30
0.0
 10
99.36826711925517
 20
-141.0418646565798
 30
0.0
 10
99.60115557405805
 20
-141.0418646565798
 30
0.0
 10
99.60115557405805
 20
-141.0418646565798
 30
0.0
 10
99.64973142040007
 20
-141.0418646565798
 30
0.0
 10
99.85919322590327
 20
-141.0356634847064
 30
0.0
 10
99.90363495766299
 20
-141.0335964274152
 30
0.0
 10
99.90363495766299
 20
-141.0335964274152
 30
0.0
 10
99.90363495766299
 20
-141.1858696478633
 30
0.0
 10
99.90363495766299
 20
-141.1858696478633
 30
0.0
 10
99.94600963213156
 20
-141.1159342095127
 30
0.0
 10
100.0221462423556
 20
-140.9298990533092
 30
0.0
 10
100.0452283821068
 20
-140.8027750299035
 30
0.0
 10
100.0452283821068
 20
-140.8027750299035
 30
0.0
 10
100.2398762770234
 20
-140.8685763536718
 30
0.0
 10
100.2398762770234
 20
-140.8685763536718
 30
0.0
 10
100.2567572449011
 20
-140.8747775255452
 30
0.0
 10
100.2715711554877
 20
-140.879256149676
 30
0.0
 10
100.2715711554877
 20
-140.8940700602626
 30
0.0
 10
100.2715711554877
 20
-140.9150851427226
 30
0.0
 10
100.2440103916057
 20
-140.9192192573049
 30
0.0
 10
100.2209282518545
 20
-140.9233533718872
 30
0.0
 10
100.2081813985591
 20
-140.9553927599
 30
0.0
 10
100.1933674879725
 20
-140.9891546956555
 30
0.0
 10
100.1702853482213
 20
-141.043931713871
 30
0.0
 10
100.1702853482213
 20
-141.043931713871
 30
0.0
 10
100.4386582865223
 20
-141.043931713871
 30
0.0
 10
100.4386582865223
 20
-141.043931713871
 30
0.0
 10
100.4999809861597
 20
-141.043931713871
 30
0.0
 10
100.7773111727223
 20
-141.0315293701241
 30
0.0
 10
100.8344997577775
 20
-141.0291178032844
 30
0.0
 10
100.8344997577775
 20
-141.0291178032844
 30
0.0
 10
100.8344997577775
 20
-141.2089517876144
 30
0.0
 10
100.8344997577775
 20
-141.2089517876144
 30
0.0
 10
100.7773111727223
 20
-141.2048176730321
 30
0.0
 10
100.59334307381
 20
-141.1965494438675
 30
0.0
 10
100.4217773186446
 20
-141.1965494438675
 30
0.0
  0
SPLINE
  5
DB
330
CC
100
AcDbEntity
  8
_U+30EC_U+30A4_U+30E4_U+30FC 1
370
     0
100
AcDbSpline
210
0.0
220
0.0
230
1.0
 70
    11
 71
     3
 72
    17
 73
    13
 74
     0
 42
0.0000000001
 43
0.0000000001
 12
1.0
 22
0.0
 32
0.0
 13
1.0
 23
0.0
 33
0.0
 40
0.0
 40
0.0
 40
0.0
 40
0.0
 40
1.0
 40
1.0
 40
1.0
 40
2.0
 40
2.0
 40
2.0
 40
3.0
 40
3.0
 40
3.0
 40
4.0
 40
4.0
 40
4.0
 40
4.0
 10
99.12504337799652
 20
-142.0933077986781
 30
0.0
 10
99.05097382506365
 20
-142.0109700165806
 30
0.0
 10
98.98758406813505
 20
-141.9599826033989
 30
0.0
 10
98.87768552215559
 20
-141.8945257891791
 30
0.0
 10
98.87768552215559
 20
-141.8945257891791
 30
0.0
 10
98.99826386413933
 20
-141.7570664793177
 30
0.0
 10
98.99826386413933
 20
-141.7570664793177
 30
0.0
 10
99.09541555682337
 20
-141.8183891789551
 30
0.0
 10
99.15880531375197
 20
-141.8710991398794
 30
0.0
 10
99.234941923976
 20
-141.947580259652
 30
0.0
 10
99.234941923976
 20
-141.947580259652
 30
0.0
 10
99.12504337799652
 20
-142.0933077986781
 30
0.0
 10
99.12504337799652
 20
-142.0933077986781
 30
0.0
  0
SPLINE
  5
DC
330
CC
100
AcDbEntity
  8
_U+30EC_U+30A4_U+30E4_U+30FC 1
370
     0
100
AcDbSpline
210
0.0
220
0.0
230
1.0
 70
    11
 71
     3
 72
    29
 73
    25
 74
     0
 42
0.0000000001
 43
0.0000000001
 12
1.0
 22
0.0
 32
0.0
 13
1.0
 23
0.0
 33
0.0
 40
0.0
 40
0.0
 40
0.0
 40
0.0
 40
1.0
 40
1.0
 40
1.0
 40
2.0
 40
2.0
 40
2.0
 40
3.0
 40
3.0
 40
3.0
 40
4.0
 40
4.0
 40
4.0
 40
5.0
 40
5.0
 40
5.0
 40
6.0
 40
6.0
 40
6.0
 40
7.0
 40
7.0
 40
7.0
 40
8.0
 40
8.0
 40
8.0
 40
8.0
 10
99.35552026595974
 20
-142.3578911319453
 30
0.0
 10
99.33450518349972
 20
-142.402332863705
 30
0.0
 10
99.2308078093937
 20
-142.5776882239042
 30
0.0
 10
99.1715521670474
 20
-142.6793185407191
 30
0.0
 10
99.17809784846936
 20
-142.6920653940145
 30
0.0
 10
99.18429902034282
 20
-142.7068793046011
 30
0.0
 10
99.18429902034282
 20
-142.7216932151876
 30
0.0
 10
99.18429902034282
 20
-142.7303059539008
 30
0.0
 10
99.18016490576052
 20
-142.7427082976477
 30
0.0
 10
99.1632839378828
 20
-142.7427082976477
 30
0.0
 10
99.15260414187853
 20
-142.7427082976477
 30
0.0
 10
99.1398572885831
 20
-142.7365071257742
 30
0.0
 10
99.1357231740008
 20
-142.7344400684831
 30
0.0
 10
99.1357231740008
 20
-142.7344400684831
 30
0.0
 10
98.96656898567502
 20
-142.630742694377
 30
0.0
 10
98.96656898567502
 20
-142.630742694377
 30
0.0
 10
99.09748261411453
 20
-142.4826035885113
 30
0.0
 10
99.27731659844457
 20
-142.1442952118598
 30
0.0
 10
99.34518497950398
 20
-141.9389675209389
 30
0.0
 10
99.34518497950398
 20
-141.9389675209389
 30
0.0
 10
99.48677840394775
 20
-142.0743597735092
 30
0.0
 10
99.48677840394775
 20
-142.0743597735092
 30
0.0
 10
99.4612846973569
 20
-142.1418836450201
 30
0.0
 10
99.40202905501062
 20
-142.2648735538435
 30
0.0
 10
99.35552026595974
 20
-142.3578911319453
 30
0.0
  0
SPLINE
  5
DD
330
CC
100
AcDbEntity
  8
_U+30EC_U+30A4_U+30E4_U+30FC 1
370
     0
100
AcDbSpline
210
0.0
220
0.0
230
1.0
 70
    11
 71
     3
 72
    17
 73
    13
 74
     0
 42
0.0000000001
 43
0.0000000001
 12
1.0
 22
0.0
 32
0.0
 13
1.0
 23
0.0
 33
0.0
 40
0.0
 40
0.0
 40
0.0
 40
0.0
 40
1.0
 40
1.0
 40
1.0
 40
2.0
 40
2.0
 40
2.0
 40
3.0
 40
3.0
 40
3.0
 40
4.0
 40
4.0
 40
4.0
 40
4.0
 10
99.34518497950398
 20
-141.767746275322
 30
0.0
 10
99.26043563056685
 20
-141.6723171303805
 30
0.0
 10
99.18636607763396
 20
-141.6109944307431
 30
0.0
 10
99.07853458894564
 20
-141.541403501941
 30
0.0
 10
99.07853458894564
 20
-141.541403501941
 30
0.0
 10
99.19704587363825
 20
-141.4060112493707
 30
0.0
 10
99.19704587363825
 20
-141.4060112493707
 30
0.0
 10
99.27731659844457
 20
-141.458721210295
 30
0.0
 10
99.39169376855486
 20
-141.5455376165233
 30
0.0
 10
99.45921764006576
 20
-141.6278753986208
 30
0.0
 10
99.45921764006576
 20
-141.6278753986208
 30
0.0
 10
99.34518497950398
 20
-141.767746275322
 30
0.0
 10
99.34518497950398
 20
-141.767746275322
 30
0.0
  0
SPLINE
  5
DE
330
CC
100
AcDbEntity
  8
_U+30EC_U+30A4_U+30E4_U+30FC 1
370
     0
100
AcDbSpline
210
0.0
220
0.0
230
1.0
 70
    11
 71
     3
 72
    71
 73
    67
 74
     0
 42
0.0000000001
 43
0.0000000001
 12
1.0
 22
0.0
 32
0.0
 13
1.0
 23
0.0
 33
0.0
 40
0.0
 40
0.0
 40
0.0
 40
0.0
 40
1.0
 40
1.0
 40
1.0
 40
2.0
 40
2.0
 40
2.0
 40
3.0
 40
3.0
 40
3.0
 40
4.0
 40
4.0
 40
4.0
 40
5.0
 40
5.0
 40
5.0
 40
6.0
 40
6.0
 40
6.0
 40
7.0
 40
7.0
 40
7.0
 40
8.0
 40
8.0
 40
8.0
 40
9.0
 40
9.0
 40
9.0
 40
10.0
 40
10.0
 40
10.0
 40
11.0
 40
11.0
 40
11.0
 40
12.0
 40
12.0
 40
12.0
 40
13.0
 40
13.0
 40
13.0
 40
14.0
 40
14.0
 40
14.0
 40
15.0
 40
15.0
 40
15.0
 40
16.0
 40
16.0
 40
16.0
 40
17.0
 40
17.0
 40
17.0
 40
18.0
 40
18.0
 40
18.0
 40
19.0
 40
19.0
 40
19.0
 40
20.0
 40
20.0
 40
20.0
 40
21.0
 40
21.0
 40
21.0
 40
22.0
 40
22.0
 40
22.0
 40
22.0
 10
100.7118543585026
 20
-141.9772080808251
 30
0.0
 10
100.7118543585026
 20
-141.9772080808251
 30
0.0
 10
100.7118543585026
 20
-142.3640923038187
 30
0.0
 10
100.7118543585026
 20
-142.3640923038187
 30
0.0
 10
100.7118543585026
 20
-142.3640923038187
 30
0.0
 10
100.7118543585026
 20
-142.4192138315827
 30
0.0
 10
100.7118543585026
 20
-142.4192138315827
 30
0.0
 10
100.7118543585026
 20
-142.450908710047
 30
0.0
 10
100.7159884730849
 20
-142.6328097516682
 30
0.0
 10
100.7201225876672
 20
-142.7258273297699
 30
0.0
 10
100.7201225876672
 20
-142.7258273297699
 30
0.0
 10
100.5065266675817
 20
-142.7258273297699
 30
0.0
 10
100.5065266675817
 20
-142.7258273297699
 30
0.0
 10
100.510660782164
 20
-142.6603705155502
 30
0.0
 10
100.510660782164
 20
-142.6517577768371
 30
0.0
 10
100.5147948967463
 20
-142.5800997907439
 30
0.0
 10
100.5147948967463
 20
-142.5800997907439
 30
0.0
 10
99.75756290908839
 20
-142.5800997907439
 30
0.0
 10
99.75756290908839
 20
-142.5800997907439
 30
0.0
 10
99.75756290908839
 20
-142.5800997907439
 30
0.0
 10
99.76410859051036
 20
-142.7385741830654
 30
0.0
 10
99.76410859051036
 20
-142.7385741830654
 30
0.0
 10
99.76410859051036
 20
-142.7385741830654
 30
0.0
 10
99.55671384229832
 20
-142.7385741830654
 30
0.0
 10
99.55671384229832
 20
-142.7385741830654
 30
0.0
 10
99.55878089958948
 20
-142.7089463618922
 30
0.0
 10
99.56084795688062
 20
-142.6941324513056
 30
0.0
 10
99.56498207146292
 20
-142.5735541093219
 30
0.0
 10
99.56704912875408
 20
-142.5377251162753
 30
0.0
 10
99.56946069559375
 20
-142.374772099823
 30
0.0
 10
99.56946069559375
 20
-142.3410101640675
 30
0.0
 10
99.56946069559375
 20
-142.3410101640675
 30
0.0
 10
99.56946069559375
 20
-141.9623941702386
 30
0.0
 10
99.56946069559375
 20
-141.9623941702386
 30
0.0
 10
99.56946069559375
 20
-141.843882885546
 30
0.0
 10
99.56291501417178
 20
-141.6661159585071
 30
0.0
 10
99.56084795688062
 20
-141.6151285453254
 30
0.0
 10
99.63078339523119
 20
-141.6216742267474
 30
0.0
 10
99.84644637260784
 20
-141.6258083413297
 30
0.0
 10
99.92465004012301
 20
-141.6258083413297
 30
0.0
 10
99.92465004012301
 20
-141.6258083413297
 30
0.0
 10
99.96702471459159
 20
-141.6258083413297
 30
0.0
 10
99.96702471459159
 20
-141.6258083413297
 30
0.0
 10
99.98803979705161
 20
-141.5562174125276
 30
0.0
 10
100.0114664463513
 20
-141.4607882675862
 30
0.0
 10
100.0176676182247
 20
-141.3887857719445
 30
0.0
 10
100.0176676182247
 20
-141.3887857719445
 30
0.0
 10
100.2040472839768
 20
-141.4418402424173
 30
0.0
 10
100.2040472839768
 20
-141.4418402424173
 30
0.0
 10
100.2398762770234
 20
-141.4525200384216
 30
0.0
 10
100.2484890157365
 20
-141.4525200384216
 30
0.0
 10
100.2484890157365
 20
-141.4714680635905
 30
0.0
 10
100.2484890157365
 20
-141.4904160887594
 30
0.0
 10
100.2209282518545
 20
-141.5010958847636
 30
0.0
 10
100.1954345452637
 20
-141.5117756807679
 30
0.0
 10
100.1847547492594
 20
-141.5538058456879
 30
0.0
 10
100.1764865200948
 20
-141.58136660957
 30
0.0
 10
100.1575384949259
 20
-141.6258083413297
 30
0.0
 10
100.1575384949259
 20
-141.6258083413297
 30
0.0
 10
100.3287597405428
 20
-141.6258083413297
 30
0.0
 10
100.3287597405428
 20
-141.6258083413297
 30
0.0
 10
100.3921494974714
 20
-141.6258083413297
 30
0.0
 10
100.662934002612
 20
-141.6175401121651
 30
0.0
 10
100.7242567022495
 20
-141.6151285453254
 30
0.0
 10
100.7159884730849
 20
-141.7274386581445
 30
0.0
 10
100.7118543585026
 20
-141.8352701468329
 30
0.0
 10
100.7118543585026
 20
-141.9772080808251
 30
0.0
  0
POLYLINE
  5
DF
330
CC
100
AcDbEntity
  8
_U+30EC_U+30A4_U+30E4_U+30FC 1
370
     0
100
AcDb2dPolyline
 66
     1
 10
0.0
 20
0.0
 30
0.0
  0
VERTEX
  5
E0
330
DF
100
AcDbEntity
  8
_U+30EC_U+30A4_U+30E4_U+30FC 1
370
     0
100
AcDbVertex
100
AcDb2dVertex
 10
100.5213405781683
 20
-141.7866943004908
 30
0.0
  0
VERTEX
  5
E1
330
DF
100
AcDbEntity
  8
_U+30EC_U+30A4_U+30E4_U+30FC 1
370
     0
100
AcDbVertex
100
AcDb2dVertex
 10
99.75342879450609
 20
-141.7866943004908
 30
0.0
  0
VERTEX
  5
E2
330
DF
100
AcDbEntity
  8
_U+30EC_U+30A4_U+30E4_U+30FC 1
370
     0
100
AcDbVertex
100
AcDb2dVertex
 10
99.75342879450609
 20
-142.0151041311629
 30
0.0
  0
VERTEX
  5
E3
330
DF
100
AcDbEntity
  8
_U+30EC_U+30A4_U+30E4_U+30FC 1
370
     0
100
AcDbVertex
100
AcDb2dVertex
 10
100.5213405781683
 20
-142.0151041311629
 30
0.0
  0
VERTEX
  5
E4
330
DF
100
AcDbEntity
  8
_U+30EC_U+30A4_U+30E4_U+30FC 1
370
     0
100
AcDbVertex
100
AcDb2dVertex
 10
100.5213405781683
 20
-141.7866943004908
 30
0.0
  0
SEQEND
  5
E5
330
DF
100
AcDbEntity
  8
_U+30EC_U+30A4_U+30E4_U+30FC 1
370
     0
  0
POLYLINE
  5
E6
330
CC
100
AcDbEntity
  8
_U+30EC_U+30A4_U+30E4_U+30FC 1
370
     0
100
AcDb2dPolyline
 66
     1
 10
0.0
 20
0.0
 30
0.0
  0
VERTEX
  5
E7
330
E6
100
AcDbEntity
  8
_U+30EC_U+30A4_U+30E4_U+30FC 1
370
     0
100
AcDbVertex
100
AcDb2dVertex
 10
100.5213405781683
 20
-142.167377351611
 30
0.0
  0
VERTEX
  5
E8
330
E6
100
AcDbEntity
  8
_U+30EC_U+30A4_U+30E4_U+30FC 1
370
     0
100
AcDbVertex
100
AcDb2dVertex
 10
99.75342879450609
 20
-142.167377351611
 30
0.0
  0
VERTEX
  5
E9
330
E6
100
AcDbEntity
  8
_U+30EC_U+30A4_U+30E4_U+30FC 1
370
     0
100
AcDbVertex
100
AcDb2dVertex
 10
99.75342879450609
 20
-142.4043999209961
 30
0.0
  0
VERTEX
  5
EA
330
E6
100
AcDbEntity
  8
_U+30EC_U+30A4_U+30E4_U+30FC 1
370
     0
100
AcDbVertex
100
AcDb2dVertex
 10
100.5213405781683
 20
-142.4043999209961
 30
0.0
  0
VERTEX
  5
EB
330
E6
100
AcDbEntity
  8
_U+30EC_U+30A4_U+30E4_U+30FC 1
370
     0
100
AcDbVertex
100
AcDb2dVertex
 10
100.5213405781683
 20
-142.167377351611
 30
0.0
  0
SEQEND
  5
EC
330
E6
100
AcDbEntity
  8
_U+30EC_U+30A4_U+30E4_U+30FC 1
370
     0
  0
HATCH
  5
ED
330
CC
100
AcDbEntity
  8
_U+30EC_U+30A4_U+30E4_U+30FC 1
 62
   179
420
  2234388
100
AcDbHatch
 10
0.0
 20
0.0
 30
0.0
210
0.0
220
0.0
230
1.0
  2
SOLID
 70
     1
 71
     0
 91
        7
 92
        1
 93
        1
 72
     4
 94
        3
 73
     0
 74
     1
 95
      104
 96
      100
 40
0.0
 40
0.0
 40
0.0
 40
0.0
 40
1.0
 40
1.0
 40
1.0
 40
2.0
 40
2.0
 40
2.0
 40
3.0
 40
3.0
 40
3.0
 40
4.0
 40
4.0
 40
4.0
 40
5.0
 40
5.0
 40
5.0
 40
6.0
 40
6.0
 40
6.0
 40
7.0
 40
7.0
 40
7.0
 40
8.0
 40
8.0
 40
8.0
 40
9.0
 40
9.0
 40
9.0
 40
10.0
 40
10.0
 40
10.0
 40
11.0
 40
11.0
 40
11.0
 40
12.0
 40
12.0
 40
12.0
 40
13.0
 40
13.0
 40
13.0
 40
14.0
 40
14.0
 40
14.0
 40
15.0
 40
15.0
 40
15.0
 40
16.0
 40
16.0
 40
16.0
 40
17.0
 40
17.0
 40
17.0
 40
18.0
 40
18.0
 40
18.0
 40
19.0
 40
19.0
 40
19.0
 40
20.0
 40
20.0
 40
20.0
 40
21.0
 40
21.0
 40
21.0
 40
22.0
 40
22.0
 40
22.0
 40
23.0
 40
23.0
 40
23.0
 40
24.0
 40
24.0
 40
24.0
 40
25.0
 40
25.0
 40
25.0
 40
26.0
 40
26.0
 40
26.0
 40
27.0
 40
27.0
 40
27.0
 40
28.0
 40
28.0
 40
28.0
 40
29.0
 40
29.0
 40
29.0
 40
30.0
 40
30.0
 40
30.0
 40
31.0
 40
31.0
 40
31.0
 40
32.0
 40
32.0
 40
32.0
 40
33.0
 40
33.0
 40
33.0
 40
33.0
 10
100.4217773186446
 20
-141.1965494438675
 10
100.4534721971089
 20
-141.2533935193742
 10
100.483100018282
 20
-141.3295301295982
 10
100.4999809861597
 20
-141.4142794785353
 10
100.4999809861597
 20
-141.4142794785353
 10
100.3180799445385
 20
-141.4821478595948
 10
100.3180799445385
 20
-141.4821478595948
 10
100.2929307474962
 20
-141.3677706894844
 10
100.2781168369096
 20
-141.3023138752647
 10
100.2188611945633
 20
-141.1965494438675
 10
100.2188611945633
 20
-141.1965494438675
 10
100.0982828525796
 20
-141.1965494438675
 10
100.0982828525796
 20
-141.1965494438675
 10
100.0093993890601
 20
-141.361569517611
 10
99.97115882917389
 20
-141.4035996825311
 10
99.94153100800074
 20
-141.437706127835
 10
99.94153100800074
 20
-141.437706127835
 10
99.73861488391952
 20
-141.3657036321933
 10
99.73861488391952
 20
-141.3657036321933
 10
99.77892250109694
 20
-141.3295301295982
 10
99.84437931531669
 20
-141.2726860540916
 10
99.89088810436756
 20
-141.2048176730321
 10
99.83576657660356
 20
-141.202750615741
 10
99.66454533098664
 20
-141.202750615741
 10
99.60115557405805
 20
-141.202750615741
 10
99.60115557405805
 20
-141.202750615741
 10
99.5715277528849
 20
-141.202750615741
 10
99.5715277528849
 20
-141.202750615741
 10
99.6073567459315
 20
-141.2726860540916
 10
99.65179847769122
 20
-141.3698377467756
 10
99.67729218428207
 20
-141.4501084715819
 10
99.67729218428207
 20
-141.4501084715819
 10
99.49539114266088
 20
-141.5241780245148
 10
99.49539114266088
 20
-141.5241780245148
 10
99.47851017478315
 20
-141.4649223821685
 10
99.44440372947918
 20
-141.3508897216067
 10
99.36826711925517
 20
-141.202750615741
 10
99.36826711925517
 20
-141.202750615741
 10
99.25836857327569
 20
-141.202750615741
 10
99.25836857327569
 20
-141.202750615741
 10
99.25182289185372
 20
-141.2089517876144
 10
99.15673825646083
 20
-141.3191948431424
 10
99.06165362106792
 20
-141.4015326252399
 10
99.06165362106792
 20
-141.4015326252399
 10
98.86907278344246
 20
-141.3023138752647
 10
98.86907278344246
 20
-141.3023138752647
 10
98.9620903615442
 20
-141.2492594047919
 10
99.04270559589905
 20
-141.175189851859
 10
99.1122965247011
 20
-141.0928520697615
 10
99.19911293092939
 20
-140.9891546956555
 10
99.23942054810682
 20
-140.8875243788406
 10
99.27318248386227
 20
-140.7924397434477
 10
99.27318248386227
 20
-140.7924397434477
 10
99.46576332148773
 20
-140.8747775255452
 10
99.46576332148773
 20
-140.8747775255452
 10
99.48057723207431
 20
-140.8813232069672
 10
99.49091251853005
 20
-140.8895914361318
 10
99.49091251853005
 20
-140.900271232136
 10
99.49091251853005
 20
-140.9212863145961
 10
99.46576332148773
 20
-140.9257649387269
 10
99.43613550031458
 20
-140.9298990533092
 10
99.39996199771946
 20
-140.9912217529466
 10
99.38721514442403
 20
-141.0122368354067
 10
99.36826711925517
 20
-141.0418646565798
 10
99.36826711925517
 20
-141.0418646565798
 10
99.60115557405805
 20
-141.0418646565798
 10
99.60115557405805
 20
-141.0418646565798
 10
99.64973142040007
 20
-141.0418646565798
 10
99.85919322590327
 20
-141.0356634847064
 10
99.90363495766299
 20
-141.0335964274152
 10
99.90363495766299
 20
-141.0335964274152
 10
99.90363495766299
 20
-141.1858696478633
 10
99.90363495766299
 20
-141.1858696478633
 10
99.94600963213156
 20
-141.1159342095127
 10
100.0221462423556
 20
-140.9298990533092
 10
100.0452283821068
 20
-140.8027750299035
 10
100.0452283821068
 20
-140.8027750299035
 10
100.2398762770234
 20
-140.8685763536718
 10
100.2398762770234
 20
-140.8685763536718
 10
100.2567572449011
 20
-140.8747775255452
 10
100.2715711554877
 20
-140.879256149676
 10
100.2715711554877
 20
-140.8940700602626
 10
100.2715711554877
 20
-140.9150851427226
 10
100.2440103916057
 20
-140.9192192573049
 10
100.2209282518545
 20
-140.9233533718872
 10
100.2081813985591
 20
-140.9553927599
 10
100.1933674879725
 20
-140.9891546956555
 10
100.1702853482213
 20
-141.043931713871
 10
100.1702853482213
 20
-141.043931713871
 10
100.4386582865223
 20
-141.043931713871
 10
100.4386582865223
 20
-141.043931713871
 10
100.4999809861597
 20
-141.043931713871
 10
100.7773111727223
 20
-141.0315293701241
 10
100.8344997577775
 20
-141.0291178032844
 10
100.8344997577775
 20
-141.0291178032844
 10
100.8344997577775
 20
-141.2089517876144
 10
100.8344997577775
 20
-141.2089517876144
 10
100.7773111727223
 20
-141.2048176730321
 10
100.59334307381
 20
-141.1965494438675
 10
100.4217773186446
 20
-141.1965494438675
 97
        0
 97
        0
 92
        1
 93
        1
 72
     4
 94
        3
 73
     0
 74
     1
 95
       17
 96
       13
 40
0.0
 40
0.0
 40
0.0
 40
0.0
 40
1.0
 40
1.0
 40
1.0
 40
2.0
 40
2.0
 40
2.0
 40
3.0
 40
3.0
 40
3.0
 40
4.0
 40
4.0
 40
4.0
 40
4.0
 10
99.12504337799652
 20
-142.0933077986781
 10
99.05097382506365
 20
-142.0109700165806
 10
98.98758406813505
 20
-141.9599826033989
 10
98.87768552215559
 20
-141.8945257891791
 10
98.87768552215559
 20
-141.8945257891791
 10
98.99826386413933
 20
-141.7570664793177
 10
98.99826386413933
 20
-141.7570664793177
 10
99.09541555682337
 20
-141.8183891789551
 10
99.15880531375197
 20
-141.8710991398794
 10
99.234941923976
 20
-141.947580259652
 10
99.234941923976
 20
-141.947580259652
 10
99.12504337799652
 20
-142.0933077986781
 10
99.12504337799652
 20
-142.0933077986781
 97
        0
 97
        0
 92
        1
 93
        1
 72
     4
 94
        3
 73
     0
 74
     1
 95
       29
 96
       25
 40
0.0
 40
0.0
 40
0.0
 40
0.0
 40
1.0
 40
1.0
 40
1.0
 40
2.0
 40
2.0
 40
2.0
 40
3.0
 40
3.0
 40
3.0
 40
4.0
 40
4.0
 40
4.0
 40
5.0
 40
5.0
 40
5.0
 40
6.0
 40
6.0
 40
6.0
 40
7.0
 40
7.0
 40
7.0
 40
8.0
 40
8.0
 40
8.0
 40
8.0
 10
99.35552026595974
 20
-142.3578911319453
 10
99.33450518349972
 20
-142.402332863705
 10
99.2308078093937
 20
-142.5776882239042
 10
99.1715521670474
 20
-142.6793185407191
 10
99.17809784846936
 20
-142.6920653940145
 10
99.18429902034282
 20
-142.7068793046011
 10
99.18429902034282
 20
-142.7216932151876
 10
99.18429902034282
 20
-142.7303059539008
 10
99.18016490576052
 20
-142.7427082976477
 10
99.1632839378828
 20
-142.7427082976477
 10
99.15260414187853
 20
-142.7427082976477
 10
99.1398572885831
 20
-142.7365071257742
 10
99.1357231740008
 20
-142.7344400684831
 10
99.1357231740008
 20
-142.7344400684831
 10
98.96656898567502
 20
-142.630742694377
 10
98.96656898567502
 20
-142.630742694377
 10
99.09748261411453
 20
-142.4826035885113
 10
99.27731659844457
 20
-142.1442952118598
 10
99.34518497950398
 20
-141.9389675209389
 10
99.34518497950398
 20
-141.9389675209389
 10
99.48677840394775
 20
-142.0743597735092
 10
99.48677840394775
 20
-142.0743597735092
 10
99.4612846973569
 20
-142.1418836450201
 10
99.40202905501062
 20
-142.2648735538435
 10
99.35552026595974
 20
-142.3578911319453
 97
        0
 97
        0
 92
        1
 93
        1
 72
     4
 94
        3
 73
     0
 74
     1
 95
       17
 96
       13
 40
0.0
 40
0.0
 40
0.0
 40
0.0
 40
1.0
 40
1.0
 40
1.0
 40
2.0
 40
2.0
 40
2.0
 40
3.0
 40
3.0
 40
3.0
 40
4.0
 40
4.0
 40
4.0
 40
4.0
 10
99.34518497950398
 20
-141.767746275322
 10
99.26043563056685
 20
-141.6723171303805
 10
99.18636607763396
 20
-141.6109944307431
 10
99.07853458894564
 20
-141.541403501941
 10
99.07853458894564
 20
-141.541403501941
 10
99.19704587363825
 20
-141.4060112493707
 10
99.19704587363825
 20
-141.4060112493707
 10
99.27731659844457
 20
-141.458721210295
 10
99.39169376855486
 20
-141.5455376165233
 10
99.45921764006576
 20
-141.6278753986208
 10
99.45921764006576
 20
-141.6278753986208
 10
99.34518497950398
 20
-141.767746275322
 10
99.34518497950398
 20
-141.767746275322
 97
        0
 97
        0
 92
        1
 93
        1
 72
     4
 94
        3
 73
     0
 74
     1
 95
       71
 96
       67
 40
0.0
 40
0.0
 40
0.0
 40
0.0
 40
1.0
 40
1.0
 40
1.0
 40
2.0
 40
2.0
 40
2.0
 40
3.0
 40
3.0
 40
3.0
 40
4.0
 40
4.0
 40
4.0
 40
5.0
 40
5.0
 40
5.0
 40
6.0
 40
6.0
 40
6.0
 40
7.0
 40
7.0
 40
7.0
 40
8.0
 40
8.0
 40
8.0
 40
9.0
 40
9.0
 40
9.0
 40
10.0
 40
10.0
 40
10.0
 40
11.0
 40
11.0
 40
11.0
 40
12.0
 40
12.0
 40
12.0
 40
13.0
 40
13.0
 40
13.0
 40
14.0
 40
14.0
 40
14.0
 40
15.0
 40
15.0
 40
15.0
 40
16.0
 40
16.0
 40
16.0
 40
17.0
 40
17.0
 40
17.0
 40
18.0
 40
18.0
 40
18.0
 40
19.0
 40
19.0
 40
19.0
 40
20.0
 40
20.0
 40
20.0
 40
21.0
 40
21.0
 40
21.0
 40
22.0
 40
22.0
 40
22.0
 40
22.0
 10
100.7118543585026
 20
-141.9772080808251
 10
100.7118543585026
 20
-141.9772080808251
 10
100.7118543585026
 20
-142.3640923038187
 10
100.7118543585026
 20
-142.3640923038187
 10
100.7118543585026
 20
-142.3640923038187
 10
100.7118543585026
 20
-142.4192138315827
 10
100.7118543585026
 20
-142.4192138315827
 10
100.7118543585026
 20
-142.450908710047
 10
100.7159884730849
 20
-142.6328097516682
 10
100.7201225876672
 20
-142.7258273297699
 10
100.7201225876672
 20
-142.7258273297699
 10
100.5065266675817
 20
-142.7258273297699
 10
100.5065266675817
 20
-142.7258273297699
 10
100.510660782164
 20
-142.6603705155502
 10
100.510660782164
 20
-142.6517577768371
 10
100.5147948967463
 20
-142.5800997907439
 10
100.5147948967463
 20
-142.5800997907439
 10
99.75756290908839
 20
-142.5800997907439
 10
99.75756290908839
 20
-142.5800997907439
 10
99.75756290908839
 20
-142.5800997907439
 10
99.76410859051036
 20
-142.7385741830654
 10
99.76410859051036
 20
-142.7385741830654
 10
99.76410859051036
 20
-142.7385741830654
 10
99.55671384229832
 20
-142.7385741830654
 10
99.55671384229832
 20
-142.7385741830654
 10
99.55878089958948
 20
-142.7089463618922
 10
99.56084795688062
 20
-142.6941324513056
 10
99.56498207146292
 20
-142.5735541093219
 10
99.56704912875408
 20
-142.5377251162753
 10
99.56946069559375
 20
-142.374772099823
 10
99.56946069559375
 20
-142.3410101640675
 10
99.56946069559375
 20
-142.3410101640675
 10
99.56946069559375
 20
-141.9623941702386
 10
99.56946069559375
 20
-141.9623941702386
 10
99.56946069559375
 20
-141.843882885546
 10
99.56291501417178
 20
-141.6661159585071
 10
99.56084795688062
 20
-141.6151285453254
 10
99.63078339523119
 20
-141.6216742267474
 10
99.84644637260784
 20
-141.6258083413297
 10
99.92465004012301
 20
-141.6258083413297
 10
99.92465004012301
 20
-141.6258083413297
 10
99.96702471459159
 20
-141.6258083413297
 10
99.96702471459159
 20
-141.6258083413297
 10
99.98803979705161
 20
-141.5562174125276
 10
100.0114664463513
 20
-141.4607882675862
 10
100.0176676182247
 20
-141.3887857719445
 10
100.0176676182247
 20
-141.3887857719445
 10
100.2040472839768
 20
-141.4418402424173
 10
100.2040472839768
 20
-141.4418402424173
 10
100.2398762770234
 20
-141.4525200384216
 10
100.2484890157365
 20
-141.4525200384216
 10
100.2484890157365
 20
-141.4714680635905
 10
100.2484890157365
 20
-141.4904160887594
 10
100.2209282518545
 20
-141.5010958847636
 10
100.1954345452637
 20
-141.5117756807679
 10
100.1847547492594
 20
-141.5538058456879
 10
100.1764865200948
 20
-141.58136660957
 10
100.1575384949259
 20
-141.6258083413297
 10
100.1575384949259
 20
-141.6258083413297
 10
100.3287597405428
 20
-141.6258083413297
 10
100.3287597405428
 20
-141.6258083413297
 10
100.3921494974714
 20
-141.6258083413297
 10
100.662934002612
 20
-141.6175401121651
 10
100.7242567022495
 20
-141.6151285453254
 10
100.7159884730849
 20
-141.7274386581445
 10
100.7118543585026
 20
-141.8352701468329
 10
100.7118543585026
 20
-141.9772080808251
 97
        0
 97
        0
 92
        1
 93
        4
 72
     1
 10
100.5213405781683
 20
-141.7866943004908
 11
99.75342879450609
 21
-141.7866943004908
 72
     1
 10
99.75342879450609
 20
-141.7866943004908
 11
99.75342879450609
 21
-142.0151041311629
 72
     1
 10
99.75342879450609
 20
-142.0151041311629
 11
100.5213405781683
 21
-142.0151041311629
 72
     1
 10
100.5213405781683
 20
-142.0151041311629
 11
100.5213405781683
 21
-141.7866943004908
 97
        0
 92
        1
 93
        4
 72
     1
 10
100.5213405781683
 20
-142.167377351611
 11
99.75342879450609
 21
-142.167377351611
 72
     1
 10
99.75342879450609
 20
-142.167377351611
 11
99.75342879450609
 21
-142.4043999209961
 72
     1
 10
99.75342879450609
 20
-142.4043999209961
 11
100.5213405781683
 21
-142.4043999209961
 72
     1
 10
100.5213405781683
 20
-142.4043999209961
 11
100.5213405781683
 21
-142.167377351611
 97
        0
 75
     2
 76
     1
 98
        0
  0
ENDBLK
  5
CF
330
CC
100
AcDbEntity
  8
0
100
AcDbBlockEnd
  0
BLOCK
  5
100
330
FE
100
AcDbEntity
  8
0
100
AcDbBlockBegin
  2
block 4
 70
     0
 10
0.0
 20
0.0
 30
0.0
  3
block 4
  1

  0
SPLINE
  5
102
330
FE
100
AcDbEntity
  8
_U+30EC_U+30A4_U+30E4_U+30FC 1
370
     0
100
AcDbSpline
210
0.0
220
0.0
230
1.0
 70
    11
 71
     3
 72
    26
 73
    22
 74
     0
 42
0.0000000001
 43
0.0000000001
 12
1.0
 22
0.0
 32
0.0
 13
1.0
 23
0.0
 33
0.0
 40
0.0
 40
0.0
 40
0.0
 40
0.0
 40
1.0
 40
1.0
 40
1.0
 40
2.0
 40
2.0
 40
2.0
 40
3.0
 40
3.0
 40
3.0
 40
4.0
 40
4.0
 40
4.0
 40
5.0
 40
5.0
 40
5.0
 40
6.0
 40
6.0
 40
6.0
 40
7.0
 40
7.0
 40
7.0
 40
7.0
 10
102.9842393405734
 20
-119.346375838219
 30
0.0
 10
102.9842393405734
 20
-119.346375838219
 30
0.0
 10
101.8800862375508
 20
-119.346375838219
 30
0.0
 10
101.8800862375508
 20
-119.346375838219
 30
0.0
 10
101.8800862375508
 20
-119.346375838219
 30
0.0
 10
101.8800862375508
 20
-119.6764159857059
 30
0.0
 10
101.8800862375508
 20
-119.6764159857059
 30
0.0
 10
101.8800862375508
 20
-119.6764159857059
 30
0.0
 10
101.7319471316851
 20
-119.6764159857059
 30
0.0
 10
101.7319471316851
 20
-119.6764159857059
 30
0.0
 10
101.7171332210985
 20
-119.3443087809278
 30
0.0
 10
101.5541802046462
 20
-119.2977999918769
 30
0.0
 10
101.4398030345359
 20
-119.2681721707038
 30
0.0
 10
101.4398030345359
 20
-119.2681721707038
 30
0.0
 10
101.4398030345359
 20
-119.1221001221292
 30
0.0
 10
101.4398030345359
 20
-119.1221001221292
 30
0.0
 10
101.4398030345359
 20
-119.1221001221292
 30
0.0
 10
102.9842393405734
 20
-119.1221001221292
 30
0.0
 10
102.9842393405734
 20
-119.1221001221292
 30
0.0
 10
102.9842393405734
 20
-119.1221001221292
 30
0.0
 10
102.9842393405734
 20
-119.346375838219
 30
0.0
 10
102.9842393405734
 20
-119.346375838219
 30
0.0
  0
HATCH
  5
103
330
FE
100
AcDbEntity
  8
_U+30EC_U+30A4_U+30E4_U+30FC 1
 62
   179
420
  2234388
100
AcDbHatch
 10
0.0
 20
0.0
 30
0.0
210
0.0
220
0.0
230
1.0
  2
SOLID
 70
     1
 71
     0
 91
        1
 92
        1
 93
        1
 72
     4
 94
        3
 73
     0
 74
     1
 95
       26
 96
       22
 40
0.0
 40
0.0
 40
0.0
 40
0.0
 40
1.0
 40
1.0
 40
1.0
 40
2.0
 40
2.0
 40
2.0
 40
3.0
 40
3.0
 40
3.0
 40
4.0
 40
4.0
 40
4.0
 40
5.0
 40
5.0
 40
5.0
 40
6.0
 40
6.0
 40
6.0
 40
7.0
 40
7.0
 40
7.0
 40
7.0
 10
102.9842393405734
 20
-119.346375838219
 10
102.9842393405734
 20
-119.346375838219
 10
101.8800862375508
 20
-119.346375838219
 10
101.8800862375508
 20
-119.346375838219
 10
101.8800862375508
 20
-119.346375838219
 10
101.8800862375508
 20
-119.6764159857059
 10
101.8800862375508
 20
-119.6764159857059
 10
101.8800862375508
 20
-119.6764159857059
 10
101.7319471316851
 20
-119.6764159857059
 10
101.7319471316851
 20
-119.6764159857059
 10
101.7171332210985
 20
-119.3443087809278
 10
101.5541802046462
 20
-119.2977999918769
 10
101.4398030345359
 20
-119.2681721707038
 10
101.4398030345359
 20
-119.2681721707038
 10
101.4398030345359
 20
-119.1221001221292
 10
101.4398030345359
 20
-119.1221001221292
 10
101.4398030345359
 20
-119.1221001221292
 10
102.9842393405734
 20
-119.1221001221292
 10
102.9842393405734
 20
-119.1221001221292
 10
102.9842393405734
 20
-119.1221001221292
 10
102.9842393405734
 20
-119.346375838219
 10
102.9842393405734
 20
-119.346375838219
 97
        0
 97
        0
 75
     2
 76
     1
 98
        0
  0
ENDBLK
  5
101
330
FE
100
AcDbEntity
  8
0
100
AcDbBlockEnd
  0
BLOCK
  5
10E
330
10C
100
AcDbEntity
  8
0
100
AcDbBlockBegin
  2
block 5
 70
     0
 10
0.0
 20
0.0
 30
0.0
  3
block 5
  1

  0
SPLINE
  5
110
330
10C
100
AcDbEntity
  8
_U+30EC_U+30A4_U+30E4_U+30FC 1
370
     0
100
AcDbSpline
210
0.0
220
0.0
230
1.0
 70
    11
 71
     3
 72
    62
 73
    58
 74
     0
 42
0.0000000001
 43
0.0000000001
 12
1.0
 22
0.0
 32
0.0
 13
1.0
 23
0.0
 33
0.0
 40
0.0
 40
0.0
 40
0.0
 40
0.0
 40
1.0
 40
1.0
 40
1.0
 40
2.0
 40
2.0
 40
2.0
 40
3.0
 40
3.0
 40
3.0
 40
4.0
 40
4.0
 40
4.0
 40
5.0
 40
5.0
 40
5.0
 40
6.0
 40
6.0
 40
6.0
 40
7.0
 40
7.0
 40
7.0
 40
8.0
 40
8.0
 40
8.0
 40
9.0
 40
9.0
 40
9.0
 40
10.0
 40
10.0
 40
10.0
 40
11.0
 40
11.0
 40
11.0
 40
12.0
 40
12.0
 40
12.0
 40
13.0
 40
13.0
 40
13.0
 40
14.0
 40
14.0
 40
14.0
 40
15.0
 40
15.0
 40
15.0
 40
16.0
 40
16.0
 40
16.0
 40
17.0
 40
17.0
 40
17.0
 40
18.0
 40
18.0
 40
18.0
 40
19.0
 40
19.0
 40
19.0
 40
19.0
 10
103.0348822442066
 20
-137.8062309768332
 30
0.0
 10
103.0348822442066
 20
-137.9016601217746
 30
0.0
 10
103.0138671617465
 20
-138.1193901564424
 30
0.0
 10
102.827832005543
 20
-138.2444471225569
 30
0.0
 10
102.7155218927239
 20
-138.3185166754898
 30
0.0
 10
102.6163031427487
 20
-138.3226507900721
 30
0.0
 10
102.5315537938116
 20
-138.3267849046544
 30
0.0
 10
102.5315537938116
 20
-138.3267849046544
 30
0.0
 10
102.5315537938116
 20
-138.106643303147
 30
0.0
 10
102.5315537938116
 20
-138.106643303147
 30
0.0
 10
102.6056233467444
 20
-138.1045762458558
 30
0.0
 10
102.8402343492899
 20
-138.0942409594001
 30
0.0
 10
102.8402343492899
 20
-137.810709600964
 30
0.0
 10
102.8402343492899
 20
-137.6732502911025
 30
0.0
 10
102.7706434204879
 20
-137.520632561106
 30
0.0
 10
102.5422335898158
 20
-137.520632561106
 30
0.0
 10
102.4257893624144
 20
-137.520632561106
 30
0.0
 10
102.3772135160724
 20
-137.5588731209922
 30
0.0
 10
102.3455186376081
 20
-137.5905679994565
 30
0.0
 10
102.2714490846752
 20
-137.6646375523894
 30
0.0
 10
102.2587022313798
 20
-137.7810817797908
 30
0.0
 10
102.2587022313798
 20
-137.8358587980063
 30
0.0
 10
102.2587022313798
 20
-137.8551513327237
 30
0.0
 10
102.2607692886709
 20
-137.8909803257703
 30
0.0
 10
102.2649034032532
 20
-137.9185410896523
 30
0.0
 10
102.2649034032532
 20
-137.9185410896523
 30
0.0
 10
102.0702555083366
 20
-137.9185410896523
 30
0.0
 10
102.0702555083366
 20
-137.9185410896523
 30
0.0
 10
102.0768011897586
 20
-137.880300529766
 30
0.0
 10
102.0788682470497
 20
-137.838270364846
 30
0.0
 10
102.0788682470497
 20
-137.831724683424
 30
0.0
 10
102.0788682470497
 20
-137.7662678692043
 30
0.0
 10
102.0575086550412
 20
-137.5674858597054
 30
0.0
 10
101.8208305952045
 20
-137.5674858597054
 30
0.0
 10
101.6430636681656
 20
-137.5674858597054
 30
0.0
 10
101.5879421404016
 20
-137.6983994881448
 30
0.0
 10
101.5879421404016
 20
-137.8086425436728
 30
0.0
 10
101.5879421404016
 20
-138.0728813673915
 30
0.0
 10
101.8208305952045
 20
-138.0814941061046
 30
0.0
 10
101.8924885812977
 20
-138.0856282206869
 30
0.0
 10
101.8924885812977
 20
-138.0856282206869
 30
0.0
 10
101.8924885812977
 20
-138.2888888543167
 30
0.0
 10
101.8924885812977
 20
-138.2888888543167
 30
0.0
 10
101.7677761247317
 20
-138.2802761156036
 30
0.0
 10
101.3912271881939
 20
-138.2527153517215
 30
0.0
 10
101.3912271881939
 20
-137.7958956903774
 30
0.0
 10
101.3912271881939
 20
-137.5716199742876
 30
0.0
 10
101.5183512115996
 20
-137.3304632903202
 30
0.0
 10
101.8142849137825
 20
-137.3304632903202
 30
0.0
 10
102.0006645795346
 20
-137.3304632903202
 30
0.0
 10
102.083002361632
 20
-137.4255479257131
 30
0.0
 10
102.1443250612695
 20
-137.5251111852368
 30
0.0
 10
102.1718858251515
 20
-137.4637884855993
 30
0.0
 10
102.2521565499578
 20
-137.2818874439781
 30
0.0
 10
102.5294867365204
 20
-137.2818874439781
 30
0.0
 10
102.867795113172
 20
-137.2818874439781
 30
0.0
 10
103.0348822442066
 20
-137.5292452998191
 30
0.0
 10
103.0348822442066
 20
-137.8062309768332
 30
0.0
  0
HATCH
  5
111
330
10C
100
AcDbEntity
  8
_U+30EC_U+30A4_U+30E4_U+30FC 1
 62
   179
420
  2234388
100
AcDbHatch
 10
0.0
 20
0.0
 30
0.0
210
0.0
220
0.0
230
1.0
  2
SOLID
 70
     1
 71
     0
 91
        1
 92
        1
 93
        1
 72
     4
 94
        3
 73
     0
 74
     1
 95
       62
 96
       58
 40
0.0
 40
0.0
 40
0.0
 40
0.0
 40
1.0
 40
1.0
 40
1.0
 40
2.0
 40
2.0
 40
2.0
 40
3.0
 40
3.0
 40
3.0
 40
4.0
 40
4.0
 40
4.0
 40
5.0
 40
5.0
 40
5.0
 40
6.0
 40
6.0
 40
6.0
 40
7.0
 40
7.0
 40
7.0
 40
8.0
 40
8.0
 40
8.0
 40
9.0
 40
9.0
 40
9.0
 40
10.0
 40
10.0
 40
10.0
 40
11.0
 40
11.0
 40
11.0
 40
12.0
 40
12.0
 40
12.0
 40
13.0
 40
13.0
 40
13.0
 40
14.0
 40
14.0
 40
14.0
 40
15.0
 40
15.0
 40
15.0
 40
16.0
 40
16.0
 40
16.0
 40
17.0
 40
17.0
 40
17.0
 40
18.0
 40
18.0
 40
18.0
 40
19.0
 40
19.0
 40
19.0
 40
19.0
 10
103.0348822442066
 20
-137.8062309768332
 10
103.0348822442066
 20
-137.9016601217746
 10
103.0138671617465
 20
-138.1193901564424
 10
102.827832005543
 20
-138.2444471225569
 10
102.7155218927239
 20
-138.3185166754898
 10
102.6163031427487
 20
-138.3226507900721
 10
102.5315537938116
 20
-138.3267849046544
 10
102.5315537938116
 20
-138.3267849046544
 10
102.5315537938116
 20
-138.106643303147
 10
102.5315537938116
 20
-138.106643303147
 10
102.6056233467444
 20
-138.1045762458558
 10
102.8402343492899
 20
-138.0942409594001
 10
102.8402343492899
 20
-137.810709600964
 10
102.8402343492899
 20
-137.6732502911025
 10
102.7706434204879
 20
-137.520632561106
 10
102.5422335898158
 20
-137.520632561106
 10
102.4257893624144
 20
-137.520632561106
 10
102.3772135160724
 20
-137.5588731209922
 10
102.3455186376081
 20
-137.5905679994565
 10
102.2714490846752
 20
-137.6646375523894
 10
102.2587022313798
 20
-137.7810817797908
 10
102.2587022313798
 20
-137.8358587980063
 10
102.2587022313798
 20
-137.8551513327237
 10
102.2607692886709
 20
-137.8909803257703
 10
102.2649034032532
 20
-137.9185410896523
 10
102.2649034032532
 20
-137.9185410896523
 10
102.0702555083366
 20
-137.9185410896523
 10
102.0702555083366
 20
-137.9185410896523
 10
102.0768011897586
 20
-137.880300529766
 10
102.0788682470497
 20
-137.838270364846
 10
102.0788682470497
 20
-137.831724683424
 10
102.0788682470497
 20
-137.7662678692043
 10
102.0575086550412
 20
-137.5674858597054
 10
101.8208305952045
 20
-137.5674858597054
 10
101.6430636681656
 20
-137.5674858597054
 10
101.5879421404016
 20
-137.6983994881448
 10
101.5879421404016
 20
-137.8086425436728
 10
101.5879421404016
 20
-138.0728813673915
 10
101.8208305952045
 20
-138.0814941061046
 10
101.8924885812977
 20
-138.0856282206869
 10
101.8924885812977
 20
-138.0856282206869
 10
101.8924885812977
 20
-138.2888888543167
 10
101.8924885812977
 20
-138.2888888543167
 10
101.7677761247317
 20
-138.2802761156036
 10
101.3912271881939
 20
-138.2527153517215
 10
101.3912271881939
 20
-137.7958956903774
 10
101.3912271881939
 20
-137.5716199742876
 10
101.5183512115996
 20
-137.3304632903202
 10
101.8142849137825
 20
-137.3304632903202
 10
102.0006645795346
 20
-137.3304632903202
 10
102.083002361632
 20
-137.4255479257131
 10
102.1443250612695
 20
-137.5251111852368
 10
102.1718858251515
 20
-137.4637884855993
 10
102.2521565499578
 20
-137.2818874439781
 10
102.5294867365204
 20
-137.2818874439781
 10
102.867795113172
 20
-137.2818874439781
 10
103.0348822442066
 20
-137.5292452998191
 10
103.0348822442066
 20
-137.8062309768332
 97
        0
 97
        0
 75
     2
 76
     1
 98
        0
  0
ENDBLK
  5
10F
330
10C
100
AcDbEntity
  8
0
100
AcDbBlockEnd
  0
BLOCK
  5
124
330
122
100
AcDbEntity
  8
0
100
AcDbBlockBegin
  2
block 6
 70
     0
 10
0.0
 20
0.0
 30
0.0
  3
block 6
  1

  0
SPLINE
  5
126
330
122
100
AcDbEntity
  8
_U+30EC_U+30A4_U+30E4_U+30FC 1
370
     0
100
AcDbSpline
210
0.0
220
0.0
230
1.0
 70
    11
 71
     3
 72
    44
 73
    40
 74
     0
 42
0.0000000001
 43
0.0000000001
 12
1.0
 22
0.0
 32
0.0
 13
1.0
 23
0.0
 33
0.0
 40
0.0
 40
0.0
 40
0.0
 40
0.0
 40
1.0
 40
1.0
 40
1.0
 40
2.0
 40
2.0
 40
2.0
 40
3.0
 40
3.0
 40
3.0
 40
4.0
 40
4.0
 40
4.0
 40
5.0
 40
5.0
 40
5.0
 40
6.0
 40
6.0
 40
6.0
 40
7.0
 40
7.0
 40
7.0
 40
8.0
 40
8.0
 40
8.0
 40
9.0
 40
9.0
 40
9.0
 40
10.0
 40
10.0
 40
10.0
 40
11.0
 40
11.0
 40
11.0
 40
12.0
 40
12.0
 40
12.0
 40
13.0
 40
13.0
 40
13.0
 40
13.0
 10
83.67568492916789
 20
-117.1220499381674
 30
0.0
 10
83.45778263972583
 20
-117.2806965852632
 30
0.0
 10
83.36459280684983
 20
-117.354766138196
 30
0.0
 10
83.31601696050781
 20
-117.4985988747052
 30
0.0
 10
83.31601696050781
 20
-117.4985988747052
 30
0.0
 10
84.09443628540001
 20
-117.4985988747052
 30
0.0
 10
84.09443628540001
 20
-117.4985988747052
 30
0.0
 10
84.09443628540001
 20
-117.4985988747052
 30
0.0
 10
84.09443628540001
 20
-117.7037543108518
 30
0.0
 10
84.09443628540001
 20
-117.7037543108518
 30
0.0
 10
84.09443628540001
 20
-117.7037543108518
 30
0.0
 10
83.06641979260145
 20
-117.7037543108518
 30
0.0
 10
83.06641979260145
 20
-117.7037543108518
 30
0.0
 10
83.09811467106576
 20
-117.3461533994829
 30
0.0
 10
83.1635714852855
 20
-117.2679497319677
 30
0.0
 10
83.54873316053643
 20
-116.9696044629451
 30
0.0
 10
83.8047037550905
 20
-116.7708224534462
 30
0.0
 10
83.87016056931024
 20
-116.703126327161
 30
0.0
 10
83.87016056931024
 20
-116.5656670172996
 30
0.0
 10
83.87016056931024
 20
-116.447155732607
 30
0.0
 10
83.79833032844279
 20
-116.3160698493932
 30
0.0
 10
83.60161537623502
 20
-116.3160698493932
 30
0.0
 10
83.34133841232439
 20
-116.3160698493932
 30
0.0
 10
83.33289792838553
 20
-116.5465467373564
 30
0.0
 10
83.32859155902896
 20
-116.6629909647579
 30
0.0
 10
83.32859155902896
 20
-116.6629909647579
 30
0.0
 10
83.10448809771347
 20
-116.6629909647579
 30
0.0
 10
83.10448809771347
 20
-116.6629909647579
 30
0.0
 10
83.11292858165233
 20
-116.5360391961264
 30
0.0
 10
83.12343612288234
 20
-116.4239013380815
 30
0.0
 10
83.20387910246292
 20
-116.3053900533889
 30
0.0
 10
83.3137776484424
 20
-116.144676349002
 30
0.0
 10
83.49998505942014
 20
-116.1107421584723
 30
0.0
 10
83.61642928682159
 20
-116.1107421584723
 30
0.0
 10
83.89358721860994
 20
-116.1107421584723
 30
0.0
 10
84.10080971204772
 20
-116.2948825121589
 30
0.0
 10
84.10080971204772
 20
-116.5677340745907
 30
0.0
 10
84.10080971204772
 20
-116.7961439052628
 30
0.0
 10
83.98453773942053
 20
-116.8957071647865
 30
0.0
 10
83.67568492916789
 20
-117.1220499381674
 30
0.0
  0
HATCH
  5
127
330
122
100
AcDbEntity
  8
_U+30EC_U+30A4_U+30E4_U+30FC 1
 62
   179
420
  2234388
100
AcDbHatch
 10
0.0
 20
0.0
 30
0.0
210
0.0
220
0.0
230
1.0
  2
SOLID
 70
     1
 71
     0
 91
        1
 92
        1
 93
        1
 72
     4
 94
        3
 73
     0
 74
     1
 95
       44
 96
       40
 40
0.0
 40
0.0
 40
0.0
 40
0.0
 40
1.0
 40
1.0
 40
1.0
 40
2.0
 40
2.0
 40
2.0
 40
3.0
 40
3.0
 40
3.0
 40
4.0
 40
4.0
 40
4.0
 40
5.0
 40
5.0
 40
5.0
 40
6.0
 40
6.0
 40
6.0
 40
7.0
 40
7.0
 40
7.0
 40
8.0
 40
8.0
 40
8.0
 40
9.0
 40
9.0
 40
9.0
 40
10.0
 40
10.0
 40
10.0
 40
11.0
 40
11.0
 40
11.0
 40
12.0
 40
12.0
 40
12.0
 40
13.0
 40
13.0
 40
13.0
 40
13.0
 10
83.67568492916789
 20
-117.1220499381674
 10
83.45778263972583
 20
-117.2806965852632
 10
83.36459280684983
 20
-117.354766138196
 10
83.31601696050781
 20
-117.4985988747052
 10
83.31601696050781
 20
-117.4985988747052
 10
84.09443628540001
 20
-117.4985988747052
 10
84.09443628540001
 20
-117.4985988747052
 10
84.09443628540001
 20
-117.4985988747052
 10
84.09443628540001
 20
-117.7037543108518
 10
84.09443628540001
 20
-117.7037543108518
 10
84.09443628540001
 20
-117.7037543108518
 10
83.06641979260145
 20
-117.7037543108518
 10
83.06641979260145
 20
-117.7037543108518
 10
83.09811467106576
 20
-117.3461533994829
 10
83.1635714852855
 20
-117.2679497319677
 10
83.54873316053643
 20
-116.9696044629451
 10
83.8047037550905
 20
-116.7708224534462
 10
83.87016056931024
 20
-116.703126327161
 10
83.87016056931024
 20
-116.5656670172996
 10
83.87016056931024
 20
-116.447155732607
 10
83.79833032844279
 20
-116.3160698493932
 10
83.60161537623502
 20
-116.3160698493932
 10
83.34133841232439
 20
-116.3160698493932
 10
83.33289792838553
 20
-116.5465467373564
 10
83.32859155902896
 20
-116.6629909647579
 10
83.32859155902896
 20
-116.6629909647579
 10
83.10448809771347
 20
-116.6629909647579
 10
83.10448809771347
 20
-116.6629909647579
 10
83.11292858165233
 20
-116.5360391961264
 10
83.12343612288234
 20
-116.4239013380815
 10
83.20387910246292
 20
-116.3053900533889
 10
83.3137776484424
 20
-116.144676349002
 10
83.49998505942014
 20
-116.1107421584723
 10
83.61642928682159
 20
-116.1107421584723
 10
83.89358721860994
 20
-116.1107421584723
 10
84.10080971204772
 20
-116.2948825121589
 10
84.10080971204772
 20
-116.5677340745907
 10
84.10080971204772
 20
-116.7961439052628
 10
83.98453773942053
 20
-116.8957071647865
 10
83.67568492916789
 20
-117.1220499381674
 97
        0
 97
        0
 75
     2
 76
     1
 98
        0
  0
ENDBLK
  5
125
330
122
100
AcDbEntity
  8
0
100
AcDbBlockEnd
  0
BLOCK
  5
136
330
134
100
AcDbEntity
  8
0
100
AcDbBlockBegin
  2
block 7
 70
     0
 10
0.0
 20
0.0
 30
0.0
  3
block 7
  1

  0
SPLINE
  5
138
330
134
100
AcDbEntity
  8
_U+30EC_U+30A4_U+30E4_U+30FC 1
370
     0
100
AcDbSpline
210
0.0
220
0.0
230
1.0
 70
    11
 71
     3
 72
    44
 73
    40
 74
     0
 42
0.0000000001
 43
0.0000000001
 12
1.0
 22
0.0
 32
0.0
 13
1.0
 23
0.0
 33
0.0
 40
0.0
 40
0.0
 40
0.0
 40
0.0
 40
1.0
 40
1.0
 40
1.0
 40
2.0
 40
2.0
 40
2.0
 40
3.0
 40
3.0
 40
3.0
 40
4.0
 40
4.0
 40
4.0
 40
5.0
 40
5.0
 40
5.0
 40
6.0
 40
6.0
 40
6.0
 40
7.0
 40
7.0
 40
7.0
 40
8.0
 40
8.0
 40
8.0
 40
9.0
 40
9.0
 40
9.0
 40
10.0
 40
10.0
 40
10.0
 40
11.0
 40
11.0
 40
11.0
 40
12.0
 40
12.0
 40
12.0
 40
13.0
 40
13.0
 40
13.0
 40
13.0
 10
88.58460148610038
 20
-113.1216050606953
 30
0.0
 10
88.36687145143259
 20
-113.2802517077911
 30
0.0
 10
88.27385387333085
 20
-113.3543212607239
 30
0.0
 10
88.22493351744029
 20
-113.4981539972331
 30
0.0
 10
88.22493351744029
 20
-113.4981539972331
 30
0.0
 10
89.00352509710676
 20
-113.4981539972331
 30
0.0
 10
89.00352509710676
 20
-113.4981539972331
 30
0.0
 10
89.00352509710676
 20
-113.4981539972331
 30
0.0
 10
89.00352509710676
 20
-113.7033094333797
 30
0.0
 10
89.00352509710676
 20
-113.7033094333797
 30
0.0
 10
89.00352509710676
 20
-113.7033094333797
 30
0.0
 10
87.97550860430822
 20
-113.7033094333797
 30
0.0
 10
87.97550860430822
 20
-113.7033094333797
 30
0.0
 10
88.00720348277251
 20
-113.3457085220108
 30
0.0
 10
88.07266029699225
 20
-113.2675048544956
 30
0.0
 10
88.45782197224318
 20
-112.969159585473
 30
0.0
 10
88.71379256679725
 20
-112.7703775759741
 30
0.0
 10
88.779249381017
 20
-112.7026814496889
 30
0.0
 10
88.779249381017
 20
-112.5652221398275
 30
0.0
 10
88.779249381017
 20
-112.4467108551349
 30
0.0
 10
88.70724688537527
 20
-112.3156249719211
 30
0.0
 10
88.51053193316751
 20
-112.3156249719211
 30
0.0
 10
88.25042722403114
 20
-112.3156249719211
 30
0.0
 10
88.24215899486654
 20
-112.5461018598843
 30
0.0
 10
88.23768037073572
 20
-112.6625460872858
 30
0.0
 10
88.23768037073572
 20
-112.6625460872858
 30
0.0
 10
88.01340465464595
 20
-112.6625460872858
 30
0.0
 10
88.01340465464595
 20
-112.6625460872858
 30
0.0
 10
88.02201739335908
 20
-112.5355943186543
 30
0.0
 10
88.03269718936336
 20
-112.4234564606094
 30
0.0
 10
88.11296791416967
 20
-112.3049451759168
 30
0.0
 10
88.22286646014915
 20
-112.1442314715299
 30
0.0
 10
88.40924612590116
 20
-112.1102972810002
 30
0.0
 10
88.52534584375408
 20
-112.1102972810002
 30
0.0
 10
88.80267603031669
 20
-112.1102972810002
 30
0.0
 10
89.01007077852874
 20
-112.2944376346868
 30
0.0
 10
89.01007077852874
 20
-112.5672891971186
 30
0.0
 10
89.01007077852874
 20
-112.7956990277907
 30
0.0
 10
88.8936265511273
 20
-112.8952622873144
 30
0.0
 10
88.58460148610038
 20
-113.1216050606953
 30
0.0
  0
HATCH
  5
139
330
134
100
AcDbEntity
  8
_U+30EC_U+30A4_U+30E4_U+30FC 1
 62
   179
420
  2234388
100
AcDbHatch
 10
0.0
 20
0.0
 30
0.0
210
0.0
220
0.0
230
1.0
  2
SOLID
 70
     1
 71
     0
 91
        1
 92
        1
 93
        1
 72
     4
 94
        3
 73
     0
 74
     1
 95
       44
 96
       40
 40
0.0
 40
0.0
 40
0.0
 40
0.0
 40
1.0
 40
1.0
 40
1.0
 40
2.0
 40
2.0
 40
2.0
 40
3.0
 40
3.0
 40
3.0
 40
4.0
 40
4.0
 40
4.0
 40
5.0
 40
5.0
 40
5.0
 40
6.0
 40
6.0
 40
6.0
 40
7.0
 40
7.0
 40
7.0
 40
8.0
 40
8.0
 40
8.0
 40
9.0
 40
9.0
 40
9.0
 40
10.0
 40
10.0
 40
10.0
 40
11.0
 40
11.0
 40
11.0
 40
12.0
 40
12.0
 40
12.0
 40
13.0
 40
13.0
 40
13.0
 40
13.0
 10
88.58460148610038
 20
-113.1216050606953
 10
88.36687145143259
 20
-113.2802517077911
 10
88.27385387333085
 20
-113.3543212607239
 10
88.22493351744029
 20
-113.4981539972331
 10
88.22493351744029
 20
-113.4981539972331
 10
89.00352509710676
 20
-113.4981539972331
 10
89.00352509710676
 20
-113.4981539972331
 10
89.00352509710676
 20
-113.4981539972331
 10
89.00352509710676
 20
-113.7033094333797
 10
89.00352509710676
 20
-113.7033094333797
 10
89.00352509710676
 20
-113.7033094333797
 10
87.97550860430822
 20
-113.7033094333797
 10
87.97550860430822
 20
-113.7033094333797
 10
88.00720348277251
 20
-113.3457085220108
 10
88.07266029699225
 20
-113.2675048544956
 10
88.45782197224318
 20
-112.969159585473
 10
88.71379256679725
 20
-112.7703775759741
 10
88.779249381017
 20
-112.7026814496889
 10
88.779249381017
 20
-112.5652221398275
 10
88.779249381017
 20
-112.4467108551349
 10
88.70724688537527
 20
-112.3156249719211
 10
88.51053193316751
 20
-112.3156249719211
 10
88.25042722403114
 20
-112.3156249719211
 10
88.24215899486654
 20
-112.5461018598843
 10
88.23768037073572
 20
-112.6625460872858
 10
88.23768037073572
 20
-112.6625460872858
 10
88.01340465464595
 20
-112.6625460872858
 10
88.01340465464595
 20
-112.6625460872858
 10
88.02201739335908
 20
-112.5355943186543
 10
88.03269718936336
 20
-112.4234564606094
 10
88.11296791416967
 20
-112.3049451759168
 10
88.22286646014915
 20
-112.1442314715299
 10
88.40924612590116
 20
-112.1102972810002
 10
88.52534584375408
 20
-112.1102972810002
 10
88.80267603031669
 20
-112.1102972810002
 10
89.01007077852874
 20
-112.2944376346868
 10
89.01007077852874
 20
-112.5672891971186
 10
89.01007077852874
 20
-112.7956990277907
 10
88.8936265511273
 20
-112.8952622873144
 10
88.58460148610038
 20
-113.1216050606953
 97
        0
 97
        0
 75
     2
 76
     1
 98
        0
  0
SPLINE
  5
13A
330
134
100
AcDbEntity
  8
_U+30EC_U+30A4_U+30E4_U+30FC 1
370
     0
100
AcDbSpline
210
0.0
220
0.0
230
1.0
 70
    11
 71
     3
 72
    26
 73
    22
 74
     0
 42
0.0000000001
 43
0.0000000001
 12
1.0
 22
0.0
 32
0.0
 13
1.0
 23
0.0
 33
0.0
 40
0.0
 40
0.0
 40
0.0
 40
0.0
 40
1.0
 40
1.0
 40
1.0
 40
2.0
 40
2.0
 40
2.0
 40
3.0
 40
3.0
 40
3.0
 40
4.0
 40
4.0
 40
4.0
 40
5.0
 40
5.0
 40
5.0
 40
6.0
 40
6.0
 40
6.0
 40
7.0
 40
7.0
 40
7.0
 40
7.0
 10
89.61985267941796
 20
-113.7033094333797
 30
0.0
 10
89.61985267941796
 20
-113.7033094333797
 30
0.0
 10
89.61985267941796
 20
-112.5989840755829
 30
0.0
 10
89.61985267941796
 20
-112.5989840755829
 30
0.0
 10
89.61985267941796
 20
-112.5989840755829
 30
0.0
 10
89.28981253193102
 20
-112.5989840755829
 30
0.0
 10
89.28981253193102
 20
-112.5989840755829
 30
0.0
 10
89.28981253193102
 20
-112.5989840755829
 30
0.0
 10
89.28981253193102
 20
-112.4510172244914
 30
0.0
 10
89.28981253193102
 20
-112.4510172244914
 30
0.0
 10
89.6219197367091
 20
-112.4362033139048
 30
0.0
 10
89.66842852575998
 20
-112.2732502974525
 30
0.0
 10
89.69805634693313
 20
-112.1590453821165
 30
0.0
 10
89.69805634693313
 20
-112.1590453821165
 30
0.0
 10
89.84412839550772
 20
-112.1590453821165
 30
0.0
 10
89.84412839550772
 20
-112.1590453821165
 30
0.0
 10
89.84412839550772
 20
-112.1590453821165
 30
0.0
 10
89.84412839550772
 20
-113.7033094333797
 30
0.0
 10
89.84412839550772
 20
-113.7033094333797
 30
0.0
 10
89.84412839550772
 20
-113.7033094333797
 30
0.0
 10
89.61985267941796
 20
-113.7033094333797
 30
0.0
 10
89.61985267941796
 20
-113.7033094333797
 30
0.0
  0
HATCH
  5
13B
330
134
100
AcDbEntity
  8
_U+30EC_U+30A4_U+30E4_U+30FC 1
 62
   179
420
  2234388
100
AcDbHatch
 10
0.0
 20
0.0
 30
0.0
210
0.0
220
0.0
230
1.0
  2
SOLID
 70
     1
 71
     0
 91
        1
 92
        1
 93
        1
 72
     4
 94
        3
 73
     0
 74
     1
 95
       26
 96
       22
 40
0.0
 40
0.0
 40
0.0
 40
0.0
 40
1.0
 40
1.0
 40
1.0
 40
2.0
 40
2.0
 40
2.0
 40
3.0
 40
3.0
 40
3.0
 40
4.0
 40
4.0
 40
4.0
 40
5.0
 40
5.0
 40
5.0
 40
6.0
 40
6.0
 40
6.0
 40
7.0
 40
7.0
 40
7.0
 40
7.0
 10
89.61985267941796
 20
-113.7033094333797
 10
89.61985267941796
 20
-113.7033094333797
 10
89.61985267941796
 20
-112.5989840755829
 10
89.61985267941796
 20
-112.5989840755829
 10
89.61985267941796
 20
-112.5989840755829
 10
89.28981253193102
 20
-112.5989840755829
 10
89.28981253193102
 20
-112.5989840755829
 10
89.28981253193102
 20
-112.5989840755829
 10
89.28981253193102
 20
-112.4510172244914
 10
89.28981253193102
 20
-112.4510172244914
 10
89.6219197367091
 20
-112.4362033139048
 10
89.66842852575998
 20
-112.2732502974525
 10
89.69805634693313
 20
-112.1590453821165
 10
89.69805634693313
 20
-112.1590453821165
 10
89.84412839550772
 20
-112.1590453821165
 10
89.84412839550772
 20
-112.1590453821165
 10
89.84412839550772
 20
-112.1590453821165
 10
89.84412839550772
 20
-113.7033094333797
 10
89.84412839550772
 20
-113.7033094333797
 10
89.84412839550772
 20
-113.7033094333797
 10
89.61985267941796
 20
-113.7033094333797
 10
89.61985267941796
 20
-113.7033094333797
 97
        0
 97
        0
 75
     2
 76
     1
 98
        0
  0
ENDBLK
  5
137
330
134
100
AcDbEntity
  8
0
100
AcDbBlockEnd
  0
BLOCK
  5
14A
330
148
100
AcDbEntity
  8
0
100
AcDbBlockBegin
  2
block 8
 70
     0
 10
0.0
 20
0.0
 30
0.0
  3
block 8
  1

  0
SPLINE
  5
14C
330
148
100
AcDbEntity
  8
_U+30EC_U+30A4_U+30E4_U+30FC 1
370
     0
100
AcDbSpline
210
0.0
220
0.0
230
1.0
 70
    11
 71
     3
 72
    26
 73
    22
 74
     0
 42
0.0000000001
 43
0.0000000001
 12
1.0
 22
0.0
 32
0.0
 13
1.0
 23
0.0
 33
0.0
 40
0.0
 40
0.0
 40
0.0
 40
0.0
 40
1.0
 40
1.0
 40
1.0
 40
2.0
 40
2.0
 40
2.0
 40
3.0
 40
3.0
 40
3.0
 40
4.0
 40
4.0
 40
4.0
 40
5.0
 40
5.0
 40
5.0
 40
6.0
 40
6.0
 40
6.0
 40
7.0
 40
7.0
 40
7.0
 40
7.0
 10
82.86746552832828
 20
-143.7035454284838
 30
0.0
 10
82.86746552832828
 20
-143.7035454284838
 30
0.0
 10
82.86746552832828
 20
-142.5993923254613
 30
0.0
 10
82.86746552832828
 20
-142.5993923254613
 30
0.0
 10
82.86746552832828
 20
-142.5993923254613
 30
0.0
 10
82.53742538084134
 20
-142.5993923254613
 30
0.0
 10
82.53742538084134
 20
-142.5993923254613
 30
0.0
 10
82.53742538084134
 20
-142.5993923254613
 30
0.0
 10
82.53742538084134
 20
-142.4512532195955
 30
0.0
 10
82.53742538084134
 20
-142.4512532195955
 30
0.0
 10
82.86953258561942
 20
-142.436439309009
 30
0.0
 10
82.9160413746703
 20
-142.2734862925566
 30
0.0
 10
82.94566919584345
 20
-142.1591091224464
 30
0.0
 10
82.94566919584345
 20
-142.1591091224464
 30
0.0
 10
83.09174124441805
 20
-142.1591091224464
 30
0.0
 10
83.09174124441805
 20
-142.1591091224464
 30
0.0
 10
83.09174124441805
 20
-142.1591091224464
 30
0.0
 10
83.09174124441805
 20
-143.7035454284838
 30
0.0
 10
83.09174124441805
 20
-143.7035454284838
 30
0.0
 10
83.09174124441805
 20
-143.7035454284838
 30
0.0
 10
82.86746552832828
 20
-143.7035454284838
 30
0.0
 10
82.86746552832828
 20
-143.7035454284838
 30
0.0
  0
HATCH
  5
14D
330
148
100
AcDbEntity
  8
_U+30EC_U+30A4_U+30E4_U+30FC 1
 62
   179
420
  2234388
100
AcDbHatch
 10
0.0
 20
0.0
 30
0.0
210
0.0
220
0.0
230
1.0
  2
SOLID
 70
     1
 71
     0
 91
        1
 92
        1
 93
        1
 72
     4
 94
        3
 73
     0
 74
     1
 95
       26
 96
       22
 40
0.0
 40
0.0
 40
0.0
 40
0.0
 40
1.0
 40
1.0
 40
1.0
 40
2.0
 40
2.0
 40
2.0
 40
3.0
 40
3.0
 40
3.0
 40
4.0
 40
4.0
 40
4.0
 40
5.0
 40
5.0
 40
5.0
 40
6.0
 40
6.0
 40
6.0
 40
7.0
 40
7.0
 40
7.0
 40
7.0
 10
82.86746552832828
 20
-143.7035454284838
 10
82.86746552832828
 20
-143.7035454284838
 10
82.86746552832828
 20
-142.5993923254613
 10
82.86746552832828
 20
-142.5993923254613
 10
82.86746552832828
 20
-142.5993923254613
 10
82.53742538084134
 20
-142.5993923254613
 10
82.53742538084134
 20
-142.5993923254613
 10
82.53742538084134
 20
-142.5993923254613
 10
82.53742538084134
 20
-142.4512532195955
 10
82.53742538084134
 20
-142.4512532195955
 10
82.86953258561942
 20
-142.436439309009
 10
82.9160413746703
 20
-142.2734862925566
 10
82.94566919584345
 20
-142.1591091224464
 10
82.94566919584345
 20
-142.1591091224464
 10
83.09174124441805
 20
-142.1591091224464
 10
83.09174124441805
 20
-142.1591091224464
 10
83.09174124441805
 20
-142.1591091224464
 10
83.09174124441805
 20
-143.7035454284838
 10
83.09174124441805
 20
-143.7035454284838
 10
83.09174124441805
 20
-143.7035454284838
 10
82.86746552832828
 20
-143.7035454284838
 10
82.86746552832828
 20
-143.7035454284838
 97
        0
 97
        0
 75
     2
 76
     1
 98
        0
  0
SPLINE
  5
14E
330
148
100
AcDbEntity
  8
_U+30EC_U+30A4_U+30E4_U+30FC 1
370
     0
100
AcDbSpline
210
0.0
220
0.0
230
1.0
 70
    11
 71
     3
 72
    29
 73
    25
 74
     0
 42
0.0000000001
 43
0.0000000001
 12
1.0
 22
0.0
 32
0.0
 13
1.0
 23
0.0
 33
0.0
 40
0.0
 40
0.0
 40
0.0
 40
0.0
 40
1.0
 40
1.0
 40
1.0
 40
2.0
 40
2.0
 40
2.0
 40
3.0
 40
3.0
 40
3.0
 40
4.0
 40
4.0
 40
4.0
 40
5.0
 40
5.0
 40
5.0
 40
6.0
 40
6.0
 40
6.0
 40
7.0
 40
7.0
 40
7.0
 40
8.0
 40
8.0
 40
8.0
 40
8.0
 10
84.490794520978
 20
-143.525778501445
 30
0.0
 10
84.38261852274115
 20
-143.7352403069481
 30
0.0
 10
84.20933021983309
 20
-143.754188332117
 30
0.0
 10
84.09288599243165
 20
-143.754188332117
 30
0.0
 10
83.93200003327047
 20
-143.754188332117
 30
0.0
 10
83.79040660882671
 20
-143.7076795430661
 30
0.0
 10
83.6953219734338
 20
-143.525778501445
 30
0.0
 10
83.59162459932779
 20
-143.3311306065283
 30
0.0
 10
83.57233206461039
 20
-143.0944525466917
 30
0.0
 10
83.57233206461039
 20
-142.9314995302394
 30
0.0
 10
83.57233206461039
 20
-142.7874945389559
 30
0.0
 10
83.58955754203664
 20
-142.5356580589842
 30
0.0
 10
83.6953219734338
 20
-142.3368760494852
 30
0.0
 10
83.80315346212213
 20
-142.133959925404
 30
0.0
 10
83.9640394212833
 20
-142.1105332761043
 30
0.0
 10
84.09288599243165
 20
-142.1105332761043
 30
0.0
 10
84.25170489430167
 20
-142.1105332761043
 30
0.0
 10
84.39536537603658
 20
-142.154975007864
 30
0.0
 10
84.490794520978
 20
-142.3368760494852
 30
0.0
 10
84.5900132709532
 20
-142.5294568871107
 30
0.0
 10
84.61343992025289
 20
-142.7578667177828
 30
0.0
 10
84.61343992025289
 20
-142.9314995302394
 30
0.0
 10
84.61343992025289
 20
-143.1027207758563
 30
0.0
 10
84.59208032824435
 20
-143.3331976638195
 30
0.0
 10
84.490794520978
 20
-143.525778501445
 30
0.0
  0
SPLINE
  5
14F
330
148
100
AcDbEntity
  8
_U+30EC_U+30A4_U+30E4_U+30FC 1
370
     0
100
AcDbSpline
210
0.0
220
0.0
230
1.0
 70
    11
 71
     3
 72
    17
 73
    13
 74
     0
 42
0.0000000001
 43
0.0000000001
 12
1.0
 22
0.0
 32
0.0
 13
1.0
 23
0.0
 33
0.0
 40
0.0
 40
0.0
 40
0.0
 40
0.0
 40
1.0
 40
1.0
 40
1.0
 40
2.0
 40
2.0
 40
2.0
 40
3.0
 40
3.0
 40
3.0
 40
4.0
 40
4.0
 40
4.0
 40
4.0
 10
84.09288599243165
 20
-142.3031141137298
 30
0.0
 10
83.84311656975103
 20
-142.3031141137298
 30
0.0
 10
83.79660778070016
 20
-142.5866454721659
 30
0.0
 10
83.79660778070016
 20
-142.9314995302394
 30
0.0
 10
83.79660778070016
 20
-143.250859881722
 30
0.0
 10
83.83278128329528
 20
-143.5595404372004
 30
0.0
 10
84.09288599243165
 20
-143.5595404372004
 30
0.0
 10
84.3405883578211
 20
-143.5595404372004
 30
0.0
 10
84.38916420416312
 20
-143.278420645604
 30
0.0
 10
84.38916420416312
 20
-142.9314995302394
 30
0.0
 10
84.38916420416312
 20
-142.6117946692082
 30
0.0
 10
84.35092364427686
 20
-142.3031141137298
 30
0.0
 10
84.09288599243165
 20
-142.3031141137298
 30
0.0
  0
HATCH
  5
150
330
148
100
AcDbEntity
  8
_U+30EC_U+30A4_U+30E4_U+30FC 1
 62
   179
420
  2234388
100
AcDbHatch
 10
0.0
 20
0.0
 30
0.0
210
0.0
220
0.0
230
1.0
  2
SOLID
 70
     1
 71
     0
 91
        2
 92
        1
 93
        1
 72
     4
 94
        3
 73
     0
 74
     1
 95
       29
 96
       25
 40
0.0
 40
0.0
 40
0.0
 40
0.0
 40
1.0
 40
1.0
 40
1.0
 40
2.0
 40
2.0
 40
2.0
 40
3.0
 40
3.0
 40
3.0
 40
4.0
 40
4.0
 40
4.0
 40
5.0
 40
5.0
 40
5.0
 40
6.0
 40
6.0
 40
6.0
 40
7.0
 40
7.0
 40
7.0
 40
8.0
 40
8.0
 40
8.0
 40
8.0
 10
84.490794520978
 20
-143.525778501445
 10
84.38261852274115
 20
-143.7352403069481
 10
84.20933021983309
 20
-143.754188332117
 10
84.09288599243165
 20
-143.754188332117
 10
83.93200003327047
 20
-143.754188332117
 10
83.79040660882671
 20
-143.7076795430661
 10
83.6953219734338
 20
-143.525778501445
 10
83.59162459932779
 20
-143.3311306065283
 10
83.57233206461039
 20
-143.0944525466917
 10
83.57233206461039
 20
-142.9314995302394
 10
83.57233206461039
 20
-142.7874945389559
 10
83.58955754203664
 20
-142.5356580589842
 10
83.6953219734338
 20
-142.3368760494852
 10
83.80315346212213
 20
-142.133959925404
 10
83.9640394212833
 20
-142.1105332761043
 10
84.09288599243165
 20
-142.1105332761043
 10
84.25170489430167
 20
-142.1105332761043
 10
84.39536537603658
 20
-142.154975007864
 10
84.490794520978
 20
-142.3368760494852
 10
84.5900132709532
 20
-142.5294568871107
 10
84.61343992025289
 20
-142.7578667177828
 10
84.61343992025289
 20
-142.9314995302394
 10
84.61343992025289
 20
-143.1027207758563
 10
84.59208032824435
 20
-143.3331976638195
 10
84.490794520978
 20
-143.525778501445
 97
        0
 97
        0
 92
        1
 93
        1
 72
     4
 94
        3
 73
     0
 74
     1
 95
       17
 96
       13
 40
0.0
 40
0.0
 40
0.0
 40
0.0
 40
1.0
 40
1.0
 40
1.0
 40
2.0
 40
2.0
 40
2.0
 40
3.0
 40
3.0
 40
3.0
 40
4.0
 40
4.0
 40
4.0
 40
4.0
 10
84.09288599243165
 20
-142.3031141137298
 10
83.84311656975103
 20
-142.3031141137298
 10
83.79660778070016
 20
-142.5866454721659
 10
83.79660778070016
 20
-142.9314995302394
 10
83.79660778070016
 20
-143.250859881722
 10
83.83278128329528
 20
-143.5595404372004
 10
84.09288599243165
 20
-143.5595404372004
 10
84.3405883578211
 20
-143.5595404372004
 10
84.38916420416312
 20
-143.278420645604
 10
84.38916420416312
 20
-142.9314995302394
 10
84.38916420416312
 20
-142.6117946692082
 10
84.35092364427686
 20
-142.3031141137298
 10
84.09288599243165
 20
-142.3031141137298
 97
        0
 97
        0
 75
     2
 76
     1
 98
        0
  0
ENDBLK
  5
14B
330
148
100
AcDbEntity
  8
0
100
AcDbBlockEnd
  0
BLOCK
  5
15F
330
15D
100
AcDbEntity
  8
0
100
AcDbBlockBegin
  2
block 9
 70
     0
 10
0.0
 20
0.0
 30
0.0
  3
block 9
  1

  0
SPLINE
  5
161
330
15D
100
AcDbEntity
  8
_U+30EC_U+30A4_U+30E4_U+30FC 1
370
     0
100
AcDbSpline
210
0.0
220
0.0
230
1.0
 70
    11
 71
     3
 72
    26
 73
    22
 74
     0
 42
0.0000000001
 43
0.0000000001
 12
1.0
 22
0.0
 32
0.0
 13
1.0
 23
0.0
 33
0.0
 40
0.0
 40
0.0
 40
0.0
 40
0.0
 40
1.0
 40
1.0
 40
1.0
 40
2.0
 40
2.0
 40
2.0
 40
3.0
 40
3.0
 40
3.0
 40
4.0
 40
4.0
 40
4.0
 40
5.0
 40
5.0
 40
5.0
 40
6.0
 40
6.0
 40
6.0
 40
7.0
 40
7.0
 40
7.0
 40
7.0
 10
102.9842393405734
 20
-130.5129638345593
 30
0.0
 10
102.9842393405734
 20
-130.5129638345593
 30
0.0
 10
101.8800862375508
 20
-130.5129638345593
 30
0.0
 10
101.8800862375508
 20
-130.5129638345593
 30
0.0
 10
101.8800862375508
 20
-130.5129638345593
 30
0.0
 10
101.8800862375508
 20
-130.8430039820462
 30
0.0
 10
101.8800862375508
 20
-130.8430039820462
 30
0.0
 10
101.8800862375508
 20
-130.8430039820462
 30
0.0
 10
101.7319471316851
 20
-130.8430039820462
 30
0.0
 10
101.7319471316851
 20
-130.8430039820462
 30
0.0
 10
101.7171332210985
 20
-130.5108967772681
 30
0.0
 10
101.5541802046462
 20
-130.4643879882173
 30
0.0
 10
101.4398030345359
 20
-130.4347601670441
 30
0.0
 10
101.4398030345359
 20
-130.4347601670441
 30
0.0
 10
101.4398030345359
 20
-130.2886881184695
 30
0.0
 10
101.4398030345359
 20
-130.2886881184695
 30
0.0
 10
101.4398030345359
 20
-130.2886881184695
 30
0.0
 10
102.9842393405734
 20
-130.2886881184695
 30
0.0
 10
102.9842393405734
 20
-130.2886881184695
 30
0.0
 10
102.9842393405734
 20
-130.2886881184695
 30
0.0
 10
102.9842393405734
 20
-130.5129638345593
 30
0.0
 10
102.9842393405734
 20
-130.5129638345593
 30
0.0
  0
HATCH
  5
162
330
15D
100
AcDbEntity
  8
_U+30EC_U+30A4_U+30E4_U+30FC 1
 62
   179
420
  2234388
100
AcDbHatch
 10
0.0
 20
0.0
 30
0.0
210
0.0
220
0.0
230
1.0
  2
SOLID
 70
     1
 71
     0
 91
        1
 92
        1
 93
        1
 72
     4
 94
        3
 73
     0
 74
     1
 95
       26
 96
       22
 40
0.0
 40
0.0
 40
0.0
 40
0.0
 40
1.0
 40
1.0
 40
1.0
 40
2.0
 40
2.0
 40
2.0
 40
3.0
 40
3.0
 40
3.0
 40
4.0
 40
4.0
 40
4.0
 40
5.0
 40
5.0
 40
5.0
 40
6.0
 40
6.0
 40
6.0
 40
7.0
 40
7.0
 40
7.0
 40
7.0
 10
102.9842393405734
 20
-130.5129638345593
 10
102.9842393405734
 20
-130.5129638345593
 10
101.8800862375508
 20
-130.5129638345593
 10
101.8800862375508
 20
-130.5129638345593
 10
101.8800862375508
 20
-130.5129638345593
 10
101.8800862375508
 20
-130.8430039820462
 10
101.8800862375508
 20
-130.8430039820462
 10
101.8800862375508
 20
-130.8430039820462
 10
101.7319471316851
 20
-130.8430039820462
 10
101.7319471316851
 20
-130.8430039820462
 10
101.7171332210985
 20
-130.5108967772681
 10
101.5541802046462
 20
-130.4643879882173
 10
101.4398030345359
 20
-130.4347601670441
 10
101.4398030345359
 20
-130.4347601670441
 10
101.4398030345359
 20
-130.2886881184695
 10
101.4398030345359
 20
-130.2886881184695
 10
101.4398030345359
 20
-130.2886881184695
 10
102.9842393405734
 20
-130.2886881184695
 10
102.9842393405734
 20
-130.2886881184695
 10
102.9842393405734
 20
-130.2886881184695
 10
102.9842393405734
 20
-130.5129638345593
 10
102.9842393405734
 20
-130.5129638345593
 97
        0
 97
        0
 75
     2
 76
     1
 98
        0
  0
SPLINE
  5
163
330
15D
100
AcDbEntity
  8
_U+30EC_U+30A4_U+30E4_U+30FC 1
370
     0
100
AcDbSpline
210
0.0
220
0.0
230
1.0
 70
    11
 71
     3
 72
    62
 73
    58
 74
     0
 42
0.0000000001
 43
0.0000000001
 12
1.0
 22
0.0
 32
0.0
 13
1.0
 23
0.0
 33
0.0
 40
0.0
 40
0.0
 40
0.0
 40
0.0
 40
1.0
 40
1.0
 40
1.0
 40
2.0
 40
2.0
 40
2.0
 40
3.0
 40
3.0
 40
3.0
 40
4.0
 40
4.0
 40
4.0
 40
5.0
 40
5.0
 40
5.0
 40
6.0
 40
6.0
 40
6.0
 40
7.0
 40
7.0
 40
7.0
 40
8.0
 40
8.0
 40
8.0
 40
9.0
 40
9.0
 40
9.0
 40
10.0
 40
10.0
 40
10.0
 40
11.0
 40
11.0
 40
11.0
 40
12.0
 40
12.0
 40
12.0
 40
13.0
 40
13.0
 40
13.0
 40
14.0
 40
14.0
 40
14.0
 40
15.0
 40
15.0
 40
15.0
 40
16.0
 40
16.0
 40
16.0
 40
17.0
 40
17.0
 40
17.0
 40
18.0
 40
18.0
 40
18.0
 40
19.0
 40
19.0
 40
19.0
 40
19.0
 10
103.0348822442066
 20
-129.2958115996205
 30
0.0
 10
103.0348822442066
 20
-129.3912407445619
 30
0.0
 10
103.0138671617465
 20
-129.6089707792297
 30
0.0
 10
102.827832005543
 20
-129.7340277453443
 30
0.0
 10
102.7155218927239
 20
-129.8080972982771
 30
0.0
 10
102.6163031427487
 20
-129.8122314128595
 30
0.0
 10
102.5315537938116
 20
-129.8163655274417
 30
0.0
 10
102.5315537938116
 20
-129.8163655274417
 30
0.0
 10
102.5315537938116
 20
-129.5962239259343
 30
0.0
 10
102.5315537938116
 20
-129.5962239259343
 30
0.0
 10
102.6056233467444
 20
-129.5941568686431
 30
0.0
 10
102.8402343492899
 20
-129.5838215821874
 30
0.0
 10
102.8402343492899
 20
-129.3002902237513
 30
0.0
 10
102.8402343492899
 20
-129.1628309138898
 30
0.0
 10
102.7706434204879
 20
-129.0102131838933
 30
0.0
 10
102.5422335898158
 20
-129.0102131838933
 30
0.0
 10
102.4257893624144
 20
-129.0102131838933
 30
0.0
 10
102.3772135160724
 20
-129.0484537437796
 30
0.0
 10
102.3455186376081
 20
-129.0801486222439
 30
0.0
 10
102.2714490846752
 20
-129.1542181751767
 30
0.0
 10
102.2587022313798
 20
-129.2706624025782
 30
0.0
 10
102.2587022313798
 20
-129.3254394207937
 30
0.0
 10
102.2587022313798
 20
-129.344731955511
 30
0.0
 10
102.2607692886709
 20
-129.3805609485576
 30
0.0
 10
102.2649034032532
 20
-129.4081217124397
 30
0.0
 10
102.2649034032532
 20
-129.4081217124397
 30
0.0
 10
102.0702555083366
 20
-129.4081217124397
 30
0.0
 10
102.0702555083366
 20
-129.4081217124397
 30
0.0
 10
102.0768011897586
 20
-129.3698811525534
 30
0.0
 10
102.0788682470497
 20
-129.3278509876333
 30
0.0
 10
102.0788682470497
 20
-129.3213053062113
 30
0.0
 10
102.0788682470497
 20
-129.2558484919916
 30
0.0
 10
102.0575086550412
 20
-129.0570664824927
 30
0.0
 10
101.8208305952045
 20
-129.0570664824927
 30
0.0
 10
101.6430636681656
 20
-129.0570664824927
 30
0.0
 10
101.5879421404016
 20
-129.1879801109322
 30
0.0
 10
101.5879421404016
 20
-129.2982231664602
 30
0.0
 10
101.5879421404016
 20
-129.5624619901788
 30
0.0
 10
101.8208305952045
 20
-129.571074728892
 30
0.0
 10
101.8924885812977
 20
-129.5752088434743
 30
0.0
 10
101.8924885812977
 20
-129.5752088434743
 30
0.0
 10
101.8924885812977
 20
-129.778469477104
 30
0.0
 10
101.8924885812977
 20
-129.778469477104
 30
0.0
 10
101.7677761247317
 20
-129.7698567383909
 30
0.0
 10
101.3912271881939
 20
-129.7422959745089
 30
0.0
 10
101.3912271881939
 20
-129.2854763131647
 30
0.0
 10
101.3912271881939
 20
-129.061200597075
 30
0.0
 10
101.5183512115996
 20
-128.8200439131075
 30
0.0
 10
101.8142849137825
 20
-128.8200439131075
 30
0.0
 10
102.0006645795346
 20
-128.8200439131075
 30
0.0
 10
102.083002361632
 20
-128.9151285485004
 30
0.0
 10
102.1443250612695
 20
-129.0146918080241
 30
0.0
 10
102.1718858251515
 20
-128.9533691083867
 30
0.0
 10
102.2521565499578
 20
-128.7714680667655
 30
0.0
 10
102.5294867365204
 20
-128.7714680667655
 30
0.0
 10
102.867795113172
 20
-128.7714680667655
 30
0.0
 10
103.0348822442066
 20
-129.0188259226064
 30
0.0
 10
103.0348822442066
 20
-129.2958115996205
 30
0.0
  0
HATCH
  5
164
330
15D
100
AcDbEntity
  8
_U+30EC_U+30A4_U+30E4_U+30FC 1
 62
   179
420
  2234388
100
AcDbHatch
 10
0.0
 20
0.0
 30
0.0
210
0.0
220
0.0
230
1.0
  2
SOLID
 70
     1
 71
     0
 91
        1
 92
        1
 93
        1
 72
     4
 94
        3
 73
     0
 74
     1
 95
       62
 96
       58
 40
0.0
 40
0.0
 40
0.0
 40
0.0
 40
1.0
 40
1.0
 40
1.0
 40
2.0
 40
2.0
 40
2.0
 40
3.0
 40
3.0
 40
3.0
 40
4.0
 40
4.0
 40
4.0
 40
5.0
 40
5.0
 40
5.0
 40
6.0
 40
6.0
 40
6.0
 40
7.0
 40
7.0
 40
7.0
 40
8.0
 40
8.0
 40
8.0
 40
9.0
 40
9.0
 40
9.0
 40
10.0
 40
10.0
 40
10.0
 40
11.0
 40
11.0
 40
11.0
 40
12.0
 40
12.0
 40
12.0
 40
13.0
 40
13.0
 40
13.0
 40
14.0
 40
14.0
 40
14.0
 40
15.0
 40
15.0
 40
15.0
 40
16.0
 40
16.0
 40
16.0
 40
17.0
 40
17.0
 40
17.0
 40
18.0
 40
18.0
 40
18.0
 40
19.0
 40
19.0
 40
19.0
 40
19.0
 10
103.0348822442066
 20
-129.2958115996205
 10
103.0348822442066
 20
-129.3912407445619
 10
103.0138671617465
 20
-129.6089707792297
 10
102.827832005543
 20
-129.7340277453443
 10
102.7155218927239
 20
-129.8080972982771
 10
102.6163031427487
 20
-129.8122314128595
 10
102.5315537938116
 20
-129.8163655274417
 10
102.5315537938116
 20
-129.8163655274417
 10
102.5315537938116
 20
-129.5962239259343
 10
102.5315537938116
 20
-129.5962239259343
 10
102.6056233467444
 20
-129.5941568686431
 10
102.8402343492899
 20
-129.5838215821874
 10
102.8402343492899
 20
-129.3002902237513
 10
102.8402343492899
 20
-129.1628309138898
 10
102.7706434204879
 20
-129.0102131838933
 10
102.5422335898158
 20
-129.0102131838933
 10
102.4257893624144
 20
-129.0102131838933
 10
102.3772135160724
 20
-129.0484537437796
 10
102.3455186376081
 20
-129.0801486222439
 10
102.2714490846752
 20
-129.1542181751767
 10
102.2587022313798
 20
-129.2706624025782
 10
102.2587022313798
 20
-129.3254394207937
 10
102.2587022313798
 20
-129.344731955511
 10
102.2607692886709
 20
-129.3805609485576
 10
102.2649034032532
 20
-129.4081217124397
 10
102.2649034032532
 20
-129.4081217124397
 10
102.0702555083366
 20
-129.4081217124397
 10
102.0702555083366
 20
-129.4081217124397
 10
102.0768011897586
 20
-129.3698811525534
 10
102.0788682470497
 20
-129.3278509876333
 10
102.0788682470497
 20
-129.3213053062113
 10
102.0788682470497
 20
-129.2558484919916
 10
102.0575086550412
 20
-129.0570664824927
 10
101.8208305952045
 20
-129.0570664824927
 10
101.6430636681656
 20
-129.0570664824927
 10
101.5879421404016
 20
-129.1879801109322
 10
101.5879421404016
 20
-129.2982231664602
 10
101.5879421404016
 20
-129.5624619901788
 10
101.8208305952045
 20
-129.571074728892
 10
101.8924885812977
 20
-129.5752088434743
 10
101.8924885812977
 20
-129.5752088434743
 10
101.8924885812977
 20
-129.778469477104
 10
101.8924885812977
 20
-129.778469477104
 10
101.7677761247317
 20
-129.7698567383909
 10
101.3912271881939
 20
-129.7422959745089
 10
101.3912271881939
 20
-129.2854763131647
 10
101.3912271881939
 20
-129.061200597075
 10
101.5183512115996
 20
-128.8200439131075
 10
101.8142849137825
 20
-128.8200439131075
 10
102.0006645795346
 20
-128.8200439131075
 10
102.083002361632
 20
-128.9151285485004
 10
102.1443250612695
 20
-129.0146918080241
 10
102.1718858251515
 20
-128.9533691083867
 10
102.2521565499578
 20
-128.7714680667655
 10
102.5294867365204
 20
-128.7714680667655
 10
102.867795113172
 20
-128.7714680667655
 10
103.0348822442066
 20
-129.0188259226064
 10
103.0348822442066
 20
-129.2958115996205
 97
        0
 97
        0
 75
     2
 76
     1
 98
        0
  0
ENDBLK
  5
160
330
15D
100
AcDbEntity
  8
0
100
AcDbBlockEnd
  0
ENDSEC
  0
SECTION
  2
ENTITIES
  0
SPLINE
  5
41
330
1F
100
AcDbEntity
  8
_U+30EC_U+30A4_U+30E4_U+30FC 1
 62
   179
420
  2234388
370
    25
100
AcDbSpline
210
0.0
220
0.0
230
1.0
 70
    11
 71
     3
 72
    38
 73
    34
 74
     0
 42
0.0000000001
 43
0.0000000001
 12
1.0
 22
0.0
 32
0.0
 13
1.0
 23
0.0
 33
0.0
 40
0.0
 40
0.0
 40
0.0
 40
0.0
 40
1.0
 40
1.0
 40
1.0
 40
2.0
 40
2.0
 40
2.0
 40
3.0
 40
3.0
 40
3.0
 40
4.0
 40
4.0
 40
4.0
 40
5.0
 40
5.0
 40
5.0
 40
6.0
 40
6.0
 40
6.0
 40
7.0
 40
7.0
 40
7.0
 40
8.0
 40
8.0
 40
8.0
 40
9.0
 40
9.0
 40
9.0
 40
10.0
 40
10.0
 40
10.0
 40
11.0
 40
11.0
 40
11.0
 40
11.0
 10
80.58079442429913
 20
-137.4055685767598
 30
0.0
 10
80.58079442429913
 20
-137.4055685767598
 30
0.0
 10
80.58079442429913
 20
-123.2999608025084
 30
0.0
 10
80.58079442429913
 20
-123.2999608025084
 30
0.0
 10
80.58079442429913
 20
-123.2999608025084
 30
0.0
 10
99.08095247223432
 20
-123.2999608025084
 30
0.0
 10
99.08095247223432
 20
-123.2999608025084
 30
0.0
 10
99.35654246520343
 20
-123.2999608025084
 30
0.0
 10
99.5804857928235
 20
-123.0760527470089
 30
0.0
 10
99.5804857928235
 20
-122.7997571915222
 30
0.0
 10
99.5804857928235
 20
-122.7997571915222
 30
0.0
 10
99.5804857928235
 20
-122.3001885805361
 30
0.0
 10
99.5804857928235
 20
-122.3001885805361
 30
0.0
 10
99.5804857928235
 20
-122.3001885805361
 30
0.0
 10
78.58054442479917
 20
-122.3001885805361
 30
0.0
 10
78.58054442479917
 20
-122.3001885805361
 30
0.0
 10
78.58054442479917
 20
-122.3001885805361
 30
0.0
 10
78.58054442479917
 20
-139.4057832984816
 30
0.0
 10
78.58054442479917
 20
-139.4057832984816
 30
0.0
 10
78.58054442479917
 20
-139.4057832984816
 30
0.0
 10
88.58098079566646
 20
-139.4057832984816
 30
0.0
 10
88.58098079566646
 20
-139.4057832984816
 30
0.0
 10
88.58098079566646
 20
-139.4057832984816
 30
0.0
 10
88.58098079566646
 20
-136.4057963547873
 30
0.0
 10
88.58098079566646
 20
-136.4057963547873
 30
0.0
 10
88.58098079566646
 20
-136.4057963547873
 30
0.0
 10
86.58076612447397
 20
-136.4057963547873
 30
0.0
 10
86.58076612447397
 20
-136.4057963547873
 30
0.0
 10
86.58076612447397
 20
-136.4057963547873
 30
0.0
 10
86.58076612447397
 20
-137.4055685767598
 30
0.0
 10
86.58076612447397
 20
-137.4055685767598
 30
0.0
 10
86.58076612447397
 20
-137.4055685767598
 30
0.0
 10
80.58079442429913
 20
-137.4055685767598
 30
0.0
 10
80.58079442429913
 20
-137.4055685767598
 30
0.0
  0
HATCH
  5
42
330
1F
100
AcDbEntity
  8
_U+30EC_U+30A4_U+30E4_U+30FC 1
 62
     9
420
 13224394
100
AcDbHatch
 10
0.0
 20
0.0
 30
0.0
210
0.0
220
0.0
230
1.0
  2
SOLID
 70
     1
 71
     0
 91
        1
 92
        1
 93
        1
 72
     4
 94
        3
 73
     0
 74
     1
 95
       38
 96
       34
 40
0.0
 40
0.0
 40
0.0
 40
0.0
 40
1.0
 40
1.0
 40
1.0
 40
2.0
 40
2.0
 40
2.0
 40
3.0
 40
3.0
 40
3.0
 40
4.0
 40
4.0
 40
4.0
 40
5.0
 40
5.0
 40
5.0
 40
6.0
 40
6.0
 40
6.0
 40
7.0
 40
7.0
 40
7.0
 40
8.0
 40
8.0
 40
8.0
 40
9.0
 40
9.0
 40
9.0
 40
10.0
 40
10.0
 40
10.0
 40
11.0
 40
11.0
 40
11.0
 40
11.0
 10
80.58079442429913
 20
-137.4055685767598
 10
80.58079442429913
 20
-137.4055685767598
 10
80.58079442429913
 20
-123.2999608025084
 10
80.58079442429913
 20
-123.2999608025084
 10
80.58079442429913
 20
-123.2999608025084
 10
99.08095247223432
 20
-123.2999608025084
 10
99.08095247223432
 20
-123.2999608025084
 10
99.35654246520343
 20
-123.2999608025084
 10
99.5804857928235
 20
-123.0760527470089
 10
99.5804857928235
 20
-122.7997571915222
 10
99.5804857928235
 20
-122.7997571915222
 10
99.5804857928235
 20
-122.3001885805361
 10
99.5804857928235
 20
-122.3001885805361
 10
99.5804857928235
 20
-122.3001885805361
 10
78.58054442479917
 20
-122.3001885805361
 10
78.58054442479917
 20
-122.3001885805361
 10
78.58054442479917
 20
-122.3001885805361
 10
78.58054442479917
 20
-139.4057832984816
 10
78.58054442479917
 20
-139.4057832984816
 10
78.58054442479917
 20
-139.4057832984816
 10
88.58098079566646
 20
-139.4057832984816
 10
88.58098079566646
 20
-139.4057832984816
 10
88.58098079566646
 20
-139.4057832984816
 10
88.58098079566646
 20
-136.4057963547873
 10
88.58098079566646
 20
-136.4057963547873
 10
88.58098079566646
 20
-136.4057963547873
 10
86.58076612447397
 20
-136.4057963547873
 10
86.58076612447397
 20
-136.4057963547873
 10
86.58076612447397
 20
-136.4057963547873
 10
86.58076612447397
 20
-137.4055685767598
 10
86.58076612447397
 20
-137.4055685767598
 10
86.58076612447397
 20
-137.4055685767598
 10
80.58079442429913
 20
-137.4055685767598
 10
80.58079442429913
 20
-137.4055685767598
 97
        0
 97
        0
 75
     2
 76
     1
 98
        0
  0
POLYLINE
  5
43
330
1F
100
AcDbEntity
  8
_U+30EC_U+30A4_U+30E4_U+30FC 1
 62
   179
420
  2234388
370
     9
100
AcDb2dPolyline
 66
     1
 10
0.0
 20
0.0
 30
0.0
  0
VERTEX
  5
44
330
43
100
AcDbEntity
  8
_U+30EC_U+30A4_U+30E4_U+30FC 1
 62
   179
420
  2234388
370
     9
100
AcDbVertex
100
AcDb2dVertex
 10
79.78012796463936
 20
-137.2849891323455
 30
0.0
  0
VERTEX
  5
45
330
43
100
AcDbEntity
  8
_U+30EC_U+30A4_U+30E4_U+30FC 1
 62
   179
420
  2234388
370
     9
100
AcDbVertex
100
AcDb2dVertex
 10
79.30955769886684
 20
-137.2849891323455
 30
0.0
  0
VERTEX
  5
46
330
43
100
AcDbEntity
  8
_U+30EC_U+30A4_U+30E4_U+30FC 1
 62
   179
420
  2234388
370
     9
100
AcDbVertex
100
AcDb2dVertex
 10
79.30955769886684
 20
-124.2914780244826
 30
0.0
  0
VERTEX
  5
47
330
43
100
AcDbEntity
  8
_U+30EC_U+30A4_U+30E4_U+30FC 1
 62
   179
420
  2234388
370
     9
100
AcDbVertex
100
AcDb2dVertex
 10
79.78012796463936
 20
-124.2914780244826
 30
0.0
  0
VERTEX
  5
48
330
43
100
AcDbEntity
  8
_U+30EC_U+30A4_U+30E4_U+30FC 1
 62
   179
420
  2234388
370
     9
100
AcDbVertex
100
AcDb2dVertex
 10
79.78012796463936
 20
-137.2849891323455
 30
0.0
  0
SEQEND
  5
4A
330
43
100
AcDbEntity
  8
_U+30EC_U+30A4_U+30E4_U+30FC 1
 62
   179
420
  2234388
370
     9
  0
HATCH
  5
49
330
1F
100
AcDbEntity
  8
_U+30EC_U+30A4_U+30E4_U+30FC 1
 62
   179
420
  2234388
100
AcDbHatch
 10
0.0
 20
0.0
 30
0.0
210
0.0
220
0.0
230
1.0
  2
SOLID
 70
     1
 71
     0
 91
        1
 92
        1
 93
        4
 72
     1
 10
79.78012796463936
 20
-137.2849891323455
 11
79.30955769886684
 21
-137.2849891323455
 72
     1
 10
79.30955769886684
 20
-137.2849891323455
 11
79.30955769886684
 21
-124.2914780244826
 72
     1
 10
79.30955769886684
 20
-124.2914780244826
 11
79.78012796463936
 21
-124.2914780244826
 72
     1
 10
79.78012796463936
 20
-124.2914780244826
 11
79.78012796463936
 21
-137.2849891323455
 97
        0
 75
     2
 76
     1
 98
        0
  0
POLYLINE
  5
4B
330
1F
100
AcDbEntity
  8
_U+30EC_U+30A4_U+30E4_U+30FC 1
 62
   179
420
  2234388
370
    25
100
AcDb2dPolyline
 66
     1
 10
0.0
 20
0.0
 30
0.0
  0
VERTEX
  5
4C
330
4B
100
AcDbEntity
  8
_U+30EC_U+30A4_U+30E4_U+30FC 1
 62
   179
420
  2234388
370
    25
100
AcDbVertex
100
AcDb2dVertex
 10
79.33090275794505
 20
-124.3004385800361
 30
0.0
  0
VERTEX
  5
4D
330
4B
100
AcDbEntity
  8
_U+30EC_U+30A4_U+30E4_U+30FC 1
 62
   179
420
  2234388
370
    25
100
AcDbVertex
100
AcDb2dVertex
 10
79.83114164670877
 20
-124.3004385800361
 30
0.0
  0
SEQEND
  5
4E
330
4B
100
AcDbEntity
  8
_U+30EC_U+30A4_U+30E4_U+30FC 1
 62
   179
420
  2234388
370
    25
  0
POLYLINE
  5
4F
330
1F
100
AcDbEntity
  8
_U+30EC_U+30A4_U+30E4_U+30FC 1
 62
   179
420
  2234388
370
    25
100
AcDb2dPolyline
 66
     1
 10
0.0
 20
0.0
 30
0.0
  0
VERTEX
  5
50
330
4F
100
AcDbEntity
  8
_U+30EC_U+30A4_U+30E4_U+30FC 1
 62
   179
420
  2234388
370
    25
100
AcDbVertex
100
AcDb2dVertex
 10
79.83114164670877
 20
-124.3004385800361
 30
0.0
  0
VERTEX
  5
51
330
4F
100
AcDbEntity
  8
_U+30EC_U+30A4_U+30E4_U+30FC 1
 62
   179
420
  2234388
370
    25
100
AcDbVertex
100
AcDb2dVertex
 10
79.83114164670877
 20
-137.300158576786
 30
0.0
  0
SEQEND
  5
52
330
4F
100
AcDbEntity
  8
_U+30EC_U+30A4_U+30E4_U+30FC 1
 62
   179
420
  2234388
370
    25
  0
POLYLINE
  5
53
330
1F
100
AcDbEntity
  8
_U+30EC_U+30A4_U+30E4_U+30FC 1
 62
   179
420
  2234388
370
    25
100
AcDb2dPolyline
 66
     1
 10
0.0
 20
0.0
 30
0.0
  0
VERTEX
  5
54
330
53
100
AcDbEntity
  8
_U+30EC_U+30A4_U+30E4_U+30FC 1
 62
   179
420
  2234388
370
    25
100
AcDbVertex
100
AcDb2dVertex
 10
79.33090275794505
 20
-124.3004385800361
 30
0.0
  0
VERTEX
  5
55
330
53
100
AcDbEntity
  8
_U+30EC_U+30A4_U+30E4_U+30FC 1
 62
   179
420
  2234388
370
    25
100
AcDbVertex
100
AcDb2dVertex
 10
79.33090275794505
 20
-137.300158576786
 30
0.0
  0
SEQEND
  5
56
330
53
100
AcDbEntity
  8
_U+30EC_U+30A4_U+30E4_U+30FC 1
 62
   179
420
  2234388
370
    25
  0
POLYLINE
  5
57
330
1F
100
AcDbEntity
  8
_U+30EC_U+30A4_U+30E4_U+30FC 1
 62
   179
420
  2234388
370
    25
100
AcDb2dPolyline
 66
     1
 10
0.0
 20
0.0
 30
0.0
  0
VERTEX
  5
58
330
57
100
AcDbEntity
  8
_U+30EC_U+30A4_U+30E4_U+30FC 1
 62
   179
420
  2234388
370
    25
100
AcDbVertex
100
AcDb2dVertex
 10
79.33090275794505
 20
-137.300158576786
 30
0.0
  0
VERTEX
  5
59
330
57
100
AcDbEntity
  8
_U+30EC_U+30A4_U+30E4_U+30FC 1
 62
   179
420
  2234388
370
    25
100
AcDbVertex
100
AcDb2dVertex
 10
79.83114164670877
 20
-137.300158576786
 30
0.0
  0
SEQEND
  5
5A
330
57
100
AcDbEntity
  8
_U+30EC_U+30A4_U+30E4_U+30FC 1
 62
   179
420
  2234388
370
    25
  0
POLYLINE
  5
5B
330
1F
100
AcDbEntity
  8
_U+30EC_U+30A4_U+30E4_U+30FC 1
 62
   179
420
  2234388
370
     9
100
AcDb2dPolyline
 66
     1
 10
0.0
 20
0.0
 30
0.0
  0
VERTEX
  5
5C
330
5B
100
AcDbEntity
  8
_U+30EC_U+30A4_U+30E4_U+30FC 1
 62
   179
420
  2234388
370
     9
100
AcDbVertex
100
AcDb2dVertex
 10
82.31229623337171
 20
-134.0776041331473
 30
0.0
  0
VERTEX
  5
5D
330
5B
100
AcDbEntity
  8
_U+30EC_U+30A4_U+30E4_U+30FC 1
 62
   179
420
  2234388
370
     9
100
AcDbVertex
100
AcDb2dVertex
 10
98.11356527469219
 20
-134.0776041331473
 30
0.0
  0
SEQEND
  5
5E
330
5B
100
AcDbEntity
  8
_U+30EC_U+30A4_U+30E4_U+30FC 1
 62
   179
420
  2234388
370
     9
  0
POLYLINE
  5
5F
330
1F
100
AcDbEntity
  8
_U+30EC_U+30A4_U+30E4_U+30FC 1
 62
   179
420
  2234388
370
     9
100
AcDb2dPolyline
 66
     1
 10
0.0
 20
0.0
 30
0.0
  0
VERTEX
  5
60
330
5F
100
AcDbEntity
  8
_U+30EC_U+30A4_U+30E4_U+30FC 1
 62
   179
420
  2234388
370
     9
100
AcDbVertex
100
AcDb2dVertex
 10
79.83114164670877
 20
-135.5100582994557
 30
0.0
  0
VERTEX
  5
61
330
5F
100
AcDbEntity
  8
_U+30EC_U+30A4_U+30E4_U+30FC 1
 62
   179
420
  2234388
370
     9
100
AcDbVertex
100
AcDb2dVertex
 10
82.31229623337171
 20
-134.0776041331473
 30
0.0
  0
SEQEND
  5
62
330
5F
100
AcDbEntity
  8
_U+30EC_U+30A4_U+30E4_U+30FC 1
 62
   179
420
  2234388
370
     9
  0
POLYLINE
  5
63
330
1F
100
AcDbEntity
  8
_U+30EC_U+30A4_U+30E4_U+30FC 1
 62
   179
420
  2234388
370
     9
100
AcDb2dPolyline
 66
     1
 10
0.0
 20
0.0
 30
0.0
  0
VERTEX
  5
64
330
63
100
AcDbEntity
  8
_U+30EC_U+30A4_U+30E4_U+30FC 1
 62
   179
420
  2234388
370
     9
100
AcDbVertex
100
AcDb2dVertex
 10
79.83114164670877
 20
-135.5100582994557
 30
0.0
  0
VERTEX
  5
65
330
63
100
AcDbEntity
  8
_U+30EC_U+30A4_U+30E4_U+30FC 1
 62
   179
420
  2234388
370
     9
100
AcDbVertex
100
AcDb2dVertex
 10
80.18458767654296
 20
-135.1566102439887
 30
0.0
  0
SEQEND
  5
66
330
63
100
AcDbEntity
  8
_U+30EC_U+30A4_U+30E4_U+30FC 1
 62
   179
420
  2234388
370
     9
  0
POLYLINE
  5
67
330
1F
100
AcDbEntity
  8
_U+30EC_U+30A4_U+30E4_U+30FC 1
 62
   179
420
  2234388
370
     9
100
AcDb2dPolyline
 66
     1
 10
0.0
 20
0.0
 30
0.0
  0
VERTEX
  5
68
330
67
100
AcDbEntity
  8
_U+30EC_U+30A4_U+30E4_U+30FC 1
 62
   179
420
  2234388
370
     9
100
AcDbVertex
100
AcDb2dVertex
 10
79.83114164670877
 20
-135.5100582994557
 30
0.0
  0
VERTEX
  5
69
330
67
100
AcDbEntity
  8
_U+30EC_U+30A4_U+30E4_U+30FC 1
 62
   179
420
  2234388
370
     9
100
AcDbVertex
100
AcDb2dVertex
 10
80.31345739547744
 20
-135.3812238550434
 30
0.0
  0
SEQEND
  5
6A
330
67
100
AcDbEntity
  8
_U+30EC_U+30A4_U+30E4_U+30FC 1
 62
   179
420
  2234388
370
     9
  0
POLYLINE
  5
6B
330
1F
100
AcDbEntity
  8
_U+30EC_U+30A4_U+30E4_U+30FC 1
 62
   154
420
    23468
370
    25
100
AcDb2dPolyline
 66
     1
 10
0.0
 20
0.0
 30
0.0
  0
VERTEX
  5
6C
330
6B
100
AcDbEntity
  8
_U+30EC_U+30A4_U+30E4_U+30FC 1
 62
   154
420
    23468
370
    25
100
AcDbVertex
100
AcDb2dVertex
 10
89.58075299238237
 20
-136.3003863548141
 30
0.0
  0
VERTEX
  5
6D
330
6B
100
AcDbEntity
  8
_U+30EC_U+30A4_U+30E4_U+30FC 1
 62
   154
420
    23468
370
    25
100
AcDbVertex
100
AcDb2dVertex
 10
89.58075299238237
 20
-140.3001455204804
 30
0.0
  0
SEQEND
  5
6E
330
6B
100
AcDbEntity
  8
_U+30EC_U+30A4_U+30E4_U+30FC 1
 62
   154
420
    23468
370
    25
  0
POLYLINE
  5
6F
330
1F
100
AcDbEntity
  8
_U+30EC_U+30A4_U+30E4_U+30FC 1
 62
   154
420
    23468
370
    25
100
AcDb2dPolyline
 66
     1
 10
0.0
 20
0.0
 30
0.0
  0
VERTEX
  5
70
330
6F
100
AcDbEntity
  8
_U+30EC_U+30A4_U+30E4_U+30FC 1
 62
   154
420
    23468
370
    25
100
AcDbVertex
100
AcDb2dVertex
 10
78.08101109159098
 20
-140.3001455204804
 30
0.0
  0
VERTEX
  5
71
330
6F
100
AcDbEntity
  8
_U+30EC_U+30A4_U+30E4_U+30FC 1
 62
   154
420
    23468
370
    25
100
AcDbVertex
100
AcDb2dVertex
 10
89.58075299238237
 20
-140.3001455204804
 30
0.0
  0
SEQEND
  5
72
330
6F
100
AcDbEntity
  8
_U+30EC_U+30A4_U+30E4_U+30FC 1
 62
   154
420
    23468
370
    25
  0
POLYLINE
  5
73
330
1F
100
AcDbEntity
  8
_U+30EC_U+30A4_U+30E4_U+30FC 1
 62
   154
420
    23468
370
    25
100
AcDb2dPolyline
 66
     1
 10
0.0
 20
0.0
 30
0.0
  0
VERTEX
  5
74
330
73
100
AcDbEntity
  8
_U+30EC_U+30A4_U+30E4_U+30FC 1
 62
   154
420
    23468
370
    25
100
AcDbVertex
100
AcDb2dVertex
 10
78.08101109159098
 20
-123.7004694135193
 30
0.0
  0
VERTEX
  5
75
330
73
100
AcDbEntity
  8
_U+30EC_U+30A4_U+30E4_U+30FC 1
 62
   154
420
    23468
370
    25
100
AcDbVertex
100
AcDb2dVertex
 10
78.08101109159098
 20
-140.3001455204804
 30
0.0
  0
SEQEND
  5
76
330
73
100
AcDbEntity
  8
_U+30EC_U+30A4_U+30E4_U+30FC 1
 62
   154
420
    23468
370
    25
  0
POLYLINE
  5
77
330
1F
100
AcDbEntity
  8
_U+30EC_U+30A4_U+30E4_U+30FC 1
 62
   179
420
  2234388
370
     9
100
AcDb2dPolyline
 66
     1
 10
0.0
 20
0.0
 30
0.0
  0
VERTEX
  5
78
330
77
100
AcDbEntity
  8
_U+30EC_U+30A4_U+30E4_U+30FC 1
 62
   179
420
  2234388
370
     9
100
AcDbVertex
100
AcDb2dVertex
 10
91.20338961765214
 20
-141.2371938535799
 30
0.0
  0
VERTEX
  5
79
330
77
100
AcDbEntity
  8
_U+30EC_U+30A4_U+30E4_U+30FC 1
 62
   179
420
  2234388
370
     9
100
AcDbVertex
100
AcDb2dVertex
 10
91.55687294196736
 20
-141.5906771868243
 30
0.0
  0
SEQEND
  5
7A
330
77
100
AcDbEntity
  8
_U+30EC_U+30A4_U+30E4_U+30FC 1
 62
   179
420
  2234388
370
     9
  0
POLYLINE
  5
7B
330
1F
100
AcDbEntity
  8
_U+30EC_U+30A4_U+30E4_U+30FC 1
 62
   179
420
  2234388
370
     9
100
AcDb2dPolyline
 66
     1
 10
0.0
 20
0.0
 30
0.0
  0
VERTEX
  5
7C
330
7B
100
AcDbEntity
  8
_U+30EC_U+30A4_U+30E4_U+30FC 1
 62
   179
420
  2234388
370
     9
100
AcDbVertex
100
AcDb2dVertex
 10
91.20338961765214
 20
-141.2371938535799
 30
0.0
  0
VERTEX
  5
7D
330
7B
100
AcDbEntity
  8
_U+30EC_U+30A4_U+30E4_U+30FC 1
 62
   179
420
  2234388
370
     9
100
AcDbVertex
100
AcDb2dVertex
 10
93.68454622101922
 20
-142.6696832976658
 30
0.0
  0
SEQEND
  5
7E
330
7B
100
AcDbEntity
  8
_U+30EC_U+30A4_U+30E4_U+30FC 1
 62
   179
420
  2234388
370
     9
  0
POLYLINE
  5
7F
330
1F
100
AcDbEntity
  8
_U+30EC_U+30A4_U+30E4_U+30FC 1
 62
   179
420
  2234388
370
     9
100
AcDb2dPolyline
 66
     1
 10
0.0
 20
0.0
 30
0.0
  0
VERTEX
  5
80
330
7F
100
AcDbEntity
  8
_U+30EC_U+30A4_U+30E4_U+30FC 1
 62
   179
420
  2234388
370
     9
100
AcDbVertex
100
AcDb2dVertex
 10
93.68454622101922
 20
-142.6696832976658
 30
0.0
  0
VERTEX
  5
81
330
7F
100
AcDbEntity
  8
_U+30EC_U+30A4_U+30E4_U+30FC 1
 62
   179
420
  2234388
370
     9
100
AcDbVertex
100
AcDb2dVertex
 10
101.036364366792
 20
-142.6696832976658
 30
0.0
  0
SEQEND
  5
82
330
7F
100
AcDbEntity
  8
_U+30EC_U+30A4_U+30E4_U+30FC 1
 62
   179
420
  2234388
370
     9
  0
POLYLINE
  5
83
330
1F
100
AcDbEntity
  8
_U+30EC_U+30A4_U+30E4_U+30FC 1
 62
   179
420
  2234388
370
     9
100
AcDb2dPolyline
 66
     1
 10
0.0
 20
0.0
 30
0.0
  0
VERTEX
  5
84
330
83
100
AcDbEntity
  8
_U+30EC_U+30A4_U+30E4_U+30FC 1
 62
   179
420
  2234388
370
     9
100
AcDbVertex
100
AcDb2dVertex
 10
91.20338961765214
 20
-141.2371938535799
 30
0.0
  0
VERTEX
  5
85
330
83
100
AcDbEntity
  8
_U+30EC_U+30A4_U+30E4_U+30FC 1
 62
   179
420
  2234388
370
     9
100
AcDbVertex
100
AcDb2dVertex
 10
91.68637766088563
 20
-141.3660635757697
 30
0.0
  0
SEQEND
  5
86
330
83
100
AcDbEntity
  8
_U+30EC_U+30A4_U+30E4_U+30FC 1
 62
   179
420
  2234388
370
     9
  0
SPLINE
  5
87
330
1F
100
AcDbEntity
  8
_U+30EC_U+30A4_U+30E4_U+30FC 1
 62
   179
420
  2234388
370
     9
100
AcDbSpline
210
0.0
220
0.0
230
1.0
 70
    11
 71
     3
 72
    17
 73
    13
 74
     0
 42
0.0000000001
 43
0.0000000001
 12
1.0
 22
0.0
 32
0.0
 13
1.0
 23
0.0
 33
0.0
 40
0.0
 40
0.0
 40
0.0
 40
0.0
 40
1.0
 40
1.0
 40
1.0
 40
2.0
 40
2.0
 40
2.0
 40
3.0
 40
3.0
 40
3.0
 40
4.0
 40
4.0
 40
4.0
 40
4.0
 10
78.6804843815825
 20
-114.299999971425
 30
0.0
 10
78.6804843815825
 20
-114.2448960825498
 30
0.0
 10
78.6363871604853
 20
-114.2000933047834
 30
0.0
 10
78.58054442479917
 20
-114.2000933047834
 30
0.0
 10
78.52543855220472
 20
-114.2000933047834
 30
0.0
 10
78.48063577556995
 20
-114.2448960825498
 30
0.0
 10
78.48063577556995
 20
-114.299999971425
 30
0.0
 10
78.48063577556995
 20
-114.3551391380778
 30
0.0
 10
78.52543855220472
 20
-114.3999066380666
 30
0.0
 10
78.58054442479917
 20
-114.3999066380666
 30
0.0
 10
78.6363871604853
 20
-114.3999066380666
 30
0.0
 10
78.6804843815825
 20
-114.3551391380778
 30
0.0
 10
78.6804843815825
 20
-114.299999971425
 30
0.0
  0
SPLINE
  5
88
330
1F
100
AcDbEntity
  8
_U+30EC_U+30A4_U+30E4_U+30FC 1
 62
   179
420
  2234388
370
     9
100
AcDbSpline
210
0.0
220
0.0
230
1.0
 70
    11
 71
     3
 72
    17
 73
    13
 74
     0
 42
0.0000000001
 43
0.0000000001
 12
1.0
 22
0.0
 32
0.0
 13
1.0
 23
0.0
 33
0.0
 40
0.0
 40
0.0
 40
0.0
 40
0.0
 40
1.0
 40
1.0
 40
1.0
 40
2.0
 40
2.0
 40
2.0
 40
3.0
 40
3.0
 40
3.0
 40
4.0
 40
4.0
 40
4.0
 40
4.0
 10
99.68039245694132
 20
-114.299999971425
 30
0.0
 10
99.68039245694132
 20
-114.2448960825498
 30
0.0
 10
99.63629523584412
 20
-114.2000933047834
 30
0.0
 10
99.5804857928235
 20
-114.2000933047834
 30
0.0
 10
99.52534662756354
 20
-114.2000933047834
 30
0.0
 10
99.48057912870566
 20
-114.2448960825498
 30
0.0
 10
99.48057912870566
 20
-114.299999971425
 30
0.0
 10
99.48057912870566
 20
-114.3551391380778
 30
0.0
 10
99.52534662756354
 20
-114.3999066380666
 30
0.0
 10
99.5804857928235
 20
-114.3999066380666
 30
0.0
 10
99.63629523584412
 20
-114.3999066380666
 30
0.0
 10
99.68039245694132
 20
-114.3551391380778
 30
0.0
 10
99.68039245694132
 20
-114.299999971425
 30
0.0
  0
SPLINE
  5
89
330
1F
100
AcDbEntity
  8
_U+30EC_U+30A4_U+30E4_U+30FC 1
 62
   179
420
  2234388
370
     9
100
AcDbSpline
210
0.0
220
0.0
230
1.0
 70
    11
 71
     3
 72
    17
 73
    13
 74
     0
 42
0.0000000001
 43
0.0000000001
 12
1.0
 22
0.0
 32
0.0
 13
1.0
 23
0.0
 33
0.0
 40
0.0
 40
0.0
 40
0.0
 40
0.0
 40
1.0
 40
1.0
 40
1.0
 40
2.0
 40
2.0
 40
2.0
 40
3.0
 40
3.0
 40
3.0
 40
4.0
 40
4.0
 40
4.0
 40
4.0
 10
78.6804843815825
 20
-118.3004294148693
 30
0.0
 10
78.6804843815825
 20
-118.2446199704388
 30
0.0
 10
78.6363871604853
 20
-118.1998524704499
 30
0.0
 10
78.58054442479917
 20
-118.1998524704499
 30
0.0
 10
78.52543855220472
 20
-118.1998524704499
 30
0.0
 10
78.48063577556995
 20
-118.2446199704388
 30
0.0
 10
78.48063577556995
 20
-118.3004294148693
 30
0.0
 10
78.48063577556995
 20
-118.3555685815223
 30
0.0
 10
78.52543855220472
 20
-118.4003360815109
 30
0.0
 10
78.58054442479917
 20
-118.4003360815109
 30
0.0
 10
78.6363871604853
 20
-118.4003360815109
 30
0.0
 10
78.6804843815825
 20
-118.3555685815223
 30
0.0
 10
78.6804843815825
 20
-118.3004294148693
 30
0.0
  0
SPLINE
  5
8A
330
1F
100
AcDbEntity
  8
_U+30EC_U+30A4_U+30E4_U+30FC 1
 62
   179
420
  2234388
370
     9
100
AcDbSpline
210
0.0
220
0.0
230
1.0
 70
    11
 71
     3
 72
    17
 73
    13
 74
     0
 42
0.0000000001
 43
0.0000000001
 12
1.0
 22
0.0
 32
0.0
 13
1.0
 23
0.0
 33
0.0
 40
0.0
 40
0.0
 40
0.0
 40
0.0
 40
1.0
 40
1.0
 40
1.0
 40
2.0
 40
2.0
 40
2.0
 40
3.0
 40
3.0
 40
3.0
 40
4.0
 40
4.0
 40
4.0
 40
4.0
 10
80.680699052775
 20
-118.3004294148693
 30
0.0
 10
80.680699052775
 20
-118.2446199704388
 30
0.0
 10
80.63589627614023
 20
-118.1998524704499
 30
0.0
 10
80.58079442429913
 20
-118.1998524704499
 30
0.0
 10
80.52565322339721
 20
-118.1998524704499
 30
0.0
 10
80.48088572453932
 20
-118.2446199704388
 30
0.0
 10
80.48088572453932
 20
-118.3004294148693
 30
0.0
 10
80.48088572453932
 20
-118.3555685815223
 30
0.0
 10
80.52565322339721
 20
-118.4003360815109
 30
0.0
 10
80.58079442429913
 20
-118.4003360815109
 30
0.0
 10
80.63589627614023
 20
-118.4003360815109
 30
0.0
 10
80.680699052775
 20
-118.3555685815223
 30
0.0
 10
80.680699052775
 20
-118.3004294148693
 30
0.0
  0
SPLINE
  5
8B
330
1F
100
AcDbEntity
  8
_U+30EC_U+30A4_U+30E4_U+30FC 1
 62
   179
420
  2234388
370
     9
100
AcDbSpline
210
0.0
220
0.0
230
1.0
 70
    11
 71
     3
 72
    17
 73
    13
 74
     0
 42
0.0000000001
 43
0.0000000001
 12
1.0
 22
0.0
 32
0.0
 13
1.0
 23
0.0
 33
0.0
 40
0.0
 40
0.0
 40
0.0
 40
0.0
 40
1.0
 40
1.0
 40
1.0
 40
2.0
 40
2.0
 40
2.0
 40
3.0
 40
3.0
 40
3.0
 40
4.0
 40
4.0
 40
4.0
 40
4.0
 10
103.6808217993263
 20
-122.3001885805361
 30
0.0
 10
103.6808217993263
 20
-122.2450846916609
 30
0.0
 10
103.6360543004684
 20
-122.2002819138945
 30
0.0
 10
103.5809151352085
 20
-122.2002819138945
 30
0.0
 10
103.5258138630077
 20
-122.2002819138945
 30
0.0
 10
103.481011085241
 20
-122.2450846916609
 30
0.0
 10
103.481011085241
 20
-122.3001885805361
 30
0.0
 10
103.481011085241
 20
-122.3553277471889
 30
0.0
 10
103.5258138630077
 20
-122.4000952471778
 30
0.0
 10
103.5809151352085
 20
-122.4000952471778
 30
0.0
 10
103.6360543004684
 20
-122.4000952471778
 30
0.0
 10
103.6808217993263
 20
-122.3553277471889
 30
0.0
 10
103.6808217993263
 20
-122.3001885805361
 30
0.0
  0
SPLINE
  5
8C
330
1F
100
AcDbEntity
  8
_U+30EC_U+30A4_U+30E4_U+30FC 1
 62
   179
420
  2234388
370
     9
100
AcDbSpline
210
0.0
220
0.0
230
1.0
 70
    11
 71
     3
 72
    17
 73
    13
 74
     0
 42
0.0000000001
 43
0.0000000001
 12
1.0
 22
0.0
 32
0.0
 13
1.0
 23
0.0
 33
0.0
 40
0.0
 40
0.0
 40
0.0
 40
0.0
 40
1.0
 40
1.0
 40
1.0
 40
2.0
 40
2.0
 40
2.0
 40
3.0
 40
3.0
 40
3.0
 40
4.0
 40
4.0
 40
4.0
 40
4.0
 10
88.6808874597843
 20
-144.2999046861472
 30
0.0
 10
88.6808874597843
 20
-144.2447655194942
 30
0.0
 10
88.63612220006334
 20
-144.1999980195056
 30
0.0
 10
88.58098079566646
 20
-144.1999980195056
 30
0.0
 10
88.52587690818339
 20
-144.1999980195056
 30
0.0
 10
88.48107413154862
 20
-144.2447655194942
 30
0.0
 10
88.48107413154862
 20
-144.2999046861472
 30
0.0
 10
88.48107413154862
 20
-144.3550085750222
 30
0.0
 10
88.52587690818339
 20
-144.3998113527889
 30
0.0
 10
88.58098079566646
 20
-144.3998113527889
 30
0.0
 10
88.63612220006334
 20
-144.3998113527889
 30
0.0
 10
88.6808874597843
 20
-144.3550085750222
 30
0.0
 10
88.6808874597843
 20
-144.2999046861472
 30
0.0
  0
SPLINE
  5
8D
330
1F
100
AcDbEntity
  8
_U+30EC_U+30A4_U+30E4_U+30FC 1
 62
   179
420
  2234388
370
     9
100
AcDbSpline
210
0.0
220
0.0
230
1.0
 70
    11
 71
     3
 72
    17
 73
    13
 74
     0
 42
0.0000000001
 43
0.0000000001
 12
1.0
 22
0.0
 32
0.0
 13
1.0
 23
0.0
 33
0.0
 40
0.0
 40
0.0
 40
0.0
 40
0.0
 40
1.0
 40
1.0
 40
1.0
 40
2.0
 40
2.0
 40
2.0
 40
3.0
 40
3.0
 40
3.0
 40
4.0
 40
4.0
 40
4.0
 40
4.0
 10
78.6804843815825
 20
-144.2999046861472
 30
0.0
 10
78.6804843815825
 20
-144.2447655194942
 30
0.0
 10
78.6363871604853
 20
-144.1999980195056
 30
0.0
 10
78.58054442479917
 20
-144.1999980195056
 30
0.0
 10
78.52543855220472
 20
-144.1999980195056
 30
0.0
 10
78.48063577556995
 20
-144.2447655194942
 30
0.0
 10
78.48063577556995
 20
-144.2999046861472
 30
0.0
 10
78.48063577556995
 20
-144.3550085750222
 30
0.0
 10
78.52543855220472
 20
-144.3998113527889
 30
0.0
 10
78.58054442479917
 20
-144.3998113527889
 30
0.0
 10
78.6363871604853
 20
-144.3998113527889
 30
0.0
 10
78.6804843815825
 20
-144.3550085750222
 30
0.0
 10
78.6804843815825
 20
-144.2999046861472
 30
0.0
  0
SPLINE
  5
8E
330
1F
100
AcDbEntity
  8
_U+30EC_U+30A4_U+30E4_U+30FC 1
 62
   179
420
  2234388
370
     9
100
AcDbSpline
210
0.0
220
0.0
230
1.0
 70
    11
 71
     3
 72
    17
 73
    13
 74
     0
 42
0.0000000001
 43
0.0000000001
 12
1.0
 22
0.0
 32
0.0
 13
1.0
 23
0.0
 33
0.0
 40
0.0
 40
0.0
 40
0.0
 40
0.0
 40
1.0
 40
1.0
 40
1.0
 40
2.0
 40
2.0
 40
2.0
 40
3.0
 40
3.0
 40
3.0
 40
4.0
 40
4.0
 40
4.0
 40
4.0
 10
103.6808217993263
 20
-123.2999608025084
 30
0.0
 10
103.6808217993263
 20
-123.2448569136331
 30
0.0
 10
103.6360543004684
 20
-123.2000541358667
 30
0.0
 10
103.5809151352085
 20
-123.2000541358667
 30
0.0
 10
103.5258138630077
 20
-123.2000541358667
 30
0.0
 10
103.481011085241
 20
-123.2448569136331
 30
0.0
 10
103.481011085241
 20
-123.2999608025084
 30
0.0
 10
103.481011085241
 20
-123.3550999691611
 30
0.0
 10
103.5258138630077
 20
-123.39986746915
 30
0.0
 10
103.5809151352085
 20
-123.39986746915
 30
0.0
 10
103.6360543004684
 20
-123.39986746915
 30
0.0
 10
103.6808217993263
 20
-123.3550999691611
 30
0.0
 10
103.6808217993263
 20
-123.2999608025084
 30
0.0
  0
SPLINE
  5
8F
330
1F
100
AcDbEntity
  8
_U+30EC_U+30A4_U+30E4_U+30FC 1
 62
   179
420
  2234388
370
     9
100
AcDbSpline
210
0.0
220
0.0
230
1.0
 70
    11
 71
     3
 72
    17
 73
    13
 74
     0
 42
0.0000000001
 43
0.0000000001
 12
1.0
 22
0.0
 32
0.0
 13
1.0
 23
0.0
 33
0.0
 40
0.0
 40
0.0
 40
0.0
 40
0.0
 40
1.0
 40
1.0
 40
1.0
 40
2.0
 40
2.0
 40
2.0
 40
3.0
 40
3.0
 40
3.0
 40
4.0
 40
4.0
 40
4.0
 40
4.0
 10
103.6808217993263
 20
-136.3003863548141
 30
0.0
 10
103.6808217993263
 20
-136.244576910383
 30
0.0
 10
103.6360543004684
 20
-136.199774132617
 30
0.0
 10
103.5809151352085
 20
-136.199774132617
 30
0.0
 10
103.5258138630077
 20
-136.199774132617
 30
0.0
 10
103.481011085241
 20
-136.244576910383
 30
0.0
 10
103.481011085241
 20
-136.3003863548141
 30
0.0
 10
103.481011085241
 20
-136.355490243689
 30
0.0
 10
103.5258138630077
 20
-136.4002930214558
 30
0.0
 10
103.5809151352085
 20
-136.4002930214558
 30
0.0
 10
103.6360543004684
 20
-136.4002930214558
 30
0.0
 10
103.6808217993263
 20
-136.355490243689
 30
0.0
 10
103.6808217993263
 20
-136.3003863548141
 30
0.0
  0
SPLINE
  5
90
330
1F
100
AcDbEntity
  8
_U+30EC_U+30A4_U+30E4_U+30FC 1
 62
   179
420
  2234388
370
     9
100
AcDbSpline
210
0.0
220
0.0
230
1.0
 70
    11
 71
     3
 72
    17
 73
    13
 74
     0
 42
0.0000000001
 43
0.0000000001
 12
1.0
 22
0.0
 32
0.0
 13
1.0
 23
0.0
 33
0.0
 40
0.0
 40
0.0
 40
0.0
 40
0.0
 40
1.0
 40
1.0
 40
1.0
 40
2.0
 40
2.0
 40
2.0
 40
3.0
 40
3.0
 40
3.0
 40
4.0
 40
4.0
 40
4.0
 40
4.0
 10
103.6808217993263
 20
-139.3003732985084
 30
0.0
 10
103.6808217993263
 20
-139.244563854078
 30
0.0
 10
103.6360543004684
 20
-139.1997610763113
 30
0.0
 10
103.5809151352085
 20
-139.1997610763113
 30
0.0
 10
103.5258138630077
 20
-139.1997610763113
 30
0.0
 10
103.481011085241
 20
-139.244563854078
 30
0.0
 10
103.481011085241
 20
-139.3003732985084
 30
0.0
 10
103.481011085241
 20
-139.3554771873834
 30
0.0
 10
103.5258138630077
 20
-139.4002799651501
 30
0.0
 10
103.5809151352085
 20
-139.4002799651501
 30
0.0
 10
103.6360543004684
 20
-139.4002799651501
 30
0.0
 10
103.6808217993263
 20
-139.3554771873834
 30
0.0
 10
103.6808217993263
 20
-139.3003732985084
 30
0.0
  0
INSERT
  5
92
330
1F
100
AcDbEntity
  8
_U+30EC_U+30A4_U+30E4_U+30FC 1
100
AcDbBlockReference
  2
block 2
 10
0.0
 20
0.0
 30
0.0
  0
INSERT
  5
CD
330
1F
100
AcDbEntity
  8
_U+30EC_U+30A4_U+30E4_U+30FC 1
100
AcDbBlockReference
  2
block 3
 10
0.0
 20
0.0
 30
0.0
  0
POLYLINE
  5
EE
330
1F
100
AcDbEntity
  8
_U+30EC_U+30A4_U+30E4_U+30FC 1
 62
   179
420
  2234388
370
     9
100
AcDb2dPolyline
 66
     1
 10
0.0
 20
0.0
 30
0.0
  0
VERTEX
  5
EF
330
EE
100
AcDbEntity
  8
_U+30EC_U+30A4_U+30E4_U+30FC 1
 62
   179
420
  2234388
370
     9
100
AcDbVertex
100
AcDb2dVertex
 10
103.5809151352085
 20
-122.3001885805361
 30
0.0
  0
VERTEX
  5
F0
330
EE
100
AcDbEntity
  8
_U+30EC_U+30A4_U+30E4_U+30FC 1
 62
   179
420
  2234388
370
     9
100
AcDbVertex
100
AcDb2dVertex
 10
103.5809151352085
 20
-118.5298760814787
 30
0.0
  0
SEQEND
  5
F1
330
EE
100
AcDbEntity
  8
_U+30EC_U+30A4_U+30E4_U+30FC 1
 62
   179
420
  2234388
370
     9
  0
POLYLINE
  5
F2
330
1F
100
AcDbEntity
  8
_U+30EC_U+30A4_U+30E4_U+30FC 1
 62
   179
420
  2234388
370
     9
100
AcDb2dPolyline
 66
     1
 10
0.0
 20
0.0
 30
0.0
  0
VERTEX
  5
F3
330
F2
100
AcDbEntity
  8
_U+30EC_U+30A4_U+30E4_U+30FC 1
 62
   179
420
  2234388
370
     9
100
AcDbVertex
100
AcDb2dVertex
 10
103.5809151352085
 20
-122.3001885805361
 30
0.0
  0
VERTEX
  5
F4
330
F2
100
AcDbEntity
  8
_U+30EC_U+30A4_U+30E4_U+30FC 1
 62
   179
420
  2234388
370
     9
100
AcDbVertex
100
AcDb2dVertex
 10
103.5809151352085
 20
-123.2999608025084
 30
0.0
  0
SEQEND
  5
F5
330
F2
100
AcDbEntity
  8
_U+30EC_U+30A4_U+30E4_U+30FC 1
 62
   179
420
  2234388
370
     9
  0
POLYLINE
  5
F6
330
1F
100
AcDbEntity
  8
_U+30EC_U+30A4_U+30E4_U+30FC 1
 62
   179
420
  2234388
370
     9
100
AcDb2dPolyline
 66
     1
 10
0.0
 20
0.0
 30
0.0
  0
VERTEX
  5
F7
330
F6
100
AcDbEntity
  8
_U+30EC_U+30A4_U+30E4_U+30FC 1
 62
   179
420
  2234388
370
     9
100
AcDbVertex
100
AcDb2dVertex
 10
102.1209090613452
 20
-122.3001885805361
 30
0.0
  0
VERTEX
  5
F8
330
F6
100
AcDbEntity
  8
_U+30EC_U+30A4_U+30E4_U+30FC 1
 62
   179
420
  2234388
370
     9
100
AcDbVertex
100
AcDb2dVertex
 10
104.5806873319244
 20
-122.3001885805361
 30
0.0
  0
SEQEND
  5
F9
330
F6
100
AcDbEntity
  8
_U+30EC_U+30A4_U+30E4_U+30FC 1
 62
   179
420
  2234388
370
     9
  0
POLYLINE
  5
FA
330
1F
100
AcDbEntity
  8
_U+30EC_U+30A4_U+30E4_U+30FC 1
 62
   179
420
  2234388
370
     9
100
AcDb2dPolyline
 66
     1
 10
0.0
 20
0.0
 30
0.0
  0
VERTEX
  5
FB
330
FA
100
AcDbEntity
  8
_U+30EC_U+30A4_U+30E4_U+30FC 1
 62
   179
420
  2234388
370
     9
100
AcDbVertex
100
AcDb2dVertex
 10
101.6206701852185
 20
-123.2999608025084
 30
0.0
  0
VERTEX
  5
FC
330
FA
100
AcDbEntity
  8
_U+30EC_U+30A4_U+30E4_U+30FC 1
 62
   179
420
  2234388
370
     9
100
AcDbVertex
100
AcDb2dVertex
 10
104.5806873319244
 20
-123.2999608025084
 30
0.0
  0
SEQEND
  5
FD
330
FA
100
AcDbEntity
  8
_U+30EC_U+30A4_U+30E4_U+30FC 1
 62
   179
420
  2234388
370
     9
  0
INSERT
  5
FF
330
1F
100
AcDbEntity
  8
_U+30EC_U+30A4_U+30E4_U+30FC 1
100
AcDbBlockReference
  2
block 4
 10
0.0
 20
0.0
 30
0.0
  0
POLYLINE
  5
104
330
1F
100
AcDbEntity
  8
_U+30EC_U+30A4_U+30E4_U+30FC 1
 62
   179
420
  2234388
370
     9
100
AcDb2dPolyline
 66
     1
 10
0.0
 20
0.0
 30
0.0
  0
VERTEX
  5
105
330
104
100
AcDbEntity
  8
_U+30EC_U+30A4_U+30E4_U+30FC 1
 62
   179
420
  2234388
370
     9
100
AcDbVertex
100
AcDb2dVertex
 10
103.5809151352085
 20
-136.3003863548141
 30
0.0
  0
VERTEX
  5
106
330
104
100
AcDbEntity
  8
_U+30EC_U+30A4_U+30E4_U+30FC 1
 62
   179
420
  2234388
370
     9
100
AcDbVertex
100
AcDb2dVertex
 10
103.5809151352085
 20
-139.3003732985084
 30
0.0
  0
SEQEND
  5
107
330
104
100
AcDbEntity
  8
_U+30EC_U+30A4_U+30E4_U+30FC 1
 62
   179
420
  2234388
370
     9
  0
POLYLINE
  5
108
330
1F
100
AcDbEntity
  8
_U+30EC_U+30A4_U+30E4_U+30FC 1
 62
   179
420
  2234388
370
     9
100
AcDb2dPolyline
 66
     1
 10
0.0
 20
0.0
 30
0.0
  0
VERTEX
  5
109
330
108
100
AcDbEntity
  8
_U+30EC_U+30A4_U+30E4_U+30FC 1
 62
   179
420
  2234388
370
     9
100
AcDbVertex
100
AcDb2dVertex
 10
92.12047070536656
 20
-139.3003732985084
 30
0.0
  0
VERTEX
  5
10A
330
108
100
AcDbEntity
  8
_U+30EC_U+30A4_U+30E4_U+30FC 1
 62
   179
420
  2234388
370
     9
100
AcDbVertex
100
AcDb2dVertex
 10
104.5806873319244
 20
-139.3003732985084
 30
0.0
  0
SEQEND
  5
10B
330
108
100
AcDbEntity
  8
_U+30EC_U+30A4_U+30E4_U+30FC 1
 62
   179
420
  2234388
370
     9
  0
INSERT
  5
10D
330
1F
100
AcDbEntity
  8
_U+30EC_U+30A4_U+30E4_U+30FC 1
100
AcDbBlockReference
  2
block 5
 10
0.0
 20
0.0
 30
0.0
  0
POLYLINE
  5
112
330
1F
100
AcDbEntity
  8
_U+30EC_U+30A4_U+30E4_U+30FC 1
 62
   179
420
  2234388
370
     9
100
AcDb2dPolyline
 66
     1
 10
0.0
 20
0.0
 30
0.0
  0
VERTEX
  5
113
330
112
100
AcDbEntity
  8
_U+30EC_U+30A4_U+30E4_U+30FC 1
 62
   179
420
  2234388
370
     9
100
AcDbVertex
100
AcDb2dVertex
 10
80.58079442429913
 20
-118.3004294148693
 30
0.0
  0
VERTEX
  5
114
330
112
100
AcDbEntity
  8
_U+30EC_U+30A4_U+30E4_U+30FC 1
 62
   179
420
  2234388
370
     9
100
AcDbVertex
100
AcDb2dVertex
 10
84.35110479246848
 20
-118.3004294148693
 30
0.0
  0
SEQEND
  5
115
330
112
100
AcDbEntity
  8
_U+30EC_U+30A4_U+30E4_U+30FC 1
 62
   179
420
  2234388
370
     9
  0
POLYLINE
  5
116
330
1F
100
AcDbEntity
  8
_U+30EC_U+30A4_U+30E4_U+30FC 1
 62
   179
420
  2234388
370
     9
100
AcDb2dPolyline
 66
     1
 10
0.0
 20
0.0
 30
0.0
  0
VERTEX
  5
117
330
116
100
AcDbEntity
  8
_U+30EC_U+30A4_U+30E4_U+30FC 1
 62
   179
420
  2234388
370
     9
100
AcDbVertex
100
AcDb2dVertex
 10
77.58080552074875
 20
-118.3004294148693
 30
0.0
  0
VERTEX
  5
118
330
116
100
AcDbEntity
  8
_U+30EC_U+30A4_U+30E4_U+30FC 1
 62
   179
420
  2234388
370
     9
100
AcDbVertex
100
AcDb2dVertex
 10
80.58079442429913
 20
-118.3004294148693
 30
0.0
  0
SEQEND
  5
119
330
116
100
AcDbEntity
  8
_U+30EC_U+30A4_U+30E4_U+30FC 1
 62
   179
420
  2234388
370
     9
  0
POLYLINE
  5
11A
330
1F
100
AcDbEntity
  8
_U+30EC_U+30A4_U+30E4_U+30FC 1
 62
   179
420
  2234388
370
     9
100
AcDb2dPolyline
 66
     1
 10
0.0
 20
0.0
 30
0.0
  0
VERTEX
  5
11B
330
11A
100
AcDbEntity
  8
_U+30EC_U+30A4_U+30E4_U+30FC 1
 62
   179
420
  2234388
370
     9
100
AcDbVertex
100
AcDb2dVertex
 10
78.58054442479917
 20
-119.7598005256156
 30
0.0
  0
VERTEX
  5
11C
330
11A
100
AcDbEntity
  8
_U+30EC_U+30A4_U+30E4_U+30FC 1
 62
   179
420
  2234388
370
     9
100
AcDbVertex
100
AcDb2dVertex
 10
78.58054442479917
 20
-117.2999869151193
 30
0.0
  0
SEQEND
  5
11D
330
11A
100
AcDbEntity
  8
_U+30EC_U+30A4_U+30E4_U+30FC 1
 62
   179
420
  2234388
370
     9
  0
POLYLINE
  5
11E
330
1F
100
AcDbEntity
  8
_U+30EC_U+30A4_U+30E4_U+30FC 1
 62
   179
420
  2234388
370
     9
100
AcDb2dPolyline
 66
     1
 10
0.0
 20
0.0
 30
0.0
  0
VERTEX
  5
11F
330
11E
100
AcDbEntity
  8
_U+30EC_U+30A4_U+30E4_U+30FC 1
 62
   179
420
  2234388
370
     9
100
AcDbVertex
100
AcDb2dVertex
 10
80.58079442429913
 20
-120.7602430253655
 30
0.0
  0
VERTEX
  5
120
330
11E
100
AcDbEntity
  8
_U+30EC_U+30A4_U+30E4_U+30FC 1
 62
   179
420
  2234388
370
     9
100
AcDbVertex
100
AcDb2dVertex
 10
80.58079442429913
 20
-117.2999869151193
 30
0.0
  0
SEQEND
  5
121
330
11E
100
AcDbEntity
  8
_U+30EC_U+30A4_U+30E4_U+30FC 1
 62
   179
420
  2234388
370
     9
  0
INSERT
  5
123
330
1F
100
AcDbEntity
  8
_U+30EC_U+30A4_U+30E4_U+30FC 1
100
AcDbBlockReference
  2
block 6
 10
0.0
 20
0.0
 30
0.0
  0
POLYLINE
  5
128
330
1F
100
AcDbEntity
  8
_U+30EC_U+30A4_U+30E4_U+30FC 1
 62
   179
420
  2234388
370
     9
100
AcDb2dPolyline
 66
     1
 10
0.0
 20
0.0
 30
0.0
  0
VERTEX
  5
129
330
128
100
AcDbEntity
  8
_U+30EC_U+30A4_U+30E4_U+30FC 1
 62
   179
420
  2234388
370
     9
100
AcDbVertex
100
AcDb2dVertex
 10
78.58054442479917
 20
-114.299999971425
 30
0.0
  0
VERTEX
  5
12A
330
128
100
AcDbEntity
  8
_U+30EC_U+30A4_U+30E4_U+30FC 1
 62
   179
420
  2234388
370
     9
100
AcDbVertex
100
AcDb2dVertex
 10
99.5804857928235
 20
-114.299999971425
 30
0.0
  0
SEQEND
  5
12B
330
128
100
AcDbEntity
  8
_U+30EC_U+30A4_U+30E4_U+30FC 1
 62
   179
420
  2234388
370
     9
  0
POLYLINE
  5
12C
330
1F
100
AcDbEntity
  8
_U+30EC_U+30A4_U+30E4_U+30FC 1
 62
   179
420
  2234388
370
     9
100
AcDb2dPolyline
 66
     1
 10
0.0
 20
0.0
 30
0.0
  0
VERTEX
  5
12D
330
12C
100
AcDbEntity
  8
_U+30EC_U+30A4_U+30E4_U+30FC 1
 62
   179
420
  2234388
370
     9
100
AcDbVertex
100
AcDb2dVertex
 10
78.58054442479917
 20
-119.7598005256156
 30
0.0
  0
VERTEX
  5
12E
330
12C
100
AcDbEntity
  8
_U+30EC_U+30A4_U+30E4_U+30FC 1
 62
   179
420
  2234388
370
     9
100
AcDbVertex
100
AcDb2dVertex
 10
78.58054442479917
 20
-113.3002277494528
 30
0.0
  0
SEQEND
  5
12F
330
12C
100
AcDbEntity
  8
_U+30EC_U+30A4_U+30E4_U+30FC 1
 62
   179
420
  2234388
370
     9
  0
POLYLINE
  5
130
330
1F
100
AcDbEntity
  8
_U+30EC_U+30A4_U+30E4_U+30FC 1
 62
   179
420
  2234388
370
     9
100
AcDb2dPolyline
 66
     1
 10
0.0
 20
0.0
 30
0.0
  0
VERTEX
  5
131
330
130
100
AcDbEntity
  8
_U+30EC_U+30A4_U+30E4_U+30FC 1
 62
   179
420
  2234388
370
     9
100
AcDbVertex
100
AcDb2dVertex
 10
99.5804857928235
 20
-119.7598005256156
 30
0.0
  0
VERTEX
  5
132
330
130
100
AcDbEntity
  8
_U+30EC_U+30A4_U+30E4_U+30FC 1
 62
   179
420
  2234388
370
     9
100
AcDbVertex
100
AcDb2dVertex
 10
99.5804857928235
 20
-113.3002277494528
 30
0.0
  0
SEQEND
  5
133
330
130
100
AcDbEntity
  8
_U+30EC_U+30A4_U+30E4_U+30FC 1
 62
   179
420
  2234388
370
     9
  0
INSERT
  5
135
330
1F
100
AcDbEntity
  8
_U+30EC_U+30A4_U+30E4_U+30FC 1
100
AcDbBlockReference
  2
block 7
 10
0.0
 20
0.0
 30
0.0
  0
POLYLINE
  5
13C
330
1F
100
AcDbEntity
  8
_U+30EC_U+30A4_U+30E4_U+30FC 1
 62
   179
420
  2234388
370
     9
100
AcDb2dPolyline
 66
     1
 10
0.0
 20
0.0
 30
0.0
  0
VERTEX
  5
13D
330
13C
100
AcDbEntity
  8
_U+30EC_U+30A4_U+30E4_U+30FC 1
 62
   179
420
  2234388
370
     9
100
AcDbVertex
100
AcDb2dVertex
 10
78.58054442479917
 20
-144.2999046861472
 30
0.0
  0
VERTEX
  5
13E
330
13C
100
AcDbEntity
  8
_U+30EC_U+30A4_U+30E4_U+30FC 1
 62
   179
420
  2234388
370
     9
100
AcDbVertex
100
AcDb2dVertex
 10
88.58098079566646
 20
-144.2999046861472
 30
0.0
  0
SEQEND
  5
13F
330
13C
100
AcDbEntity
  8
_U+30EC_U+30A4_U+30E4_U+30FC 1
 62
   179
420
  2234388
370
     9
  0
POLYLINE
  5
140
330
1F
100
AcDbEntity
  8
_U+30EC_U+30A4_U+30E4_U+30FC 1
 62
   179
420
  2234388
370
     9
100
AcDb2dPolyline
 66
     1
 10
0.0
 20
0.0
 30
0.0
  0
VERTEX
  5
141
330
140
100
AcDbEntity
  8
_U+30EC_U+30A4_U+30E4_U+30FC 1
 62
   179
420
  2234388
370
     9
100
AcDbVertex
100
AcDb2dVertex
 10
78.58054442479917
 20
-142.8398632976235
 30
0.0
  0
VERTEX
  5
142
330
140
100
AcDbEntity
  8
_U+30EC_U+30A4_U+30E4_U+30FC 1
 62
   179
420
  2234388
370
     9
100
AcDbVertex
100
AcDb2dVertex
 10
78.58054442479917
 20
-145.3003471858972
 30
0.0
  0
SEQEND
  5
143
330
140
100
AcDbEntity
  8
_U+30EC_U+30A4_U+30E4_U+30FC 1
 62
   179
420
  2234388
370
     9
  0
POLYLINE
  5
144
330
1F
100
AcDbEntity
  8
_U+30EC_U+30A4_U+30E4_U+30FC 1
 62
   179
420
  2234388
370
     9
100
AcDb2dPolyline
 66
     1
 10
0.0
 20
0.0
 30
0.0
  0
VERTEX
  5
145
330
144
100
AcDbEntity
  8
_U+30EC_U+30A4_U+30E4_U+30FC 1
 62
   179
420
  2234388
370
     9
100
AcDbVertex
100
AcDb2dVertex
 10
88.58098079566646
 20
-142.8398632976235
 30
0.0
  0
VERTEX
  5
146
330
144
100
AcDbEntity
  8
_U+30EC_U+30A4_U+30E4_U+30FC 1
 62
   179
420
  2234388
370
     9
100
AcDbVertex
100
AcDb2dVertex
 10
88.58098079566646
 20
-145.3003471858972
 30
0.0
  0
SEQEND
  5
147
330
144
100
AcDbEntity
  8
_U+30EC_U+30A4_U+30E4_U+30FC 1
 62
   179
420
  2234388
370
     9
  0
INSERT
  5
149
330
1F
100
AcDbEntity
  8
_U+30EC_U+30A4_U+30E4_U+30FC 1
100
AcDbBlockReference
  2
block 8
 10
0.0
 20
0.0
 30
0.0
  0
POLYLINE
  5
151
330
1F
100
AcDbEntity
  8
_U+30EC_U+30A4_U+30E4_U+30FC 1
 62
   179
420
  2234388
370
     9
100
AcDb2dPolyline
 66
     1
 10
0.0
 20
0.0
 30
0.0
  0
VERTEX
  5
152
330
151
100
AcDbEntity
  8
_U+30EC_U+30A4_U+30E4_U+30FC 1
 62
   179
420
  2234388
370
     9
100
AcDbVertex
100
AcDb2dVertex
 10
103.5809151352085
 20
-123.2999608025084
 30
0.0
  0
VERTEX
  5
153
330
151
100
AcDbEntity
  8
_U+30EC_U+30A4_U+30E4_U+30FC 1
 62
   179
420
  2234388
370
     9
100
AcDbVertex
100
AcDb2dVertex
 10
103.5809151352085
 20
-136.3003863548141
 30
0.0
  0
SEQEND
  5
154
330
151
100
AcDbEntity
  8
_U+30EC_U+30A4_U+30E4_U+30FC 1
 62
   179
420
  2234388
370
     9
  0
POLYLINE
  5
155
330
1F
100
AcDbEntity
  8
_U+30EC_U+30A4_U+30E4_U+30FC 1
 62
   179
420
  2234388
370
     9
100
AcDb2dPolyline
 66
     1
 10
0.0
 20
0.0
 30
0.0
  0
VERTEX
  5
156
330
155
100
AcDbEntity
  8
_U+30EC_U+30A4_U+30E4_U+30FC 1
 62
   179
420
  2234388
370
     9
100
AcDbVertex
100
AcDb2dVertex
 10
101.6206701852185
 20
-123.2999608025084
 30
0.0
  0
VERTEX
  5
157
330
155
100
AcDbEntity
  8
_U+30EC_U+30A4_U+30E4_U+30FC 1
 62
   179
420
  2234388
370
     9
100
AcDbVertex
100
AcDb2dVertex
 10
104.5806873319244
 20
-123.2999608025084
 30
0.0
  0
SEQEND
  5
158
330
155
100
AcDbEntity
  8
_U+30EC_U+30A4_U+30E4_U+30FC 1
 62
   179
420
  2234388
370
     9
  0
POLYLINE
  5
159
330
1F
100
AcDbEntity
  8
_U+30EC_U+30A4_U+30E4_U+30FC 1
 62
   179
420
  2234388
370
     9
100
AcDb2dPolyline
 66
     1
 10
0.0
 20
0.0
 30
0.0
  0
VERTEX
  5
15A
330
159
100
AcDbEntity
  8
_U+30EC_U+30A4_U+30E4_U+30FC 1
 62
   179
420
  2234388
370
     9
100
AcDbVertex
100
AcDb2dVertex
 10
92.12047070536656
 20
-136.3003863548141
 30
0.0
  0
VERTEX
  5
15B
330
159
100
AcDbEntity
  8
_U+30EC_U+30A4_U+30E4_U+30FC 1
 62
   179
420
  2234388
370
     9
100
AcDbVertex
100
AcDb2dVertex
 10
104.5806873319244
 20
-136.3003863548141
 30
0.0
  0
SEQEND
  5
15C
330
159
100
AcDbEntity
  8
_U+30EC_U+30A4_U+30E4_U+30FC 1
 62
   179
420
  2234388
370
     9
  0
INSERT
  5
15E
330
1F
100
AcDbEntity
  8
_U+30EC_U+30A4_U+30E4_U+30FC 1
100
AcDbBlockReference
  2
block 9
 10
0.0
 20
0.0
 30
0.0
  0
ENDSEC
  0
SECTION
  2
OBJECTS
  0
DICTIONARY
  5
C
330
0
100
AcDbDictionary
281
     1
  3
ACAD_GROUP
350
D
  3
ACAD_LAYOUT
350
1A
  3
ACAD_MATERIAL
350
3B
  3
ACAD_MLEADERSTYLE
350
166
  3
ACAD_MLINESTYLE
350
17
  3
ACAD_PLOTSETTINGS
350
19
  3
ACAD_PLOTSTYLENAME
350
E
  3
ACAD_TABLESTYLE
350
165
  3
ACAD_VISUALSTYLE
350
2A
  0
SUN
  5
3F
330
29
100
AcDbSun
 90
        1
290
     0
 63
     7
421
 16777215
 40
1.0
291
     1
 91
  2455826
 92
 54000000
292
     0
 70
     2
 71
   256
280
     1
  0
DICTIONARY
  5
D
102
{ACAD_REACTORS
330
C
102
}
330
C
100
AcDbDictionary
281
     1
  0
DICTIONARY
  5
1A
102
{ACAD_REACTORS
330
C
102
}
330
C
100
AcDbDictionary
281
     1
  3
Layout1
350
1E
  3
Layout2
350
26
  3
Model
350
22
  0
DICTIONARY
  5
3B
102
{ACAD_REACTORS
330
C
102
}
330
C
100
AcDbDictionary
281
     1
  3
ByBlock
350
3D
  3
ByLayer
350
3C
  3
Global
350
3E
  0
DICTIONARY
  5
166
102
{ACAD_REACTORS
330
C
102
}
330
C
100
AcDbDictionary
281
     1
  0
DICTIONARY
  5
17
102
{ACAD_REACTORS
330
C
102
}
330
C
100
AcDbDictionary
281
     1
  3
Standard
350
18
  0
DICTIONARY
  5
19
102
{ACAD_REACTORS
330
C
102
}
330
C
100
AcDbDictionary
281
     1
  0
ACDBDICTIONARYWDFLT
  5
E
102
{ACAD_REACTORS
330
C
102
}
330
C
100
AcDbDictionary
281
     1
  3
Normal
350
F
100
AcDbDictionaryWithDefault
340
F
  0
DICTIONARY
  5
165
102
{ACAD_REACTORS
330
C
102
}
330
C
100
AcDbDictionary
281
     1
  0
DICTIONARY
  5
2A
102
{ACAD_REACTORS
330
C
102
}
330
C
100
AcDbDictionary
281
     1
  3
2dWireframe
350
2F
  3
3D Hidden
350
31
  3
3dWireframe
350
30
  3
Basic
350
32
  3
Brighten
350
36
  3
ColorChange
350
3A
  3
Conceptual
350
34
  3
Dim
350
35
  3
Facepattern
350
39
  3
Flat
350
2B
  3
FlatWithEdges
350
2C
  3
Gouraud
350
2D
  3
GouraudWithEdges
350
2E
  3
Linepattern
350
38
  3
Realistic
350
33
  3
Thicken
350
37
  0
LAYOUT
  5
1E
102
{ACAD_REACTORS
330
1A
102
}
330
1A
100
AcDbPlotSettings
  1

  2
none_device
  4

  6

 40
0.0
 41
0.0
 42
0.0
 43
0.0
 44
0.0
 45
0.0
 46
0.0
 47
0.0
 48
0.0
 49
0.0
140
0.0
141
0.0
142
1.0
143
1.0
 70
   688
 72
     0
 73
     0
 74
     5
  7

 75
    16
 76
     0
 77
     2
 78
   300
147
1.0
148
0.0
149
0.0
100
AcDbLayout
  1
Layout1
 70
     1
 71
     1
 10
0.0
 20
0.0
 11
12.0
 21
9.0
 12
0.0
 22
0.0
 32
0.0
 14
1.000000000000000E+20
 24
1.000000000000000E+20
 34
1.000000000000000E+20
 15
-1.000000000000000E+20
 25
-1.000000000000000E+20
 35
-1.000000000000000E+20
146
0.0
 13
0.0
 23
0.0
 33
0.0
 16
1.0
 26
0.0
 36
0.0
 17
0.0
 27
1.0
 37
0.0
 76
     0
330
1B
  0
LAYOUT
  5
26
102
{ACAD_REACTORS
330
1A
102
}
330
1A
100
AcDbPlotSettings
  1

  2
none_device
  4

  6

 40
0.0
 41
0.0
 42
0.0
 43
0.0
 44
0.0
 45
0.0
 46
0.0
 47
0.0
 48
0.0
 49
0.0
140
0.0
141
0.0
142
1.0
143
1.0
 70
   688
 72
     0
 73
     0
 74
     5
  7

 75
    16
 76
     0
 77
     2
 78
   300
147
1.0
148
0.0
149
0.0
100
AcDbLayout
  1
Layout2
 70
     1
 71
     2
 10
0.0
 20
0.0
 11
0.0
 21
0.0
 12
0.0
 22
0.0
 32
0.0
 14
0.0
 24
0.0
 34
0.0
 15
0.0
 25
0.0
 35
0.0
146
0.0
 13
0.0
 23
0.0
 33
0.0
 16
1.0
 26
0.0
 36
0.0
 17
0.0
 27
1.0
 37
0.0
 76
     0
330
23
  0
LAYOUT
  5
22
102
{ACAD_REACTORS
330
1A
102
}
330
1A
100
AcDbPlotSettings
  1

  2
none_device
  4

  6

 40
0.0
 41
0.0
 42
0.0
 43
0.0
 44
0.0
 45
0.0
 46
0.0
 47
0.0
 48
0.0
 49
0.0
140
0.0
141
0.0
142
1.0
143
1.0
 70
  1712
 72
     0
 73
     0
 74
     0
  7

 75
     0
 76
     0
 77
     2
 78
   300
147
1.0
148
0.0
149
0.0
100
AcDbLayout
  1
Model
 70
     1
 71
     0
 10
0.0
 20
0.0
 11
12.0
 21
9.0
 12
0.0
 22
0.0
 32
0.0
 14
1.000000000000000E+20
 24
1.000000000000000E+20
 34
1.000000000000000E+20
 15
-1.000000000000000E+20
 25
-1.000000000000000E+20
 35
-1.000000000000000E+20
146
0.0
 13
0.0
 23
0.0
 33
0.0
 16
1.0
 26
0.0
 36
0.0
 17
0.0
 27
1.0
 37
0.0
 76
     0
330
1F
331
29
  0
MATERIAL
  5
3D
102
{ACAD_REACTORS
330
3B
102
}
330
3B
100
AcDbMaterial
  1
ByBlock
 72
     1
 94
      127
  0
MATERIAL
  5
3C
102
{ACAD_REACTORS
330
3B
102
}
330
3B
100
AcDbMaterial
  1
ByLayer
 72
     1
 94
      127
  0
MATERIAL
  5
3E
102
{ACAD_REACTORS
330
3B
102
}
330
3B
100
AcDbMaterial
  1
Global
 72
     1
 94
      127
  0
MLINESTYLE
  5
18
102
{ACAD_REACTORS
330
17
102
}
330
17
100
AcDbMlineStyle
  2
Standard
 70
     0
  3

 62
   256
 51
90.0
 52
90.0
 71
     2
 49
0.5
 62
   256
  6
BYLAYER
 49
-0.5
 62
   256
  6
BYLAYER
  0
ACDBPLACEHOLDER
  5
F
102
{ACAD_REACTORS
330
E
102
}
330
E
  0
VISUALSTYLE
  5
2F
102
{ACAD_REACTORS
330
2A
102
}
330
2A
100
AcDbVisualStyle
  2
2dWireframe
 70
     4
177
     2
291
     0
 71
     0
176
     1
 72
     2
176
     1
 73
     0
176
     1
 90
        0
176
     1
 40
-0.6
176
     1
 41
-30.0
176
     1
 62
     5
 63
     7
421
 16777215
176
     1
 74
     1
176
     1
 91
        4
176
     1
 64
     7
176
     1
 65
   257
176
     1
 75
     1
176
     1
175
     1
176
     1
 42
1.0
176
     1
 92
        0
176
     1
 66
   257
176
     1
 43
1.0
176
     1
 76
     1
176
     1
 77
     6
176
     1
 78
     2
176
     1
 67
     7
176
     1
 79
     5
176
     1
170
     0
176
     1
171
     0
176
     1
290
     0
176
     1
 93
        1
176
     1
 44
0.0
176
     1
173
     0
176
     1
  0
VISUALSTYLE
  5
31
102
{ACAD_REACTORS
330
2A
102
}
330
2A
100
AcDbVisualStyle
  2
3D Hidden
 70
     6
177
     2
291
     0
 71
     1
176
     1
 72
     2
176
     1
 73
     2
176
     1
 90
        0
176
     1
 40
-0.6
176
     1
 41
-30.0
176
     1
 62
     5
 63
     7
421
 16777215
176
     1
 74
     2
176
     1
 91
        2
176
     1
 64
     7
176
     1
 65
   257
176
     1
 75
     2
176
     1
175
     1
176
     1
 42
40.0
176
     1
 92
        0
176
     1
 66
   257
176
     1
 43
1.0
176
     1
 76
     1
176
     1
 77
     6
176
     1
 78
     2
176
     1
 67
     7
176
     1
 79
     3
176
     1
170
     0
176
     1
171
     0
176
     1
290
     0
176
     1
 93
        1
176
     1
 44
0.0
176
     1
173
     0
176
     1
  0
VISUALSTYLE
  5
30
102
{ACAD_REACTORS
330
2A
102
}
330
2A
100
AcDbVisualStyle
  2
3dWireframe
 70
     5
177
     2
291
     0
 71
     0
176
     1
 72
     2
176
     1
 73
     0
176
     1
 90
        0
176
     1
 40
-0.6
176
     1
 41
-30.0
176
     1
 62
     5
 63
     7
421
 16777215
176
     1
 74
     1
176
     1
 91
        4
176
     1
 64
     7
176
     1
 65
   257
176
     1
 75
     1
176
     1
175
     1
176
     1
 42
1.0
176
     1
 92
        0
176
     1
 66
   257
176
     1
 43
1.0
176
     1
 76
     1
176
     1
 77
     6
176
     1
 78
     2
176
     1
 67
     7
176
     1
 79
     5
176
     1
170
     0
176
     1
171
     0
176
     1
290
     0
176
     1
 93
        1
176
     1
 44
0.0
176
     1
173
     0
176
     1
  0
VISUALSTYLE
  5
32
102
{ACAD_REACTORS
330
2A
102
}
330
2A
100
AcDbVisualStyle
  2
Basic
 70
     7
177
     2
291
     1
 71
     1
176
     1
 72
     0
176
     1
 73
     1
176
     1
 90
        0
176
     1
 40
-0.6
176
     1
 41
-30.0
176
     1
 62
     5
 63
     7
421
 16777215
176
     1
 74
     0
176
     1
 91
        4
176
     1
 64
     7
176
     1
 65
   257
176
     1
 75
     1
176
     1
175
     1
176
     1
 42
1.0
176
     1
 92
        8
176
     1
 66
     7
176
     1
 43
1.0
176
     1
 76
     1
176
     1
 77
     6
176
     1
 78
     2
176
     1
 67
     7
176
     1
 79
     5
176
     1
170
     0
176
     1
171
     0
176
     1
290
     0
176
     1
 93
        1
176
     1
 44
0.0
176
     1
173
     0
176
     1
  0
VISUALSTYLE
  5
36
102
{ACAD_REACTORS
330
2A
102
}
330
2A
100
AcDbVisualStyle
  2
Brighten
 70
    12
177
     2
291
     1
 71
     2
176
     1
 72
     2
176
     1
 73
     0
176
     1
 90
        0
176
     1
 40
-0.6
176
     1
 41
-30.0
176
     1
 62
     5
 63
     7
421
 16777215
176
     1
 74
     1
176
     1
 91
        4
176
     1
 64
     7
176
     1
 65
   257
176
     1
 75
     1
176
     1
175
     1
176
     1
 42
1.0
176
     1
 92
        8
176
     1
 66
     7
176
     1
 43
1.0
176
     1
 76
     1
176
     1
 77
     6
176
     1
 78
     2
176
     1
 67
     7
176
     1
 79
     5
176
     1
170
     0
176
     1
171
     0
176
     1
290
     0
176
     1
 93
        1
176
     1
 44
50.0
176
     1
173
     0
176
     1
  0
VISUALSTYLE
  5
3A
102
{ACAD_REACTORS
330
2A
102
}
330
2A
100
AcDbVisualStyle
  2
ColorChange
 70
    16
177
     2
291
     1
 71
     2
176
     1
 72
     2
176
     1
 73
     3
176
     1
 90
        0
176
     1
 40
-0.6
176
     1
 41
-30.0
176
     1
 62
     5
 63
     8
421
  8421504
176
     1
 74
     1
176
     1
 91
        4
176
     1
 64
     7
176
     1
 65
   257
176
     1
 75
     1
176
     1
175
     1
176
     1
 42
1.0
176
     1
 92
        8
176
     1
 66
     8
424
  8421504
176
     1
 43
1.0
176
     1
 76
     1
176
     1
 77
     6
176
     1
 78
     2
176
     1
 67
     7
176
     1
 79
     5
176
     1
170
     0
176
     1
171
     0
176
     1
290
     0
176
     1
 93
        1
176
     1
 44
0.0
176
     1
173
     0
176
     1
  0
VISUALSTYLE
  5
34
102
{ACAD_REACTORS
330
2A
102
}
330
2A
100
AcDbVisualStyle
  2
Conceptual
 70
     9
177
     2
291
     0
 71
     3
176
     1
 72
     2
176
     1
 73
     0
176
     1
 90
        0
176
     1
 40
-0.6
176
     1
 41
-30.0
176
     1
 62
     5
 63
     7
421
 16777215
176
     1
 74
     2
176
     1
 91
        2
176
     1
 64
     7
176
     1
 65
   257
176
     1
 75
     1
176
     1
175
     1
176
     1
 42
40.0
176
     1
 92
        8
176
     1
 66
     7
176
     1
 43
1.0
176
     1
 76
     1
176
     1
 77
     6
176
     1
 78
     2
176
     1
 67
     7
176
     1
 79
     3
176
     1
170
     0
176
     1
171
     0
176
     1
290
     0
176
     1
 93
        1
176
     1
 44
0.0
176
     1
173
     0
176
     1
  0
VISUALSTYLE
  5
35
102
{ACAD_REACTORS
330
2A
102
}
330
2A
100
AcDbVisualStyle
  2
Dim
 70
    11
177
     2
291
     1
 71
     2
176
     1
 72
     2
176
     1
 73
     0
176
     1
 90
        0
176
     1
 40
-0.6
176
     1
 41
-30.0
176
     1
 62
     5
 63
     7
421
 16777215
176
     1
 74
     1
176
     1
 91
        4
176
     1
 64
     7
176
     1
 65
   257
176
     1
 75
     1
176
     1
175
     1
176
     1
 42
1.0
176
     1
 92
        8
176
     1
 66
     7
176
     1
 43
1.0
176
     1
 76
     1
176
     1
 77
     6
176
     1
 78
     2
176
     1
 67
     7
176
     1
 79
     5
176
     1
170
     0
176
     1
171
     0
176
     1
290
     0
176
     1
 93
        1
176
     1
 44
-50.0
176
     1
173
     0
176
     1
  0
VISUALSTYLE
  5
39
102
{ACAD_REACTORS
330
2A
102
}
330
2A
100
AcDbVisualStyle
  2
Facepattern
 70
    15
177
     2
291
     1
 71
     2
176
     1
 72
     2
176
     1
 73
     0
176
     1
 90
        0
176
     1
 40
-0.6
176
     1
 41
-30.0
176
     1
 62
     5
 63
     7
421
 16777215
176
     1
 74
     1
176
     1
 91
        4
176
     1
 64
     7
176
     1
 65
   257
176
     1
 75
     1
176
     1
175
     1
176
     1
 42
1.0
176
     1
 92
        8
176
     1
 66
     7
176
     1
 43
1.0
176
     1
 76
     1
176
     1
 77
     6
176
     1
 78
     2
176
     1
 67
     7
176
     1
 79
     5
176
     1
170
     0
176
     1
171
     0
176
     1
290
     0
176
     1
 93
        1
176
     1
 44
0.0
176
     1
173
     0
176
     1
  0
VISUALSTYLE
  5
2B
102
{ACAD_REACTORS
330
2A
102
}
330
2A
100
AcDbVisualStyle
  2
Flat
 70
     0
177
     2
291
     1
 71
     2
176
     1
 72
     1
176
     1
 73
     1
176
     1
 90
        2
176
     1
 40
-0.6
176
     1
 41
30.0
176
     1
 62
     5
 63
     7
421
 16777215
176
     1
 74
     0
176
     1
 91
        4
176
     1
 64
     7
176
     1
 65
   257
176
     1
 75
     1
176
     1
175
     1
176
     1
 42
1.0
176
     1
 92
        8
176
     1
 66
     7
176
     1
 43
1.0
176
     1
 76
     1
176
     1
 77
     6
176
     1
 78
     2
176
     1
 67
     7
176
     1
 79
     5
176
     1
170
     0
176
     1
171
     0
176
     1
290
     0
176
     1
 93
       13
176
     1
 44
0.0
176
     1
173
     0
176
     1
  0
VISUALSTYLE
  5
2C
102
{ACAD_REACTORS
330
2A
102
}
330
2A
100
AcDbVisualStyle
  2
FlatWithEdges
 70
     1
177
     2
291
     1
 71
     2
176
     1
 72
     1
176
     1
 73
     1
176
     1
 90
        2
176
     1
 40
-0.6
176
     1
 41
30.0
176
     1
 62
     5
 63
     7
421
 16777215
176
     1
 74
     1
176
     1
 91
        4
176
     1
 64
     7
176
     1
 65
   257
176
     1
 75
     1
176
     1
175
     1
176
     1
 42
1.0
176
     1
 92
        0
176
     1
 66
   257
176
     1
 43
1.0
176
     1
 76
     1
176
     1
 77
     6
176
     1
 78
     2
176
     1
 67
     7
176
     1
 79
     5
176
     1
170
     0
176
     1
171
     0
176
     1
290
     0
176
     1
 93
       13
176
     1
 44
0.0
176
     1
173
     0
176
     1
  0
VISUALSTYLE
  5
2D
102
{ACAD_REACTORS
330
2A
102
}
330
2A
100
AcDbVisualStyle
  2
Gouraud
 70
     2
177
     2
291
     1
 71
     2
176
     1
 72
     2
176
     1
 73
     1
176
     1
 90
        2
176
     1
 40
-0.6
176
     1
 41
30.0
176
     1
 62
     5
 63
     7
421
 16777215
176
     1
 74
     0
176
     1
 91
        4
176
     1
 64
     7
176
     1
 65
   257
176
     1
 75
     1
176
     1
175
     1
176
     1
 42
1.0
176
     1
 92
        0
176
     1
 66
     7
176
     1
 43
1.0
176
     1
 76
     1
176
     1
 77
     6
176
     1
 78
     2
176
     1
 67
     7
176
     1
 79
     5
176
     1
170
     0
176
     1
171
     0
176
     1
290
     0
176
     1
 93
       13
176
     1
 44
0.0
176
     1
173
     0
176
     1
  0
VISUALSTYLE
  5
2E
102
{ACAD_REACTORS
330
2A
102
}
330
2A
100
AcDbVisualStyle
  2
GouraudWithEdges
 70
     3
177
     2
291
     1
 71
     2
176
     1
 72
     2
176
     1
 73
     1
176
     1
 90
        2
176
     1
 40
-0.6
176
     1
 41
30.0
176
     1
 62
     5
 63
     7
421
 16777215
176
     1
 74
     1
176
     1
 91
        4
176
     1
 64
     7
176
     1
 65
   257
176
     1
 75
     1
176
     1
175
     1
176
     1
 42
1.0
176
     1
 92
        0
176
     1
 66
   257
176
     1
 43
1.0
176
     1
 76
     1
176
     1
 77
     6
176
     1
 78
     2
176
     1
 67
     7
176
     1
 79
     5
176
     1
170
     0
176
     1
171
     0
176
     1
290
     0
176
     1
 93
       13
176
     1
 44
0.0
176
     1
173
     0
176
     1
  0
VISUALSTYLE
  5
38
102
{ACAD_REACTORS
330
2A
102
}
330
2A
100
AcDbVisualStyle
  2
Linepattern
 70
    14
177
     2
291
     1
 71
     2
176
     1
 72
     2
176
     1
 73
     0
176
     1
 90
        0
176
     1
 40
-0.6
176
     1
 41
-30.0
176
     1
 62
     5
 63
     7
421
 16777215
176
     1
 74
     1
176
     1
 91
        4
176
     1
 64
     7
176
     1
 65
   257
176
     1
 75
     7
176
     1
175
     7
176
     1
 42
1.0
176
     1
 92
        8
176
     1
 66
     7
176
     1
 43
1.0
176
     1
 76
     1
176
     1
 77
     6
176
     1
 78
     2
176
     1
 67
     7
176
     1
 79
     5
176
     1
170
     0
176
     1
171
     0
176
     1
290
     0
176
     1
 93
        1
176
     1
 44
0.0
176
     1
173
     0
176
     1
  0
VISUALSTYLE
  5
33
102
{ACAD_REACTORS
330
2A
102
}
330
2A
100
AcDbVisualStyle
  2
Realistic
 70
     8
177
     2
291
     0
 71
     2
176
     1
 72
     2
176
     1
 73
     0
176
     1
 90
        0
176
     1
 40
-0.6
176
     1
 41
-30.0
176
     1
 62
     5
 63
     7
421
 16777215
176
     1
 74
     1
176
     1
 91
        0
176
     1
 64
     7
176
     1
 65
   257
176
     1
 75
     1
176
     1
175
     1
176
     1
 42
1.0
176
     1
 92
        8
176
     1
 66
     8
424
  7895160
176
     1
 43
1.0
176
     1
 76
     1
176
     1
 77
     6
176
     1
 78
     2
176
     1
 67
     7
176
     1
 79
     5
176
     1
170
     0
176
     1
171
     0
176
     1
290
     0
176
     1
 93
       13
176
     1
 44
0.0
176
     1
173
     0
176
     1
  0
VISUALSTYLE
  5
37
102
{ACAD_REACTORS
330
2A
102
}
330
2A
100
AcDbVisualStyle
  2
Thicken
 70
    13
177
     2
291
     1
 71
     2
176
     1
 72
     2
176
     1
 73
     0
176
     1
 90
        0
176
     1
 40
-0.6
176
     1
 41
-30.0
176
     1
 62
     5
 63
     7
421
 16777215
176
     1
 74
     1
176
     1
 91
        4
176
     1
 64
     7
176
     1
 65
   257
176
     1
 75
     1
176
     1
175
     1
176
     1
 42
1.0
176
     1
 92
       12
176
     1
 66
     7
176
     1
 43
1.0
176
     1
 76
     1
176
     1
 77
     6
176
     1
 78
     2
176
     1
 67
     7
176
     1
 79
     5
176
     1
170
     0
176
     1
171
     0
176
     1
290
     0
176
     1
 93
        1
176
     1
 44
0.0
176
     1
173
     0
176
     1
  0
ENDSEC
  0
EOF
