  0
SECTION
  2
HEADER
  9
$ACADVER
  1
AC1024
  9
$ACADMAINTVER
 70
     6
  9
$DWGCODEPAGE
  3
UNDEFINED
  9
$INSBASE
 10
0.0
 20
0.0
 30
0.0
  9
$EXTMIN
 10
1.000000000000000E+20
 20
1.000000000000000E+20
 30
1.000000000000000E+20
  9
$EXTMAX
 10
-1.000000000000000E+20
 20
-1.000000000000000E+20
 30
-1.000000000000000E+20
  9
$LIMMIN
 10
0.0
 20
0.0
  9
$LIMMAX
 10
12.0
 20
9.0
  9
$ORTHOMODE
 70
     0
  9
$REGENMODE
 70
     1
  9
$FILLMODE
 70
     1
  9
$QTEXTMODE
 70
     0
  9
$MIRRTEXT
 70
     1
  9
$LTSCALE
 40
1.0
  9
$ATTMODE
 70
     1
  9
$TEXTSIZE
 40
0.2
  9
$TRACEWID
 40
0.05
  9
$TEXTSTYLE
  7
Standard
  9
$CLAYER
  8
0
  9
$CELTYPE
  6
ByLayer
  9
$CECOLOR
 62
   256
  9
$CELTSCALE
 40
1.0
  9
$DISPSILH
 70
     0
  9
$DIMSCALE
 40
1.0
  9
$DIMASZ
 40
0.18
  9
$DIMEXO
 40
0.0625
  9
$DIMDLI
 40
0.38
  9
$DIMRND
 40
0.0
  9
$DIMDLE
 40
0.0
  9
$DIMEXE
 40
0.18
  9
$DIMTP
 40
0.0
  9
$DIMTM
 40
0.0
  9
$DIMTXT
 40
0.18
  9
$DIMCEN
 40
0.09
  9
$DIMTSZ
 40
0.0
  9
$DIMTOL
 70
     0
  9
$DIMLIM
 70
     0
  9
$DIMTIH
 70
     1
  9
$DIMTOH
 70
     1
  9
$DIMSE1
 70
     0
  9
$DIMSE2
 70
     0
  9
$DIMTAD
 70
     0
  9
$DIMZIN
 70
     0
  9
$DIMBLK
  1

  9
$DIMASO
 70
     1
  9
$DIMSHO
 70
     1
  9
$DIMPOST
  1

  9
$DIMAPOST
  1

  9
$DIMALT
 70
     0
  9
$DIMALTD
 70
     2
  9
$DIMALTF
 40
25.4
  9
$DIMLFAC
 40
1.0
  9
$DIMTOFL
 70
     0
  9
$DIMTVP
 40
0.0
  9
$DIMTIX
 70
     0
  9
$DIMSOXD
 70
     0
  9
$DIMSAH
 70
     0
  9
$DIMBLK1
  1

  9
$DIMBLK2
  1

  9
$DIMSTYLE
  2
Standard
  9
$DIMCLRD
 70
     0
  9
$DIMCLRE
 70
     0
  9
$DIMCLRT
 70
     0
  9
$DIMTFAC
 40
1.0
  9
$DIMGAP
 40
0.09
  9
$DIMJUST
 70
     0
  9
$DIMSD1
 70
     0
  9
$DIMSD2
 70
     0
  9
$DIMTOLJ
 70
     1
  9
$DIMTZIN
 70
     0
  9
$DIMALTZ
 70
     0
  9
$DIMALTTZ
 70
     0
  9
$DIMUPT
 70
     0
  9
$DIMDEC
 70
     4
  9
$DIMTDEC
 70
     4
  9
$DIMALTU
 70
     2
  9
$DIMALTTD
 70
     2
  9
$DIMTXSTY
  7
Standard
  9
$DIMAUNIT
 70
     0
  9
$DIMADEC
 70
     0
  9
$DIMALTRND
 40
0.0
  9
$DIMAZIN
 70
     0
  9
$DIMDSEP
 70
    46
  9
$DIMATFIT
 70
     3
  9
$DIMFRAC
 70
     0
  9
$DIMLDRBLK
  1

  9
$DIMLUNIT
 70
     2
  9
$DIMLWD
 70
    -2
  9
$DIMLWE
 70
    -2
  9
$DIMTMOVE
 70
     0
  9
$DIMFXL
 40
1.0
  9
$DIMFXLON
 70
     0
  9
$DIMJOGANG
 40
0.7853981633974483
  9
$DIMTFILL
 70
     0
  9
$DIMTFILLCLR
 70
     0
  9
$DIMARCSYM
 70
     0
  9
$DIMLTYPE
  6

  9
$DIMLTEX1
  6

  9
$DIMLTEX2
  6

  9
$DIMTXTDIRECTION
 70
     0
  9
$LUNITS
 70
     2
  9
$LUPREC
 70
     4
  9
$SKETCHINC
 40
0.1
  9
$FILLETRAD
 40
0.5
  9
$AUNITS
 70
     0
  9
$AUPREC
 70
     0
  9
$MENU
  1
.
  9
$ELEVATION
 40
0.0
  9
$PELEVATION
 40
0.0
  9
$THICKNESS
 40
0.0
  9
$LIMCHECK
 70
     0
  9
$CHAMFERA
 40
0.5
  9
$CHAMFERB
 40
0.5
  9
$CHAMFERC
 40
1.0
  9
$CHAMFERD
 40
0.0
  9
$SKPOLY
 70
     0
  9
$TDCREATE
 40
2457917.591574074
  9
$TDUCREATE
 40
2457917.216574074
  9
$TDUPDATE
 40
2457917.591574074
  9
$TDUUPDATE
 40
2457917.216574074
  9
$TDINDWG
 40
0.0000000116
  9
$TDUSRTIMER
 40
0.0000000116
  9
$USRTIMER
 70
     1
  9
$ANGBASE
 50
0.0
  9
$ANGDIR
 70
     0
  9
$PDMODE
 70
     0
  9
$PDSIZE
 40
0.0
  9
$PLINEWID
 40
0.0
  9
$SPLFRAME
 70
     0
  9
$SPLINETYPE
 70
     6
  9
$SPLINESEGS
 70
     8
  9
$HANDSEED
  5
16C
  9
$SURFTAB1
 70
     6
  9
$SURFTAB2
 70
     6
  9
$SURFTYPE
 70
     6
  9
$SURFU
 70
     6
  9
$SURFV
 70
     6
  9
$UCSBASE
  2

  9
$UCSNAME
  2

  9
$UCSORG
 10
0.0
 20
0.0
 30
0.0
  9
$UCSXDIR
 10
1.0
 20
0.0
 30
0.0
  9
$UCSYDIR
 10
0.0
 20
1.0
 30
0.0
  9
$UCSORTHOREF
  2

  9
$UCSORTHOVIEW
 70
     0
  9
$UCSORGTOP
 10
0.0
 20
0.0
 30
0.0
  9
$UCSORGBOTTOM
 10
0.0
 20
0.0
 30
0.0
  9
$UCSORGLEFT
 10
0.0
 20
0.0
 30
0.0
  9
$UCSORGRIGHT
 10
0.0
 20
0.0
 30
0.0
  9
$UCSORGFRONT
 10
0.0
 20
0.0
 30
0.0
  9
$UCSORGBACK
 10
0.0
 20
0.0
 30
0.0
  9
$PUCSBASE
  2

  9
$PUCSNAME
  2

  9
$PUCSORG
 10
0.0
 20
0.0
 30
0.0
  9
$PUCSXDIR
 10
1.0
 20
0.0
 30
0.0
  9
$PUCSYDIR
 10
0.0
 20
1.0
 30
0.0
  9
$PUCSORTHOREF
  2

  9
$PUCSORTHOVIEW
 70
     0
  9
$PUCSORGTOP
 10
0.0
 20
0.0
 30
0.0
  9
$PUCSORGBOTTOM
 10
0.0
 20
0.0
 30
0.0
  9
$PUCSORGLEFT
 10
0.0
 20
0.0
 30
0.0
  9
$PUCSORGRIGHT
 10
0.0
 20
0.0
 30
0.0
  9
$PUCSORGFRONT
 10
0.0
 20
0.0
 30
0.0
  9
$PUCSORGBACK
 10
0.0
 20
0.0
 30
0.0
  9
$USERI1
 70
     0
  9
$USERI2
 70
     0
  9
$USERI3
 70
     0
  9
$USERI4
 70
     0
  9
$USERI5
 70
     0
  9
$USERR1
 40
0.0
  9
$USERR2
 40
0.0
  9
$USERR3
 40
0.0
  9
$USERR4
 40
0.0
  9
$USERR5
 40
0.0
  9
$WORLDVIEW
 70
     1
  9
$SHADEDGE
 70
     3
  9
$SHADEDIF
 70
    70
  9
$TILEMODE
 70
     1
  9
$MAXACTVP
 70
    64
  9
$PINSBASE
 10
0.0
 20
0.0
 30
0.0
  9
$PLIMCHECK
 70
     0
  9
$PEXTMIN
 10
1.000000000000000E+20
 20
1.000000000000000E+20
 30
1.000000000000000E+20
  9
$PEXTMAX
 10
-1.000000000000000E+20
 20
-1.000000000000000E+20
 30
-1.000000000000000E+20
  9
$PLIMMIN
 10
0.0
 20
0.0
  9
$PLIMMAX
 10
12.0
 20
9.0
  9
$UNITMODE
 70
     0
  9
$VISRETAIN
 70
     1
  9
$PLINEGEN
 70
     0
  9
$PSLTSCALE
 70
     1
  9
$TREEDEPTH
 70
  3020
  9
$CMLSTYLE
  2
Standard
  9
$CMLJUST
 70
     0
  9
$CMLSCALE
 40
1.0
  9
$PROXYGRAPHICS
 70
     1
  9
$MEASUREMENT
 70
     0
  9
$CELWEIGHT
370
    -1
  9
$ENDCAPS
280
     0
  9
$JOINSTYLE
280
     0
  9
$LWDISPLAY
290
     1
  9
$INSUNITS
 70
     1
  9
$HYPERLINKBASE
  1

  9
$STYLESHEET
  1

  9
$XEDIT
290
     1
  9
$CEPSNTYPE
380
     0
  9
$PSTYLEMODE
290
     1
  9
$FINGERPRINTGUID
  2
{AE4B1DCD-BD29-B07F-669C-320673B33D5F}
  9
$VERSIONGUID
  2
{FAEB1C32-E019-11D5-929B-00C0DF256EC4}
  9
$EXTNAMES
290
     1
  9
$PSVPSCALE
 40
0.0
  9
$OLESTARTUP
290
     0
  9
$SORTENTS
280
   127
  9
$INDEXCTL
280
     0
  9
$HIDETEXT
280
     1
  9
$XCLIPFRAME
280
     2
  9
$HALOGAP
280
     0
  9
$OBSCOLOR
 70
   257
  9
$OBSLTYPE
280
     0
  9
$INTERSECTIONDISPLAY
280
     0
  9
$INTERSECTIONCOLOR
 70
   257
  9
$DIMASSOC
280
     2
  9
$PROJECTNAME
  1

  9
$CAMERADISPLAY
290
     0
  9
$LENSLENGTH
 40
50.0
  9
$CAMERAHEIGHT
 40
0.0
  9
$STEPSPERSEC
 40
2.0
  9
$STEPSIZE
 40
6.0
  9
$3DDWFPREC
 40
2.0
  9
$PSOLWIDTH
 40
0.25
  9
$PSOLHEIGHT
 40
4.0
  9
$LOFTANG1
 40
1.570796326794897
  9
$LOFTANG2
 40
1.570796326794897
  9
$LOFTMAG1
 40
0.0
  9
$LOFTMAG2
 40
0.0
  9
$LOFTPARAM
 70
     7
  9
$LOFTNORMALS
280
     1
  9
$LATITUDE
 40
37.795
  9
$LONGITUDE
 40
-122.394
  9
$NORTHDIRECTION
 40
0.0
  9
$TIMEZONE
 70
 -8000
  9
$LIGHTGLYPHDISPLAY
280
     1
  9
$TILEMODELIGHTSYNCH
280
     1
  9
$CMATERIAL
347
3C
  9
$SOLIDHIST
280
     1
  9
$SHOWHIST
280
     1
  9
$DWFFRAME
280
     2
  9
$DGNFRAME
280
     2
  9
$REALWORLDSCALE
290
     1
  9
$INTERFERECOLOR
 62
   256
  9
$CSHADOW
280
     0
  9
$SHADOWPLANELOCATION
 40
0.0
  0
ENDSEC
  0
SECTION
  2
CLASSES
  0
CLASS
  1
ACDBDICTIONARYWDFLT
  2
AcDbDictionaryWithDefault
  3
ObjectDBX Classes
 90
        0
 91
        4
280
     0
281
     0
  0
CLASS
  1
VISUALSTYLE
  2
AcDbVisualStyle
  3
ObjectDBX Classes
 90
     4095
 91
        4
280
     0
281
     0
  0
CLASS
  1
MATERIAL
  2
AcDbMaterial
  3
ObjectDBX Classes
 90
     1153
 91
        4
280
     0
281
     0
  0
CLASS
  1
SUN
  2
AcDbSun
  3
SCENEOE
 90
     1024
 91
        4
280
     0
281
     0
  0
ENDSEC
  0
SECTION
  2
TABLES
  0
TABLE
  2
VPORT
  5
8
330
0
100
AcDbSymbolTable
 70
     1
  0
VPORT
  5
29
330
8
100
AcDbSymbolTableRecord
100
AcDbViewportTableRecord
  2
*Active
 70
     0
 10
0.0
 20
0.0
 11
1.0
 21
1.0
 12
0.0
 22
0.0
 13
0.0
 23
0.0
 14
0.5
 24
0.5
 15
0.5
 25
0.5
 16
0.0
 26
0.0
 36
1.0
 17
91.00082462281999
 27
-128.4993055234307
 37
0.0
 40
256.9986110468615
 41
0.7081814508812795
 42
50.0
 43
0.0
 44
0.0
 50
0.0
 51
0.0
 71
     0
 72
   100
 73
     1
 74
     3
 75
     0
 76
     0
 77
     0
 78
     0
281
     0
 65
     1
110
0.0
120
0.0
130
0.0
111
1.0
121
0.0
131
0.0
112
0.0
122
1.0
132
0.0
 79
     0
146
0.0
 60
     3
 61
     5
292
     1
282
     1
141
0.0
142
0.0
 63
   250
361
3F
  0
ENDTAB
  0
TABLE
  2
LTYPE
  5
5
330
0
100
AcDbSymbolTable
 70
     1
  0
LTYPE
  5
14
330
5
100
AcDbSymbolTableRecord
100
AcDbLinetypeTableRecord
  2
ByBlock
 70
     0
  3

 72
    65
 73
     0
 40
0.0
  0
LTYPE
  5
15
330
5
100
AcDbSymbolTableRecord
100
AcDbLinetypeTableRecord
  2
ByLayer
 70
     0
  3

 72
    65
 73
     0
 40
0.0
  0
LTYPE
  5
16
330
5
100
AcDbSymbolTableRecord
100
AcDbLinetypeTableRecord
  2
Continuous
 70
     0
  3
Solid line
 72
    65
 73
     0
 40
0.0
  0
ENDTAB
  0
TABLE
  2
LAYER
  5
2
330
0
100
AcDbSymbolTable
 70
     2
  0
LAYER
  5
10
330
2
100
AcDbSymbolTableRecord
100
AcDbLayerTableRecord
  2
0
 70
     0
 62
     7
  6
Continuous
370
    -3
390
F
347
3E
  0
LAYER
  5
40
330
2
100
AcDbSymbolTableRecord
100
AcDbLayerTableRecord
  2
_U+30EC_U+30A4_U+30E4_U+30FC 1
 70
     0
 62
     7
  6
Continuous
370
    -3
390
F
347
3E
  0
ENDTAB
  0
TABLE
  2
STYLE
  5
3
330
0
100
AcDbSymbolTable
 70
     1
  0
STYLE
  5
11
330
3
100
AcDbSymbolTableRecord
100
AcDbTextStyleTableRecord
  2
Standard
 70
     0
 40
0.0
 41
1.0
 50
0.0
 71
     0
 42
0.2
  3
txt
  4

  0
ENDTAB
  0
TABLE
  2
VIEW
  5
6
330
0
100
AcDbSymbolTable
 70
     0
  0
ENDTAB
  0
TABLE
  2
UCS
  5
7
330
0
100
AcDbSymbolTable
 70
     0
  0
ENDTAB
  0
TABLE
  2
APPID
  5
9
330
0
100
AcDbSymbolTable
 70
     1
  0
APPID
  5
12
330
9
100
AcDbSymbolTableRecord
100
AcDbRegAppTableRecord
  2
ACAD
 70
     0
  0
ENDTAB
  0
TABLE
  2
DIMSTYLE
  5
A
330
0
100
AcDbSymbolTable
 70
     1
100
AcDbDimStyleTable
  0
DIMSTYLE
105
27
330
A
100
AcDbSymbolTableRecord
100
AcDbDimStyleTableRecord
  2
Standard
 70
     0
178
     0
340
11
  0
ENDTAB
  0
TABLE
  2
BLOCK_RECORD
  5
1
330
0
100
AcDbSymbolTable
 70
     9
  0
BLOCK_RECORD
  5
1F
330
1
100
AcDbSymbolTableRecord
100
AcDbBlockTableRecord
  2
*Model_Space
340
22
 70
     0
280
     1
281
     0
  0
BLOCK_RECORD
  5
1B
330
1
100
AcDbSymbolTableRecord
100
AcDbBlockTableRecord
  2
*Paper_Space
340
1E
 70
     0
280
     1
281
     0
  0
BLOCK_RECORD
  5
23
330
1
100
AcDbSymbolTableRecord
100
AcDbBlockTableRecord
  2
*Paper_Space0
340
26
 70
     0
280
     1
281
     0
  0
BLOCK_RECORD
  5
A1
330
1
100
AcDbSymbolTableRecord
100
AcDbBlockTableRecord
  2
block 2
340
0
102
{BLKREFS
331
A2
102
}
 70
     0
280
     1
281
     0
  0
BLOCK_RECORD
  5
AF
330
1
100
AcDbSymbolTableRecord
100
AcDbBlockTableRecord
  2
block 3
340
0
102
{BLKREFS
331
B0
102
}
 70
     0
280
     1
281
     0
  0
BLOCK_RECORD
  5
C8
330
1
100
AcDbSymbolTableRecord
100
AcDbBlockTableRecord
  2
block 4
340
0
102
{BLKREFS
331
C9
102
}
 70
     0
280
     1
281
     0
  0
BLOCK_RECORD
  5
DE
330
1
100
AcDbSymbolTableRecord
100
AcDbBlockTableRecord
  2
block 5
340
0
102
{BLKREFS
331
DF
102
}
 70
     0
280
     1
281
     0
  0
BLOCK_RECORD
  5
F0
330
1
100
AcDbSymbolTableRecord
100
AcDbBlockTableRecord
  2
block 6
340
0
102
{BLKREFS
331
F1
102
}
 70
     0
280
     1
281
     0
  0
BLOCK_RECORD
  5
104
330
1
100
AcDbSymbolTableRecord
100
AcDbBlockTableRecord
  2
block 7
340
0
102
{BLKREFS
331
105
102
}
 70
     0
280
     1
281
     0
  0
BLOCK_RECORD
  5
10D
330
1
100
AcDbSymbolTableRecord
100
AcDbBlockTableRecord
  2
block 8
340
0
102
{BLKREFS
331
10E
102
}
 70
     0
280
     1
281
     0
  0
BLOCK_RECORD
  5
148
330
1
100
AcDbSymbolTableRecord
100
AcDbBlockTableRecord
  2
block 9
340
0
102
{BLKREFS
331
149
102
}
 70
     0
280
     1
281
     0
  0
ENDTAB
  0
ENDSEC
  0
SECTION
  2
BLOCKS
  0
BLOCK
  5
20
330
1F
100
AcDbEntity
  8
0
100
AcDbBlockBegin
  2
*Model_Space
 70
     0
 10
0.0
 20
0.0
 30
0.0
  3
*Model_Space
  1

  0
ENDBLK
  5
21
330
1F
100
AcDbEntity
  8
0
100
AcDbBlockEnd
  0
BLOCK
  5
1C
330
1B
100
AcDbEntity
 67
     1
  8
0
100
AcDbBlockBegin
  2
*Paper_Space
 70
     0
 10
0.0
 20
0.0
 30
0.0
  3
*Paper_Space
  1

  0
ENDBLK
  5
1D
330
1B
100
AcDbEntity
 67
     1
  8
0
100
AcDbBlockEnd
  0
BLOCK
  5
24
330
23
100
AcDbEntity
  8
0
100
AcDbBlockBegin
  2
*Paper_Space0
 70
     0
 10
0.0
 20
0.0
 30
0.0
  3
*Paper_Space0
  1

  0
ENDBLK
  5
25
330
23
100
AcDbEntity
  8
0
100
AcDbBlockEnd
  0
BLOCK
  5
A3
330
A1
100
AcDbEntity
  8
0
100
AcDbBlockBegin
  2
block 2
 70
     0
 10
0.0
 20
0.0
 30
0.0
  3
block 2
  1

  0
SPLINE
  5
A5
330
A1
100
AcDbEntity
  8
_U+30EC_U+30A4_U+30E4_U+30FC 1
370
     0
100
AcDbSpline
210
0.0
220
0.0
230
1.0
 70
    11
 71
     3
 72
    26
 73
    22
 74
     0
 42
0.0000000001
 43
0.0000000001
 12
1.0
 22
0.0
 32
0.0
 13
1.0
 23
0.0
 33
0.0
 40
0.0
 40
0.0
 40
0.0
 40
0.0
 40
1.0
 40
1.0
 40
1.0
 40
2.0
 40
2.0
 40
2.0
 40
3.0
 40
3.0
 40
3.0
 40
4.0
 40
4.0
 40
4.0
 40
5.0
 40
5.0
 40
5.0
 40
6.0
 40
6.0
 40
6.0
 40
7.0
 40
7.0
 40
7.0
 40
7.0
 10
103.0634765367341
 20
-122.4242241447412
 30
0.0
 10
103.0634765367341
 20
-122.4242241447412
 30
0.0
 10
101.9593234337116
 20
-122.4242241447412
 30
0.0
 10
101.9593234337116
 20
-122.4242241447412
 30
0.0
 10
101.9593234337116
 20
-122.4242241447412
 30
0.0
 10
101.9593234337116
 20
-122.7542642922281
 30
0.0
 10
101.9593234337116
 20
-122.7542642922281
 30
0.0
 10
101.9593234337116
 20
-122.7542642922281
 30
0.0
 10
101.8111843278458
 20
-122.7542642922281
 30
0.0
 10
101.8111843278458
 20
-122.7542642922281
 30
0.0
 10
101.7963704172592
 20
-122.42215708745
 30
0.0
 10
101.6334174008069
 20
-122.3756482983992
 30
0.0
 10
101.5190402306966
 20
-122.346020477226
 30
0.0
 10
101.5190402306966
 20
-122.346020477226
 30
0.0
 10
101.5190402306966
 20
-122.1999484286514
 30
0.0
 10
101.5190402306966
 20
-122.1999484286514
 30
0.0
 10
101.5190402306966
 20
-122.1999484286514
 30
0.0
 10
103.0634765367341
 20
-122.1999484286514
 30
0.0
 10
103.0634765367341
 20
-122.1999484286514
 30
0.0
 10
103.0634765367341
 20
-122.1999484286514
 30
0.0
 10
103.0634765367341
 20
-122.4242241447412
 30
0.0
 10
103.0634765367341
 20
-122.4242241447412
 30
0.0
  0
HATCH
  5
A6
330
A1
100
AcDbEntity
  8
_U+30EC_U+30A4_U+30E4_U+30FC 1
 62
   179
420
  2234388
100
AcDbHatch
 10
0.0
 20
0.0
 30
0.0
210
0.0
220
0.0
230
1.0
  2
SOLID
 70
     1
 71
     0
 91
        1
 92
        1
 93
        1
 72
     4
 94
        3
 73
     0
 74
     1
 95
       26
 96
       22
 40
0.0
 40
0.0
 40
0.0
 40
0.0
 40
1.0
 40
1.0
 40
1.0
 40
2.0
 40
2.0
 40
2.0
 40
3.0
 40
3.0
 40
3.0
 40
4.0
 40
4.0
 40
4.0
 40
5.0
 40
5.0
 40
5.0
 40
6.0
 40
6.0
 40
6.0
 40
7.0
 40
7.0
 40
7.0
 40
7.0
 10
103.0634765367341
 20
-122.4242241447412
 10
103.0634765367341
 20
-122.4242241447412
 10
101.9593234337116
 20
-122.4242241447412
 10
101.9593234337116
 20
-122.4242241447412
 10
101.9593234337116
 20
-122.4242241447412
 10
101.9593234337116
 20
-122.7542642922281
 10
101.9593234337116
 20
-122.7542642922281
 10
101.9593234337116
 20
-122.7542642922281
 10
101.8111843278458
 20
-122.7542642922281
 10
101.8111843278458
 20
-122.7542642922281
 10
101.7963704172592
 20
-122.42215708745
 10
101.6334174008069
 20
-122.3756482983992
 10
101.5190402306966
 20
-122.346020477226
 10
101.5190402306966
 20
-122.346020477226
 10
101.5190402306966
 20
-122.1999484286514
 10
101.5190402306966
 20
-122.1999484286514
 10
101.5190402306966
 20
-122.1999484286514
 10
103.0634765367341
 20
-122.1999484286514
 10
103.0634765367341
 20
-122.1999484286514
 10
103.0634765367341
 20
-122.1999484286514
 10
103.0634765367341
 20
-122.4242241447412
 10
103.0634765367341
 20
-122.4242241447412
 97
        0
 97
        0
 75
     2
 76
     1
 98
        0
  0
ENDBLK
  5
A4
330
A1
100
AcDbEntity
  8
0
100
AcDbBlockEnd
  0
BLOCK
  5
B1
330
AF
100
AcDbEntity
  8
0
100
AcDbBlockBegin
  2
block 3
 70
     0
 10
0.0
 20
0.0
 30
0.0
  3
block 3
  1

  0
SPLINE
  5
B3
330
AF
100
AcDbEntity
  8
_U+30EC_U+30A4_U+30E4_U+30FC 1
370
     0
100
AcDbSpline
210
0.0
220
0.0
230
1.0
 70
    11
 71
     3
 72
    32
 73
    28
 74
     0
 42
0.0000000001
 43
0.0000000001
 12
1.0
 22
0.0
 32
0.0
 13
1.0
 23
0.0
 33
0.0
 40
0.0
 40
0.0
 40
0.0
 40
0.0
 40
1.0
 40
1.0
 40
1.0
 40
2.0
 40
2.0
 40
2.0
 40
3.0
 40
3.0
 40
3.0
 40
4.0
 40
4.0
 40
4.0
 40
5.0
 40
5.0
 40
5.0
 40
6.0
 40
6.0
 40
6.0
 40
7.0
 40
7.0
 40
7.0
 40
8.0
 40
8.0
 40
8.0
 40
9.0
 40
9.0
 40
9.0
 40
9.0
 10
103.1137749308188
 20
-130.4392387911749
 30
0.0
 10
103.1137749308188
 20
-130.9553140948653
 30
0.0
 10
102.5598035767906
 20
-130.9635823240299
 30
0.0
 10
102.3458631471566
 20
-130.9635823240299
 30
0.0
 10
102.1153862591934
 20
-130.9635823240299
 30
0.0
 10
101.4680528175149
 20
-130.9446342988611
 30
0.0
 10
101.4680528175149
 20
-130.4009982312886
 30
0.0
 10
101.4680528175149
 20
-130.2277099283806
 30
0.0
 10
101.5379882558655
 20
-129.9820746202823
 30
0.0
 10
101.8700954606436
 20
-129.9441785699445
 30
0.0
 10
101.8700954606436
 20
-129.9441785699445
 30
0.0
 10
101.8700954606436
 20
-130.15777449003
 30
0.0
 10
101.8700954606436
 20
-130.15777449003
 30
0.0
 10
101.8129068755884
 20
-130.1684542860343
 30
0.0
 10
101.6647677697227
 20
-130.2001491644986
 30
0.0
 10
101.6647677697227
 20
-130.4030652885798
 30
0.0
 10
101.6647677697227
 20
-130.695209385729
 30
0.0
 10
101.9927408599185
 20
-130.7351724933579
 30
0.0
 10
102.1977240412909
 20
-130.7479193466533
 30
0.0
 10
102.1195203737757
 20
-130.6549017685516
 30
0.0
 10
102.0602647314294
 20
-130.5870333874921
 30
0.0
 10
102.0602647314294
 20
-130.405132345871
 30
0.0
 10
102.0602647314294
 20
-130.2252983615409
 30
0.0
 10
102.1684407296662
 20
-129.922818977936
 30
0.0
 10
102.5746174873772
 20
-129.922818977936
 30
0.0
 10
102.8939778388598
 20
-129.922818977936
 30
0.0
 10
103.1137749308188
 20
-130.1219454969834
 30
0.0
 10
103.1137749308188
 20
-130.4392387911749
 30
0.0
  0
SPLINE
  5
B4
330
AF
100
AcDbEntity
  8
_U+30EC_U+30A4_U+30E4_U+30FC 1
370
     0
100
AcDbSpline
210
0.0
220
0.0
230
1.0
 70
    11
 71
     3
 72
    17
 73
    13
 74
     0
 42
0.0000000001
 43
0.0000000001
 12
1.0
 22
0.0
 32
0.0
 13
1.0
 23
0.0
 33
0.0
 40
0.0
 40
0.0
 40
0.0
 40
0.0
 40
1.0
 40
1.0
 40
1.0
 40
2.0
 40
2.0
 40
2.0
 40
3.0
 40
3.0
 40
3.0
 40
4.0
 40
4.0
 40
4.0
 40
4.0
 10
102.254912626346
 20
-130.4220133137487
 30
0.0
 10
102.254912626346
 20
-130.6845295897247
 30
0.0
 10
102.4664414891403
 20
-130.7224256400625
 30
0.0
 10
102.5828857165418
 20
-130.7224256400625
 30
0.0
 10
102.7585855862895
 20
-130.7224256400625
 30
0.0
 10
102.9215386027418
 20
-130.6273410046695
 30
0.0
 10
102.9215386027418
 20
-130.4433729057572
 30
0.0
 10
102.9215386027418
 20
-130.3227945637735
 30
0.0
 10
102.8622829603955
 20
-130.1470946940257
 30
0.0
 10
102.5766845446683
 20
-130.1470946940257
 30
0.0
 10
102.3524088285786
 20
-130.1470946940257
 30
0.0
 10
102.254912626346
 20
-130.2869655707269
 30
0.0
 10
102.254912626346
 20
-130.4220133137487
 30
0.0
  0
HATCH
  5
B5
330
AF
100
AcDbEntity
  8
_U+30EC_U+30A4_U+30E4_U+30FC 1
 62
   179
420
  2234388
100
AcDbHatch
 10
0.0
 20
0.0
 30
0.0
210
0.0
220
0.0
230
1.0
  2
SOLID
 70
     1
 71
     0
 91
        2
 92
        1
 93
        1
 72
     4
 94
        3
 73
     0
 74
     1
 95
       32
 96
       28
 40
0.0
 40
0.0
 40
0.0
 40
0.0
 40
1.0
 40
1.0
 40
1.0
 40
2.0
 40
2.0
 40
2.0
 40
3.0
 40
3.0
 40
3.0
 40
4.0
 40
4.0
 40
4.0
 40
5.0
 40
5.0
 40
5.0
 40
6.0
 40
6.0
 40
6.0
 40
7.0
 40
7.0
 40
7.0
 40
8.0
 40
8.0
 40
8.0
 40
9.0
 40
9.0
 40
9.0
 40
9.0
 10
103.1137749308188
 20
-130.4392387911749
 10
103.1137749308188
 20
-130.9553140948653
 10
102.5598035767906
 20
-130.9635823240299
 10
102.3458631471566
 20
-130.9635823240299
 10
102.1153862591934
 20
-130.9635823240299
 10
101.4680528175149
 20
-130.9446342988611
 10
101.4680528175149
 20
-130.4009982312886
 10
101.4680528175149
 20
-130.2277099283806
 10
101.5379882558655
 20
-129.9820746202823
 10
101.8700954606436
 20
-129.9441785699445
 10
101.8700954606436
 20
-129.9441785699445
 10
101.8700954606436
 20
-130.15777449003
 10
101.8700954606436
 20
-130.15777449003
 10
101.8129068755884
 20
-130.1684542860343
 10
101.6647677697227
 20
-130.2001491644986
 10
101.6647677697227
 20
-130.4030652885798
 10
101.6647677697227
 20
-130.695209385729
 10
101.9927408599185
 20
-130.7351724933579
 10
102.1977240412909
 20
-130.7479193466533
 10
102.1195203737757
 20
-130.6549017685516
 10
102.0602647314294
 20
-130.5870333874921
 10
102.0602647314294
 20
-130.405132345871
 10
102.0602647314294
 20
-130.2252983615409
 10
102.1684407296662
 20
-129.922818977936
 10
102.5746174873772
 20
-129.922818977936
 10
102.8939778388598
 20
-129.922818977936
 10
103.1137749308188
 20
-130.1219454969834
 10
103.1137749308188
 20
-130.4392387911749
 97
        0
 97
        0
 92
        1
 93
        1
 72
     4
 94
        3
 73
     0
 74
     1
 95
       17
 96
       13
 40
0.0
 40
0.0
 40
0.0
 40
0.0
 40
1.0
 40
1.0
 40
1.0
 40
2.0
 40
2.0
 40
2.0
 40
3.0
 40
3.0
 40
3.0
 40
4.0
 40
4.0
 40
4.0
 40
4.0
 10
102.254912626346
 20
-130.4220133137487
 10
102.254912626346
 20
-130.6845295897247
 10
102.4664414891403
 20
-130.7224256400625
 10
102.5828857165418
 20
-130.7224256400625
 10
102.7585855862895
 20
-130.7224256400625
 10
102.9215386027418
 20
-130.6273410046695
 10
102.9215386027418
 20
-130.4433729057572
 10
102.9215386027418
 20
-130.3227945637735
 10
102.8622829603955
 20
-130.1470946940257
 10
102.5766845446683
 20
-130.1470946940257
 10
102.3524088285786
 20
-130.1470946940257
 10
102.254912626346
 20
-130.2869655707269
 10
102.254912626346
 20
-130.4220133137487
 97
        0
 97
        0
 75
     2
 76
     1
 98
        0
  0
POLYLINE
  5
B6
330
AF
100
AcDbEntity
  8
_U+30EC_U+30A4_U+30E4_U+30FC 1
370
     0
100
AcDb2dPolyline
 66
     1
 10
0.0
 20
0.0
 30
0.0
  0
VERTEX
  5
B7
330
B6
100
AcDbEntity
  8
_U+30EC_U+30A4_U+30E4_U+30FC 1
370
     0
100
AcDbVertex
100
AcDb2dVertex
 10
103.0631320271856
 20
-129.7064669814623
 30
0.0
  0
VERTEX
  5
B8
330
B6
100
AcDbEntity
  8
_U+30EC_U+30A4_U+30E4_U+30FC 1
370
     0
100
AcDbVertex
100
AcDb2dVertex
 10
102.8112955472138
 20
-129.7064669814623
 30
0.0
  0
VERTEX
  5
B9
330
B6
100
AcDbEntity
  8
_U+30EC_U+30A4_U+30E4_U+30FC 1
370
     0
100
AcDbVertex
100
AcDb2dVertex
 10
102.8112955472138
 20
-129.4546305014905
 30
0.0
  0
VERTEX
  5
BA
330
B6
100
AcDbEntity
  8
_U+30EC_U+30A4_U+30E4_U+30FC 1
370
     0
100
AcDbVertex
100
AcDb2dVertex
 10
103.0631320271856
 20
-129.4546305014905
 30
0.0
  0
VERTEX
  5
BB
330
B6
100
AcDbEntity
  8
_U+30EC_U+30A4_U+30E4_U+30FC 1
370
     0
100
AcDbVertex
100
AcDb2dVertex
 10
103.0631320271856
 20
-129.7064669814623
 30
0.0
  0
SEQEND
  5
BC
330
B6
100
AcDbEntity
  8
_U+30EC_U+30A4_U+30E4_U+30FC 1
370
     0
  0
HATCH
  5
BD
330
AF
100
AcDbEntity
  8
_U+30EC_U+30A4_U+30E4_U+30FC 1
 62
   179
420
  2234388
100
AcDbHatch
 10
0.0
 20
0.0
 30
0.0
210
0.0
220
0.0
230
1.0
  2
SOLID
 70
     1
 71
     0
 91
        1
 92
        1
 93
        4
 72
     1
 10
103.0631320271856
 20
-129.7064669814623
 11
102.8112955472138
 21
-129.7064669814623
 72
     1
 10
102.8112955472138
 20
-129.7064669814623
 11
102.8112955472138
 21
-129.4546305014905
 72
     1
 10
102.8112955472138
 20
-129.4546305014905
 11
103.0631320271856
 21
-129.4546305014905
 72
     1
 10
103.0631320271856
 20
-129.4546305014905
 11
103.0631320271856
 21
-129.7064669814623
 97
        0
 75
     2
 76
     1
 98
        0
  0
SPLINE
  5
BE
330
AF
100
AcDbEntity
  8
_U+30EC_U+30A4_U+30E4_U+30FC 1
370
     0
100
AcDbSpline
210
0.0
220
0.0
230
1.0
 70
    11
 71
     3
 72
    53
 73
    49
 74
     0
 42
0.0000000001
 43
0.0000000001
 12
1.0
 22
0.0
 32
0.0
 13
1.0
 23
0.0
 33
0.0
 40
0.0
 40
0.0
 40
0.0
 40
0.0
 40
1.0
 40
1.0
 40
1.0
 40
2.0
 40
2.0
 40
2.0
 40
3.0
 40
3.0
 40
3.0
 40
4.0
 40
4.0
 40
4.0
 40
5.0
 40
5.0
 40
5.0
 40
6.0
 40
6.0
 40
6.0
 40
7.0
 40
7.0
 40
7.0
 40
8.0
 40
8.0
 40
8.0
 40
9.0
 40
9.0
 40
9.0
 40
10.0
 40
10.0
 40
10.0
 40
11.0
 40
11.0
 40
11.0
 40
12.0
 40
12.0
 40
12.0
 40
13.0
 40
13.0
 40
13.0
 40
14.0
 40
14.0
 40
14.0
 40
15.0
 40
15.0
 40
15.0
 40
16.0
 40
16.0
 40
16.0
 40
16.0
 10
103.1137749308188
 20
-128.7373616214615
 30
0.0
 10
103.1137749308188
 20
-128.8155652889767
 30
0.0
 10
103.0968939629411
 20
-128.9171956057915
 30
0.0
 10
103.0335042060125
 20
-129.0188259226064
 30
0.0
 10
102.923605660033
 20
-129.1921142255145
 30
0.0
 10
102.792347522045
 20
-129.213473817523
 30
0.0
 10
102.6845160333567
 20
-129.2324218426919
 30
0.0
 10
102.6845160333567
 20
-129.2324218426919
 30
0.0
 10
102.6845160333567
 20
-129.0102131838933
 30
0.0
 10
102.6845160333567
 20
-129.0102131838933
 30
0.0
 10
102.8832980428556
 20
-128.9554361656778
 30
0.0
 10
102.9129258640287
 20
-128.8283121422721
 30
0.0
 10
102.9129258640287
 20
-128.7352945641703
 30
0.0
 10
102.9129258640287
 20
-128.5957681970177
 30
0.0
 10
102.813362604505
 20
-128.4434949765697
 30
0.0
 10
102.5808186592506
 20
-128.4434949765697
 30
0.0
 10
102.3248480646966
 20
-128.4434949765697
 30
0.0
 10
102.254912626346
 20
-128.6233289608997
 30
0.0
 10
102.254912626346
 20
-128.7439073028835
 30
0.0
 10
102.254912626346
 20
-128.7756021813478
 30
0.0
 10
102.254912626346
 20
-128.9171956057915
 30
0.0
 10
102.3841037070429
 20
-129.006079069311
 30
0.0
 10
102.3841037070429
 20
-129.006079069311
 30
0.0
 10
102.365155681874
 20
-129.1817789390587
 30
0.0
 10
102.365155681874
 20
-129.1817789390587
 30
0.0
 10
102.365155681874
 20
-129.1817789390587
 30
0.0
 10
101.5186957211481
 20
-129.061200597075
 30
0.0
 10
101.5186957211481
 20
-129.061200597075
 30
0.0
 10
101.5186957211481
 20
-129.061200597075
 30
0.0
 10
101.5186957211481
 20
-128.2826090174085
 30
0.0
 10
101.5186957211481
 20
-128.2826090174085
 30
0.0
 10
101.5186957211481
 20
-128.2826090174085
 30
0.0
 10
101.7133436160647
 20
-128.2826090174085
 30
0.0
 10
101.7133436160647
 20
-128.2826090174085
 30
0.0
 10
101.7133436160647
 20
-128.2826090174085
 30
0.0
 10
101.7133436160647
 20
-128.8982475806227
 30
0.0
 10
101.7133436160647
 20
-128.8982475806227
 30
0.0
 10
101.7133436160647
 20
-128.8982475806227
 30
0.0
 10
102.1364013416534
 20
-128.9637043948424
 30
0.0
 10
102.1364013416534
 20
-128.9637043948424
 30
0.0
 10
102.102639405898
 20
-128.902381695205
 30
0.0
 10
102.0623317887205
 20
-128.8200439131075
 30
0.0
 10
102.0623317887205
 20
-128.7015326284149
 30
0.0
 10
102.0623317887205
 20
-128.447629091152
 30
0.0
 10
102.2487114544726
 20
-128.2106065217668
 30
0.0
 10
102.5618706340818
 20
-128.2106065217668
 30
0.0
 10
102.8791639282733
 20
-128.2106065217668
 30
0.0
 10
103.1137749308188
 20
-128.4348822378566
 30
0.0
 10
103.1137749308188
 20
-128.7373616214615
 30
0.0
  0
HATCH
  5
BF
330
AF
100
AcDbEntity
  8
_U+30EC_U+30A4_U+30E4_U+30FC 1
 62
   179
420
  2234388
100
AcDbHatch
 10
0.0
 20
0.0
 30
0.0
210
0.0
220
0.0
230
1.0
  2
SOLID
 70
     1
 71
     0
 91
        1
 92
        1
 93
        1
 72
     4
 94
        3
 73
     0
 74
     1
 95
       53
 96
       49
 40
0.0
 40
0.0
 40
0.0
 40
0.0
 40
1.0
 40
1.0
 40
1.0
 40
2.0
 40
2.0
 40
2.0
 40
3.0
 40
3.0
 40
3.0
 40
4.0
 40
4.0
 40
4.0
 40
5.0
 40
5.0
 40
5.0
 40
6.0
 40
6.0
 40
6.0
 40
7.0
 40
7.0
 40
7.0
 40
8.0
 40
8.0
 40
8.0
 40
9.0
 40
9.0
 40
9.0
 40
10.0
 40
10.0
 40
10.0
 40
11.0
 40
11.0
 40
11.0
 40
12.0
 40
12.0
 40
12.0
 40
13.0
 40
13.0
 40
13.0
 40
14.0
 40
14.0
 40
14.0
 40
15.0
 40
15.0
 40
15.0
 40
16.0
 40
16.0
 40
16.0
 40
16.0
 10
103.1137749308188
 20
-128.7373616214615
 10
103.1137749308188
 20
-128.8155652889767
 10
103.0968939629411
 20
-128.9171956057915
 10
103.0335042060125
 20
-129.0188259226064
 10
102.923605660033
 20
-129.1921142255145
 10
102.792347522045
 20
-129.213473817523
 10
102.6845160333567
 20
-129.2324218426919
 10
102.6845160333567
 20
-129.2324218426919
 10
102.6845160333567
 20
-129.0102131838933
 10
102.6845160333567
 20
-129.0102131838933
 10
102.8832980428556
 20
-128.9554361656778
 10
102.9129258640287
 20
-128.8283121422721
 10
102.9129258640287
 20
-128.7352945641703
 10
102.9129258640287
 20
-128.5957681970177
 10
102.813362604505
 20
-128.4434949765697
 10
102.5808186592506
 20
-128.4434949765697
 10
102.3248480646966
 20
-128.4434949765697
 10
102.254912626346
 20
-128.6233289608997
 10
102.254912626346
 20
-128.7439073028835
 10
102.254912626346
 20
-128.7756021813478
 10
102.254912626346
 20
-128.9171956057915
 10
102.3841037070429
 20
-129.006079069311
 10
102.3841037070429
 20
-129.006079069311
 10
102.365155681874
 20
-129.1817789390587
 10
102.365155681874
 20
-129.1817789390587
 10
102.365155681874
 20
-129.1817789390587
 10
101.5186957211481
 20
-129.061200597075
 10
101.5186957211481
 20
-129.061200597075
 10
101.5186957211481
 20
-129.061200597075
 10
101.5186957211481
 20
-128.2826090174085
 10
101.5186957211481
 20
-128.2826090174085
 10
101.5186957211481
 20
-128.2826090174085
 10
101.7133436160647
 20
-128.2826090174085
 10
101.7133436160647
 20
-128.2826090174085
 10
101.7133436160647
 20
-128.2826090174085
 10
101.7133436160647
 20
-128.8982475806227
 10
101.7133436160647
 20
-128.8982475806227
 10
101.7133436160647
 20
-128.8982475806227
 10
102.1364013416534
 20
-128.9637043948424
 10
102.1364013416534
 20
-128.9637043948424
 10
102.102639405898
 20
-128.902381695205
 10
102.0623317887205
 20
-128.8200439131075
 10
102.0623317887205
 20
-128.7015326284149
 10
102.0623317887205
 20
-128.447629091152
 10
102.2487114544726
 20
-128.2106065217668
 10
102.5618706340818
 20
-128.2106065217668
 10
102.8791639282733
 20
-128.2106065217668
 10
103.1137749308188
 20
-128.4348822378566
 10
103.1137749308188
 20
-128.7373616214615
 97
        0
 97
        0
 75
     2
 76
     1
 98
        0
  0
ENDBLK
  5
B2
330
AF
100
AcDbEntity
  8
0
100
AcDbBlockEnd
  0
BLOCK
  5
CA
330
C8
100
AcDbEntity
  8
0
100
AcDbBlockBegin
  2
block 4
 70
     0
 10
0.0
 20
0.0
 30
0.0
  3
block 4
  1

  0
SPLINE
  5
CC
330
C8
100
AcDbEntity
  8
_U+30EC_U+30A4_U+30E4_U+30FC 1
370
     0
100
AcDbSpline
210
0.0
220
0.0
230
1.0
 70
    11
 71
     3
 72
    62
 73
    58
 74
     0
 42
0.0000000001
 43
0.0000000001
 12
1.0
 22
0.0
 32
0.0
 13
1.0
 23
0.0
 33
0.0
 40
0.0
 40
0.0
 40
0.0
 40
0.0
 40
1.0
 40
1.0
 40
1.0
 40
2.0
 40
2.0
 40
2.0
 40
3.0
 40
3.0
 40
3.0
 40
4.0
 40
4.0
 40
4.0
 40
5.0
 40
5.0
 40
5.0
 40
6.0
 40
6.0
 40
6.0
 40
7.0
 40
7.0
 40
7.0
 40
8.0
 40
8.0
 40
8.0
 40
9.0
 40
9.0
 40
9.0
 40
10.0
 40
10.0
 40
10.0
 40
11.0
 40
11.0
 40
11.0
 40
12.0
 40
12.0
 40
12.0
 40
13.0
 40
13.0
 40
13.0
 40
14.0
 40
14.0
 40
14.0
 40
15.0
 40
15.0
 40
15.0
 40
16.0
 40
16.0
 40
16.0
 40
17.0
 40
17.0
 40
17.0
 40
18.0
 40
18.0
 40
18.0
 40
19.0
 40
19.0
 40
19.0
 40
19.0
 10
103.1141194403673
 20
-134.383873121786
 30
0.0
 10
103.1141194403673
 20
-134.4793022667274
 30
0.0
 10
103.0931043579073
 20
-134.6970323013952
 30
0.0
 10
102.9070692017038
 20
-134.8220892675098
 30
0.0
 10
102.7947590888846
 20
-134.8961588204426
 30
0.0
 10
102.6955403389095
 20
-134.9002929350249
 30
0.0
 10
102.6107909899723
 20
-134.9044270496072
 30
0.0
 10
102.6107909899723
 20
-134.9044270496072
 30
0.0
 10
102.6107909899723
 20
-134.6842854480998
 30
0.0
 10
102.6107909899723
 20
-134.6842854480998
 30
0.0
 10
102.6848605429052
 20
-134.6822183908086
 30
0.0
 10
102.9194715454507
 20
-134.6718831043529
 30
0.0
 10
102.9194715454507
 20
-134.3883517459168
 30
0.0
 10
102.9194715454507
 20
-134.2508924360554
 30
0.0
 10
102.8498806166486
 20
-134.0982747060588
 30
0.0
 10
102.6214707859766
 20
-134.0982747060588
 30
0.0
 10
102.5050265585751
 20
-134.0982747060588
 30
0.0
 10
102.4564507122331
 20
-134.136515265945
 30
0.0
 10
102.4247558337688
 20
-134.1682101444093
 30
0.0
 10
102.3506862808359
 20
-134.2422796973422
 30
0.0
 10
102.3379394275405
 20
-134.3587239247437
 30
0.0
 10
102.3379394275405
 20
-134.4135009429591
 30
0.0
 10
102.3379394275405
 20
-134.4327934776765
 30
0.0
 10
102.3400064848317
 20
-134.4686224707231
 30
0.0
 10
102.344140599414
 20
-134.4961832346051
 30
0.0
 10
102.344140599414
 20
-134.4961832346051
 30
0.0
 10
102.1494927044973
 20
-134.4961832346051
 30
0.0
 10
102.1494927044973
 20
-134.4961832346051
 30
0.0
 10
102.1560383859193
 20
-134.4579426747189
 30
0.0
 10
102.1581054432105
 20
-134.4159125097988
 30
0.0
 10
102.1581054432105
 20
-134.4093668283768
 30
0.0
 10
102.1581054432105
 20
-134.3439100141571
 30
0.0
 10
102.1367458512019
 20
-134.1451280046582
 30
0.0
 10
101.9000677913653
 20
-134.1451280046582
 30
0.0
 10
101.7223008643264
 20
-134.1451280046582
 30
0.0
 10
101.6671793365624
 20
-134.2760416330977
 30
0.0
 10
101.6671793365624
 20
-134.3862846886257
 30
0.0
 10
101.6671793365624
 20
-134.6505235123443
 30
0.0
 10
101.9000677913653
 20
-134.6591362510574
 30
0.0
 10
101.9717257774585
 20
-134.6632703656397
 30
0.0
 10
101.9717257774585
 20
-134.6632703656397
 30
0.0
 10
101.9717257774585
 20
-134.8665309992695
 30
0.0
 10
101.9717257774585
 20
-134.8665309992695
 30
0.0
 10
101.8470133208924
 20
-134.8579182605563
 30
0.0
 10
101.4704643843546
 20
-134.8303574966744
 30
0.0
 10
101.4704643843546
 20
-134.3735378353302
 30
0.0
 10
101.4704643843546
 20
-134.1492621192405
 30
0.0
 10
101.5975884077603
 20
-133.908105435273
 30
0.0
 10
101.8935221099433
 20
-133.908105435273
 30
0.0
 10
102.0799017756953
 20
-133.908105435273
 30
0.0
 10
102.1622395577928
 20
-134.0031900706659
 30
0.0
 10
102.2235622574302
 20
-134.1027533301896
 30
0.0
 10
102.2511230213122
 20
-134.0414306305522
 30
0.0
 10
102.3313937461186
 20
-133.859529588931
 30
0.0
 10
102.6087239326812
 20
-133.859529588931
 30
0.0
 10
102.9470323093327
 20
-133.859529588931
 30
0.0
 10
103.1141194403673
 20
-134.1068874447719
 30
0.0
 10
103.1141194403673
 20
-134.383873121786
 30
0.0
  0
HATCH
  5
CD
330
C8
100
AcDbEntity
  8
_U+30EC_U+30A4_U+30E4_U+30FC 1
 62
   179
420
  2234388
100
AcDbHatch
 10
0.0
 20
0.0
 30
0.0
210
0.0
220
0.0
230
1.0
  2
SOLID
 70
     1
 71
     0
 91
        1
 92
        1
 93
        1
 72
     4
 94
        3
 73
     0
 74
     1
 95
       62
 96
       58
 40
0.0
 40
0.0
 40
0.0
 40
0.0
 40
1.0
 40
1.0
 40
1.0
 40
2.0
 40
2.0
 40
2.0
 40
3.0
 40
3.0
 40
3.0
 40
4.0
 40
4.0
 40
4.0
 40
5.0
 40
5.0
 40
5.0
 40
6.0
 40
6.0
 40
6.0
 40
7.0
 40
7.0
 40
7.0
 40
8.0
 40
8.0
 40
8.0
 40
9.0
 40
9.0
 40
9.0
 40
10.0
 40
10.0
 40
10.0
 40
11.0
 40
11.0
 40
11.0
 40
12.0
 40
12.0
 40
12.0
 40
13.0
 40
13.0
 40
13.0
 40
14.0
 40
14.0
 40
14.0
 40
15.0
 40
15.0
 40
15.0
 40
16.0
 40
16.0
 40
16.0
 40
17.0
 40
17.0
 40
17.0
 40
18.0
 40
18.0
 40
18.0
 40
19.0
 40
19.0
 40
19.0
 40
19.0
 10
103.1141194403673
 20
-134.383873121786
 10
103.1141194403673
 20
-134.4793022667274
 10
103.0931043579073
 20
-134.6970323013952
 10
102.9070692017038
 20
-134.8220892675098
 10
102.7947590888846
 20
-134.8961588204426
 10
102.6955403389095
 20
-134.9002929350249
 10
102.6107909899723
 20
-134.9044270496072
 10
102.6107909899723
 20
-134.9044270496072
 10
102.6107909899723
 20
-134.6842854480998
 10
102.6107909899723
 20
-134.6842854480998
 10
102.6848605429052
 20
-134.6822183908086
 10
102.9194715454507
 20
-134.6718831043529
 10
102.9194715454507
 20
-134.3883517459168
 10
102.9194715454507
 20
-134.2508924360554
 10
102.8498806166486
 20
-134.0982747060588
 10
102.6214707859766
 20
-134.0982747060588
 10
102.5050265585751
 20
-134.0982747060588
 10
102.4564507122331
 20
-134.136515265945
 10
102.4247558337688
 20
-134.1682101444093
 10
102.3506862808359
 20
-134.2422796973422
 10
102.3379394275405
 20
-134.3587239247437
 10
102.3379394275405
 20
-134.4135009429591
 10
102.3379394275405
 20
-134.4327934776765
 10
102.3400064848317
 20
-134.4686224707231
 10
102.344140599414
 20
-134.4961832346051
 10
102.344140599414
 20
-134.4961832346051
 10
102.1494927044973
 20
-134.4961832346051
 10
102.1494927044973
 20
-134.4961832346051
 10
102.1560383859193
 20
-134.4579426747189
 10
102.1581054432105
 20
-134.4159125097988
 10
102.1581054432105
 20
-134.4093668283768
 10
102.1581054432105
 20
-134.3439100141571
 10
102.1367458512019
 20
-134.1451280046582
 10
101.9000677913653
 20
-134.1451280046582
 10
101.7223008643264
 20
-134.1451280046582
 10
101.6671793365624
 20
-134.2760416330977
 10
101.6671793365624
 20
-134.3862846886257
 10
101.6671793365624
 20
-134.6505235123443
 10
101.9000677913653
 20
-134.6591362510574
 10
101.9717257774585
 20
-134.6632703656397
 10
101.9717257774585
 20
-134.6632703656397
 10
101.9717257774585
 20
-134.8665309992695
 10
101.9717257774585
 20
-134.8665309992695
 10
101.8470133208924
 20
-134.8579182605563
 10
101.4704643843546
 20
-134.8303574966744
 10
101.4704643843546
 20
-134.3735378353302
 10
101.4704643843546
 20
-134.1492621192405
 10
101.5975884077603
 20
-133.908105435273
 10
101.8935221099433
 20
-133.908105435273
 10
102.0799017756953
 20
-133.908105435273
 10
102.1622395577928
 20
-134.0031900706659
 10
102.2235622574302
 20
-134.1027533301896
 10
102.2511230213122
 20
-134.0414306305522
 10
102.3313937461186
 20
-133.859529588931
 10
102.6087239326812
 20
-133.859529588931
 10
102.9470323093327
 20
-133.859529588931
 10
103.1141194403673
 20
-134.1068874447719
 10
103.1141194403673
 20
-134.383873121786
 97
        0
 97
        0
 75
     2
 76
     1
 98
        0
  0
ENDBLK
  5
CB
330
C8
100
AcDbEntity
  8
0
100
AcDbBlockEnd
  0
BLOCK
  5
E0
330
DE
100
AcDbEntity
  8
0
100
AcDbBlockBegin
  2
block 5
 70
     0
 10
0.0
 20
0.0
 30
0.0
  3
block 5
  1

  0
SPLINE
  5
E2
330
DE
100
AcDbEntity
  8
_U+30EC_U+30A4_U+30E4_U+30FC 1
370
     0
100
AcDbSpline
210
0.0
220
0.0
230
1.0
 70
    11
 71
     3
 72
    44
 73
    40
 74
     0
 42
0.0000000001
 43
0.0000000001
 12
1.0
 22
0.0
 32
0.0
 13
1.0
 23
0.0
 33
0.0
 40
0.0
 40
0.0
 40
0.0
 40
0.0
 40
1.0
 40
1.0
 40
1.0
 40
2.0
 40
2.0
 40
2.0
 40
3.0
 40
3.0
 40
3.0
 40
4.0
 40
4.0
 40
4.0
 40
5.0
 40
5.0
 40
5.0
 40
6.0
 40
6.0
 40
6.0
 40
7.0
 40
7.0
 40
7.0
 40
8.0
 40
8.0
 40
8.0
 40
9.0
 40
9.0
 40
9.0
 40
10.0
 40
10.0
 40
10.0
 40
11.0
 40
11.0
 40
11.0
 40
12.0
 40
12.0
 40
12.0
 40
13.0
 40
13.0
 40
13.0
 40
13.0
 10
83.75474987055438
 20
-120.1998982446896
 30
0.0
 10
83.53684758111233
 20
-120.3585448917854
 30
0.0
 10
83.4436577482363
 20
-120.4326144447182
 30
0.0
 10
83.39508190189429
 20
-120.5764471812274
 30
0.0
 10
83.39508190189429
 20
-120.5764471812274
 30
0.0
 10
84.17350122678648
 20
-120.5764471812274
 30
0.0
 10
84.17350122678648
 20
-120.5764471812274
 30
0.0
 10
84.17350122678648
 20
-120.5764471812274
 30
0.0
 10
84.17350122678648
 20
-120.781602617374
 30
0.0
 10
84.17350122678648
 20
-120.781602617374
 30
0.0
 10
84.17350122678648
 20
-120.781602617374
 30
0.0
 10
83.14548473398794
 20
-120.781602617374
 30
0.0
 10
83.14548473398794
 20
-120.781602617374
 30
0.0
 10
83.17717961245224
 20
-120.4240017060051
 30
0.0
 10
83.24280868144625
 20
-120.3457980384899
 30
0.0
 10
83.62779810192292
 20
-120.0474527694673
 30
0.0
 10
83.88376869647698
 20
-119.8486707599684
 30
0.0
 10
83.94922551069672
 20
-119.7809746336832
 30
0.0
 10
83.94922551069672
 20
-119.6435153238218
 30
0.0
 10
83.94922551069672
 20
-119.5250040391292
 30
0.0
 10
83.87739526982926
 20
-119.3939181559154
 30
0.0
 10
83.6806803176215
 20
-119.3939181559154
 30
0.0
 10
83.42040335371088
 20
-119.3939181559154
 30
0.0
 10
83.41196286977201
 20
-119.6243950438786
 30
0.0
 10
83.40765650041546
 20
-119.7408392712801
 30
0.0
 10
83.40765650041546
 20
-119.7408392712801
 30
0.0
 10
83.18355303909995
 20
-119.7408392712801
 30
0.0
 10
83.18355303909995
 20
-119.7408392712801
 30
0.0
 10
83.19199352303882
 20
-119.6138875026486
 30
0.0
 10
83.20250106426883
 20
-119.5017496446037
 30
0.0
 10
83.28294404384941
 20
-119.3832383599111
 30
0.0
 10
83.39284258982887
 20
-119.2225246555242
 30
0.0
 10
83.57905000080663
 20
-119.1885904649945
 30
0.0
 10
83.69549422820808
 20
-119.1885904649945
 30
0.0
 10
83.97265215999643
 20
-119.1885904649945
 30
0.0
 10
84.1798746534342
 20
-119.3727308186811
 30
0.0
 10
84.1798746534342
 20
-119.6455823811129
 30
0.0
 10
84.1798746534342
 20
-119.873992211785
 30
0.0
 10
84.06360268080702
 20
-119.9735554713087
 30
0.0
 10
83.75474987055438
 20
-120.1998982446896
 30
0.0
  0
HATCH
  5
E3
330
DE
100
AcDbEntity
  8
_U+30EC_U+30A4_U+30E4_U+30FC 1
 62
   179
420
  2234388
100
AcDbHatch
 10
0.0
 20
0.0
 30
0.0
210
0.0
220
0.0
230
1.0
  2
SOLID
 70
     1
 71
     0
 91
        1
 92
        1
 93
        1
 72
     4
 94
        3
 73
     0
 74
     1
 95
       44
 96
       40
 40
0.0
 40
0.0
 40
0.0
 40
0.0
 40
1.0
 40
1.0
 40
1.0
 40
2.0
 40
2.0
 40
2.0
 40
3.0
 40
3.0
 40
3.0
 40
4.0
 40
4.0
 40
4.0
 40
5.0
 40
5.0
 40
5.0
 40
6.0
 40
6.0
 40
6.0
 40
7.0
 40
7.0
 40
7.0
 40
8.0
 40
8.0
 40
8.0
 40
9.0
 40
9.0
 40
9.0
 40
10.0
 40
10.0
 40
10.0
 40
11.0
 40
11.0
 40
11.0
 40
12.0
 40
12.0
 40
12.0
 40
13.0
 40
13.0
 40
13.0
 40
13.0
 10
83.75474987055438
 20
-120.1998982446896
 10
83.53684758111233
 20
-120.3585448917854
 10
83.4436577482363
 20
-120.4326144447182
 10
83.39508190189429
 20
-120.5764471812274
 10
83.39508190189429
 20
-120.5764471812274
 10
84.17350122678648
 20
-120.5764471812274
 10
84.17350122678648
 20
-120.5764471812274
 10
84.17350122678648
 20
-120.5764471812274
 10
84.17350122678648
 20
-120.781602617374
 10
84.17350122678648
 20
-120.781602617374
 10
84.17350122678648
 20
-120.781602617374
 10
83.14548473398794
 20
-120.781602617374
 10
83.14548473398794
 20
-120.781602617374
 10
83.17717961245224
 20
-120.4240017060051
 10
83.24280868144625
 20
-120.3457980384899
 10
83.62779810192292
 20
-120.0474527694673
 10
83.88376869647698
 20
-119.8486707599684
 10
83.94922551069672
 20
-119.7809746336832
 10
83.94922551069672
 20
-119.6435153238218
 10
83.94922551069672
 20
-119.5250040391292
 10
83.87739526982926
 20
-119.3939181559154
 10
83.6806803176215
 20
-119.3939181559154
 10
83.42040335371088
 20
-119.3939181559154
 10
83.41196286977201
 20
-119.6243950438786
 10
83.40765650041546
 20
-119.7408392712801
 10
83.40765650041546
 20
-119.7408392712801
 10
83.18355303909995
 20
-119.7408392712801
 10
83.18355303909995
 20
-119.7408392712801
 10
83.19199352303882
 20
-119.6138875026486
 10
83.20250106426883
 20
-119.5017496446037
 10
83.28294404384941
 20
-119.3832383599111
 10
83.39284258982887
 20
-119.2225246555242
 10
83.57905000080663
 20
-119.1885904649945
 10
83.69549422820808
 20
-119.1885904649945
 10
83.97265215999643
 20
-119.1885904649945
 10
84.1798746534342
 20
-119.3727308186811
 10
84.1798746534342
 20
-119.6455823811129
 10
84.1798746534342
 20
-119.873992211785
 10
84.06360268080702
 20
-119.9735554713087
 10
83.75474987055438
 20
-120.1998982446896
 97
        0
 97
        0
 75
     2
 76
     1
 98
        0
  0
ENDBLK
  5
E1
330
DE
100
AcDbEntity
  8
0
100
AcDbBlockEnd
  0
BLOCK
  5
F2
330
F0
100
AcDbEntity
  8
0
100
AcDbBlockBegin
  2
block 6
 70
     0
 10
0.0
 20
0.0
 30
0.0
  3
block 6
  1

  0
SPLINE
  5
F4
330
F0
100
AcDbEntity
  8
_U+30EC_U+30A4_U+30E4_U+30FC 1
370
     0
100
AcDbSpline
210
0.0
220
0.0
230
1.0
 70
    11
 71
     3
 72
    44
 73
    40
 74
     0
 42
0.0000000001
 43
0.0000000001
 12
1.0
 22
0.0
 32
0.0
 13
1.0
 23
0.0
 33
0.0
 40
0.0
 40
0.0
 40
0.0
 40
0.0
 40
1.0
 40
1.0
 40
1.0
 40
2.0
 40
2.0
 40
2.0
 40
3.0
 40
3.0
 40
3.0
 40
4.0
 40
4.0
 40
4.0
 40
5.0
 40
5.0
 40
5.0
 40
6.0
 40
6.0
 40
6.0
 40
7.0
 40
7.0
 40
7.0
 40
8.0
 40
8.0
 40
8.0
 40
9.0
 40
9.0
 40
9.0
 40
10.0
 40
10.0
 40
10.0
 40
11.0
 40
11.0
 40
11.0
 40
12.0
 40
12.0
 40
12.0
 40
13.0
 40
13.0
 40
13.0
 40
13.0
 10
88.66401093703539
 20
-116.2001423863146
 30
0.0
 10
88.4462809023676
 20
-116.3587890334103
 30
0.0
 10
88.35326332426585
 20
-116.4328585863432
 30
0.0
 10
88.30434296837531
 20
-116.5766913228524
 30
0.0
 10
88.30434296837531
 20
-116.5766913228524
 30
0.0
 10
89.08293454804178
 20
-116.5766913228524
 30
0.0
 10
89.08293454804178
 20
-116.5766913228524
 30
0.0
 10
89.08293454804178
 20
-116.5766913228524
 30
0.0
 10
89.08293454804178
 20
-116.781846758999
 30
0.0
 10
89.08293454804178
 20
-116.781846758999
 30
0.0
 10
89.08293454804178
 20
-116.781846758999
 30
0.0
 10
88.05491805524322
 20
-116.781846758999
 30
0.0
 10
88.05491805524322
 20
-116.781846758999
 30
0.0
 10
88.08661293370751
 20
-116.4242458476301
 30
0.0
 10
88.15206974792727
 20
-116.3460421801149
 30
0.0
 10
88.5372314231782
 20
-116.0476969110922
 30
0.0
 10
88.79320201773226
 20
-115.8489149015933
 30
0.0
 10
88.858658831952
 20
-115.7812187753082
 30
0.0
 10
88.858658831952
 20
-115.6437594654467
 30
0.0
 10
88.858658831952
 20
-115.5252481807541
 30
0.0
 10
88.78665633631029
 20
-115.3941622975403
 30
0.0
 10
88.58994138410252
 20
-115.3941622975403
 30
0.0
 10
88.32983667496616
 20
-115.3941622975403
 30
0.0
 10
88.32156844580156
 20
-115.6246391855036
 30
0.0
 10
88.31708982167073
 20
-115.741083412905
 30
0.0
 10
88.31708982167073
 20
-115.741083412905
 30
0.0
 10
88.09281410558097
 20
-115.741083412905
 30
0.0
 10
88.09281410558097
 20
-115.741083412905
 30
0.0
 10
88.1014268442941
 20
-115.6141316442736
 30
0.0
 10
88.11210664029836
 20
-115.5019937862287
 30
0.0
 10
88.19237736510469
 20
-115.3834825015361
 30
0.0
 10
88.30227591108415
 20
-115.2227687971492
 30
0.0
 10
88.48865557683618
 20
-115.1888346066195
 30
0.0
 10
88.6047552946891
 20
-115.1888346066195
 30
0.0
 10
88.8820854812517
 20
-115.1888346066195
 30
0.0
 10
89.08948022946375
 20
-115.3729749603061
 30
0.0
 10
89.08948022946375
 20
-115.6458265227378
 30
0.0
 10
89.08948022946375
 20
-115.8742363534099
 30
0.0
 10
88.9730360020623
 20
-115.9737996129336
 30
0.0
 10
88.66401093703539
 20
-116.2001423863146
 30
0.0
  0
HATCH
  5
F5
330
F0
100
AcDbEntity
  8
_U+30EC_U+30A4_U+30E4_U+30FC 1
 62
   179
420
  2234388
100
AcDbHatch
 10
0.0
 20
0.0
 30
0.0
210
0.0
220
0.0
230
1.0
  2
SOLID
 70
     1
 71
     0
 91
        1
 92
        1
 93
        1
 72
     4
 94
        3
 73
     0
 74
     1
 95
       44
 96
       40
 40
0.0
 40
0.0
 40
0.0
 40
0.0
 40
1.0
 40
1.0
 40
1.0
 40
2.0
 40
2.0
 40
2.0
 40
3.0
 40
3.0
 40
3.0
 40
4.0
 40
4.0
 40
4.0
 40
5.0
 40
5.0
 40
5.0
 40
6.0
 40
6.0
 40
6.0
 40
7.0
 40
7.0
 40
7.0
 40
8.0
 40
8.0
 40
8.0
 40
9.0
 40
9.0
 40
9.0
 40
10.0
 40
10.0
 40
10.0
 40
11.0
 40
11.0
 40
11.0
 40
12.0
 40
12.0
 40
12.0
 40
13.0
 40
13.0
 40
13.0
 40
13.0
 10
88.66401093703539
 20
-116.2001423863146
 10
88.4462809023676
 20
-116.3587890334103
 10
88.35326332426585
 20
-116.4328585863432
 10
88.30434296837531
 20
-116.5766913228524
 10
88.30434296837531
 20
-116.5766913228524
 10
89.08293454804178
 20
-116.5766913228524
 10
89.08293454804178
 20
-116.5766913228524
 10
89.08293454804178
 20
-116.5766913228524
 10
89.08293454804178
 20
-116.781846758999
 10
89.08293454804178
 20
-116.781846758999
 10
89.08293454804178
 20
-116.781846758999
 10
88.05491805524322
 20
-116.781846758999
 10
88.05491805524322
 20
-116.781846758999
 10
88.08661293370751
 20
-116.4242458476301
 10
88.15206974792727
 20
-116.3460421801149
 10
88.5372314231782
 20
-116.0476969110922
 10
88.79320201773226
 20
-115.8489149015933
 10
88.858658831952
 20
-115.7812187753082
 10
88.858658831952
 20
-115.6437594654467
 10
88.858658831952
 20
-115.5252481807541
 10
88.78665633631029
 20
-115.3941622975403
 10
88.58994138410252
 20
-115.3941622975403
 10
88.32983667496616
 20
-115.3941622975403
 10
88.32156844580156
 20
-115.6246391855036
 10
88.31708982167073
 20
-115.741083412905
 10
88.31708982167073
 20
-115.741083412905
 10
88.09281410558097
 20
-115.741083412905
 10
88.09281410558097
 20
-115.741083412905
 10
88.1014268442941
 20
-115.6141316442736
 10
88.11210664029836
 20
-115.5019937862287
 10
88.19237736510469
 20
-115.3834825015361
 10
88.30227591108415
 20
-115.2227687971492
 10
88.48865557683618
 20
-115.1888346066195
 10
88.6047552946891
 20
-115.1888346066195
 10
88.8820854812517
 20
-115.1888346066195
 10
89.08948022946375
 20
-115.3729749603061
 10
89.08948022946375
 20
-115.6458265227378
 10
89.08948022946375
 20
-115.8742363534099
 10
88.9730360020623
 20
-115.9737996129336
 10
88.66401093703539
 20
-116.2001423863146
 97
        0
 97
        0
 75
     2
 76
     1
 98
        0
  0
SPLINE
  5
F6
330
F0
100
AcDbEntity
  8
_U+30EC_U+30A4_U+30E4_U+30FC 1
370
     0
100
AcDbSpline
210
0.0
220
0.0
230
1.0
 70
    11
 71
     3
 72
    26
 73
    22
 74
     0
 42
0.0000000001
 43
0.0000000001
 12
1.0
 22
0.0
 32
0.0
 13
1.0
 23
0.0
 33
0.0
 40
0.0
 40
0.0
 40
0.0
 40
0.0
 40
1.0
 40
1.0
 40
1.0
 40
2.0
 40
2.0
 40
2.0
 40
3.0
 40
3.0
 40
3.0
 40
4.0
 40
4.0
 40
4.0
 40
5.0
 40
5.0
 40
5.0
 40
6.0
 40
6.0
 40
6.0
 40
7.0
 40
7.0
 40
7.0
 40
7.0
 10
89.69926213035296
 20
-116.781846758999
 30
0.0
 10
89.69926213035296
 20
-116.781846758999
 30
0.0
 10
89.69926213035296
 20
-115.6775214012022
 30
0.0
 10
89.69926213035296
 20
-115.6775214012022
 30
0.0
 10
89.69926213035296
 20
-115.6775214012022
 30
0.0
 10
89.36922198286604
 20
-115.6775214012022
 30
0.0
 10
89.36922198286604
 20
-115.6775214012022
 30
0.0
 10
89.36922198286604
 20
-115.6775214012022
 30
0.0
 10
89.36922198286604
 20
-115.5295545501107
 30
0.0
 10
89.36922198286604
 20
-115.5295545501107
 30
0.0
 10
89.70132918764412
 20
-115.5147406395241
 30
0.0
 10
89.747837976695
 20
-115.3517876230718
 30
0.0
 10
89.77746579786813
 20
-115.2375827077358
 30
0.0
 10
89.77746579786813
 20
-115.2375827077358
 30
0.0
 10
89.92353784644273
 20
-115.2375827077358
 30
0.0
 10
89.92353784644273
 20
-115.2375827077358
 30
0.0
 10
89.92353784644273
 20
-115.2375827077358
 30
0.0
 10
89.92353784644273
 20
-116.781846758999
 30
0.0
 10
89.92353784644273
 20
-116.781846758999
 30
0.0
 10
89.92353784644273
 20
-116.781846758999
 30
0.0
 10
89.69926213035296
 20
-116.781846758999
 30
0.0
 10
89.69926213035296
 20
-116.781846758999
 30
0.0
  0
HATCH
  5
F7
330
F0
100
AcDbEntity
  8
_U+30EC_U+30A4_U+30E4_U+30FC 1
 62
   179
420
  2234388
100
AcDbHatch
 10
0.0
 20
0.0
 30
0.0
210
0.0
220
0.0
230
1.0
  2
SOLID
 70
     1
 71
     0
 91
        1
 92
        1
 93
        1
 72
     4
 94
        3
 73
     0
 74
     1
 95
       26
 96
       22
 40
0.0
 40
0.0
 40
0.0
 40
0.0
 40
1.0
 40
1.0
 40
1.0
 40
2.0
 40
2.0
 40
2.0
 40
3.0
 40
3.0
 40
3.0
 40
4.0
 40
4.0
 40
4.0
 40
5.0
 40
5.0
 40
5.0
 40
6.0
 40
6.0
 40
6.0
 40
7.0
 40
7.0
 40
7.0
 40
7.0
 10
89.69926213035296
 20
-116.781846758999
 10
89.69926213035296
 20
-116.781846758999
 10
89.69926213035296
 20
-115.6775214012022
 10
89.69926213035296
 20
-115.6775214012022
 10
89.69926213035296
 20
-115.6775214012022
 10
89.36922198286604
 20
-115.6775214012022
 10
89.36922198286604
 20
-115.6775214012022
 10
89.36922198286604
 20
-115.6775214012022
 10
89.36922198286604
 20
-115.5295545501107
 10
89.36922198286604
 20
-115.5295545501107
 10
89.70132918764412
 20
-115.5147406395241
 10
89.747837976695
 20
-115.3517876230718
 10
89.77746579786813
 20
-115.2375827077358
 10
89.77746579786813
 20
-115.2375827077358
 10
89.92353784644273
 20
-115.2375827077358
 10
89.92353784644273
 20
-115.2375827077358
 10
89.92353784644273
 20
-115.2375827077358
 10
89.92353784644273
 20
-116.781846758999
 10
89.92353784644273
 20
-116.781846758999
 10
89.92353784644273
 20
-116.781846758999
 10
89.69926213035296
 20
-116.781846758999
 10
89.69926213035296
 20
-116.781846758999
 97
        0
 97
        0
 75
     2
 76
     1
 98
        0
  0
ENDBLK
  5
F3
330
F0
100
AcDbEntity
  8
0
100
AcDbBlockEnd
  0
BLOCK
  5
106
330
104
100
AcDbEntity
  8
0
100
AcDbBlockBegin
  2
block 7
 70
     0
 10
0.0
 20
0.0
 30
0.0
  3
block 7
  1

  0
SPLINE
  5
108
330
104
100
AcDbEntity
  8
_U+30EC_U+30A4_U+30E4_U+30FC 1
370
     0
100
AcDbSpline
210
0.0
220
0.0
230
1.0
 70
    11
 71
     3
 72
    26
 73
    22
 74
     0
 42
0.0000000001
 43
0.0000000001
 12
1.0
 22
0.0
 32
0.0
 13
1.0
 23
0.0
 33
0.0
 40
0.0
 40
0.0
 40
0.0
 40
0.0
 40
1.0
 40
1.0
 40
1.0
 40
2.0
 40
2.0
 40
2.0
 40
3.0
 40
3.0
 40
3.0
 40
4.0
 40
4.0
 40
4.0
 40
5.0
 40
5.0
 40
5.0
 40
6.0
 40
6.0
 40
6.0
 40
7.0
 40
7.0
 40
7.0
 40
7.0
 10
82.9463582149405
 20
-140.2818765925337
 30
0.0
 10
82.9463582149405
 20
-140.2818765925337
 30
0.0
 10
82.9463582149405
 20
-139.1777234895111
 30
0.0
 10
82.9463582149405
 20
-139.1777234895111
 30
0.0
 10
82.9463582149405
 20
-139.1777234895111
 30
0.0
 10
82.61631806745356
 20
-139.1777234895111
 30
0.0
 10
82.61631806745356
 20
-139.1777234895111
 30
0.0
 10
82.61631806745356
 20
-139.1777234895111
 30
0.0
 10
82.61631806745356
 20
-139.0295843836454
 30
0.0
 10
82.61631806745356
 20
-139.0295843836454
 30
0.0
 10
82.94842527223165
 20
-139.0147704730588
 30
0.0
 10
82.99493406128252
 20
-138.8518174566065
 30
0.0
 10
83.02456188245567
 20
-138.7374402864962
 30
0.0
 10
83.02456188245567
 20
-138.7374402864962
 30
0.0
 10
83.17063393103027
 20
-138.7374402864962
 30
0.0
 10
83.17063393103027
 20
-138.7374402864962
 30
0.0
 10
83.17063393103027
 20
-138.7374402864962
 30
0.0
 10
83.17063393103027
 20
-140.2818765925337
 30
0.0
 10
83.17063393103027
 20
-140.2818765925337
 30
0.0
 10
83.17063393103027
 20
-140.2818765925337
 30
0.0
 10
82.9463582149405
 20
-140.2818765925337
 30
0.0
 10
82.9463582149405
 20
-140.2818765925337
 30
0.0
  0
HATCH
  5
109
330
104
100
AcDbEntity
  8
_U+30EC_U+30A4_U+30E4_U+30FC 1
 62
   179
420
  2234388
100
AcDbHatch
 10
0.0
 20
0.0
 30
0.0
210
0.0
220
0.0
230
1.0
  2
SOLID
 70
     1
 71
     0
 91
        1
 92
        1
 93
        1
 72
     4
 94
        3
 73
     0
 74
     1
 95
       26
 96
       22
 40
0.0
 40
0.0
 40
0.0
 40
0.0
 40
1.0
 40
1.0
 40
1.0
 40
2.0
 40
2.0
 40
2.0
 40
3.0
 40
3.0
 40
3.0
 40
4.0
 40
4.0
 40
4.0
 40
5.0
 40
5.0
 40
5.0
 40
6.0
 40
6.0
 40
6.0
 40
7.0
 40
7.0
 40
7.0
 40
7.0
 10
82.9463582149405
 20
-140.2818765925337
 10
82.9463582149405
 20
-140.2818765925337
 10
82.9463582149405
 20
-139.1777234895111
 10
82.9463582149405
 20
-139.1777234895111
 10
82.9463582149405
 20
-139.1777234895111
 10
82.61631806745356
 20
-139.1777234895111
 10
82.61631806745356
 20
-139.1777234895111
 10
82.61631806745356
 20
-139.1777234895111
 10
82.61631806745356
 20
-139.0295843836454
 10
82.61631806745356
 20
-139.0295843836454
 10
82.94842527223165
 20
-139.0147704730588
 10
82.99493406128252
 20
-138.8518174566065
 10
83.02456188245567
 20
-138.7374402864962
 10
83.02456188245567
 20
-138.7374402864962
 10
83.17063393103027
 20
-138.7374402864962
 10
83.17063393103027
 20
-138.7374402864962
 10
83.17063393103027
 20
-138.7374402864962
 10
83.17063393103027
 20
-140.2818765925337
 10
83.17063393103027
 20
-140.2818765925337
 10
83.17063393103027
 20
-140.2818765925337
 10
82.9463582149405
 20
-140.2818765925337
 10
82.9463582149405
 20
-140.2818765925337
 97
        0
 97
        0
 75
     2
 76
     1
 98
        0
  0
SPLINE
  5
10A
330
104
100
AcDbEntity
  8
_U+30EC_U+30A4_U+30E4_U+30FC 1
370
     0
100
AcDbSpline
210
0.0
220
0.0
230
1.0
 70
    11
 71
     3
 72
    29
 73
    25
 74
     0
 42
0.0000000001
 43
0.0000000001
 12
1.0
 22
0.0
 32
0.0
 13
1.0
 23
0.0
 33
0.0
 40
0.0
 40
0.0
 40
0.0
 40
0.0
 40
1.0
 40
1.0
 40
1.0
 40
2.0
 40
2.0
 40
2.0
 40
3.0
 40
3.0
 40
3.0
 40
4.0
 40
4.0
 40
4.0
 40
5.0
 40
5.0
 40
5.0
 40
6.0
 40
6.0
 40
6.0
 40
7.0
 40
7.0
 40
7.0
 40
8.0
 40
8.0
 40
8.0
 40
8.0
 10
84.56968720759022
 20
-140.1041096654948
 30
0.0
 10
84.46151120935338
 20
-140.313571470998
 30
0.0
 10
84.28822290644531
 20
-140.3325194961669
 30
0.0
 10
84.17177867904387
 20
-140.3325194961669
 30
0.0
 10
84.01089271988269
 20
-140.3325194961669
 30
0.0
 10
83.86929929543894
 20
-140.286010707116
 30
0.0
 10
83.77421466004603
 20
-140.1041096654948
 30
0.0
 10
83.67051728594001
 20
-139.9094617705782
 30
0.0
 10
83.65122475122261
 20
-139.6727837107415
 30
0.0
 10
83.65122475122261
 20
-139.5098306942892
 30
0.0
 10
83.65122475122261
 20
-139.3658257030058
 30
0.0
 10
83.66845022864887
 20
-139.113989223034
 30
0.0
 10
83.77421466004603
 20
-138.9152072135351
 30
0.0
 10
83.88204614873435
 20
-138.7122910894539
 30
0.0
 10
84.04293210789552
 20
-138.6888644401542
 30
0.0
 10
84.17177867904387
 20
-138.6888644401542
 30
0.0
 10
84.33059758091389
 20
-138.6888644401542
 30
0.0
 10
84.4742580626488
 20
-138.7333061719139
 30
0.0
 10
84.56968720759022
 20
-138.9152072135351
 30
0.0
 10
84.66890595756541
 20
-139.1077880511606
 30
0.0
 10
84.69233260686512
 20
-139.3361978818326
 30
0.0
 10
84.69233260686512
 20
-139.5098306942892
 30
0.0
 10
84.69233260686512
 20
-139.6810519399061
 30
0.0
 10
84.67097301485657
 20
-139.9115288278693
 30
0.0
 10
84.56968720759022
 20
-140.1041096654948
 30
0.0
  0
SPLINE
  5
10B
330
104
100
AcDbEntity
  8
_U+30EC_U+30A4_U+30E4_U+30FC 1
370
     0
100
AcDbSpline
210
0.0
220
0.0
230
1.0
 70
    11
 71
     3
 72
    17
 73
    13
 74
     0
 42
0.0000000001
 43
0.0000000001
 12
1.0
 22
0.0
 32
0.0
 13
1.0
 23
0.0
 33
0.0
 40
0.0
 40
0.0
 40
0.0
 40
0.0
 40
1.0
 40
1.0
 40
1.0
 40
2.0
 40
2.0
 40
2.0
 40
3.0
 40
3.0
 40
3.0
 40
4.0
 40
4.0
 40
4.0
 40
4.0
 10
84.17177867904387
 20
-138.8814452777796
 30
0.0
 10
83.92200925636325
 20
-138.8814452777796
 30
0.0
 10
83.87550046731238
 20
-139.1649766362157
 30
0.0
 10
83.87550046731238
 20
-139.5098306942892
 30
0.0
 10
83.87550046731238
 20
-139.8291910457719
 30
0.0
 10
83.9116739699075
 20
-140.1378716012503
 30
0.0
 10
84.17177867904387
 20
-140.1378716012503
 30
0.0
 10
84.41948104443333
 20
-140.1378716012503
 30
0.0
 10
84.46805689077534
 20
-139.8567518096539
 30
0.0
 10
84.46805689077534
 20
-139.5098306942892
 30
0.0
 10
84.46805689077534
 20
-139.190125833258
 30
0.0
 10
84.42981633088908
 20
-138.8814452777796
 30
0.0
 10
84.17177867904387
 20
-138.8814452777796
 30
0.0
  0
HATCH
  5
10C
330
104
100
AcDbEntity
  8
_U+30EC_U+30A4_U+30E4_U+30FC 1
 62
   179
420
  2234388
100
AcDbHatch
 10
0.0
 20
0.0
 30
0.0
210
0.0
220
0.0
230
1.0
  2
SOLID
 70
     1
 71
     0
 91
        2
 92
        1
 93
        1
 72
     4
 94
        3
 73
     0
 74
     1
 95
       29
 96
       25
 40
0.0
 40
0.0
 40
0.0
 40
0.0
 40
1.0
 40
1.0
 40
1.0
 40
2.0
 40
2.0
 40
2.0
 40
3.0
 40
3.0
 40
3.0
 40
4.0
 40
4.0
 40
4.0
 40
5.0
 40
5.0
 40
5.0
 40
6.0
 40
6.0
 40
6.0
 40
7.0
 40
7.0
 40
7.0
 40
8.0
 40
8.0
 40
8.0
 40
8.0
 10
84.56968720759022
 20
-140.1041096654948
 10
84.46151120935338
 20
-140.313571470998
 10
84.28822290644531
 20
-140.3325194961669
 10
84.17177867904387
 20
-140.3325194961669
 10
84.01089271988269
 20
-140.3325194961669
 10
83.86929929543894
 20
-140.286010707116
 10
83.77421466004603
 20
-140.1041096654948
 10
83.67051728594001
 20
-139.9094617705782
 10
83.65122475122261
 20
-139.6727837107415
 10
83.65122475122261
 20
-139.5098306942892
 10
83.65122475122261
 20
-139.3658257030058
 10
83.66845022864887
 20
-139.113989223034
 10
83.77421466004603
 20
-138.9152072135351
 10
83.88204614873435
 20
-138.7122910894539
 10
84.04293210789552
 20
-138.6888644401542
 10
84.17177867904387
 20
-138.6888644401542
 10
84.33059758091389
 20
-138.6888644401542
 10
84.4742580626488
 20
-138.7333061719139
 10
84.56968720759022
 20
-138.9152072135351
 10
84.66890595756541
 20
-139.1077880511606
 10
84.69233260686512
 20
-139.3361978818326
 10
84.69233260686512
 20
-139.5098306942892
 10
84.69233260686512
 20
-139.6810519399061
 10
84.67097301485657
 20
-139.9115288278693
 10
84.56968720759022
 20
-140.1041096654948
 97
        0
 97
        0
 92
        1
 93
        1
 72
     4
 94
        3
 73
     0
 74
     1
 95
       17
 96
       13
 40
0.0
 40
0.0
 40
0.0
 40
0.0
 40
1.0
 40
1.0
 40
1.0
 40
2.0
 40
2.0
 40
2.0
 40
3.0
 40
3.0
 40
3.0
 40
4.0
 40
4.0
 40
4.0
 40
4.0
 10
84.17177867904387
 20
-138.8814452777796
 10
83.92200925636325
 20
-138.8814452777796
 10
83.87550046731238
 20
-139.1649766362157
 10
83.87550046731238
 20
-139.5098306942892
 10
83.87550046731238
 20
-139.8291910457719
 10
83.9116739699075
 20
-140.1378716012503
 10
84.17177867904387
 20
-140.1378716012503
 10
84.41948104443333
 20
-140.1378716012503
 10
84.46805689077534
 20
-139.8567518096539
 10
84.46805689077534
 20
-139.5098306942892
 10
84.46805689077534
 20
-139.190125833258
 10
84.42981633088908
 20
-138.8814452777796
 10
84.17177867904387
 20
-138.8814452777796
 97
        0
 97
        0
 75
     2
 76
     1
 98
        0
  0
ENDBLK
  5
107
330
104
100
AcDbEntity
  8
0
100
AcDbBlockEnd
  0
BLOCK
  5
10F
330
10D
100
AcDbEntity
  8
0
100
AcDbBlockBegin
  2
block 8
 70
     0
 10
0.0
 20
0.0
 30
0.0
  3
block 8
  1

  0
SPLINE
  5
111
330
10D
100
AcDbEntity
  8
_U+30EC_U+30A4_U+30E4_U+30FC 1
370
     0
100
AcDbSpline
210
0.0
220
0.0
230
1.0
 70
    11
 71
     3
 72
   110
 73
   106
 74
     0
 42
0.0000000001
 43
0.0000000001
 12
1.0
 22
0.0
 32
0.0
 13
1.0
 23
0.0
 33
0.0
 40
0.0
 40
0.0
 40
0.0
 40
0.0
 40
1.0
 40
1.0
 40
1.0
 40
2.0
 40
2.0
 40
2.0
 40
3.0
 40
3.0
 40
3.0
 40
4.0
 40
4.0
 40
4.0
 40
5.0
 40
5.0
 40
5.0
 40
6.0
 40
6.0
 40
6.0
 40
7.0
 40
7.0
 40
7.0
 40
8.0
 40
8.0
 40
8.0
 40
9.0
 40
9.0
 40
9.0
 40
10.0
 40
10.0
 40
10.0
 40
11.0
 40
11.0
 40
11.0
 40
12.0
 40
12.0
 40
12.0
 40
13.0
 40
13.0
 40
13.0
 40
14.0
 40
14.0
 40
14.0
 40
15.0
 40
15.0
 40
15.0
 40
16.0
 40
16.0
 40
16.0
 40
17.0
 40
17.0
 40
17.0
 40
18.0
 40
18.0
 40
18.0
 40
19.0
 40
19.0
 40
19.0
 40
20.0
 40
20.0
 40
20.0
 40
21.0
 40
21.0
 40
21.0
 40
22.0
 40
22.0
 40
22.0
 40
23.0
 40
23.0
 40
23.0
 40
24.0
 40
24.0
 40
24.0
 40
25.0
 40
25.0
 40
25.0
 40
26.0
 40
26.0
 40
26.0
 40
27.0
 40
27.0
 40
27.0
 40
28.0
 40
28.0
 40
28.0
 40
29.0
 40
29.0
 40
29.0
 40
30.0
 40
30.0
 40
30.0
 40
31.0
 40
31.0
 40
31.0
 40
32.0
 40
32.0
 40
32.0
 40
33.0
 40
33.0
 40
33.0
 40
34.0
 40
34.0
 40
34.0
 40
35.0
 40
35.0
 40
35.0
 40
35.0
 10
84.45238170631747
 20
-129.2155408748142
 30
0.0
 10
84.45444876360861
 20
-129.1797118817676
 30
0.0
 10
84.45875513296518
 20
-129.012624750733
 30
0.0
 10
84.45875513296518
 20
-128.9998778974375
 30
0.0
 10
84.45875513296518
 20
-128.9998778974375
 30
0.0
 10
84.45875513296518
 20
-128.8727538740318
 30
0.0
 10
84.45875513296518
 20
-128.8727538740318
 30
0.0
 10
84.45875513296518
 20
-128.8727538740318
 30
0.0
 10
83.02232257039026
 20
-128.8727538740318
 30
0.0
 10
83.02232257039026
 20
-128.8727538740318
 30
0.0
 10
83.02232257039026
 20
-128.8727538740318
 30
0.0
 10
83.02232257039026
 20
-128.9743841908467
 30
0.0
 10
83.02232257039026
 20
-128.9743841908467
 30
0.0
 10
83.02232257039026
 20
-129.0250270944799
 30
0.0
 10
83.0243896276814
 20
-129.116322124839
 30
0.0
 10
83.02869599703797
 20
-129.2155408748142
 30
0.0
 10
83.02869599703797
 20
-129.2155408748142
 30
0.0
 10
82.82354056089135
 20
-129.2155408748142
 30
0.0
 10
82.82354056089135
 20
-129.2155408748142
 30
0.0
 10
82.82767467547365
 20
-129.1817789390587
 30
0.0
 10
82.8361151594125
 20
-129.0780815649527
 30
0.0
 10
82.8361151594125
 20
-129.0398410050664
 30
0.0
 10
82.8361151594125
 20
-129.0398410050664
 30
0.0
 10
82.8361151594125
 20
-128.8875677846184
 30
0.0
 10
82.8361151594125
 20
-128.8875677846184
 30
0.0
 10
82.8361151594125
 20
-128.8579399634452
 30
0.0
 10
82.82767467547365
 20
-128.7268540802315
 30
0.0
 10
82.82767467547365
 20
-128.7015326284149
 30
0.0
 10
82.8361151594125
 20
-128.7015326284149
 30
0.0
 10
83.22747800653688
 20
-128.7120401696449
 30
0.0
 10
83.25934513977545
 20
-128.7120401696449
 30
0.0
 10
83.18734264413372
 20
-128.6105821076043
 30
0.0
 10
83.13859454301743
 20
-128.5682074331357
 30
0.0
 10
83.08795163938427
 20
-128.5280720707326
 30
0.0
 10
83.08795163938427
 20
-128.5280720707326
 30
0.0
 10
83.23178437589344
 20
-128.4116278433311
 30
0.0
 10
83.23178437589344
 20
-128.4116278433311
 30
0.0
 10
83.31222735547404
 20
-128.4688164283863
 30
0.0
 10
83.37131074304607
 20
-128.5260050134414
 30
0.0
 10
83.44538029597894
 20
-128.6402099287775
 30
0.0
 10
83.44538029597894
 20
-128.6402099287775
 30
0.0
 10
83.35029566058604
 20
-128.7142794817103
 30
0.0
 10
83.35029566058604
 20
-128.7142794817103
 30
0.0
 10
83.35029566058604
 20
-128.7142794817103
 30
0.0
 10
83.40524493357577
 20
-128.7142794817103
 30
0.0
 10
83.40524493357577
 20
-128.7142794817103
 30
0.0
 10
83.40524493357577
 20
-128.7142794817103
 30
0.0
 10
83.64640161754326
 20
-128.7142794817103
 30
0.0
 10
83.64640161754326
 20
-128.7142794817103
 30
0.0
 10
83.64640161754326
 20
-128.7142794817103
 30
0.0
 10
83.64640161754326
 20
-128.6527845272986
 30
0.0
 10
83.64640161754326
 20
-128.6527845272986
 30
0.0
 10
83.64640161754326
 20
-128.5661403758446
 30
0.0
 10
83.6420952481867
 20
-128.4815632816817
 30
0.0
 10
83.63589407631325
 20
-128.3947468754534
 30
0.0
 10
83.63589407631325
 20
-128.3947468754534
 30
0.0
 10
83.83674314310332
 20
-128.4159342126877
 30
0.0
 10
83.83674314310332
 20
-128.4159342126877
 30
0.0
 10
83.89599878544962
 20
-128.4223076393354
 30
0.0
 10
83.90237221209733
 20
-128.4223076393354
 30
0.0
 10
83.90237221209733
 20
-128.4455620338608
 30
0.0
 10
83.90237221209733
 20
-128.4603759444474
 30
0.0
 10
83.86430390698531
 20
-128.4879367083294
 30
0.0
 10
83.84311656975103
 20
-128.502750618916
 30
0.0
 10
83.84104951245988
 20
-128.5576998919057
 30
0.0
 10
83.83674314310332
 20
-128.6126491648955
 30
0.0
 10
83.83674314310332
 20
-128.665531380594
 30
0.0
 10
83.83674314310332
 20
-128.665531380594
 30
0.0
 10
83.83674314310332
 20
-128.7142794817103
 30
0.0
 10
83.83674314310332
 20
-128.7142794817103
 30
0.0
 10
83.83674314310332
 20
-128.7142794817103
 30
0.0
 10
84.11596813218281
 20
-128.7142794817103
 30
0.0
 10
84.11596813218281
 20
-128.7142794817103
 30
0.0
 10
84.11596813218281
 20
-128.7142794817103
 30
0.0
 10
84.01864418472451
 20
-128.6486504127163
 30
0.0
 10
84.01864418472451
 20
-128.6486504127163
 30
0.0
 10
84.10115422159625
 20
-128.5682074331357
 30
0.0
 10
84.14559595335596
 20
-128.502750618916
 30
0.0
 10
84.17953014388567
 20
-128.4116278433311
 30
0.0
 10
84.17953014388567
 20
-128.4116278433311
 30
0.0
 10
84.36143118550687
 20
-128.5048176762071
 30
0.0
 10
84.36143118550687
 20
-128.5048176762071
 30
0.0
 10
84.37193872673689
 20
-128.5089517907894
 30
0.0
 10
84.38899194938887
 20
-128.5216986440849
 30
0.0
 10
84.38899194938887
 20
-128.5385796119626
 30
0.0
 10
84.38899194938887
 20
-128.5682074331357
 30
0.0
 10
84.35505775885916
 20
-128.5682074331357
 30
0.0
 10
84.31285533916484
 20
-128.5702744904269
 30
0.0
 10
84.27254772198742
 20
-128.6381428714863
 30
0.0
 10
84.2556667541097
 20
-128.665531380594
 30
0.0
 10
84.21759844899769
 20
-128.7142794817103
 30
0.0
 10
84.51801077531147
 20
-128.7079060550626
 30
0.0
 10
84.55607908042349
 20
-128.7079060550626
 30
0.0
 10
84.6534030278818
 20
-128.7035996857061
 30
0.0
 10
84.65133597059064
 20
-128.7416679908181
 30
0.0
 10
84.64702960123408
 20
-128.8348578236941
 30
0.0
 10
84.64702960123408
 20
-128.8727538740318
 30
0.0
 10
84.64702960123408
 20
-128.8727538740318
 30
0.0
 10
84.64702960123408
 20
-129.0422525719061
 30
0.0
 10
84.64702960123408
 20
-129.0422525719061
 30
0.0
 10
84.64702960123408
 20
-129.0949625328304
 30
0.0
 10
84.64909665852522
 20
-129.1562852324679
 30
0.0
 10
84.65547008517294
 20
-129.2155408748142
 30
0.0
 10
84.65547008517294
 20
-129.2155408748142
 30
0.0
 10
84.45238170631747
 20
-129.2155408748142
 30
0.0
 10
84.45238170631747
 20
-129.2155408748142
 30
0.0
  0
SPLINE
  5
112
330
10D
100
AcDbEntity
  8
_U+30EC_U+30A4_U+30E4_U+30FC 1
370
     0
100
AcDbSpline
210
0.0
220
0.0
230
1.0
 70
    11
 71
     3
 72
   131
 73
   127
 74
     0
 42
0.0000000001
 43
0.0000000001
 12
1.0
 22
0.0
 32
0.0
 13
1.0
 23
0.0
 33
0.0
 40
0.0
 40
0.0
 40
0.0
 40
0.0
 40
1.0
 40
1.0
 40
1.0
 40
2.0
 40
2.0
 40
2.0
 40
3.0
 40
3.0
 40
3.0
 40
4.0
 40
4.0
 40
4.0
 40
5.0
 40
5.0
 40
5.0
 40
6.0
 40
6.0
 40
6.0
 40
7.0
 40
7.0
 40
7.0
 40
8.0
 40
8.0
 40
8.0
 40
9.0
 40
9.0
 40
9.0
 40
10.0
 40
10.0
 40
10.0
 40
11.0
 40
11.0
 40
11.0
 40
12.0
 40
12.0
 40
12.0
 40
13.0
 40
13.0
 40
13.0
 40
14.0
 40
14.0
 40
14.0
 40
15.0
 40
15.0
 40
15.0
 40
16.0
 40
16.0
 40
16.0
 40
17.0
 40
17.0
 40
17.0
 40
18.0
 40
18.0
 40
18.0
 40
19.0
 40
19.0
 40
19.0
 40
20.0
 40
20.0
 40
20.0
 40
21.0
 40
21.0
 40
21.0
 40
22.0
 40
22.0
 40
22.0
 40
23.0
 40
23.0
 40
23.0
 40
24.0
 40
24.0
 40
24.0
 40
25.0
 40
25.0
 40
25.0
 40
26.0
 40
26.0
 40
26.0
 40
27.0
 40
27.0
 40
27.0
 40
28.0
 40
28.0
 40
28.0
 40
29.0
 40
29.0
 40
29.0
 40
30.0
 40
30.0
 40
30.0
 40
31.0
 40
31.0
 40
31.0
 40
32.0
 40
32.0
 40
32.0
 40
33.0
 40
33.0
 40
33.0
 40
34.0
 40
34.0
 40
34.0
 40
35.0
 40
35.0
 40
35.0
 40
36.0
 40
36.0
 40
36.0
 40
37.0
 40
37.0
 40
37.0
 40
38.0
 40
38.0
 40
38.0
 40
39.0
 40
39.0
 40
39.0
 40
40.0
 40
40.0
 40
40.0
 40
41.0
 40
41.0
 40
41.0
 40
42.0
 40
42.0
 40
42.0
 40
42.0
 10
84.4756361008429
 20
-129.7974175022729
 30
0.0
 10
84.4756361008429
 20
-129.7974175022729
 30
0.0
 10
84.47787541290832
 20
-129.9707058051809
 30
0.0
 10
84.47787541290832
 20
-129.9707058051809
 30
0.0
 10
84.47787541290832
 20
-129.9707058051809
 30
0.0
 10
84.47787541290832
 20
-130.0892170898735
 30
0.0
 10
84.47787541290832
 20
-130.0892170898735
 30
0.0
 10
84.47787541290832
 20
-130.2246093424438
 30
0.0
 10
84.3571248161503
 20
-130.2394232530304
 30
0.0
 10
84.24722627017084
 20
-130.2394232530304
 30
0.0
 10
84.17953014388567
 20
-130.2394232530304
 30
0.0
 10
84.15834280665139
 20
-130.2373561957393
 30
0.0
 10
84.1266479281871
 20
-130.233222081157
 30
0.0
 10
84.1266479281871
 20
-130.233222081157
 30
0.0
 10
84.05051131796307
 20
-130.0216932183626
 30
0.0
 10
84.05051131796307
 20
-130.0216932183626
 30
0.0
 10
84.10339353366166
 20
-130.0344400716581
 30
0.0
 10
84.17315671723796
 20
-130.0513210395358
 30
0.0
 10
84.20915796505882
 20
-130.0513210395358
 30
0.0
 10
84.27254772198742
 20
-130.0513210395358
 30
0.0
 10
84.27685409134398
 20
-130.0237602756538
 30
0.0
 10
84.27685409134398
 20
-129.9286756402609
 30
0.0
 10
84.27685409134398
 20
-129.9286756402609
 30
0.0
 10
84.27685409134398
 20
-129.7340277453443
 30
0.0
 10
84.27685409134398
 20
-129.7340277453443
 30
0.0
 10
84.27685409134398
 20
-129.7340277453443
 30
0.0
 10
83.83674314310332
 20
-129.7340277453443
 30
0.0
 10
83.83674314310332
 20
-129.7340277453443
 30
0.0
 10
83.83674314310332
 20
-129.7340277453443
 30
0.0
 10
83.83674314310332
 20
-129.827045323446
 30
0.0
 10
83.83674314310332
 20
-129.827045323446
 30
0.0
 10
83.83674314310332
 20
-129.8566731446192
 30
0.0
 10
83.83898245516873
 20
-129.8904350803746
 30
0.0
 10
83.83898245516873
 20
-129.9031819336701
 30
0.0
 10
83.85155705368989
 20
-130.1422715603464
 30
0.0
 10
83.85155705368989
 20
-130.1674207573887
 30
0.0
 10
83.85586342304646
 20
-130.3176269205456
 30
0.0
 10
83.85586342304646
 20
-130.3176269205456
 30
0.0
 10
83.62521428030898
 20
-130.3176269205456
 30
0.0
 10
83.62521428030898
 20
-130.3176269205456
 30
0.0
 10
83.62952064966554
 20
-130.2628499023301
 30
0.0
 10
83.64640161754326
 20
-129.8818223416615
 30
0.0
 10
83.64640161754326
 20
-129.8229112088637
 30
0.0
 10
83.64640161754326
 20
-129.8229112088637
 30
0.0
 10
83.64640161754326
 20
-129.7340277453443
 30
0.0
 10
83.64640161754326
 20
-129.7340277453443
 30
0.0
 10
83.64640161754326
 20
-129.7340277453443
 30
0.0
 10
83.21697046530687
 20
-129.7340277453443
 30
0.0
 10
83.21697046530687
 20
-129.7340277453443
 30
0.0
 10
83.21697046530687
 20
-129.7340277453443
 30
0.0
 10
83.21697046530687
 20
-129.9241970161301
 30
0.0
 10
83.21697046530687
 20
-129.9241970161301
 30
0.0
 10
83.21697046530687
 20
-129.9707058051809
 30
0.0
 10
83.2297173186023
 20
-130.1760334961018
 30
0.0
 10
83.23178437589344
 20
-130.2184081705704
 30
0.0
 10
83.23178437589344
 20
-130.2184081705704
 30
0.0
 10
83.00113523315596
 20
-130.2184081705704
 30
0.0
 10
83.00113523315596
 20
-130.2184081705704
 30
0.0
 10
83.00544160251253
 20
-130.1760334961018
 30
0.0
 10
83.01801620103369
 20
-129.9982665690629
 30
0.0
 10
83.01801620103369
 20
-129.9645046333075
 30
0.0
 10
83.01801620103369
 20
-129.9645046333075
 30
0.0
 10
83.01801620103369
 20
-129.7888047635597
 30
0.0
 10
83.01801620103369
 20
-129.7888047635597
 30
0.0
 10
83.01801620103369
 20
-129.750908713222
 30
0.0
 10
83.01181502916025
 20
-129.6385986004028
 30
0.0
 10
83.00957571709483
 20
-129.5690076716008
 30
0.0
 10
83.05608450614571
 20
-129.571074728892
 30
0.0
 10
83.36080320181605
 20
-129.5814100153477
 30
0.0
 10
83.38199053905034
 20
-129.5814100153477
 30
0.0
 10
83.38199053905034
 20
-129.5814100153477
 30
0.0
 10
83.64640161754326
 20
-129.5814100153477
 30
0.0
 10
83.64640161754326
 20
-129.5814100153477
 30
0.0
 10
83.64640161754326
 20
-129.5814100153477
 30
0.0
 10
83.64640161754326
 20
-129.4694444120771
 30
0.0
 10
83.64640161754326
 20
-129.4694444120771
 30
0.0
 10
83.64640161754326
 20
-129.4694444120771
 30
0.0
 10
83.5153157343295
 20
-129.4694444120771
 30
0.0
 10
83.5153157343295
 20
-129.4694444120771
 30
0.0
 10
83.43487275474892
 20
-129.4694444120771
 30
0.0
 10
83.28880070617433
 20
-129.4735785266594
 30
0.0
 10
83.21697046530687
 20
-129.4756455839506
 30
0.0
 10
83.21903752259803
 20
-129.4504963869082
 30
0.0
 10
83.22334389195458
 20
-129.2982231664602
 30
0.0
 10
83.22334389195458
 20
-129.2768635744516
 30
0.0
 10
83.22334389195458
 20
-129.2768635744516
 30
0.0
 10
83.22334389195458
 20
-129.137337207299
 30
0.0
 10
83.22334389195458
 20
-129.137337207299
 30
0.0
 10
83.22334389195458
 20
-129.1118435007081
 30
0.0
 10
83.21697046530687
 20
-128.9957437828552
 30
0.0
 10
83.21697046530687
 20
-128.9723171335555
 30
0.0
 10
83.32066783941289
 20
-128.9764512481378
 30
0.0
 10
83.33961586458177
 20
-128.9809298722687
 30
0.0
 10
83.51100936497295
 20
-128.9809298722687
 30
0.0
 10
83.51100936497295
 20
-128.9809298722687
 30
0.0
 10
83.97850882232134
 20
-128.9809298722687
 30
0.0
 10
83.97850882232134
 20
-128.9809298722687
 30
0.0
 10
84.02501761137222
 20
-128.9809298722687
 30
0.0
 10
84.2281059902277
 20
-128.9743841908467
 30
0.0
 10
84.27048066469628
 20
-128.9723171335555
 30
0.0
 10
84.26841360740512
 20
-128.9957437828552
 30
0.0
 10
84.26410723804857
 20
-129.1118435007081
 30
0.0
 10
84.26410723804857
 20
-129.1394042645902
 30
0.0
 10
84.26410723804857
 20
-129.1394042645902
 30
0.0
 10
84.26410723804857
 20
-129.2982231664602
 30
0.0
 10
84.26410723804857
 20
-129.2982231664602
 30
0.0
 10
84.26410723804857
 20
-129.344731955511
 30
0.0
 10
84.26617429533971
 20
-129.4312038521908
 30
0.0
 10
84.27048066469628
 20
-129.4756455839506
 30
0.0
 10
84.14990232271253
 20
-129.4694444120771
 30
0.0
 10
84.09908716430509
 20
-129.4694444120771
 30
0.0
 10
83.99969615955564
 20
-129.4694444120771
 30
0.0
 10
83.99969615955564
 20
-129.4694444120771
 30
0.0
 10
83.83674314310332
 20
-129.4694444120771
 30
0.0
 10
83.83674314310332
 20
-129.4694444120771
 30
0.0
 10
83.83674314310332
 20
-129.4694444120771
 30
0.0
 10
83.83674314310332
 20
-129.5814100153477
 30
0.0
 10
83.83674314310332
 20
-129.5814100153477
 30
0.0
 10
83.83674314310332
 20
-129.5814100153477
 30
0.0
 10
84.1266479281871
 20
-129.5814100153477
 30
0.0
 10
84.1266479281871
 20
-129.5814100153477
 30
0.0
 10
84.2281059902277
 20
-129.5814100153477
 30
0.0
 10
84.38675263732345
 20
-129.5752088434743
 30
0.0
 10
84.47994247019946
 20
-129.5752088434743
 30
0.0
 10
84.47994247019946
 20
-129.6110378365209
 30
0.0
 10
84.4756361008429
 20
-129.7657226238086
 30
0.0
 10
84.4756361008429
 20
-129.7974175022729
 30
0.0
  0
POLYLINE
  5
113
330
10D
100
AcDbEntity
  8
_U+30EC_U+30A4_U+30E4_U+30FC 1
370
     0
100
AcDb2dPolyline
 66
     1
 10
0.0
 20
0.0
 30
0.0
  0
VERTEX
  5
114
330
113
100
AcDbEntity
  8
_U+30EC_U+30A4_U+30E4_U+30FC 1
370
     0
100
AcDbVertex
100
AcDb2dVertex
 10
84.07583276977965
 20
-129.1287244685859
 30
0.0
  0
VERTEX
  5
115
330
113
100
AcDbEntity
  8
_U+30EC_U+30A4_U+30E4_U+30FC 1
370
     0
100
AcDbVertex
100
AcDb2dVertex
 10
83.40731199086693
 20
-129.1287244685859
 30
0.0
  0
VERTEX
  5
116
330
113
100
AcDbEntity
  8
_U+30EC_U+30A4_U+30E4_U+30FC 1
370
     0
100
AcDbVertex
100
AcDb2dVertex
 10
83.40731199086693
 20
-129.3192382489202
 30
0.0
  0
VERTEX
  5
117
330
113
100
AcDbEntity
  8
_U+30EC_U+30A4_U+30E4_U+30FC 1
370
     0
100
AcDbVertex
100
AcDb2dVertex
 10
84.07583276977965
 20
-129.3192382489202
 30
0.0
  0
VERTEX
  5
118
330
113
100
AcDbEntity
  8
_U+30EC_U+30A4_U+30E4_U+30FC 1
370
     0
100
AcDbVertex
100
AcDb2dVertex
 10
84.07583276977965
 20
-129.1287244685859
 30
0.0
  0
SEQEND
  5
119
330
113
100
AcDbEntity
  8
_U+30EC_U+30A4_U+30E4_U+30FC 1
370
     0
  0
HATCH
  5
11A
330
10D
100
AcDbEntity
  8
_U+30EC_U+30A4_U+30E4_U+30FC 1
 62
   179
420
  2234388
100
AcDbHatch
 10
0.0
 20
0.0
 30
0.0
210
0.0
220
0.0
230
1.0
  2
SOLID
 70
     1
 71
     0
 91
        3
 92
        1
 93
        1
 72
     4
 94
        3
 73
     0
 74
     1
 95
      110
 96
      106
 40
0.0
 40
0.0
 40
0.0
 40
0.0
 40
1.0
 40
1.0
 40
1.0
 40
2.0
 40
2.0
 40
2.0
 40
3.0
 40
3.0
 40
3.0
 40
4.0
 40
4.0
 40
4.0
 40
5.0
 40
5.0
 40
5.0
 40
6.0
 40
6.0
 40
6.0
 40
7.0
 40
7.0
 40
7.0
 40
8.0
 40
8.0
 40
8.0
 40
9.0
 40
9.0
 40
9.0
 40
10.0
 40
10.0
 40
10.0
 40
11.0
 40
11.0
 40
11.0
 40
12.0
 40
12.0
 40
12.0
 40
13.0
 40
13.0
 40
13.0
 40
14.0
 40
14.0
 40
14.0
 40
15.0
 40
15.0
 40
15.0
 40
16.0
 40
16.0
 40
16.0
 40
17.0
 40
17.0
 40
17.0
 40
18.0
 40
18.0
 40
18.0
 40
19.0
 40
19.0
 40
19.0
 40
20.0
 40
20.0
 40
20.0
 40
21.0
 40
21.0
 40
21.0
 40
22.0
 40
22.0
 40
22.0
 40
23.0
 40
23.0
 40
23.0
 40
24.0
 40
24.0
 40
24.0
 40
25.0
 40
25.0
 40
25.0
 40
26.0
 40
26.0
 40
26.0
 40
27.0
 40
27.0
 40
27.0
 40
28.0
 40
28.0
 40
28.0
 40
29.0
 40
29.0
 40
29.0
 40
30.0
 40
30.0
 40
30.0
 40
31.0
 40
31.0
 40
31.0
 40
32.0
 40
32.0
 40
32.0
 40
33.0
 40
33.0
 40
33.0
 40
34.0
 40
34.0
 40
34.0
 40
35.0
 40
35.0
 40
35.0
 40
35.0
 10
84.45238170631747
 20
-129.2155408748142
 10
84.45444876360861
 20
-129.1797118817676
 10
84.45875513296518
 20
-129.012624750733
 10
84.45875513296518
 20
-128.9998778974375
 10
84.45875513296518
 20
-128.9998778974375
 10
84.45875513296518
 20
-128.8727538740318
 10
84.45875513296518
 20
-128.8727538740318
 10
84.45875513296518
 20
-128.8727538740318
 10
83.02232257039026
 20
-128.8727538740318
 10
83.02232257039026
 20
-128.8727538740318
 10
83.02232257039026
 20
-128.8727538740318
 10
83.02232257039026
 20
-128.9743841908467
 10
83.02232257039026
 20
-128.9743841908467
 10
83.02232257039026
 20
-129.0250270944799
 10
83.0243896276814
 20
-129.116322124839
 10
83.02869599703797
 20
-129.2155408748142
 10
83.02869599703797
 20
-129.2155408748142
 10
82.82354056089135
 20
-129.2155408748142
 10
82.82354056089135
 20
-129.2155408748142
 10
82.82767467547365
 20
-129.1817789390587
 10
82.8361151594125
 20
-129.0780815649527
 10
82.8361151594125
 20
-129.0398410050664
 10
82.8361151594125
 20
-129.0398410050664
 10
82.8361151594125
 20
-128.8875677846184
 10
82.8361151594125
 20
-128.8875677846184
 10
82.8361151594125
 20
-128.8579399634452
 10
82.82767467547365
 20
-128.7268540802315
 10
82.82767467547365
 20
-128.7015326284149
 10
82.8361151594125
 20
-128.7015326284149
 10
83.22747800653688
 20
-128.7120401696449
 10
83.25934513977545
 20
-128.7120401696449
 10
83.18734264413372
 20
-128.6105821076043
 10
83.13859454301743
 20
-128.5682074331357
 10
83.08795163938427
 20
-128.5280720707326
 10
83.08795163938427
 20
-128.5280720707326
 10
83.23178437589344
 20
-128.4116278433311
 10
83.23178437589344
 20
-128.4116278433311
 10
83.31222735547404
 20
-128.4688164283863
 10
83.37131074304607
 20
-128.5260050134414
 10
83.44538029597894
 20
-128.6402099287775
 10
83.44538029597894
 20
-128.6402099287775
 10
83.35029566058604
 20
-128.7142794817103
 10
83.35029566058604
 20
-128.7142794817103
 10
83.35029566058604
 20
-128.7142794817103
 10
83.40524493357577
 20
-128.7142794817103
 10
83.40524493357577
 20
-128.7142794817103
 10
83.40524493357577
 20
-128.7142794817103
 10
83.64640161754326
 20
-128.7142794817103
 10
83.64640161754326
 20
-128.7142794817103
 10
83.64640161754326
 20
-128.7142794817103
 10
83.64640161754326
 20
-128.6527845272986
 10
83.64640161754326
 20
-128.6527845272986
 10
83.64640161754326
 20
-128.5661403758446
 10
83.6420952481867
 20
-128.4815632816817
 10
83.63589407631325
 20
-128.3947468754534
 10
83.63589407631325
 20
-128.3947468754534
 10
83.83674314310332
 20
-128.4159342126877
 10
83.83674314310332
 20
-128.4159342126877
 10
83.89599878544962
 20
-128.4223076393354
 10
83.90237221209733
 20
-128.4223076393354
 10
83.90237221209733
 20
-128.4455620338608
 10
83.90237221209733
 20
-128.4603759444474
 10
83.86430390698531
 20
-128.4879367083294
 10
83.84311656975103
 20
-128.502750618916
 10
83.84104951245988
 20
-128.5576998919057
 10
83.83674314310332
 20
-128.6126491648955
 10
83.83674314310332
 20
-128.665531380594
 10
83.83674314310332
 20
-128.665531380594
 10
83.83674314310332
 20
-128.7142794817103
 10
83.83674314310332
 20
-128.7142794817103
 10
83.83674314310332
 20
-128.7142794817103
 10
84.11596813218281
 20
-128.7142794817103
 10
84.11596813218281
 20
-128.7142794817103
 10
84.11596813218281
 20
-128.7142794817103
 10
84.01864418472451
 20
-128.6486504127163
 10
84.01864418472451
 20
-128.6486504127163
 10
84.10115422159625
 20
-128.5682074331357
 10
84.14559595335596
 20
-128.502750618916
 10
84.17953014388567
 20
-128.4116278433311
 10
84.17953014388567
 20
-128.4116278433311
 10
84.36143118550687
 20
-128.5048176762071
 10
84.36143118550687
 20
-128.5048176762071
 10
84.37193872673689
 20
-128.5089517907894
 10
84.38899194938887
 20
-128.5216986440849
 10
84.38899194938887
 20
-128.5385796119626
 10
84.38899194938887
 20
-128.5682074331357
 10
84.35505775885916
 20
-128.5682074331357
 10
84.31285533916484
 20
-128.5702744904269
 10
84.27254772198742
 20
-128.6381428714863
 10
84.2556667541097
 20
-128.665531380594
 10
84.21759844899769
 20
-128.7142794817103
 10
84.51801077531147
 20
-128.7079060550626
 10
84.55607908042349
 20
-128.7079060550626
 10
84.6534030278818
 20
-128.7035996857061
 10
84.65133597059064
 20
-128.7416679908181
 10
84.64702960123408
 20
-128.8348578236941
 10
84.64702960123408
 20
-128.8727538740318
 10
84.64702960123408
 20
-128.8727538740318
 10
84.64702960123408
 20
-129.0422525719061
 10
84.64702960123408
 20
-129.0422525719061
 10
84.64702960123408
 20
-129.0949625328304
 10
84.64909665852522
 20
-129.1562852324679
 10
84.65547008517294
 20
-129.2155408748142
 10
84.65547008517294
 20
-129.2155408748142
 10
84.45238170631747
 20
-129.2155408748142
 10
84.45238170631747
 20
-129.2155408748142
 97
        0
 97
        0
 92
        1
 93
        1
 72
     4
 94
        3
 73
     0
 74
     1
 95
      131
 96
      127
 40
0.0
 40
0.0
 40
0.0
 40
0.0
 40
1.0
 40
1.0
 40
1.0
 40
2.0
 40
2.0
 40
2.0
 40
3.0
 40
3.0
 40
3.0
 40
4.0
 40
4.0
 40
4.0
 40
5.0
 40
5.0
 40
5.0
 40
6.0
 40
6.0
 40
6.0
 40
7.0
 40
7.0
 40
7.0
 40
8.0
 40
8.0
 40
8.0
 40
9.0
 40
9.0
 40
9.0
 40
10.0
 40
10.0
 40
10.0
 40
11.0
 40
11.0
 40
11.0
 40
12.0
 40
12.0
 40
12.0
 40
13.0
 40
13.0
 40
13.0
 40
14.0
 40
14.0
 40
14.0
 40
15.0
 40
15.0
 40
15.0
 40
16.0
 40
16.0
 40
16.0
 40
17.0
 40
17.0
 40
17.0
 40
18.0
 40
18.0
 40
18.0
 40
19.0
 40
19.0
 40
19.0
 40
20.0
 40
20.0
 40
20.0
 40
21.0
 40
21.0
 40
21.0
 40
22.0
 40
22.0
 40
22.0
 40
23.0
 40
23.0
 40
23.0
 40
24.0
 40
24.0
 40
24.0
 40
25.0
 40
25.0
 40
25.0
 40
26.0
 40
26.0
 40
26.0
 40
27.0
 40
27.0
 40
27.0
 40
28.0
 40
28.0
 40
28.0
 40
29.0
 40
29.0
 40
29.0
 40
30.0
 40
30.0
 40
30.0
 40
31.0
 40
31.0
 40
31.0
 40
32.0
 40
32.0
 40
32.0
 40
33.0
 40
33.0
 40
33.0
 40
34.0
 40
34.0
 40
34.0
 40
35.0
 40
35.0
 40
35.0
 40
36.0
 40
36.0
 40
36.0
 40
37.0
 40
37.0
 40
37.0
 40
38.0
 40
38.0
 40
38.0
 40
39.0
 40
39.0
 40
39.0
 40
40.0
 40
40.0
 40
40.0
 40
41.0
 40
41.0
 40
41.0
 40
42.0
 40
42.0
 40
42.0
 40
42.0
 10
84.4756361008429
 20
-129.7974175022729
 10
84.4756361008429
 20
-129.7974175022729
 10
84.47787541290832
 20
-129.9707058051809
 10
84.47787541290832
 20
-129.9707058051809
 10
84.47787541290832
 20
-129.9707058051809
 10
84.47787541290832
 20
-130.0892170898735
 10
84.47787541290832
 20
-130.0892170898735
 10
84.47787541290832
 20
-130.2246093424438
 10
84.3571248161503
 20
-130.2394232530304
 10
84.24722627017084
 20
-130.2394232530304
 10
84.17953014388567
 20
-130.2394232530304
 10
84.15834280665139
 20
-130.2373561957393
 10
84.1266479281871
 20
-130.233222081157
 10
84.1266479281871
 20
-130.233222081157
 10
84.05051131796307
 20
-130.0216932183626
 10
84.05051131796307
 20
-130.0216932183626
 10
84.10339353366166
 20
-130.0344400716581
 10
84.17315671723796
 20
-130.0513210395358
 10
84.20915796505882
 20
-130.0513210395358
 10
84.27254772198742
 20
-130.0513210395358
 10
84.27685409134398
 20
-130.0237602756538
 10
84.27685409134398
 20
-129.9286756402609
 10
84.27685409134398
 20
-129.9286756402609
 10
84.27685409134398
 20
-129.7340277453443
 10
84.27685409134398
 20
-129.7340277453443
 10
84.27685409134398
 20
-129.7340277453443
 10
83.83674314310332
 20
-129.7340277453443
 10
83.83674314310332
 20
-129.7340277453443
 10
83.83674314310332
 20
-129.7340277453443
 10
83.83674314310332
 20
-129.827045323446
 10
83.83674314310332
 20
-129.827045323446
 10
83.83674314310332
 20
-129.8566731446192
 10
83.83898245516873
 20
-129.8904350803746
 10
83.83898245516873
 20
-129.9031819336701
 10
83.85155705368989
 20
-130.1422715603464
 10
83.85155705368989
 20
-130.1674207573887
 10
83.85586342304646
 20
-130.3176269205456
 10
83.85586342304646
 20
-130.3176269205456
 10
83.62521428030898
 20
-130.3176269205456
 10
83.62521428030898
 20
-130.3176269205456
 10
83.62952064966554
 20
-130.2628499023301
 10
83.64640161754326
 20
-129.8818223416615
 10
83.64640161754326
 20
-129.8229112088637
 10
83.64640161754326
 20
-129.8229112088637
 10
83.64640161754326
 20
-129.7340277453443
 10
83.64640161754326
 20
-129.7340277453443
 10
83.64640161754326
 20
-129.7340277453443
 10
83.21697046530687
 20
-129.7340277453443
 10
83.21697046530687
 20
-129.7340277453443
 10
83.21697046530687
 20
-129.7340277453443
 10
83.21697046530687
 20
-129.9241970161301
 10
83.21697046530687
 20
-129.9241970161301
 10
83.21697046530687
 20
-129.9707058051809
 10
83.2297173186023
 20
-130.1760334961018
 10
83.23178437589344
 20
-130.2184081705704
 10
83.23178437589344
 20
-130.2184081705704
 10
83.00113523315596
 20
-130.2184081705704
 10
83.00113523315596
 20
-130.2184081705704
 10
83.00544160251253
 20
-130.1760334961018
 10
83.01801620103369
 20
-129.9982665690629
 10
83.01801620103369
 20
-129.9645046333075
 10
83.01801620103369
 20
-129.9645046333075
 10
83.01801620103369
 20
-129.7888047635597
 10
83.01801620103369
 20
-129.7888047635597
 10
83.01801620103369
 20
-129.750908713222
 10
83.01181502916025
 20
-129.6385986004028
 10
83.00957571709483
 20
-129.5690076716008
 10
83.05608450614571
 20
-129.571074728892
 10
83.36080320181605
 20
-129.5814100153477
 10
83.38199053905034
 20
-129.5814100153477
 10
83.38199053905034
 20
-129.5814100153477
 10
83.64640161754326
 20
-129.5814100153477
 10
83.64640161754326
 20
-129.5814100153477
 10
83.64640161754326
 20
-129.5814100153477
 10
83.64640161754326
 20
-129.4694444120771
 10
83.64640161754326
 20
-129.4694444120771
 10
83.64640161754326
 20
-129.4694444120771
 10
83.5153157343295
 20
-129.4694444120771
 10
83.5153157343295
 20
-129.4694444120771
 10
83.43487275474892
 20
-129.4694444120771
 10
83.28880070617433
 20
-129.4735785266594
 10
83.21697046530687
 20
-129.4756455839506
 10
83.21903752259803
 20
-129.4504963869082
 10
83.22334389195458
 20
-129.2982231664602
 10
83.22334389195458
 20
-129.2768635744516
 10
83.22334389195458
 20
-129.2768635744516
 10
83.22334389195458
 20
-129.137337207299
 10
83.22334389195458
 20
-129.137337207299
 10
83.22334389195458
 20
-129.1118435007081
 10
83.21697046530687
 20
-128.9957437828552
 10
83.21697046530687
 20
-128.9723171335555
 10
83.32066783941289
 20
-128.9764512481378
 10
83.33961586458177
 20
-128.9809298722687
 10
83.51100936497295
 20
-128.9809298722687
 10
83.51100936497295
 20
-128.9809298722687
 10
83.97850882232134
 20
-128.9809298722687
 10
83.97850882232134
 20
-128.9809298722687
 10
84.02501761137222
 20
-128.9809298722687
 10
84.2281059902277
 20
-128.9743841908467
 10
84.27048066469628
 20
-128.9723171335555
 10
84.26841360740512
 20
-128.9957437828552
 10
84.26410723804857
 20
-129.1118435007081
 10
84.26410723804857
 20
-129.1394042645902
 10
84.26410723804857
 20
-129.1394042645902
 10
84.26410723804857
 20
-129.2982231664602
 10
84.26410723804857
 20
-129.2982231664602
 10
84.26410723804857
 20
-129.344731955511
 10
84.26617429533971
 20
-129.4312038521908
 10
84.27048066469628
 20
-129.4756455839506
 10
84.14990232271253
 20
-129.4694444120771
 10
84.09908716430509
 20
-129.4694444120771
 10
83.99969615955564
 20
-129.4694444120771
 10
83.99969615955564
 20
-129.4694444120771
 10
83.83674314310332
 20
-129.4694444120771
 10
83.83674314310332
 20
-129.4694444120771
 10
83.83674314310332
 20
-129.4694444120771
 10
83.83674314310332
 20
-129.5814100153477
 10
83.83674314310332
 20
-129.5814100153477
 10
83.83674314310332
 20
-129.5814100153477
 10
84.1266479281871
 20
-129.5814100153477
 10
84.1266479281871
 20
-129.5814100153477
 10
84.2281059902277
 20
-129.5814100153477
 10
84.38675263732345
 20
-129.5752088434743
 10
84.47994247019946
 20
-129.5752088434743
 10
84.47994247019946
 20
-129.6110378365209
 10
84.4756361008429
 20
-129.7657226238086
 10
84.4756361008429
 20
-129.7974175022729
 97
        0
 97
        0
 92
        1
 93
        4
 72
     1
 10
84.07583276977965
 20
-129.1287244685859
 11
83.40731199086693
 21
-129.1287244685859
 72
     1
 10
83.40731199086693
 20
-129.1287244685859
 11
83.40731199086693
 21
-129.3192382489202
 72
     1
 10
83.40731199086693
 20
-129.3192382489202
 11
84.07583276977965
 21
-129.3192382489202
 72
     1
 10
84.07583276977965
 20
-129.3192382489202
 11
84.07583276977965
 21
-129.1287244685859
 97
        0
 75
     2
 76
     1
 98
        0
  0
SPLINE
  5
11B
330
10D
100
AcDbEntity
  8
_U+30EC_U+30A4_U+30E4_U+30FC 1
370
     0
100
AcDbSpline
210
0.0
220
0.0
230
1.0
 70
    11
 71
     3
 72
    26
 73
    22
 74
     0
 42
0.0000000001
 43
0.0000000001
 12
1.0
 22
0.0
 32
0.0
 13
1.0
 23
0.0
 33
0.0
 40
0.0
 40
0.0
 40
0.0
 40
0.0
 40
1.0
 40
1.0
 40
1.0
 40
2.0
 40
2.0
 40
2.0
 40
3.0
 40
3.0
 40
3.0
 40
4.0
 40
4.0
 40
4.0
 40
5.0
 40
5.0
 40
5.0
 40
6.0
 40
6.0
 40
6.0
 40
7.0
 40
7.0
 40
7.0
 40
7.0
 10
85.31675616356665
 20
-129.619650575234
 30
0.0
 10
85.23838024127721
 20
-129.9410779840078
 30
0.0
 10
85.21943221610834
 20
-130.0130804796495
 30
0.0
 10
85.09248044747689
 20
-130.1822346679753
 30
0.0
 10
85.09248044747689
 20
-130.1822346679753
 30
0.0
 10
84.87027178867827
 20
-130.1253905924686
 30
0.0
 10
84.87027178867827
 20
-130.1253905924686
 30
0.0
 10
84.96983504820199
 20
-129.9855197157675
 30
0.0
 10
85.02478432119173
 20
-129.8628743164926
 30
0.0
 10
85.0395982317783
 20
-129.8249782661549
 30
0.0
 10
85.07559947959916
 20
-129.7360948026354
 30
0.0
 10
85.11780189929347
 20
-129.5665961047611
 30
0.0
 10
85.12210826865004
 20
-129.4949381186679
 30
0.0
 10
85.12210826865004
 20
-129.4949381186679
 30
0.0
 10
85.33777124602668
 20
-129.5583278755965
 30
0.0
 10
85.33777124602668
 20
-129.5583278755965
 30
0.0
 10
85.36739906719983
 20
-129.5665961047611
 30
0.0
 10
85.37601180591295
 20
-129.5690076716008
 30
0.0
 10
85.37601180591295
 20
-129.5858886394785
 30
0.0
 10
85.37601180591295
 20
-129.6089707792297
 30
0.0
 10
85.34001055809209
 20
-129.6155164606517
 30
0.0
 10
85.31675616356665
 20
-129.619650575234
 30
0.0
  0
SPLINE
  5
11C
330
10D
100
AcDbEntity
  8
_U+30EC_U+30A4_U+30E4_U+30FC 1
370
     0
100
AcDbSpline
210
0.0
220
0.0
230
1.0
 70
    11
 71
     3
 72
    89
 73
    85
 74
     0
 42
0.0000000001
 43
0.0000000001
 12
1.0
 22
0.0
 32
0.0
 13
1.0
 23
0.0
 33
0.0
 40
0.0
 40
0.0
 40
0.0
 40
0.0
 40
1.0
 40
1.0
 40
1.0
 40
2.0
 40
2.0
 40
2.0
 40
3.0
 40
3.0
 40
3.0
 40
4.0
 40
4.0
 40
4.0
 40
5.0
 40
5.0
 40
5.0
 40
6.0
 40
6.0
 40
6.0
 40
7.0
 40
7.0
 40
7.0
 40
8.0
 40
8.0
 40
8.0
 40
9.0
 40
9.0
 40
9.0
 40
10.0
 40
10.0
 40
10.0
 40
11.0
 40
11.0
 40
11.0
 40
12.0
 40
12.0
 40
12.0
 40
13.0
 40
13.0
 40
13.0
 40
14.0
 40
14.0
 40
14.0
 40
15.0
 40
15.0
 40
15.0
 40
16.0
 40
16.0
 40
16.0
 40
17.0
 40
17.0
 40
17.0
 40
18.0
 40
18.0
 40
18.0
 40
19.0
 40
19.0
 40
19.0
 40
20.0
 40
20.0
 40
20.0
 40
21.0
 40
21.0
 40
21.0
 40
22.0
 40
22.0
 40
22.0
 40
23.0
 40
23.0
 40
23.0
 40
24.0
 40
24.0
 40
24.0
 40
25.0
 40
25.0
 40
25.0
 40
26.0
 40
26.0
 40
26.0
 40
27.0
 40
27.0
 40
27.0
 40
28.0
 40
28.0
 40
28.0
 40
28.0
 10
86.27070310343233
 20
-128.8644856448672
 30
0.0
 10
86.27070310343233
 20
-128.9364881405089
 30
0.0
 10
86.27707653008004
 20
-129.0040120120198
 30
0.0
 10
86.28138289943661
 20
-129.0570664824927
 30
0.0
 10
86.28138289943661
 20
-129.0570664824927
 30
0.0
 10
86.0655476672857
 20
-129.0570664824927
 30
0.0
 10
86.0655476672857
 20
-129.0570664824927
 30
0.0
 10
86.07192109393341
 20
-129.006079069311
 30
0.0
 10
86.07829452058112
 20
-128.9385551978001
 30
0.0
 10
86.07829452058112
 20
-128.8644856448672
 30
0.0
 10
86.07829452058112
 20
-128.8644856448672
 30
0.0
 10
85.61923554717158
 20
-128.8644856448672
 30
0.0
 10
85.61923554717158
 20
-128.8644856448672
 30
0.0
 10
85.61923554717158
 20
-128.9364881405089
 30
0.0
 10
85.62336966175388
 20
-128.9809298722687
 30
0.0
 10
85.63198240046701
 20
-129.0570664824927
 30
0.0
 10
85.63198240046701
 20
-129.0570664824927
 30
0.0
 10
85.40546737231183
 20
-129.0570664824927
 30
0.0
 10
85.40546737231183
 20
-129.0570664824927
 30
0.0
 10
85.4161471683161
 20
-128.9809298722687
 30
0.0
 10
85.42458765225497
 20
-128.9130614912092
 30
0.0
 10
85.42458765225497
 20
-128.8644856448672
 30
0.0
 10
85.25112709457264
 20
-128.8644856448672
 30
0.0
 10
85.07559947959916
 20
-128.8706868167407
 30
0.0
 10
84.90196666714257
 20
-128.881366612745
 30
0.0
 10
84.90196666714257
 20
-128.881366612745
 30
0.0
 10
84.90196666714257
 20
-128.6739718645329
 30
0.0
 10
84.90196666714257
 20
-128.6739718645329
 30
0.0
 10
85.07559947959916
 20
-128.6846516605372
 30
0.0
 10
85.25112709457264
 20
-128.6910250871849
 30
0.0
 10
85.42458765225497
 20
-128.6910250871849
 30
0.0
 10
85.42458765225497
 20
-128.6910250871849
 30
0.0
 10
85.42458765225497
 20
-128.6210896488343
 30
0.0
 10
85.42458765225497
 20
-128.6210896488343
 30
0.0
 10
85.42458765225497
 20
-128.5850884010135
 30
0.0
 10
85.41821422560726
 20
-128.4264417539177
 30
0.0
 10
85.4161471683161
 20
-128.3906127608711
 30
0.0
 10
85.4161471683161
 20
-128.3906127608711
 30
0.0
 10
85.63404945775815
 20
-128.4116278433311
 30
0.0
 10
85.63404945775815
 20
-128.4116278433311
 30
0.0
 10
85.65730385228359
 20
-128.4138671553965
 30
0.0
 10
85.67418482016132
 20
-128.4180012699788
 30
0.0
 10
85.67418482016132
 20
-128.437121549922
 30
0.0
 10
85.67418482016132
 20
-128.4560695750909
 30
0.0
 10
85.65730385228359
 20
-128.4645100590297
 30
0.0
 10
85.62336966175388
 20
-128.4836303389729
 30
0.0
 10
85.62130260446273
 20
-128.5068847334983
 30
0.0
 10
85.61923554717158
 20
-128.6147162221866
 30
0.0
 10
85.61923554717158
 20
-128.6233289608997
 30
0.0
 10
85.61923554717158
 20
-128.6233289608997
 30
0.0
 10
85.61923554717158
 20
-128.6910250871849
 30
0.0
 10
85.61923554717158
 20
-128.6910250871849
 30
0.0
 10
85.61923554717158
 20
-128.6910250871849
 30
0.0
 10
86.07829452058112
 20
-128.6910250871849
 30
0.0
 10
86.07829452058112
 20
-128.6910250871849
 30
0.0
 10
86.07829452058112
 20
-128.6910250871849
 30
0.0
 10
86.07829452058112
 20
-128.6021416236654
 30
0.0
 10
86.07829452058112
 20
-128.6021416236654
 30
0.0
 10
86.07829452058112
 20
-128.5597669491969
 30
0.0
 10
86.07398815122457
 20
-128.4348822378566
 30
0.0
 10
86.07192109393341
 20
-128.3926798181623
 30
0.0
 10
86.07192109393341
 20
-128.3926798181623
 30
0.0
 10
86.28138289943661
 20
-128.4116278433311
 30
0.0
 10
86.28138289943661
 20
-128.4116278433311
 30
0.0
 10
86.29619681002318
 20
-128.4138671553965
 30
0.0
 10
86.32151826183976
 20
-128.4159342126877
 30
0.0
 10
86.32151826183976
 20
-128.4348822378566
 30
0.0
 10
86.32151826183976
 20
-128.4519354605085
 30
0.0
 10
86.30670435125319
 20
-128.4583088871562
 30
0.0
 10
86.27294241549774
 20
-128.4731227977428
 30
0.0
 10
86.27070310343233
 20
-128.5196315867937
 30
0.0
 10
86.27070310343233
 20
-128.5702744904269
 30
0.0
 10
86.27070310343233
 20
-128.6147162221866
 30
0.0
 10
86.27070310343233
 20
-128.6147162221866
 30
0.0
 10
86.27070310343233
 20
-128.6910250871849
 30
0.0
 10
86.27070310343233
 20
-128.6910250871849
 30
0.0
 10
86.63037107209242
 20
-128.6846516605372
 30
0.0
 10
86.67067868926983
 20
-128.6824123484718
 30
0.0
 10
86.81451142577902
 20
-128.6739718645329
 30
0.0
 10
86.81451142577902
 20
-128.6739718645329
 30
0.0
 10
86.81451142577902
 20
-128.881366612745
 30
0.0
 10
86.81451142577902
 20
-128.881366612745
 30
0.0
 10
86.61555716150583
 20
-128.8686197594495
 30
0.0
 10
86.45277639982778
 20
-128.8665527021584
 30
0.0
 10
86.27070310343233
 20
-128.8644856448672
 30
0.0
  0
SPLINE
  5
11D
330
10D
100
AcDbEntity
  8
_U+30EC_U+30A4_U+30E4_U+30FC 1
370
     0
100
AcDbSpline
210
0.0
220
0.0
230
1.0
 70
    11
 71
     3
 72
    56
 73
    52
 74
     0
 42
0.0000000001
 43
0.0000000001
 12
1.0
 22
0.0
 32
0.0
 13
1.0
 23
0.0
 33
0.0
 40
0.0
 40
0.0
 40
0.0
 40
0.0
 40
1.0
 40
1.0
 40
1.0
 40
2.0
 40
2.0
 40
2.0
 40
3.0
 40
3.0
 40
3.0
 40
4.0
 40
4.0
 40
4.0
 40
5.0
 40
5.0
 40
5.0
 40
6.0
 40
6.0
 40
6.0
 40
7.0
 40
7.0
 40
7.0
 40
8.0
 40
8.0
 40
8.0
 40
9.0
 40
9.0
 40
9.0
 40
10.0
 40
10.0
 40
10.0
 40
11.0
 40
11.0
 40
11.0
 40
12.0
 40
12.0
 40
12.0
 40
13.0
 40
13.0
 40
13.0
 40
14.0
 40
14.0
 40
14.0
 40
15.0
 40
15.0
 40
15.0
 40
16.0
 40
16.0
 40
16.0
 40
17.0
 40
17.0
 40
17.0
 40
17.0
 10
86.36182587901719
 20
-130.101963943169
 30
0.0
 10
86.3130777779009
 20
-130.2628499023301
 30
0.0
 10
86.26019556220231
 20
-130.2966118380856
 30
0.0
 10
86.12049694027543
 20
-130.2966118380856
 30
0.0
 10
86.12049694027543
 20
-130.2966118380856
 30
0.0
 10
85.77357582491078
 20
-130.2966118380856
 30
0.0
 10
85.77357582491078
 20
-130.2966118380856
 30
0.0
 10
85.63818357234045
 20
-130.2966118380856
 30
0.0
 10
85.58754066870729
 20
-130.2966118380856
 30
0.0
 10
85.54309893694756
 20
-130.2459689344524
 30
0.0
 10
85.49228377854013
 20
-130.1867132921061
 30
0.0
 10
85.49228377854013
 20
-130.1377929362156
 30
0.0
 10
85.49228377854013
 20
-129.9496907227209
 30
0.0
 10
85.49228377854013
 20
-129.9496907227209
 30
0.0
 10
85.49228377854013
 20
-129.6599581924114
 30
0.0
 10
85.49228377854013
 20
-129.6599581924114
 30
0.0
 10
85.49228377854013
 20
-129.592089811352
 30
0.0
 10
85.48797740918357
 20
-129.4270697376085
 30
0.0
 10
85.48591035189241
 20
-129.3636799806799
 30
0.0
 10
85.48591035189241
 20
-129.3636799806799
 30
0.0
 10
85.70811901069104
 20
-129.3933078018531
 30
0.0
 10
85.70811901069104
 20
-129.3933078018531
 30
0.0
 10
85.73137340521646
 20
-129.3953748591442
 30
0.0
 10
85.74825437309418
 20
-129.4019205405662
 30
0.0
 10
85.74825437309418
 20
-129.4163899416043
 30
0.0
 10
85.74825437309418
 20
-129.4377495336128
 30
0.0
 10
85.72913409315106
 20
-129.4460177627774
 30
0.0
 10
85.69967852675217
 20
-129.4587646160728
 30
0.0
 10
85.69743921468675
 20
-129.5224988825499
 30
0.0
 10
85.69330510010445
 20
-129.5373127931365
 30
0.0
 10
85.69330510010445
 20
-129.6727050457068
 30
0.0
 10
85.69330510010445
 20
-129.6727050457068
 30
0.0
 10
85.69330510010445
 20
-130.0172145942318
 30
0.0
 10
85.69330510010445
 20
-130.0172145942318
 30
0.0
 10
85.69330510010445
 20
-130.0957627712955
 30
0.0
 10
85.71655949462989
 20
-130.1147107964644
 30
0.0
 10
85.82025686873591
 20
-130.1147107964644
 30
0.0
 10
85.82025686873591
 20
-130.1147107964644
 30
0.0
 10
86.0338527888214
 20
-130.1147107964644
 30
0.0
 10
86.0338527888214
 20
-130.1147107964644
 30
0.0
 10
86.12273625234084
 20
-130.1147107964644
 30
0.0
 10
86.13531085086201
 20
-130.0936957140044
 30
0.0
 10
86.14599064686628
 20
-130.0682020074135
 30
0.0
 10
86.17768552533059
 20
-129.9941324544806
 30
0.0
 10
86.1840589519783
 20
-129.8797552843703
 30
0.0
 10
86.18612600926944
 20
-129.8459933486149
 30
0.0
 10
86.18612600926944
 20
-129.8459933486149
 30
0.0
 10
86.39765487206378
 20
-129.9624375760163
 30
0.0
 10
86.39765487206378
 20
-129.9624375760163
 30
0.0
 10
86.39128144541607
 20
-129.9855197157675
 30
0.0
 10
86.36802705089063
 20
-130.0830159180001
 30
0.0
 10
86.36182587901719
 20
-130.101963943169
 30
0.0
  0
SPLINE
  5
11E
330
10D
100
AcDbEntity
  8
_U+30EC_U+30A4_U+30E4_U+30FC 1
370
     0
100
AcDbSpline
210
0.0
220
0.0
230
1.0
 70
    11
 71
     3
 72
    17
 73
    13
 74
     0
 42
0.0000000001
 43
0.0000000001
 12
1.0
 22
0.0
 32
0.0
 13
1.0
 23
0.0
 33
0.0
 40
0.0
 40
0.0
 40
0.0
 40
0.0
 40
1.0
 40
1.0
 40
1.0
 40
2.0
 40
2.0
 40
2.0
 40
3.0
 40
3.0
 40
3.0
 40
4.0
 40
4.0
 40
4.0
 40
4.0
 10
85.94083521071965
 20
-129.7591769423866
 30
0.0
 10
85.90483396289879
 20
-129.5011392905414
 30
0.0
 10
85.79683021943622
 20
-129.3085584529159
 30
0.0
 10
85.77581513697619
 20
-129.2727294598693
 30
0.0
 10
85.77581513697619
 20
-129.2727294598693
 30
0.0
 10
85.96615666253624
 20
-129.2241536135273
 30
0.0
 10
85.96615666253624
 20
-129.2241536135273
 30
0.0
 10
86.00422496764826
 20
-129.2916774850382
 30
0.0
 10
86.05297306876454
 20
-129.3826280058488
 30
0.0
 10
86.13531085086201
 20
-129.668226421576
 30
0.0
 10
86.13531085086201
 20
-129.668226421576
 30
0.0
 10
85.94083521071965
 20
-129.7591769423866
 30
0.0
 10
85.94083521071965
 20
-129.7591769423866
 30
0.0
  0
SPLINE
  5
11F
330
10D
100
AcDbEntity
  8
_U+30EC_U+30A4_U+30E4_U+30FC 1
370
     0
100
AcDbSpline
210
0.0
220
0.0
230
1.0
 70
    11
 71
     3
 72
    23
 73
    19
 74
     0
 42
0.0000000001
 43
0.0000000001
 12
1.0
 22
0.0
 32
0.0
 13
1.0
 23
0.0
 33
0.0
 40
0.0
 40
0.0
 40
0.0
 40
0.0
 40
1.0
 40
1.0
 40
1.0
 40
2.0
 40
2.0
 40
2.0
 40
3.0
 40
3.0
 40
3.0
 40
4.0
 40
4.0
 40
4.0
 40
5.0
 40
5.0
 40
5.0
 40
6.0
 40
6.0
 40
6.0
 40
6.0
 10
86.62193058815355
 20
-130.0616563259915
 30
0.0
 10
86.58386228304154
 20
-129.9496907227209
 30
0.0
 10
86.55423446186839
 20
-129.8863009657923
 30
0.0
 10
86.49084470493979
 20
-129.7805365343951
 30
0.0
 10
86.4357231771758
 20
-129.6916530708757
 30
0.0
 10
86.3723334202472
 20
-129.5858886394785
 30
0.0
 10
86.31738414725746
 20
-129.5200873157103
 30
0.0
 10
86.31738414725746
 20
-129.5200873157103
 30
0.0
 10
86.50979273010867
 20
-129.4250026803174
 30
0.0
 10
86.50979273010867
 20
-129.4250026803174
 30
0.0
 10
86.52891301005181
 20
-129.4546305014905
 30
0.0
 10
86.6198635308624
 20
-129.5858886394785
 30
0.0
 10
86.63674449874013
 20
-129.6134494033605
 30
0.0
 10
86.69169377172986
 20
-129.6978542427491
 30
0.0
 10
86.77851017795815
 20
-129.8566731446192
 30
0.0
 10
86.79969751519243
 20
-129.9031819336701
 30
0.0
 10
86.79969751519243
 20
-129.9031819336701
 30
0.0
 10
86.62193058815355
 20
-130.0616563259915
 30
0.0
 10
86.62193058815355
 20
-130.0616563259915
 30
0.0
  0
HATCH
  5
120
330
10D
100
AcDbEntity
  8
_U+30EC_U+30A4_U+30E4_U+30FC 1
 62
   179
420
  2234388
100
AcDbHatch
 10
0.0
 20
0.0
 30
0.0
210
0.0
220
0.0
230
1.0
  2
SOLID
 70
     1
 71
     0
 91
        5
 92
        1
 93
        1
 72
     4
 94
        3
 73
     0
 74
     1
 95
       26
 96
       22
 40
0.0
 40
0.0
 40
0.0
 40
0.0
 40
1.0
 40
1.0
 40
1.0
 40
2.0
 40
2.0
 40
2.0
 40
3.0
 40
3.0
 40
3.0
 40
4.0
 40
4.0
 40
4.0
 40
5.0
 40
5.0
 40
5.0
 40
6.0
 40
6.0
 40
6.0
 40
7.0
 40
7.0
 40
7.0
 40
7.0
 10
85.31675616356665
 20
-129.619650575234
 10
85.23838024127721
 20
-129.9410779840078
 10
85.21943221610834
 20
-130.0130804796495
 10
85.09248044747689
 20
-130.1822346679753
 10
85.09248044747689
 20
-130.1822346679753
 10
84.87027178867827
 20
-130.1253905924686
 10
84.87027178867827
 20
-130.1253905924686
 10
84.96983504820199
 20
-129.9855197157675
 10
85.02478432119173
 20
-129.8628743164926
 10
85.0395982317783
 20
-129.8249782661549
 10
85.07559947959916
 20
-129.7360948026354
 10
85.11780189929347
 20
-129.5665961047611
 10
85.12210826865004
 20
-129.4949381186679
 10
85.12210826865004
 20
-129.4949381186679
 10
85.33777124602668
 20
-129.5583278755965
 10
85.33777124602668
 20
-129.5583278755965
 10
85.36739906719983
 20
-129.5665961047611
 10
85.37601180591295
 20
-129.5690076716008
 10
85.37601180591295
 20
-129.5858886394785
 10
85.37601180591295
 20
-129.6089707792297
 10
85.34001055809209
 20
-129.6155164606517
 10
85.31675616356665
 20
-129.619650575234
 97
        0
 97
        0
 92
        1
 93
        1
 72
     4
 94
        3
 73
     0
 74
     1
 95
       89
 96
       85
 40
0.0
 40
0.0
 40
0.0
 40
0.0
 40
1.0
 40
1.0
 40
1.0
 40
2.0
 40
2.0
 40
2.0
 40
3.0
 40
3.0
 40
3.0
 40
4.0
 40
4.0
 40
4.0
 40
5.0
 40
5.0
 40
5.0
 40
6.0
 40
6.0
 40
6.0
 40
7.0
 40
7.0
 40
7.0
 40
8.0
 40
8.0
 40
8.0
 40
9.0
 40
9.0
 40
9.0
 40
10.0
 40
10.0
 40
10.0
 40
11.0
 40
11.0
 40
11.0
 40
12.0
 40
12.0
 40
12.0
 40
13.0
 40
13.0
 40
13.0
 40
14.0
 40
14.0
 40
14.0
 40
15.0
 40
15.0
 40
15.0
 40
16.0
 40
16.0
 40
16.0
 40
17.0
 40
17.0
 40
17.0
 40
18.0
 40
18.0
 40
18.0
 40
19.0
 40
19.0
 40
19.0
 40
20.0
 40
20.0
 40
20.0
 40
21.0
 40
21.0
 40
21.0
 40
22.0
 40
22.0
 40
22.0
 40
23.0
 40
23.0
 40
23.0
 40
24.0
 40
24.0
 40
24.0
 40
25.0
 40
25.0
 40
25.0
 40
26.0
 40
26.0
 40
26.0
 40
27.0
 40
27.0
 40
27.0
 40
28.0
 40
28.0
 40
28.0
 40
28.0
 10
86.27070310343233
 20
-128.8644856448672
 10
86.27070310343233
 20
-128.9364881405089
 10
86.27707653008004
 20
-129.0040120120198
 10
86.28138289943661
 20
-129.0570664824927
 10
86.28138289943661
 20
-129.0570664824927
 10
86.0655476672857
 20
-129.0570664824927
 10
86.0655476672857
 20
-129.0570664824927
 10
86.07192109393341
 20
-129.006079069311
 10
86.07829452058112
 20
-128.9385551978001
 10
86.07829452058112
 20
-128.8644856448672
 10
86.07829452058112
 20
-128.8644856448672
 10
85.61923554717158
 20
-128.8644856448672
 10
85.61923554717158
 20
-128.8644856448672
 10
85.61923554717158
 20
-128.9364881405089
 10
85.62336966175388
 20
-128.9809298722687
 10
85.63198240046701
 20
-129.0570664824927
 10
85.63198240046701
 20
-129.0570664824927
 10
85.40546737231183
 20
-129.0570664824927
 10
85.40546737231183
 20
-129.0570664824927
 10
85.4161471683161
 20
-128.9809298722687
 10
85.42458765225497
 20
-128.9130614912092
 10
85.42458765225497
 20
-128.8644856448672
 10
85.25112709457264
 20
-128.8644856448672
 10
85.07559947959916
 20
-128.8706868167407
 10
84.90196666714257
 20
-128.881366612745
 10
84.90196666714257
 20
-128.881366612745
 10
84.90196666714257
 20
-128.6739718645329
 10
84.90196666714257
 20
-128.6739718645329
 10
85.07559947959916
 20
-128.6846516605372
 10
85.25112709457264
 20
-128.6910250871849
 10
85.42458765225497
 20
-128.6910250871849
 10
85.42458765225497
 20
-128.6910250871849
 10
85.42458765225497
 20
-128.6210896488343
 10
85.42458765225497
 20
-128.6210896488343
 10
85.42458765225497
 20
-128.5850884010135
 10
85.41821422560726
 20
-128.4264417539177
 10
85.4161471683161
 20
-128.3906127608711
 10
85.4161471683161
 20
-128.3906127608711
 10
85.63404945775815
 20
-128.4116278433311
 10
85.63404945775815
 20
-128.4116278433311
 10
85.65730385228359
 20
-128.4138671553965
 10
85.67418482016132
 20
-128.4180012699788
 10
85.67418482016132
 20
-128.437121549922
 10
85.67418482016132
 20
-128.4560695750909
 10
85.65730385228359
 20
-128.4645100590297
 10
85.62336966175388
 20
-128.4836303389729
 10
85.62130260446273
 20
-128.5068847334983
 10
85.61923554717158
 20
-128.6147162221866
 10
85.61923554717158
 20
-128.6233289608997
 10
85.61923554717158
 20
-128.6233289608997
 10
85.61923554717158
 20
-128.6910250871849
 10
85.61923554717158
 20
-128.6910250871849
 10
85.61923554717158
 20
-128.6910250871849
 10
86.07829452058112
 20
-128.6910250871849
 10
86.07829452058112
 20
-128.6910250871849
 10
86.07829452058112
 20
-128.6910250871849
 10
86.07829452058112
 20
-128.6021416236654
 10
86.07829452058112
 20
-128.6021416236654
 10
86.07829452058112
 20
-128.5597669491969
 10
86.07398815122457
 20
-128.4348822378566
 10
86.07192109393341
 20
-128.3926798181623
 10
86.07192109393341
 20
-128.3926798181623
 10
86.28138289943661
 20
-128.4116278433311
 10
86.28138289943661
 20
-128.4116278433311
 10
86.29619681002318
 20
-128.4138671553965
 10
86.32151826183976
 20
-128.4159342126877
 10
86.32151826183976
 20
-128.4348822378566
 10
86.32151826183976
 20
-128.4519354605085
 10
86.30670435125319
 20
-128.4583088871562
 10
86.27294241549774
 20
-128.4731227977428
 10
86.27070310343233
 20
-128.5196315867937
 10
86.27070310343233
 20
-128.5702744904269
 10
86.27070310343233
 20
-128.6147162221866
 10
86.27070310343233
 20
-128.6147162221866
 10
86.27070310343233
 20
-128.6910250871849
 10
86.27070310343233
 20
-128.6910250871849
 10
86.63037107209242
 20
-128.6846516605372
 10
86.67067868926983
 20
-128.6824123484718
 10
86.81451142577902
 20
-128.6739718645329
 10
86.81451142577902
 20
-128.6739718645329
 10
86.81451142577902
 20
-128.881366612745
 10
86.81451142577902
 20
-128.881366612745
 10
86.61555716150583
 20
-128.8686197594495
 10
86.45277639982778
 20
-128.8665527021584
 10
86.27070310343233
 20
-128.8644856448672
 97
        0
 97
        0
 92
        1
 93
        1
 72
     4
 94
        3
 73
     0
 74
     1
 95
       56
 96
       52
 40
0.0
 40
0.0
 40
0.0
 40
0.0
 40
1.0
 40
1.0
 40
1.0
 40
2.0
 40
2.0
 40
2.0
 40
3.0
 40
3.0
 40
3.0
 40
4.0
 40
4.0
 40
4.0
 40
5.0
 40
5.0
 40
5.0
 40
6.0
 40
6.0
 40
6.0
 40
7.0
 40
7.0
 40
7.0
 40
8.0
 40
8.0
 40
8.0
 40
9.0
 40
9.0
 40
9.0
 40
10.0
 40
10.0
 40
10.0
 40
11.0
 40
11.0
 40
11.0
 40
12.0
 40
12.0
 40
12.0
 40
13.0
 40
13.0
 40
13.0
 40
14.0
 40
14.0
 40
14.0
 40
15.0
 40
15.0
 40
15.0
 40
16.0
 40
16.0
 40
16.0
 40
17.0
 40
17.0
 40
17.0
 40
17.0
 10
86.36182587901719
 20
-130.101963943169
 10
86.3130777779009
 20
-130.2628499023301
 10
86.26019556220231
 20
-130.2966118380856
 10
86.12049694027543
 20
-130.2966118380856
 10
86.12049694027543
 20
-130.2966118380856
 10
85.77357582491078
 20
-130.2966118380856
 10
85.77357582491078
 20
-130.2966118380856
 10
85.63818357234045
 20
-130.2966118380856
 10
85.58754066870729
 20
-130.2966118380856
 10
85.54309893694756
 20
-130.2459689344524
 10
85.49228377854013
 20
-130.1867132921061
 10
85.49228377854013
 20
-130.1377929362156
 10
85.49228377854013
 20
-129.9496907227209
 10
85.49228377854013
 20
-129.9496907227209
 10
85.49228377854013
 20
-129.6599581924114
 10
85.49228377854013
 20
-129.6599581924114
 10
85.49228377854013
 20
-129.592089811352
 10
85.48797740918357
 20
-129.4270697376085
 10
85.48591035189241
 20
-129.3636799806799
 10
85.48591035189241
 20
-129.3636799806799
 10
85.70811901069104
 20
-129.3933078018531
 10
85.70811901069104
 20
-129.3933078018531
 10
85.73137340521646
 20
-129.3953748591442
 10
85.74825437309418
 20
-129.4019205405662
 10
85.74825437309418
 20
-129.4163899416043
 10
85.74825437309418
 20
-129.4377495336128
 10
85.72913409315106
 20
-129.4460177627774
 10
85.69967852675217
 20
-129.4587646160728
 10
85.69743921468675
 20
-129.5224988825499
 10
85.69330510010445
 20
-129.5373127931365
 10
85.69330510010445
 20
-129.6727050457068
 10
85.69330510010445
 20
-129.6727050457068
 10
85.69330510010445
 20
-130.0172145942318
 10
85.69330510010445
 20
-130.0172145942318
 10
85.69330510010445
 20
-130.0957627712955
 10
85.71655949462989
 20
-130.1147107964644
 10
85.82025686873591
 20
-130.1147107964644
 10
85.82025686873591
 20
-130.1147107964644
 10
86.0338527888214
 20
-130.1147107964644
 10
86.0338527888214
 20
-130.1147107964644
 10
86.12273625234084
 20
-130.1147107964644
 10
86.13531085086201
 20
-130.0936957140044
 10
86.14599064686628
 20
-130.0682020074135
 10
86.17768552533059
 20
-129.9941324544806
 10
86.1840589519783
 20
-129.8797552843703
 10
86.18612600926944
 20
-129.8459933486149
 10
86.18612600926944
 20
-129.8459933486149
 10
86.39765487206378
 20
-129.9624375760163
 10
86.39765487206378
 20
-129.9624375760163
 10
86.39128144541607
 20
-129.9855197157675
 10
86.36802705089063
 20
-130.0830159180001
 10
86.36182587901719
 20
-130.101963943169
 97
        0
 97
        0
 92
        1
 93
        1
 72
     4
 94
        3
 73
     0
 74
     1
 95
       17
 96
       13
 40
0.0
 40
0.0
 40
0.0
 40
0.0
 40
1.0
 40
1.0
 40
1.0
 40
2.0
 40
2.0
 40
2.0
 40
3.0
 40
3.0
 40
3.0
 40
4.0
 40
4.0
 40
4.0
 40
4.0
 10
85.94083521071965
 20
-129.7591769423866
 10
85.90483396289879
 20
-129.5011392905414
 10
85.79683021943622
 20
-129.3085584529159
 10
85.77581513697619
 20
-129.2727294598693
 10
85.77581513697619
 20
-129.2727294598693
 10
85.96615666253624
 20
-129.2241536135273
 10
85.96615666253624
 20
-129.2241536135273
 10
86.00422496764826
 20
-129.2916774850382
 10
86.05297306876454
 20
-129.3826280058488
 10
86.13531085086201
 20
-129.668226421576
 10
86.13531085086201
 20
-129.668226421576
 10
85.94083521071965
 20
-129.7591769423866
 10
85.94083521071965
 20
-129.7591769423866
 97
        0
 97
        0
 92
        1
 93
        1
 72
     4
 94
        3
 73
     0
 74
     1
 95
       23
 96
       19
 40
0.0
 40
0.0
 40
0.0
 40
0.0
 40
1.0
 40
1.0
 40
1.0
 40
2.0
 40
2.0
 40
2.0
 40
3.0
 40
3.0
 40
3.0
 40
4.0
 40
4.0
 40
4.0
 40
5.0
 40
5.0
 40
5.0
 40
6.0
 40
6.0
 40
6.0
 40
6.0
 10
86.62193058815355
 20
-130.0616563259915
 10
86.58386228304154
 20
-129.9496907227209
 10
86.55423446186839
 20
-129.8863009657923
 10
86.49084470493979
 20
-129.7805365343951
 10
86.4357231771758
 20
-129.6916530708757
 10
86.3723334202472
 20
-129.5858886394785
 10
86.31738414725746
 20
-129.5200873157103
 10
86.31738414725746
 20
-129.5200873157103
 10
86.50979273010867
 20
-129.4250026803174
 10
86.50979273010867
 20
-129.4250026803174
 10
86.52891301005181
 20
-129.4546305014905
 10
86.6198635308624
 20
-129.5858886394785
 10
86.63674449874013
 20
-129.6134494033605
 10
86.69169377172986
 20
-129.6978542427491
 10
86.77851017795815
 20
-129.8566731446192
 10
86.79969751519243
 20
-129.9031819336701
 10
86.79969751519243
 20
-129.9031819336701
 10
86.62193058815355
 20
-130.0616563259915
 10
86.62193058815355
 20
-130.0616563259915
 97
        0
 97
        0
 75
     2
 76
     1
 98
        0
  0
SPLINE
  5
121
330
10D
100
AcDbEntity
  8
_U+30EC_U+30A4_U+30E4_U+30FC 1
370
     0
100
AcDbSpline
210
0.0
220
0.0
230
1.0
 70
    11
 71
     3
 72
   125
 73
   121
 74
     0
 42
0.0000000001
 43
0.0000000001
 12
1.0
 22
0.0
 32
0.0
 13
1.0
 23
0.0
 33
0.0
 40
0.0
 40
0.0
 40
0.0
 40
0.0
 40
1.0
 40
1.0
 40
1.0
 40
2.0
 40
2.0
 40
2.0
 40
3.0
 40
3.0
 40
3.0
 40
4.0
 40
4.0
 40
4.0
 40
5.0
 40
5.0
 40
5.0
 40
6.0
 40
6.0
 40
6.0
 40
7.0
 40
7.0
 40
7.0
 40
8.0
 40
8.0
 40
8.0
 40
9.0
 40
9.0
 40
9.0
 40
10.0
 40
10.0
 40
10.0
 40
11.0
 40
11.0
 40
11.0
 40
12.0
 40
12.0
 40
12.0
 40
13.0
 40
13.0
 40
13.0
 40
14.0
 40
14.0
 40
14.0
 40
15.0
 40
15.0
 40
15.0
 40
16.0
 40
16.0
 40
16.0
 40
17.0
 40
17.0
 40
17.0
 40
18.0
 40
18.0
 40
18.0
 40
19.0
 40
19.0
 40
19.0
 40
20.0
 40
20.0
 40
20.0
 40
21.0
 40
21.0
 40
21.0
 40
22.0
 40
22.0
 40
22.0
 40
23.0
 40
23.0
 40
23.0
 40
24.0
 40
24.0
 40
24.0
 40
25.0
 40
25.0
 40
25.0
 40
26.0
 40
26.0
 40
26.0
 40
27.0
 40
27.0
 40
27.0
 40
28.0
 40
28.0
 40
28.0
 40
29.0
 40
29.0
 40
29.0
 40
30.0
 40
30.0
 40
30.0
 40
31.0
 40
31.0
 40
31.0
 40
32.0
 40
32.0
 40
32.0
 40
33.0
 40
33.0
 40
33.0
 40
34.0
 40
34.0
 40
34.0
 40
35.0
 40
35.0
 40
35.0
 40
36.0
 40
36.0
 40
36.0
 40
37.0
 40
37.0
 40
37.0
 40
38.0
 40
38.0
 40
38.0
 40
39.0
 40
39.0
 40
39.0
 40
40.0
 40
40.0
 40
40.0
 40
40.0
 10
87.79722491294653
 20
-128.9723171335555
 30
0.0
 10
87.67027314431508
 20
-128.9044487524961
 30
0.0
 10
87.55606822897904
 20
-128.7883490346432
 30
0.0
 10
87.48406573333732
 20
-128.7056667429972
 30
0.0
 10
87.46718476545959
 20
-128.7247870229403
 30
0.0
 10
87.39948863917444
 20
-128.8159097985252
 30
0.0
 10
87.38467472858787
 20
-128.8327907664029
 30
0.0
 10
87.37192787529244
 20
-128.8476046769895
 30
0.0
 10
87.3169786023027
 20
-128.9130614912092
 30
0.0
 10
87.24928247601754
 20
-128.9809298722687
 30
0.0
 10
87.32972545559812
 20
-128.985063986851
 30
0.0
 10
87.33609888224584
 20
-128.985063986851
 30
0.0
 10
87.37416718735786
 20
-128.985063986851
 30
0.0
 10
87.37416718735786
 20
-128.985063986851
 30
0.0
 10
87.60050996073876
 20
-128.985063986851
 30
0.0
 10
87.60050996073876
 20
-128.985063986851
 30
0.0
 10
87.63013778191191
 20
-128.985063986851
 30
0.0
 10
87.79291854358996
 20
-128.978518305429
 30
0.0
 10
87.80773245417654
 20
-128.9764512481378
 30
0.0
 10
87.80773245417654
 20
-128.9764512481378
 30
0.0
 10
87.80773245417654
 20
-129.1500840605944
 30
0.0
 10
87.80773245417654
 20
-129.1500840605944
 30
0.0
 10
87.7781046330034
 20
-129.1480170033033
 30
0.0
 10
87.64701874978964
 20
-129.1414713218813
 30
0.0
 10
87.61739092861649
 20
-129.1414713218813
 30
0.0
 10
87.61739092861649
 20
-129.1414713218813
 30
0.0
 10
87.56657577020906
 20
-129.1414713218813
 30
0.0
 10
87.56657577020906
 20
-129.1414713218813
 30
0.0
 10
87.56657577020906
 20
-129.1414713218813
 30
0.0
 10
87.56657577020906
 20
-129.3151041343379
 30
0.0
 10
87.56657577020906
 20
-129.3151041343379
 30
0.0
 10
87.62583141255536
 20
-129.3151041343379
 30
0.0
 10
87.75071612389566
 20
-129.3106255102071
 30
0.0
 10
87.84580075928855
 20
-129.2958115996205
 30
0.0
 10
87.84580075928855
 20
-129.2958115996205
 30
0.0
 10
87.84580075928855
 20
-129.4863253799548
 30
0.0
 10
87.84580075928855
 20
-129.4863253799548
 30
0.0
 10
87.76346297719108
 20
-129.4756455839506
 30
0.0
 10
87.6618326603762
 20
-129.4756455839506
 30
0.0
 10
87.56657577020906
 20
-129.4756455839506
 30
0.0
 10
87.56657577020906
 20
-129.4756455839506
 30
0.0
 10
87.56657577020906
 20
-129.9941324544806
 30
0.0
 10
87.56657577020906
 20
-129.9941324544806
 30
0.0
 10
87.6449516924985
 20
-129.9813856011852
 30
0.0
 10
87.75708955054337
 20
-129.9579589518855
 30
0.0
 10
87.83098684870198
 20
-129.9434895508475
 30
0.0
 10
87.83098684870198
 20
-129.9434895508475
 30
0.0
 10
87.7739705184211
 20
-130.1147107964644
 30
0.0
 10
87.7739705184211
 20
-130.1147107964644
 30
0.0
 10
87.73796927060023
 20
-130.1253905924686
 30
0.0
 10
87.44823674029072
 20
-130.1929144639795
 30
0.0
 10
87.1245700194515
 20
-130.2480359917436
 30
0.0
 10
87.12233070738608
 20
-130.2669840169124
 30
0.0
 10
87.11389022344723
 20
-130.2966118380856
 30
0.0
 10
87.09494219827835
 20
-130.2966118380856
 30
0.0
 10
87.07582191833521
 20
-130.2966118380856
 30
0.0
 10
87.06944849168751
 20
-130.2797308702079
 30
0.0
 10
87.06531437710521
 20
-130.2669840169124
 30
0.0
 10
87.06531437710521
 20
-130.2669840169124
 30
0.0
 10
86.99537893875463
 20
-130.0575222114092
 30
0.0
 10
86.99537893875463
 20
-130.0575222114092
 30
0.0
 10
87.15833195520695
 20
-130.0513210395358
 30
0.0
 10
87.17314586579353
 20
-130.0492539822446
 30
0.0
 10
87.39311521252672
 20
-130.0196261610715
 30
0.0
 10
87.39311521252672
 20
-130.0196261610715
 30
0.0
 10
87.39311521252672
 20
-129.4756455839506
 30
0.0
 10
87.39311521252672
 20
-129.4756455839506
 30
0.0
 10
87.39311521252672
 20
-129.4756455839506
 30
0.0
 10
87.31491154501155
 20
-129.4756455839506
 30
0.0
 10
87.31491154501155
 20
-129.4756455839506
 30
0.0
 10
87.22809513878326
 20
-129.4756455839506
 30
0.0
 10
87.1245700194515
 20
-129.4756455839506
 30
0.0
 10
87.04412703987092
 20
-129.4863253799548
 30
0.0
 10
87.04412703987092
 20
-129.4863253799548
 30
0.0
 10
87.04412703987092
 20
-129.2958115996205
 30
0.0
 10
87.04412703987092
 20
-129.2958115996205
 30
0.0
 10
87.15402558585039
 20
-129.3130370770467
 30
0.0
 10
87.30423174900729
 20
-129.3151041343379
 30
0.0
 10
87.31491154501155
 20
-129.3151041343379
 30
0.0
 10
87.31491154501155
 20
-129.3151041343379
 30
0.0
 10
87.39311521252672
 20
-129.3151041343379
 30
0.0
 10
87.39311521252672
 20
-129.3151041343379
 30
0.0
 10
87.39311521252672
 20
-129.3151041343379
 30
0.0
 10
87.39311521252672
 20
-129.1414713218813
 30
0.0
 10
87.39311521252672
 20
-129.1414713218813
 30
0.0
 10
87.3169786023027
 20
-129.1414713218813
 30
0.0
 10
87.30216469171613
 20
-129.1435383791724
 30
0.0
 10
87.16470538185466
 20
-129.1542181751767
 30
0.0
 10
87.16470538185466
 20
-129.1542181751767
 30
0.0
 10
87.16470538185466
 20
-129.061200597075
 30
0.0
 10
87.16470538185466
 20
-129.061200597075
 30
0.0
 10
87.15402558585039
 20
-129.0694688262396
 30
0.0
 10
87.14989147126809
 20
-129.0739474503704
 30
0.0
 10
87.13301050339037
 20
-129.088761360957
 30
0.0
 10
87.13301050339037
 20
-129.088761360957
 30
0.0
 10
86.95317651906032
 20
-128.9661159616821
 30
0.0
 10
86.95317651906032
 20
-128.9661159616821
 30
0.0
 10
87.01863333328006
 20
-128.9237412872135
 30
0.0
 10
87.13077119132495
 20
-128.8496717342806
 30
0.0
 10
87.23877493478753
 20
-128.7247870229403
 30
0.0
 10
87.2894178384207
 20
-128.665531380594
 30
0.0
 10
87.39311521252672
 20
-128.5301391280237
 30
0.0
 10
87.4396240015776
 20
-128.39905324481
 30
0.0
 10
87.4396240015776
 20
-128.39905324481
 30
0.0
 10
87.61739092861649
 20
-128.4603759444474
 30
0.0
 10
87.61739092861649
 20
-128.4603759444474
 30
0.0
 10
87.63220483920307
 20
-128.4645100590297
 30
0.0
 10
87.65132511914621
 20
-128.4731227977428
 30
0.0
 10
87.65132511914621
 20
-128.4900037656206
 30
0.0
 10
87.65132511914621
 20
-128.5111911028548
 30
0.0
 10
87.63651120855963
 20
-128.513258160146
 30
0.0
 10
87.5920694767999
 20
-128.523765701376
 30
0.0
 10
87.5920694767999
 20
-128.523765701376
 30
0.0
 10
87.58362899286104
 20
-128.5470200959014
 30
0.0
 10
87.58362899286104
 20
-128.5470200959014
 30
0.0
 10
87.6618326603762
 20
-128.6591579539463
 30
0.0
 10
87.84373370199741
 20
-128.7818033532212
 30
0.0
 10
87.92417668157799
 20
-128.8283121422721
 30
0.0
 10
87.92417668157799
 20
-128.8283121422721
 30
0.0
 10
87.79722491294653
 20
-128.9723171335555
 30
0.0
 10
87.79722491294653
 20
-128.9723171335555
 30
0.0
  0
SPLINE
  5
122
330
10D
100
AcDbEntity
  8
_U+30EC_U+30A4_U+30E4_U+30FC 1
370
     0
100
AcDbSpline
210
0.0
220
0.0
230
1.0
 70
    11
 71
     3
 72
    17
 73
    13
 74
     0
 42
0.0000000001
 43
0.0000000001
 12
1.0
 22
0.0
 32
0.0
 13
1.0
 23
0.0
 33
0.0
 40
0.0
 40
0.0
 40
0.0
 40
0.0
 40
1.0
 40
1.0
 40
1.0
 40
2.0
 40
2.0
 40
2.0
 40
3.0
 40
3.0
 40
3.0
 40
4.0
 40
4.0
 40
4.0
 40
4.0
 10
87.1562648979158
 20
-129.9645046333075
 30
0.0
 10
87.13938393003808
 20
-129.8587402019103
 30
0.0
 10
87.11819659280378
 20
-129.7657226238086
 30
0.0
 10
87.04826115445321
 20
-129.6134494033605
 30
0.0
 10
87.04826115445321
 20
-129.6134494033605
 30
0.0
 10
87.21552054026209
 20
-129.5521267037231
 30
0.0
 10
87.21552054026209
 20
-129.5521267037231
 30
0.0
 10
87.28321666654726
 20
-129.7019883573315
 30
0.0
 10
87.30647106107268
 20
-129.8036186741463
 30
0.0
 10
87.32335202895041
 20
-129.8966362522481
 30
0.0
 10
87.32335202895041
 20
-129.8966362522481
 30
0.0
 10
87.1562648979158
 20
-129.9645046333075
 30
0.0
 10
87.1562648979158
 20
-129.9645046333075
 30
0.0
  0
SPLINE
  5
123
330
10D
100
AcDbEntity
  8
_U+30EC_U+30A4_U+30E4_U+30FC 1
370
     0
100
AcDbSpline
210
0.0
220
0.0
230
1.0
 70
    11
 71
     3
 72
    23
 73
    19
 74
     0
 42
0.0000000001
 43
0.0000000001
 12
1.0
 22
0.0
 32
0.0
 13
1.0
 23
0.0
 33
0.0
 40
0.0
 40
0.0
 40
0.0
 40
0.0
 40
1.0
 40
1.0
 40
1.0
 40
2.0
 40
2.0
 40
2.0
 40
3.0
 40
3.0
 40
3.0
 40
4.0
 40
4.0
 40
4.0
 40
5.0
 40
5.0
 40
5.0
 40
6.0
 40
6.0
 40
6.0
 40
6.0
 10
87.85010712864512
 20
-129.6513454536983
 30
0.0
 10
87.8332261607674
 20
-129.7464300890912
 30
0.0
 10
87.80566539688539
 20
-129.8649413737838
 30
0.0
 10
87.76346297719108
 20
-129.9434895508475
 30
0.0
 10
87.76346297719108
 20
-129.9434895508475
 30
0.0
 10
87.60050996073876
 20
-129.8990478190877
 30
0.0
 10
87.60050996073876
 20
-129.8990478190877
 30
0.0
 10
87.65976560308506
 20
-129.778469477104
 30
0.0
 10
87.67871362825393
 20
-129.6155164606517
 30
0.0
 10
87.68095294031934
 20
-129.5414469077188
 30
0.0
 10
87.68095294031934
 20
-129.5414469077188
 30
0.0
 10
87.86922740858826
 20
-129.592089811352
 30
0.0
 10
87.86922740858826
 20
-129.592089811352
 30
0.0
 10
87.88180200710941
 20
-129.5962239259343
 30
0.0
 10
87.90092228705255
 20
-129.6007025500651
 30
0.0
 10
87.90092228705255
 20
-129.6175835179428
 30
0.0
 10
87.90092228705255
 20
-129.6365315431117
 30
0.0
 10
87.88610837646598
 20
-129.640665657694
 30
0.0
 10
87.85010712864512
 20
-129.6513454536983
 30
0.0
  0
SPLINE
  5
124
330
10D
100
AcDbEntity
  8
_U+30EC_U+30A4_U+30E4_U+30FC 1
370
     0
100
AcDbSpline
210
0.0
220
0.0
230
1.0
 70
    11
 71
     3
 72
   128
 73
   124
 74
     0
 42
0.0000000001
 43
0.0000000001
 12
1.0
 22
0.0
 32
0.0
 13
1.0
 23
0.0
 33
0.0
 40
0.0
 40
0.0
 40
0.0
 40
0.0
 40
1.0
 40
1.0
 40
1.0
 40
2.0
 40
2.0
 40
2.0
 40
3.0
 40
3.0
 40
3.0
 40
4.0
 40
4.0
 40
4.0
 40
5.0
 40
5.0
 40
5.0
 40
6.0
 40
6.0
 40
6.0
 40
7.0
 40
7.0
 40
7.0
 40
8.0
 40
8.0
 40
8.0
 40
9.0
 40
9.0
 40
9.0
 40
10.0
 40
10.0
 40
10.0
 40
11.0
 40
11.0
 40
11.0
 40
12.0
 40
12.0
 40
12.0
 40
13.0
 40
13.0
 40
13.0
 40
14.0
 40
14.0
 40
14.0
 40
15.0
 40
15.0
 40
15.0
 40
16.0
 40
16.0
 40
16.0
 40
17.0
 40
17.0
 40
17.0
 40
18.0
 40
18.0
 40
18.0
 40
19.0
 40
19.0
 40
19.0
 40
20.0
 40
20.0
 40
20.0
 40
21.0
 40
21.0
 40
21.0
 40
22.0
 40
22.0
 40
22.0
 40
23.0
 40
23.0
 40
23.0
 40
24.0
 40
24.0
 40
24.0
 40
25.0
 40
25.0
 40
25.0
 40
26.0
 40
26.0
 40
26.0
 40
27.0
 40
27.0
 40
27.0
 40
28.0
 40
28.0
 40
28.0
 40
29.0
 40
29.0
 40
29.0
 40
30.0
 40
30.0
 40
30.0
 40
31.0
 40
31.0
 40
31.0
 40
32.0
 40
32.0
 40
32.0
 40
33.0
 40
33.0
 40
33.0
 40
34.0
 40
34.0
 40
34.0
 40
35.0
 40
35.0
 40
35.0
 40
36.0
 40
36.0
 40
36.0
 40
37.0
 40
37.0
 40
37.0
 40
38.0
 40
38.0
 40
38.0
 40
39.0
 40
39.0
 40
39.0
 40
40.0
 40
40.0
 40
40.0
 40
41.0
 40
41.0
 40
41.0
 40
41.0
 10
88.84436168568821
 20
-130.3176269205456
 30
0.0
 10
88.65608721741931
 20
-130.1867132921061
 30
0.0
 10
88.54188230208328
 20
-130.0320285048184
 30
0.0
 10
88.43181150132955
 20
-129.7760579102643
 30
0.0
 10
88.38960908163524
 20
-129.8797552843703
 30
0.0
 10
88.34086098051895
 20
-129.9665716905986
 30
0.0
 10
88.24353703306065
 20
-130.0682020074135
 30
0.0
 10
88.14621308560234
 20
-130.1674207573887
 30
0.0
 10
88.04044865420516
 20
-130.2583712781993
 30
0.0
 10
87.91573619763912
 20
-130.3200384873853
 30
0.0
 10
87.91573619763912
 20
-130.3200384873853
 30
0.0
 10
87.72952878666138
 20
-130.1612195855153
 30
0.0
 10
87.72952878666138
 20
-130.1612195855153
 30
0.0
 10
87.92624373886913
 20
-130.0978298285867
 30
0.0
 10
88.03838159691402
 20
-130.0320285048184
 30
0.0
 10
88.16533336554548
 20
-129.8608072592015
 30
0.0
 10
88.28591170752922
 20
-129.6978542427491
 30
0.0
 10
88.29865856082465
 20
-129.5962239259343
 30
0.0
 10
88.3112331593458
 20
-129.4863253799548
 30
0.0
 10
88.3112331593458
 20
-129.4863253799548
 30
0.0
 10
88.2414699757695
 20
-129.4863253799548
 30
0.0
 10
88.2414699757695
 20
-129.4863253799548
 30
0.0
 10
88.13139917501576
 20
-129.4863253799548
 30
0.0
 10
88.01943357174514
 20
-129.4928710613768
 30
0.0
 10
87.90936277099141
 20
-129.5052734051237
 30
0.0
 10
87.90936277099141
 20
-129.5052734051237
 30
0.0
 10
87.90936277099141
 20
-129.2982231664602
 30
0.0
 10
87.90936277099141
 20
-129.2982231664602
 30
0.0
 10
88.03200817026631
 20
-129.3106255102071
 30
0.0
 10
88.21184215459635
 20
-129.3151041343379
 30
0.0
 10
88.2414699757695
 20
-129.3151041343379
 30
0.0
 10
88.2414699757695
 20
-129.3151041343379
 30
0.0
 10
88.32604706993239
 20
-129.3151041343379
 30
0.0
 10
88.32604706993239
 20
-129.3151041343379
 30
0.0
 10
88.32604706993239
 20
-129.3151041343379
 30
0.0
 10
88.32604706993239
 20
-129.2727294598693
 30
0.0
 10
88.32604706993239
 20
-129.2727294598693
 30
0.0
 10
88.32604706993239
 20
-129.2727294598693
 30
0.0
 10
88.32604706993239
 20
-129.0250270944799
 30
0.0
 10
88.32604706993239
 20
-129.0250270944799
 30
0.0
 10
88.32604706993239
 20
-129.0250270944799
 30
0.0
 10
88.12933211772462
 20
-129.0250270944799
 30
0.0
 10
88.12933211772462
 20
-129.0250270944799
 30
0.0
 10
88.07851695931718
 20
-129.1710991430544
 30
0.0
 10
88.0595689341483
 20
-129.2093397029407
 30
0.0
 10
88.01512720238858
 20
-129.2706624025782
 30
0.0
 10
88.01512720238858
 20
-129.2706624025782
 30
0.0
 10
87.80566539688539
 20
-129.2007269642276
 30
0.0
 10
87.80566539688539
 20
-129.2007269642276
 30
0.0
 10
88.02787405568401
 20
-128.9488904842558
 30
0.0
 10
88.02994111297515
 20
-128.6021416236654
 30
0.0
 10
88.0256347436186
 20
-128.5365125546714
 30
0.0
 10
88.0256347436186
 20
-128.5365125546714
 30
0.0
 10
88.23509654912179
 20
-128.57888722914
 30
0.0
 10
88.23509654912179
 20
-128.57888722914
 30
0.0
 10
88.25628388635607
 20
-128.5830213437223
 30
0.0
 10
88.2690307396515
 20
-128.58939477037
 30
0.0
 10
88.2690307396515
 20
-128.6021416236654
 30
0.0
 10
88.2690307396515
 20
-128.6253960181909
 30
0.0
 10
88.24353703306065
 20
-128.6338365021298
 30
0.0
 10
88.22252195060062
 20
-128.6402099287775
 30
0.0
 10
88.2097750973052
 20
-128.7163465390015
 30
0.0
 10
88.19702824400977
 20
-128.7818033532212
 30
0.0
 10
88.1780802188409
 20
-128.8579399634452
 30
0.0
 10
88.1780802188409
 20
-128.8579399634452
 30
0.0
 10
88.32604706993239
 20
-128.8579399634452
 30
0.0
 10
88.32604706993239
 20
-128.8579399634452
 30
0.0
 10
88.32398001264123
 20
-128.693092144476
 30
0.0
 10
88.32398001264123
 20
-128.6634643233029
 30
0.0
 10
88.31553952870237
 20
-128.4031873593923
 30
0.0
 10
88.31553952870237
 20
-128.4031873593923
 30
0.0
 10
88.52913544878786
 20
-128.4243746966266
 30
0.0
 10
88.52913544878786
 20
-128.4243746966266
 30
0.0
 10
88.548255728731
 20
-128.4264417539177
 30
0.0
 10
88.57357718054759
 20
-128.4286810659831
 30
0.0
 10
88.57357718054759
 20
-128.4496961484431
 30
0.0
 10
88.57357718054759
 20
-128.4645100590297
 30
0.0
 10
88.56720375389988
 20
-128.4667493710951
 30
0.0
 10
88.51862790755784
 20
-128.4941378802029
 30
0.0
 10
88.5165608502667
 20
-128.5957681970177
 30
0.0
 10
88.5165608502667
 20
-128.7564819014046
 30
0.0
 10
88.51432153820129
 20
-128.8579399634452
 30
0.0
 10
88.51432153820129
 20
-128.8579399634452
 30
0.0
 10
88.5799506071953
 20
-128.8579399634452
 30
0.0
 10
88.5799506071953
 20
-128.8579399634452
 30
0.0
 10
88.67727455465361
 20
-128.8579399634452
 30
0.0
 10
88.81697317658049
 20
-128.8517387915718
 30
0.0
 10
88.89087047473909
 20
-128.8476046769895
 30
0.0
 10
88.89087047473909
 20
-128.8476046769895
 30
0.0
 10
88.89087047473909
 20
-129.0377739477753
 30
0.0
 10
88.89087047473909
 20
-129.0377739477753
 30
0.0
 10
88.69208846524018
 20
-129.0274386613195
 30
0.0
 10
88.6709011280059
 20
-129.0250270944799
 30
0.0
 10
88.56720375389988
 20
-129.0250270944799
 30
0.0
 10
88.56720375389988
 20
-129.0250270944799
 30
0.0
 10
88.51432153820129
 20
-129.0250270944799
 30
0.0
 10
88.51432153820129
 20
-129.0250270944799
 30
0.0
 10
88.51432153820129
 20
-129.0250270944799
 30
0.0
 10
88.51432153820129
 20
-129.2834092558736
 30
0.0
 10
88.51432153820129
 20
-129.2834092558736
 30
0.0
 10
88.51432153820129
 20
-129.2834092558736
 30
0.0
 10
88.51432153820129
 20
-129.3151041343379
 30
0.0
 10
88.51432153820129
 20
-129.3151041343379
 30
0.0
 10
88.51432153820129
 20
-129.3151041343379
 30
0.0
 10
88.58632403384301
 20
-129.3151041343379
 30
0.0
 10
88.58632403384301
 20
-129.3151041343379
 30
0.0
 10
88.69846189188789
 20
-129.3151041343379
 30
0.0
 10
88.81266680722392
 20
-129.3106255102071
 30
0.0
 10
88.92480466526881
 20
-129.2982231664602
 30
0.0
 10
88.92480466526881
 20
-129.2982231664602
 30
0.0
 10
88.92480466526881
 20
-129.5052734051237
 30
0.0
 10
88.92480466526881
 20
-129.5052734051237
 30
0.0
 10
88.77873261669421
 20
-129.488392437246
 30
0.0
 10
88.59269746049071
 20
-129.4863253799548
 30
0.0
 10
88.58632403384301
 20
-129.4863253799548
 30
0.0
 10
88.58632403384301
 20
-129.4863253799548
 30
0.0
 10
88.52276202214014
 20
-129.4863253799548
 30
0.0
 10
88.52276202214014
 20
-129.4863253799548
 30
0.0
 10
88.63920624954159
 20
-129.8818223416615
 30
0.0
 10
88.8931097868045
 20
-130.1040310004601
 30
0.0
 10
89.0157551860794
 20
-130.1846462348149
 30
0.0
 10
89.0157551860794
 20
-130.1846462348149
 30
0.0
 10
88.84436168568821
 20
-130.3176269205456
 30
0.0
 10
88.84436168568821
 20
-130.3176269205456
 30
0.0
  0
HATCH
  5
125
330
10D
100
AcDbEntity
  8
_U+30EC_U+30A4_U+30E4_U+30FC 1
 62
   179
420
  2234388
100
AcDbHatch
 10
0.0
 20
0.0
 30
0.0
210
0.0
220
0.0
230
1.0
  2
SOLID
 70
     1
 71
     0
 91
        4
 92
        1
 93
        1
 72
     4
 94
        3
 73
     0
 74
     1
 95
      125
 96
      121
 40
0.0
 40
0.0
 40
0.0
 40
0.0
 40
1.0
 40
1.0
 40
1.0
 40
2.0
 40
2.0
 40
2.0
 40
3.0
 40
3.0
 40
3.0
 40
4.0
 40
4.0
 40
4.0
 40
5.0
 40
5.0
 40
5.0
 40
6.0
 40
6.0
 40
6.0
 40
7.0
 40
7.0
 40
7.0
 40
8.0
 40
8.0
 40
8.0
 40
9.0
 40
9.0
 40
9.0
 40
10.0
 40
10.0
 40
10.0
 40
11.0
 40
11.0
 40
11.0
 40
12.0
 40
12.0
 40
12.0
 40
13.0
 40
13.0
 40
13.0
 40
14.0
 40
14.0
 40
14.0
 40
15.0
 40
15.0
 40
15.0
 40
16.0
 40
16.0
 40
16.0
 40
17.0
 40
17.0
 40
17.0
 40
18.0
 40
18.0
 40
18.0
 40
19.0
 40
19.0
 40
19.0
 40
20.0
 40
20.0
 40
20.0
 40
21.0
 40
21.0
 40
21.0
 40
22.0
 40
22.0
 40
22.0
 40
23.0
 40
23.0
 40
23.0
 40
24.0
 40
24.0
 40
24.0
 40
25.0
 40
25.0
 40
25.0
 40
26.0
 40
26.0
 40
26.0
 40
27.0
 40
27.0
 40
27.0
 40
28.0
 40
28.0
 40
28.0
 40
29.0
 40
29.0
 40
29.0
 40
30.0
 40
30.0
 40
30.0
 40
31.0
 40
31.0
 40
31.0
 40
32.0
 40
32.0
 40
32.0
 40
33.0
 40
33.0
 40
33.0
 40
34.0
 40
34.0
 40
34.0
 40
35.0
 40
35.0
 40
35.0
 40
36.0
 40
36.0
 40
36.0
 40
37.0
 40
37.0
 40
37.0
 40
38.0
 40
38.0
 40
38.0
 40
39.0
 40
39.0
 40
39.0
 40
40.0
 40
40.0
 40
40.0
 40
40.0
 10
87.79722491294653
 20
-128.9723171335555
 10
87.67027314431508
 20
-128.9044487524961
 10
87.55606822897904
 20
-128.7883490346432
 10
87.48406573333732
 20
-128.7056667429972
 10
87.46718476545959
 20
-128.7247870229403
 10
87.39948863917444
 20
-128.8159097985252
 10
87.38467472858787
 20
-128.8327907664029
 10
87.37192787529244
 20
-128.8476046769895
 10
87.3169786023027
 20
-128.9130614912092
 10
87.24928247601754
 20
-128.9809298722687
 10
87.32972545559812
 20
-128.985063986851
 10
87.33609888224584
 20
-128.985063986851
 10
87.37416718735786
 20
-128.985063986851
 10
87.37416718735786
 20
-128.985063986851
 10
87.60050996073876
 20
-128.985063986851
 10
87.60050996073876
 20
-128.985063986851
 10
87.63013778191191
 20
-128.985063986851
 10
87.79291854358996
 20
-128.978518305429
 10
87.80773245417654
 20
-128.9764512481378
 10
87.80773245417654
 20
-128.9764512481378
 10
87.80773245417654
 20
-129.1500840605944
 10
87.80773245417654
 20
-129.1500840605944
 10
87.7781046330034
 20
-129.1480170033033
 10
87.64701874978964
 20
-129.1414713218813
 10
87.61739092861649
 20
-129.1414713218813
 10
87.61739092861649
 20
-129.1414713218813
 10
87.56657577020906
 20
-129.1414713218813
 10
87.56657577020906
 20
-129.1414713218813
 10
87.56657577020906
 20
-129.1414713218813
 10
87.56657577020906
 20
-129.3151041343379
 10
87.56657577020906
 20
-129.3151041343379
 10
87.62583141255536
 20
-129.3151041343379
 10
87.75071612389566
 20
-129.3106255102071
 10
87.84580075928855
 20
-129.2958115996205
 10
87.84580075928855
 20
-129.2958115996205
 10
87.84580075928855
 20
-129.4863253799548
 10
87.84580075928855
 20
-129.4863253799548
 10
87.76346297719108
 20
-129.4756455839506
 10
87.6618326603762
 20
-129.4756455839506
 10
87.56657577020906
 20
-129.4756455839506
 10
87.56657577020906
 20
-129.4756455839506
 10
87.56657577020906
 20
-129.9941324544806
 10
87.56657577020906
 20
-129.9941324544806
 10
87.6449516924985
 20
-129.9813856011852
 10
87.75708955054337
 20
-129.9579589518855
 10
87.83098684870198
 20
-129.9434895508475
 10
87.83098684870198
 20
-129.9434895508475
 10
87.7739705184211
 20
-130.1147107964644
 10
87.7739705184211
 20
-130.1147107964644
 10
87.73796927060023
 20
-130.1253905924686
 10
87.44823674029072
 20
-130.1929144639795
 10
87.1245700194515
 20
-130.2480359917436
 10
87.12233070738608
 20
-130.2669840169124
 10
87.11389022344723
 20
-130.2966118380856
 10
87.09494219827835
 20
-130.2966118380856
 10
87.07582191833521
 20
-130.2966118380856
 10
87.06944849168751
 20
-130.2797308702079
 10
87.06531437710521
 20
-130.2669840169124
 10
87.06531437710521
 20
-130.2669840169124
 10
86.99537893875463
 20
-130.0575222114092
 10
86.99537893875463
 20
-130.0575222114092
 10
87.15833195520695
 20
-130.0513210395358
 10
87.17314586579353
 20
-130.0492539822446
 10
87.39311521252672
 20
-130.0196261610715
 10
87.39311521252672
 20
-130.0196261610715
 10
87.39311521252672
 20
-129.4756455839506
 10
87.39311521252672
 20
-129.4756455839506
 10
87.39311521252672
 20
-129.4756455839506
 10
87.31491154501155
 20
-129.4756455839506
 10
87.31491154501155
 20
-129.4756455839506
 10
87.22809513878326
 20
-129.4756455839506
 10
87.1245700194515
 20
-129.4756455839506
 10
87.04412703987092
 20
-129.4863253799548
 10
87.04412703987092
 20
-129.4863253799548
 10
87.04412703987092
 20
-129.2958115996205
 10
87.04412703987092
 20
-129.2958115996205
 10
87.15402558585039
 20
-129.3130370770467
 10
87.30423174900729
 20
-129.3151041343379
 10
87.31491154501155
 20
-129.3151041343379
 10
87.31491154501155
 20
-129.3151041343379
 10
87.39311521252672
 20
-129.3151041343379
 10
87.39311521252672
 20
-129.3151041343379
 10
87.39311521252672
 20
-129.3151041343379
 10
87.39311521252672
 20
-129.1414713218813
 10
87.39311521252672
 20
-129.1414713218813
 10
87.3169786023027
 20
-129.1414713218813
 10
87.30216469171613
 20
-129.1435383791724
 10
87.16470538185466
 20
-129.1542181751767
 10
87.16470538185466
 20
-129.1542181751767
 10
87.16470538185466
 20
-129.061200597075
 10
87.16470538185466
 20
-129.061200597075
 10
87.15402558585039
 20
-129.0694688262396
 10
87.14989147126809
 20
-129.0739474503704
 10
87.13301050339037
 20
-129.088761360957
 10
87.13301050339037
 20
-129.088761360957
 10
86.95317651906032
 20
-128.9661159616821
 10
86.95317651906032
 20
-128.9661159616821
 10
87.01863333328006
 20
-128.9237412872135
 10
87.13077119132495
 20
-128.8496717342806
 10
87.23877493478753
 20
-128.7247870229403
 10
87.2894178384207
 20
-128.665531380594
 10
87.39311521252672
 20
-128.5301391280237
 10
87.4396240015776
 20
-128.39905324481
 10
87.4396240015776
 20
-128.39905324481
 10
87.61739092861649
 20
-128.4603759444474
 10
87.61739092861649
 20
-128.4603759444474
 10
87.63220483920307
 20
-128.4645100590297
 10
87.65132511914621
 20
-128.4731227977428
 10
87.65132511914621
 20
-128.4900037656206
 10
87.65132511914621
 20
-128.5111911028548
 10
87.63651120855963
 20
-128.513258160146
 10
87.5920694767999
 20
-128.523765701376
 10
87.5920694767999
 20
-128.523765701376
 10
87.58362899286104
 20
-128.5470200959014
 10
87.58362899286104
 20
-128.5470200959014
 10
87.6618326603762
 20
-128.6591579539463
 10
87.84373370199741
 20
-128.7818033532212
 10
87.92417668157799
 20
-128.8283121422721
 10
87.92417668157799
 20
-128.8283121422721
 10
87.79722491294653
 20
-128.9723171335555
 10
87.79722491294653
 20
-128.9723171335555
 97
        0
 97
        0
 92
        1
 93
        1
 72
     4
 94
        3
 73
     0
 74
     1
 95
       17
 96
       13
 40
0.0
 40
0.0
 40
0.0
 40
0.0
 40
1.0
 40
1.0
 40
1.0
 40
2.0
 40
2.0
 40
2.0
 40
3.0
 40
3.0
 40
3.0
 40
4.0
 40
4.0
 40
4.0
 40
4.0
 10
87.1562648979158
 20
-129.9645046333075
 10
87.13938393003808
 20
-129.8587402019103
 10
87.11819659280378
 20
-129.7657226238086
 10
87.04826115445321
 20
-129.6134494033605
 10
87.04826115445321
 20
-129.6134494033605
 10
87.21552054026209
 20
-129.5521267037231
 10
87.21552054026209
 20
-129.5521267037231
 10
87.28321666654726
 20
-129.7019883573315
 10
87.30647106107268
 20
-129.8036186741463
 10
87.32335202895041
 20
-129.8966362522481
 10
87.32335202895041
 20
-129.8966362522481
 10
87.1562648979158
 20
-129.9645046333075
 10
87.1562648979158
 20
-129.9645046333075
 97
        0
 97
        0
 92
        1
 93
        1
 72
     4
 94
        3
 73
     0
 74
     1
 95
       23
 96
       19
 40
0.0
 40
0.0
 40
0.0
 40
0.0
 40
1.0
 40
1.0
 40
1.0
 40
2.0
 40
2.0
 40
2.0
 40
3.0
 40
3.0
 40
3.0
 40
4.0
 40
4.0
 40
4.0
 40
5.0
 40
5.0
 40
5.0
 40
6.0
 40
6.0
 40
6.0
 40
6.0
 10
87.85010712864512
 20
-129.6513454536983
 10
87.8332261607674
 20
-129.7464300890912
 10
87.80566539688539
 20
-129.8649413737838
 10
87.76346297719108
 20
-129.9434895508475
 10
87.76346297719108
 20
-129.9434895508475
 10
87.60050996073876
 20
-129.8990478190877
 10
87.60050996073876
 20
-129.8990478190877
 10
87.65976560308506
 20
-129.778469477104
 10
87.67871362825393
 20
-129.6155164606517
 10
87.68095294031934
 20
-129.5414469077188
 10
87.68095294031934
 20
-129.5414469077188
 10
87.86922740858826
 20
-129.592089811352
 10
87.86922740858826
 20
-129.592089811352
 10
87.88180200710941
 20
-129.5962239259343
 10
87.90092228705255
 20
-129.6007025500651
 10
87.90092228705255
 20
-129.6175835179428
 10
87.90092228705255
 20
-129.6365315431117
 10
87.88610837646598
 20
-129.640665657694
 10
87.85010712864512
 20
-129.6513454536983
 97
        0
 97
        0
 92
        1
 93
        1
 72
     4
 94
        3
 73
     0
 74
     1
 95
      128
 96
      124
 40
0.0
 40
0.0
 40
0.0
 40
0.0
 40
1.0
 40
1.0
 40
1.0
 40
2.0
 40
2.0
 40
2.0
 40
3.0
 40
3.0
 40
3.0
 40
4.0
 40
4.0
 40
4.0
 40
5.0
 40
5.0
 40
5.0
 40
6.0
 40
6.0
 40
6.0
 40
7.0
 40
7.0
 40
7.0
 40
8.0
 40
8.0
 40
8.0
 40
9.0
 40
9.0
 40
9.0
 40
10.0
 40
10.0
 40
10.0
 40
11.0
 40
11.0
 40
11.0
 40
12.0
 40
12.0
 40
12.0
 40
13.0
 40
13.0
 40
13.0
 40
14.0
 40
14.0
 40
14.0
 40
15.0
 40
15.0
 40
15.0
 40
16.0
 40
16.0
 40
16.0
 40
17.0
 40
17.0
 40
17.0
 40
18.0
 40
18.0
 40
18.0
 40
19.0
 40
19.0
 40
19.0
 40
20.0
 40
20.0
 40
20.0
 40
21.0
 40
21.0
 40
21.0
 40
22.0
 40
22.0
 40
22.0
 40
23.0
 40
23.0
 40
23.0
 40
24.0
 40
24.0
 40
24.0
 40
25.0
 40
25.0
 40
25.0
 40
26.0
 40
26.0
 40
26.0
 40
27.0
 40
27.0
 40
27.0
 40
28.0
 40
28.0
 40
28.0
 40
29.0
 40
29.0
 40
29.0
 40
30.0
 40
30.0
 40
30.0
 40
31.0
 40
31.0
 40
31.0
 40
32.0
 40
32.0
 40
32.0
 40
33.0
 40
33.0
 40
33.0
 40
34.0
 40
34.0
 40
34.0
 40
35.0
 40
35.0
 40
35.0
 40
36.0
 40
36.0
 40
36.0
 40
37.0
 40
37.0
 40
37.0
 40
38.0
 40
38.0
 40
38.0
 40
39.0
 40
39.0
 40
39.0
 40
40.0
 40
40.0
 40
40.0
 40
41.0
 40
41.0
 40
41.0
 40
41.0
 10
88.84436168568821
 20
-130.3176269205456
 10
88.65608721741931
 20
-130.1867132921061
 10
88.54188230208328
 20
-130.0320285048184
 10
88.43181150132955
 20
-129.7760579102643
 10
88.38960908163524
 20
-129.8797552843703
 10
88.34086098051895
 20
-129.9665716905986
 10
88.24353703306065
 20
-130.0682020074135
 10
88.14621308560234
 20
-130.1674207573887
 10
88.04044865420516
 20
-130.2583712781993
 10
87.91573619763912
 20
-130.3200384873853
 10
87.91573619763912
 20
-130.3200384873853
 10
87.72952878666138
 20
-130.1612195855153
 10
87.72952878666138
 20
-130.1612195855153
 10
87.92624373886913
 20
-130.0978298285867
 10
88.03838159691402
 20
-130.0320285048184
 10
88.16533336554548
 20
-129.8608072592015
 10
88.28591170752922
 20
-129.6978542427491
 10
88.29865856082465
 20
-129.5962239259343
 10
88.3112331593458
 20
-129.4863253799548
 10
88.3112331593458
 20
-129.4863253799548
 10
88.2414699757695
 20
-129.4863253799548
 10
88.2414699757695
 20
-129.4863253799548
 10
88.13139917501576
 20
-129.4863253799548
 10
88.01943357174514
 20
-129.4928710613768
 10
87.90936277099141
 20
-129.5052734051237
 10
87.90936277099141
 20
-129.5052734051237
 10
87.90936277099141
 20
-129.2982231664602
 10
87.90936277099141
 20
-129.2982231664602
 10
88.03200817026631
 20
-129.3106255102071
 10
88.21184215459635
 20
-129.3151041343379
 10
88.2414699757695
 20
-129.3151041343379
 10
88.2414699757695
 20
-129.3151041343379
 10
88.32604706993239
 20
-129.3151041343379
 10
88.32604706993239
 20
-129.3151041343379
 10
88.32604706993239
 20
-129.3151041343379
 10
88.32604706993239
 20
-129.2727294598693
 10
88.32604706993239
 20
-129.2727294598693
 10
88.32604706993239
 20
-129.2727294598693
 10
88.32604706993239
 20
-129.0250270944799
 10
88.32604706993239
 20
-129.0250270944799
 10
88.32604706993239
 20
-129.0250270944799
 10
88.12933211772462
 20
-129.0250270944799
 10
88.12933211772462
 20
-129.0250270944799
 10
88.07851695931718
 20
-129.1710991430544
 10
88.0595689341483
 20
-129.2093397029407
 10
88.01512720238858
 20
-129.2706624025782
 10
88.01512720238858
 20
-129.2706624025782
 10
87.80566539688539
 20
-129.2007269642276
 10
87.80566539688539
 20
-129.2007269642276
 10
88.02787405568401
 20
-128.9488904842558
 10
88.02994111297515
 20
-128.6021416236654
 10
88.0256347436186
 20
-128.5365125546714
 10
88.0256347436186
 20
-128.5365125546714
 10
88.23509654912179
 20
-128.57888722914
 10
88.23509654912179
 20
-128.57888722914
 10
88.25628388635607
 20
-128.5830213437223
 10
88.2690307396515
 20
-128.58939477037
 10
88.2690307396515
 20
-128.6021416236654
 10
88.2690307396515
 20
-128.6253960181909
 10
88.24353703306065
 20
-128.6338365021298
 10
88.22252195060062
 20
-128.6402099287775
 10
88.2097750973052
 20
-128.7163465390015
 10
88.19702824400977
 20
-128.7818033532212
 10
88.1780802188409
 20
-128.8579399634452
 10
88.1780802188409
 20
-128.8579399634452
 10
88.32604706993239
 20
-128.8579399634452
 10
88.32604706993239
 20
-128.8579399634452
 10
88.32398001264123
 20
-128.693092144476
 10
88.32398001264123
 20
-128.6634643233029
 10
88.31553952870237
 20
-128.4031873593923
 10
88.31553952870237
 20
-128.4031873593923
 10
88.52913544878786
 20
-128.4243746966266
 10
88.52913544878786
 20
-128.4243746966266
 10
88.548255728731
 20
-128.4264417539177
 10
88.57357718054759
 20
-128.4286810659831
 10
88.57357718054759
 20
-128.4496961484431
 10
88.57357718054759
 20
-128.4645100590297
 10
88.56720375389988
 20
-128.4667493710951
 10
88.51862790755784
 20
-128.4941378802029
 10
88.5165608502667
 20
-128.5957681970177
 10
88.5165608502667
 20
-128.7564819014046
 10
88.51432153820129
 20
-128.8579399634452
 10
88.51432153820129
 20
-128.8579399634452
 10
88.5799506071953
 20
-128.8579399634452
 10
88.5799506071953
 20
-128.8579399634452
 10
88.67727455465361
 20
-128.8579399634452
 10
88.81697317658049
 20
-128.8517387915718
 10
88.89087047473909
 20
-128.8476046769895
 10
88.89087047473909
 20
-128.8476046769895
 10
88.89087047473909
 20
-129.0377739477753
 10
88.89087047473909
 20
-129.0377739477753
 10
88.69208846524018
 20
-129.0274386613195
 10
88.6709011280059
 20
-129.0250270944799
 10
88.56720375389988
 20
-129.0250270944799
 10
88.56720375389988
 20
-129.0250270944799
 10
88.51432153820129
 20
-129.0250270944799
 10
88.51432153820129
 20
-129.0250270944799
 10
88.51432153820129
 20
-129.0250270944799
 10
88.51432153820129
 20
-129.2834092558736
 10
88.51432153820129
 20
-129.2834092558736
 10
88.51432153820129
 20
-129.2834092558736
 10
88.51432153820129
 20
-129.3151041343379
 10
88.51432153820129
 20
-129.3151041343379
 10
88.51432153820129
 20
-129.3151041343379
 10
88.58632403384301
 20
-129.3151041343379
 10
88.58632403384301
 20
-129.3151041343379
 10
88.69846189188789
 20
-129.3151041343379
 10
88.81266680722392
 20
-129.3106255102071
 10
88.92480466526881
 20
-129.2982231664602
 10
88.92480466526881
 20
-129.2982231664602
 10
88.92480466526881
 20
-129.5052734051237
 10
88.92480466526881
 20
-129.5052734051237
 10
88.77873261669421
 20
-129.488392437246
 10
88.59269746049071
 20
-129.4863253799548
 10
88.58632403384301
 20
-129.4863253799548
 10
88.58632403384301
 20
-129.4863253799548
 10
88.52276202214014
 20
-129.4863253799548
 10
88.52276202214014
 20
-129.4863253799548
 10
88.63920624954159
 20
-129.8818223416615
 10
88.8931097868045
 20
-130.1040310004601
 10
89.0157551860794
 20
-130.1846462348149
 10
89.0157551860794
 20
-130.1846462348149
 10
88.84436168568821
 20
-130.3176269205456
 10
88.84436168568821
 20
-130.3176269205456
 97
        0
 97
        0
 75
     2
 76
     1
 98
        0
  0
SPLINE
  5
126
330
10D
100
AcDbEntity
  8
_U+30EC_U+30A4_U+30E4_U+30FC 1
370
     0
100
AcDbSpline
210
0.0
220
0.0
230
1.0
 70
    11
 71
     3
 72
    86
 73
    82
 74
     0
 42
0.0000000001
 43
0.0000000001
 12
1.0
 22
0.0
 32
0.0
 13
1.0
 23
0.0
 33
0.0
 40
0.0
 40
0.0
 40
0.0
 40
0.0
 40
1.0
 40
1.0
 40
1.0
 40
2.0
 40
2.0
 40
2.0
 40
3.0
 40
3.0
 40
3.0
 40
4.0
 40
4.0
 40
4.0
 40
5.0
 40
5.0
 40
5.0
 40
6.0
 40
6.0
 40
6.0
 40
7.0
 40
7.0
 40
7.0
 40
8.0
 40
8.0
 40
8.0
 40
9.0
 40
9.0
 40
9.0
 40
10.0
 40
10.0
 40
10.0
 40
11.0
 40
11.0
 40
11.0
 40
12.0
 40
12.0
 40
12.0
 40
13.0
 40
13.0
 40
13.0
 40
14.0
 40
14.0
 40
14.0
 40
15.0
 40
15.0
 40
15.0
 40
16.0
 40
16.0
 40
16.0
 40
17.0
 40
17.0
 40
17.0
 40
18.0
 40
18.0
 40
18.0
 40
19.0
 40
19.0
 40
19.0
 40
20.0
 40
20.0
 40
20.0
 40
21.0
 40
21.0
 40
21.0
 40
22.0
 40
22.0
 40
22.0
 40
23.0
 40
23.0
 40
23.0
 40
24.0
 40
24.0
 40
24.0
 40
25.0
 40
25.0
 40
25.0
 40
26.0
 40
26.0
 40
26.0
 40
27.0
 40
27.0
 40
27.0
 40
27.0
 10
89.66222735388654
 20
-128.9723171335555
 30
0.0
 10
89.66222735388654
 20
-128.9723171335555
 30
0.0
 10
89.63036022064797
 20
-128.9723171335555
 30
0.0
 10
89.63036022064797
 20
-128.9723171335555
 30
0.0
 10
89.63036022064797
 20
-129.0250270944799
 30
0.0
 10
89.67066783782539
 20
-129.1414713218813
 30
0.0
 10
89.71080320022855
 20
-129.2220865562361
 30
0.0
 10
89.78280569587028
 20
-129.3698811525534
 30
0.0
 10
89.8694498473243
 20
-129.4632432402036
 30
0.0
 10
89.91819794844059
 20
-129.5138861438368
 30
0.0
 10
89.91819794844059
 20
-129.5138861438368
 30
0.0
 10
89.79331323710029
 20
-129.674772102998
 30
0.0
 10
89.79331323710029
 20
-129.674772102998
 30
0.0
 10
89.73836396411055
 20
-129.6175835179428
 30
0.0
 10
89.69805634693313
 20
-129.5731417861831
 30
0.0
 10
89.63036022064797
 20
-129.4460177627774
 30
0.0
 10
89.63036022064797
 20
-129.4460177627774
 30
0.0
 10
89.63036022064797
 20
-129.6430772245337
 30
0.0
 10
89.63036022064797
 20
-129.6430772245337
 30
0.0
 10
89.63036022064797
 20
-129.8101643555683
 30
0.0
 10
89.63036022064797
 20
-129.9114501628347
 30
0.0
 10
89.65154755788225
 20
-130.3155598632544
 30
0.0
 10
89.65154755788225
 20
-130.3155598632544
 30
0.0
 10
89.42520478450135
 20
-130.3155598632544
 30
0.0
 10
89.42520478450135
 20
-130.3155598632544
 30
0.0
 10
89.44001869508791
 20
-130.1739664388107
 30
0.0
 10
89.45276554838334
 20
-129.7340277453443
 30
0.0
 10
89.45276554838334
 20
-129.6554795682806
 30
0.0
 10
89.45276554838334
 20
-129.6554795682806
 30
0.0
 10
89.45276554838334
 20
-129.4377495336128
 30
0.0
 10
89.45276554838334
 20
-129.4377495336128
 30
0.0
 10
89.38506942209818
 20
-129.640665657694
 30
0.0
 10
89.30255938522644
 20
-129.7529757705132
 30
0.0
 10
89.23486325894129
 20
-129.8439262913238
 30
0.0
 10
89.23486325894129
 20
-129.8439262913238
 30
0.0
 10
89.04434947860697
 20
-129.7422959745089
 30
0.0
 10
89.04434947860697
 20
-129.7422959745089
 30
0.0
 10
89.25605059617557
 20
-129.5414469077188
 30
0.0
 10
89.36388208486389
 20
-129.2599826065739
 30
0.0
 10
89.41245793120592
 20
-128.9723171335555
 30
0.0
 10
89.32374672246074
 20
-128.9723171335555
 30
0.0
 10
89.23486325894129
 20
-128.9764512481378
 30
0.0
 10
89.148046852713
 20
-128.9891981014333
 30
0.0
 10
89.148046852713
 20
-128.9891981014333
 30
0.0
 10
89.148046852713
 20
-128.7818033532212
 30
0.0
 10
89.148046852713
 20
-128.7818033532212
 30
0.0
 10
89.23693031623243
 20
-128.7966172638078
 30
0.0
 10
89.36801619944619
 20
-128.7986843210989
 30
0.0
 10
89.40608450455821
 20
-128.7986843210989
 30
0.0
 10
89.40608450455821
 20
-128.7986843210989
 30
0.0
 10
89.45276554838334
 20
-128.7986843210989
 30
0.0
 10
89.45276554838334
 20
-128.7986843210989
 30
0.0
 10
89.45052623631793
 20
-128.7501084747569
 30
0.0
 10
89.45052623631793
 20
-128.5301391280237
 30
0.0
 10
89.44845917902678
 20
-128.485697396264
 30
0.0
 10
89.44845917902678
 20
-128.4434949765697
 30
0.0
 10
89.44845917902678
 20
-128.4307481232743
 30
0.0
 10
89.44432506444448
 20
-128.3926798181623
 30
0.0
 10
89.44432506444448
 20
-128.3926798181623
 30
0.0
 10
89.65154755788225
 20
-128.4054266714577
 30
0.0
 10
89.65154755788225
 20
-128.4054266714577
 30
0.0
 10
89.66222735388654
 20
-128.4054266714577
 30
0.0
 10
89.68548174841197
 20
-128.4074937287488
 30
0.0
 10
89.68548174841197
 20
-128.4264417539177
 30
0.0
 10
89.68548174841197
 20
-128.4496961484431
 30
0.0
 10
89.65998804182112
 20
-128.4603759444474
 30
0.0
 10
89.63880070458683
 20
-128.4708834856774
 30
0.0
 10
89.63673364729569
 20
-128.5048176762071
 30
0.0
 10
89.63259953271339
 20
-128.7523477868223
 30
0.0
 10
89.63259953271339
 20
-128.7986843210989
 30
0.0
 10
89.63259953271339
 20
-128.7986843210989
 30
0.0
 10
89.66222735388654
 20
-128.7986843210989
 30
0.0
 10
89.66222735388654
 20
-128.7986843210989
 30
0.0
 10
89.74887150534056
 20
-128.7986843210989
 30
0.0
 10
89.83775496886001
 20
-128.7945502065166
 30
0.0
 10
89.92233206302289
 20
-128.7818033532212
 30
0.0
 10
89.92233206302289
 20
-128.7818033532212
 30
0.0
 10
89.92233206302289
 20
-128.9891981014333
 30
0.0
 10
89.92233206302289
 20
-128.9891981014333
 30
0.0
 10
89.81019420497802
 20
-128.9723171335555
 30
0.0
 10
89.67273489511655
 20
-128.9723171335555
 30
0.0
 10
89.66222735388654
 20
-128.9723171335555
 30
0.0
  0
SPLINE
  5
127
330
10D
100
AcDbEntity
  8
_U+30EC_U+30A4_U+30E4_U+30FC 1
370
     0
100
AcDbSpline
210
0.0
220
0.0
230
1.0
 70
    11
 71
     3
 72
    80
 73
    76
 74
     0
 42
0.0000000001
 43
0.0000000001
 12
1.0
 22
0.0
 32
0.0
 13
1.0
 23
0.0
 33
0.0
 40
0.0
 40
0.0
 40
0.0
 40
0.0
 40
1.0
 40
1.0
 40
1.0
 40
2.0
 40
2.0
 40
2.0
 40
3.0
 40
3.0
 40
3.0
 40
4.0
 40
4.0
 40
4.0
 40
5.0
 40
5.0
 40
5.0
 40
6.0
 40
6.0
 40
6.0
 40
7.0
 40
7.0
 40
7.0
 40
8.0
 40
8.0
 40
8.0
 40
9.0
 40
9.0
 40
9.0
 40
10.0
 40
10.0
 40
10.0
 40
11.0
 40
11.0
 40
11.0
 40
12.0
 40
12.0
 40
12.0
 40
13.0
 40
13.0
 40
13.0
 40
14.0
 40
14.0
 40
14.0
 40
15.0
 40
15.0
 40
15.0
 40
16.0
 40
16.0
 40
16.0
 40
17.0
 40
17.0
 40
17.0
 40
18.0
 40
18.0
 40
18.0
 40
19.0
 40
19.0
 40
19.0
 40
20.0
 40
20.0
 40
20.0
 40
21.0
 40
21.0
 40
21.0
 40
22.0
 40
22.0
 40
22.0
 40
23.0
 40
23.0
 40
23.0
 40
24.0
 40
24.0
 40
24.0
 40
25.0
 40
25.0
 40
25.0
 40
25.0
 10
90.89970565218827
 20
-130.2690510742036
 30
0.0
 10
90.71780461056709
 20
-130.1484727322198
 30
0.0
 10
90.63942868827765
 20
-130.0723361219958
 30
0.0
 10
90.56122502076248
 20
-129.9834526584764
 30
0.0
 10
90.40895180031443
 20
-130.1443386176375
 30
0.0
 10
90.2947468849784
 20
-130.2184081705704
 30
0.0
 10
90.1762356002858
 20
-130.2776638129167
 30
0.0
 10
90.1762356002858
 20
-130.2776638129167
 30
0.0
 10
89.99002818930805
 20
-130.1274576497598
 30
0.0
 10
89.99002818930805
 20
-130.1274576497598
 30
0.0
 10
90.16779511634694
 20
-130.0640678928312
 30
0.0
 10
90.31369491014728
 20
-129.9920653971895
 30
0.0
 10
90.45115422000875
 20
-129.8373806099018
 30
0.0
 10
90.32437470615154
 20
-129.6323974285294
 30
0.0
 10
90.25237221050983
 20
-129.4019205405662
 30
0.0
 10
90.22705075869324
 20
-129.1628309138898
 30
0.0
 10
90.22705075869324
 20
-129.1628309138898
 30
0.0
 10
90.16348874699038
 20
-129.1628309138898
 30
0.0
 10
90.16348874699038
 20
-129.1628309138898
 30
0.0
 10
90.16348874699038
 20
-129.1628309138898
 30
0.0
 10
90.16348874699038
 20
-129.2517143774093
 30
0.0
 10
90.16348874699038
 20
-129.2517143774093
 30
0.0
 10
90.16348874699038
 20
-129.488392437246
 30
0.0
 10
90.14454072182151
 20
-129.9707058051809
 30
0.0
 10
89.87151690461546
 20
-130.2859320420813
 30
0.0
 10
89.87151690461546
 20
-130.2859320420813
 30
0.0
 10
89.68324243634656
 20
-130.1739664388107
 30
0.0
 10
89.68324243634656
 20
-130.1739664388107
 30
0.0
 10
89.94558645754833
 20
-129.9476236654298
 30
0.0
 10
89.97728133601262
 20
-129.5962239259343
 30
0.0
 10
89.97728133601262
 20
-129.1521511178856
 30
0.0
 10
89.97728133601262
 20
-128.8200439131075
 30
0.0
 10
89.97314722143032
 20
-128.6062757382477
 30
0.0
 10
89.96470673749147
 20
-128.4560695750909
 30
0.0
 10
90.07047116888863
 20
-128.4667493710951
 30
0.0
 10
90.15711532034267
 20
-128.4708834856774
 30
0.0
 10
90.30956079556498
 20
-128.4708834856774
 30
0.0
 10
90.30956079556498
 20
-128.4708834856774
 30
0.0
 10
90.67766924816392
 20
-128.4708834856774
 30
0.0
 10
90.67766924816392
 20
-128.4708834856774
 30
0.0
 10
90.77275388355682
 20
-128.4708834856774
 30
0.0
 10
90.954654925178
 20
-128.4624430017386
 30
0.0
 10
91.02872447811087
 20
-128.4540025177997
 30
0.0
 10
91.02872447811087
 20
-128.4540025177997
 30
0.0
 10
91.02872447811087
 20
-128.6591579539463
 30
0.0
 10
91.02872447811087
 20
-128.6591579539463
 30
0.0
 10
90.92933347336142
 20
-128.6486504127163
 30
0.0
 10
90.81512855802539
 20
-128.6465833554252
 30
0.0
 10
90.58241235799676
 20
-128.6465833554252
 30
0.0
 10
90.58241235799676
 20
-128.6465833554252
 30
0.0
 10
90.54003768352818
 20
-128.6465833554252
 30
0.0
 10
90.54003768352818
 20
-128.6465833554252
 30
0.0
 10
90.54003768352818
 20
-128.6465833554252
 30
0.0
 10
90.16348874699038
 20
-128.6465833554252
 30
0.0
 10
90.16348874699038
 20
-128.6465833554252
 30
0.0
 10
90.16348874699038
 20
-128.6465833554252
 30
0.0
 10
90.16348874699038
 20
-128.9891981014333
 30
0.0
 10
90.16348874699038
 20
-128.9891981014333
 30
0.0
 10
90.16348874699038
 20
-128.9891981014333
 30
0.0
 10
90.51678328900276
 20
-128.9891981014333
 30
0.0
 10
90.51678328900276
 20
-128.9891981014333
 30
0.0
 10
90.56966550470133
 20
-128.9891981014333
 30
0.0
 10
90.80875513137768
 20
-128.9829969295598
 30
0.0
 10
90.8573309777197
 20
-128.9809298722687
 30
0.0
 10
90.8573309777197
 20
-128.9809298722687
 30
0.0
 10
90.93363984271798
 20
-129.0718803930793
 30
0.0
 10
90.93363984271798
 20
-129.0718803930793
 30
0.0
 10
90.85112980584626
 20
-129.4842583226637
 30
0.0
 10
90.7939412207911
 20
-129.6513454536983
 30
0.0
 10
90.67766924816392
 20
-129.8311794380283
 30
0.0
 10
90.7663804569091
 20
-129.9286756402609
 30
0.0
 10
90.86370440436741
 20
-130.0172145942318
 30
0.0
 10
91.06472572593174
 20
-130.1147107964644
 30
0.0
 10
91.06472572593174
 20
-130.1147107964644
 30
0.0
 10
90.89970565218827
 20
-130.2690510742036
 30
0.0
 10
90.89970565218827
 20
-130.2690510742036
 30
0.0
  0
SPLINE
  5
128
330
10D
100
AcDbEntity
  8
_U+30EC_U+30A4_U+30E4_U+30FC 1
370
     0
100
AcDbSpline
210
0.0
220
0.0
230
1.0
 70
    11
 71
     3
 72
    14
 73
    10
 74
     0
 42
0.0000000001
 43
0.0000000001
 12
1.0
 22
0.0
 32
0.0
 13
1.0
 23
0.0
 33
0.0
 40
0.0
 40
0.0
 40
0.0
 40
0.0
 40
1.0
 40
1.0
 40
1.0
 40
2.0
 40
2.0
 40
2.0
 40
3.0
 40
3.0
 40
3.0
 40
3.0
 10
90.41308591489673
 20
-129.1628309138898
 30
0.0
 10
90.43013913754872
 20
-129.3402533313802
 30
0.0
 10
90.4766479265996
 20
-129.5138861438368
 30
0.0
 10
90.56122502076248
 20
-129.6702934788672
 30
0.0
 10
90.60773380981335
 20
-129.5793429580566
 30
0.0
 10
90.68610973210278
 20
-129.3995089737265
 30
0.0
 10
90.71143118391937
 20
-129.1628309138898
 30
0.0
 10
90.71143118391937
 20
-129.1628309138898
 30
0.0
 10
90.41308591489673
 20
-129.1628309138898
 30
0.0
 10
90.41308591489673
 20
-129.1628309138898
 30
0.0
  0
HATCH
  5
129
330
10D
100
AcDbEntity
  8
_U+30EC_U+30A4_U+30E4_U+30FC 1
 62
   179
420
  2234388
100
AcDbHatch
 10
0.0
 20
0.0
 30
0.0
210
0.0
220
0.0
230
1.0
  2
SOLID
 70
     1
 71
     0
 91
        3
 92
        1
 93
        1
 72
     4
 94
        3
 73
     0
 74
     1
 95
       86
 96
       82
 40
0.0
 40
0.0
 40
0.0
 40
0.0
 40
1.0
 40
1.0
 40
1.0
 40
2.0
 40
2.0
 40
2.0
 40
3.0
 40
3.0
 40
3.0
 40
4.0
 40
4.0
 40
4.0
 40
5.0
 40
5.0
 40
5.0
 40
6.0
 40
6.0
 40
6.0
 40
7.0
 40
7.0
 40
7.0
 40
8.0
 40
8.0
 40
8.0
 40
9.0
 40
9.0
 40
9.0
 40
10.0
 40
10.0
 40
10.0
 40
11.0
 40
11.0
 40
11.0
 40
12.0
 40
12.0
 40
12.0
 40
13.0
 40
13.0
 40
13.0
 40
14.0
 40
14.0
 40
14.0
 40
15.0
 40
15.0
 40
15.0
 40
16.0
 40
16.0
 40
16.0
 40
17.0
 40
17.0
 40
17.0
 40
18.0
 40
18.0
 40
18.0
 40
19.0
 40
19.0
 40
19.0
 40
20.0
 40
20.0
 40
20.0
 40
21.0
 40
21.0
 40
21.0
 40
22.0
 40
22.0
 40
22.0
 40
23.0
 40
23.0
 40
23.0
 40
24.0
 40
24.0
 40
24.0
 40
25.0
 40
25.0
 40
25.0
 40
26.0
 40
26.0
 40
26.0
 40
27.0
 40
27.0
 40
27.0
 40
27.0
 10
89.66222735388654
 20
-128.9723171335555
 10
89.66222735388654
 20
-128.9723171335555
 10
89.63036022064797
 20
-128.9723171335555
 10
89.63036022064797
 20
-128.9723171335555
 10
89.63036022064797
 20
-129.0250270944799
 10
89.67066783782539
 20
-129.1414713218813
 10
89.71080320022855
 20
-129.2220865562361
 10
89.78280569587028
 20
-129.3698811525534
 10
89.8694498473243
 20
-129.4632432402036
 10
89.91819794844059
 20
-129.5138861438368
 10
89.91819794844059
 20
-129.5138861438368
 10
89.79331323710029
 20
-129.674772102998
 10
89.79331323710029
 20
-129.674772102998
 10
89.73836396411055
 20
-129.6175835179428
 10
89.69805634693313
 20
-129.5731417861831
 10
89.63036022064797
 20
-129.4460177627774
 10
89.63036022064797
 20
-129.4460177627774
 10
89.63036022064797
 20
-129.6430772245337
 10
89.63036022064797
 20
-129.6430772245337
 10
89.63036022064797
 20
-129.8101643555683
 10
89.63036022064797
 20
-129.9114501628347
 10
89.65154755788225
 20
-130.3155598632544
 10
89.65154755788225
 20
-130.3155598632544
 10
89.42520478450135
 20
-130.3155598632544
 10
89.42520478450135
 20
-130.3155598632544
 10
89.44001869508791
 20
-130.1739664388107
 10
89.45276554838334
 20
-129.7340277453443
 10
89.45276554838334
 20
-129.6554795682806
 10
89.45276554838334
 20
-129.6554795682806
 10
89.45276554838334
 20
-129.4377495336128
 10
89.45276554838334
 20
-129.4377495336128
 10
89.38506942209818
 20
-129.640665657694
 10
89.30255938522644
 20
-129.7529757705132
 10
89.23486325894129
 20
-129.8439262913238
 10
89.23486325894129
 20
-129.8439262913238
 10
89.04434947860697
 20
-129.7422959745089
 10
89.04434947860697
 20
-129.7422959745089
 10
89.25605059617557
 20
-129.5414469077188
 10
89.36388208486389
 20
-129.2599826065739
 10
89.41245793120592
 20
-128.9723171335555
 10
89.32374672246074
 20
-128.9723171335555
 10
89.23486325894129
 20
-128.9764512481378
 10
89.148046852713
 20
-128.9891981014333
 10
89.148046852713
 20
-128.9891981014333
 10
89.148046852713
 20
-128.7818033532212
 10
89.148046852713
 20
-128.7818033532212
 10
89.23693031623243
 20
-128.7966172638078
 10
89.36801619944619
 20
-128.7986843210989
 10
89.40608450455821
 20
-128.7986843210989
 10
89.40608450455821
 20
-128.7986843210989
 10
89.45276554838334
 20
-128.7986843210989
 10
89.45276554838334
 20
-128.7986843210989
 10
89.45052623631793
 20
-128.7501084747569
 10
89.45052623631793
 20
-128.5301391280237
 10
89.44845917902678
 20
-128.485697396264
 10
89.44845917902678
 20
-128.4434949765697
 10
89.44845917902678
 20
-128.4307481232743
 10
89.44432506444448
 20
-128.3926798181623
 10
89.44432506444448
 20
-128.3926798181623
 10
89.65154755788225
 20
-128.4054266714577
 10
89.65154755788225
 20
-128.4054266714577
 10
89.66222735388654
 20
-128.4054266714577
 10
89.68548174841197
 20
-128.4074937287488
 10
89.68548174841197
 20
-128.4264417539177
 10
89.68548174841197
 20
-128.4496961484431
 10
89.65998804182112
 20
-128.4603759444474
 10
89.63880070458683
 20
-128.4708834856774
 10
89.63673364729569
 20
-128.5048176762071
 10
89.63259953271339
 20
-128.7523477868223
 10
89.63259953271339
 20
-128.7986843210989
 10
89.63259953271339
 20
-128.7986843210989
 10
89.66222735388654
 20
-128.7986843210989
 10
89.66222735388654
 20
-128.7986843210989
 10
89.74887150534056
 20
-128.7986843210989
 10
89.83775496886001
 20
-128.7945502065166
 10
89.92233206302289
 20
-128.7818033532212
 10
89.92233206302289
 20
-128.7818033532212
 10
89.92233206302289
 20
-128.9891981014333
 10
89.92233206302289
 20
-128.9891981014333
 10
89.81019420497802
 20
-128.9723171335555
 10
89.67273489511655
 20
-128.9723171335555
 10
89.66222735388654
 20
-128.9723171335555
 97
        0
 97
        0
 92
        1
 93
        1
 72
     4
 94
        3
 73
     0
 74
     1
 95
       80
 96
       76
 40
0.0
 40
0.0
 40
0.0
 40
0.0
 40
1.0
 40
1.0
 40
1.0
 40
2.0
 40
2.0
 40
2.0
 40
3.0
 40
3.0
 40
3.0
 40
4.0
 40
4.0
 40
4.0
 40
5.0
 40
5.0
 40
5.0
 40
6.0
 40
6.0
 40
6.0
 40
7.0
 40
7.0
 40
7.0
 40
8.0
 40
8.0
 40
8.0
 40
9.0
 40
9.0
 40
9.0
 40
10.0
 40
10.0
 40
10.0
 40
11.0
 40
11.0
 40
11.0
 40
12.0
 40
12.0
 40
12.0
 40
13.0
 40
13.0
 40
13.0
 40
14.0
 40
14.0
 40
14.0
 40
15.0
 40
15.0
 40
15.0
 40
16.0
 40
16.0
 40
16.0
 40
17.0
 40
17.0
 40
17.0
 40
18.0
 40
18.0
 40
18.0
 40
19.0
 40
19.0
 40
19.0
 40
20.0
 40
20.0
 40
20.0
 40
21.0
 40
21.0
 40
21.0
 40
22.0
 40
22.0
 40
22.0
 40
23.0
 40
23.0
 40
23.0
 40
24.0
 40
24.0
 40
24.0
 40
25.0
 40
25.0
 40
25.0
 40
25.0
 10
90.89970565218827
 20
-130.2690510742036
 10
90.71780461056709
 20
-130.1484727322198
 10
90.63942868827765
 20
-130.0723361219958
 10
90.56122502076248
 20
-129.9834526584764
 10
90.40895180031443
 20
-130.1443386176375
 10
90.2947468849784
 20
-130.2184081705704
 10
90.1762356002858
 20
-130.2776638129167
 10
90.1762356002858
 20
-130.2776638129167
 10
89.99002818930805
 20
-130.1274576497598
 10
89.99002818930805
 20
-130.1274576497598
 10
90.16779511634694
 20
-130.0640678928312
 10
90.31369491014728
 20
-129.9920653971895
 10
90.45115422000875
 20
-129.8373806099018
 10
90.32437470615154
 20
-129.6323974285294
 10
90.25237221050983
 20
-129.4019205405662
 10
90.22705075869324
 20
-129.1628309138898
 10
90.22705075869324
 20
-129.1628309138898
 10
90.16348874699038
 20
-129.1628309138898
 10
90.16348874699038
 20
-129.1628309138898
 10
90.16348874699038
 20
-129.1628309138898
 10
90.16348874699038
 20
-129.2517143774093
 10
90.16348874699038
 20
-129.2517143774093
 10
90.16348874699038
 20
-129.488392437246
 10
90.14454072182151
 20
-129.9707058051809
 10
89.87151690461546
 20
-130.2859320420813
 10
89.87151690461546
 20
-130.2859320420813
 10
89.68324243634656
 20
-130.1739664388107
 10
89.68324243634656
 20
-130.1739664388107
 10
89.94558645754833
 20
-129.9476236654298
 10
89.97728133601262
 20
-129.5962239259343
 10
89.97728133601262
 20
-129.1521511178856
 10
89.97728133601262
 20
-128.8200439131075
 10
89.97314722143032
 20
-128.6062757382477
 10
89.96470673749147
 20
-128.4560695750909
 10
90.07047116888863
 20
-128.4667493710951
 10
90.15711532034267
 20
-128.4708834856774
 10
90.30956079556498
 20
-128.4708834856774
 10
90.30956079556498
 20
-128.4708834856774
 10
90.67766924816392
 20
-128.4708834856774
 10
90.67766924816392
 20
-128.4708834856774
 10
90.77275388355682
 20
-128.4708834856774
 10
90.954654925178
 20
-128.4624430017386
 10
91.02872447811087
 20
-128.4540025177997
 10
91.02872447811087
 20
-128.4540025177997
 10
91.02872447811087
 20
-128.6591579539463
 10
91.02872447811087
 20
-128.6591579539463
 10
90.92933347336142
 20
-128.6486504127163
 10
90.81512855802539
 20
-128.6465833554252
 10
90.58241235799676
 20
-128.6465833554252
 10
90.58241235799676
 20
-128.6465833554252
 10
90.54003768352818
 20
-128.6465833554252
 10
90.54003768352818
 20
-128.6465833554252
 10
90.54003768352818
 20
-128.6465833554252
 10
90.16348874699038
 20
-128.6465833554252
 10
90.16348874699038
 20
-128.6465833554252
 10
90.16348874699038
 20
-128.6465833554252
 10
90.16348874699038
 20
-128.9891981014333
 10
90.16348874699038
 20
-128.9891981014333
 10
90.16348874699038
 20
-128.9891981014333
 10
90.51678328900276
 20
-128.9891981014333
 10
90.51678328900276
 20
-128.9891981014333
 10
90.56966550470133
 20
-128.9891981014333
 10
90.80875513137768
 20
-128.9829969295598
 10
90.8573309777197
 20
-128.9809298722687
 10
90.8573309777197
 20
-128.9809298722687
 10
90.93363984271798
 20
-129.0718803930793
 10
90.93363984271798
 20
-129.0718803930793
 10
90.85112980584626
 20
-129.4842583226637
 10
90.7939412207911
 20
-129.6513454536983
 10
90.67766924816392
 20
-129.8311794380283
 10
90.7663804569091
 20
-129.9286756402609
 10
90.86370440436741
 20
-130.0172145942318
 10
91.06472572593174
 20
-130.1147107964644
 10
91.06472572593174
 20
-130.1147107964644
 10
90.89970565218827
 20
-130.2690510742036
 10
90.89970565218827
 20
-130.2690510742036
 97
        0
 97
        0
 92
        1
 93
        1
 72
     4
 94
        3
 73
     0
 74
     1
 95
       14
 96
       10
 40
0.0
 40
0.0
 40
0.0
 40
0.0
 40
1.0
 40
1.0
 40
1.0
 40
2.0
 40
2.0
 40
2.0
 40
3.0
 40
3.0
 40
3.0
 40
3.0
 10
90.41308591489673
 20
-129.1628309138898
 10
90.43013913754872
 20
-129.3402533313802
 10
90.4766479265996
 20
-129.5138861438368
 10
90.56122502076248
 20
-129.6702934788672
 10
90.60773380981335
 20
-129.5793429580566
 10
90.68610973210278
 20
-129.3995089737265
 10
90.71143118391937
 20
-129.1628309138898
 10
90.71143118391937
 20
-129.1628309138898
 10
90.41308591489673
 20
-129.1628309138898
 10
90.41308591489673
 20
-129.1628309138898
 97
        0
 97
        0
 75
     2
 76
     1
 98
        0
  0
SPLINE
  5
12A
330
10D
100
AcDbEntity
  8
_U+30EC_U+30A4_U+30E4_U+30FC 1
370
     0
100
AcDbSpline
210
0.0
220
0.0
230
1.0
 70
    11
 71
     3
 72
    53
 73
    49
 74
     0
 42
0.0000000001
 43
0.0000000001
 12
1.0
 22
0.0
 32
0.0
 13
1.0
 23
0.0
 33
0.0
 40
0.0
 40
0.0
 40
0.0
 40
0.0
 40
1.0
 40
1.0
 40
1.0
 40
2.0
 40
2.0
 40
2.0
 40
3.0
 40
3.0
 40
3.0
 40
4.0
 40
4.0
 40
4.0
 40
5.0
 40
5.0
 40
5.0
 40
6.0
 40
6.0
 40
6.0
 40
7.0
 40
7.0
 40
7.0
 40
8.0
 40
8.0
 40
8.0
 40
9.0
 40
9.0
 40
9.0
 40
10.0
 40
10.0
 40
10.0
 40
11.0
 40
11.0
 40
11.0
 40
12.0
 40
12.0
 40
12.0
 40
13.0
 40
13.0
 40
13.0
 40
14.0
 40
14.0
 40
14.0
 40
15.0
 40
15.0
 40
15.0
 40
16.0
 40
16.0
 40
16.0
 40
16.0
 10
91.62024737292828
 20
-130.2118624891484
 30
0.0
 10
91.42973359259396
 20
-130.2118624891484
 30
0.0
 10
91.37047795024766
 20
-130.0871500325824
 30
0.0
 10
91.37047795024766
 20
-129.9390109267166
 30
0.0
 10
91.37047795024766
 20
-129.9390109267166
 30
0.0
 10
91.37047795024766
 20
-129.2451686959873
 30
0.0
 10
91.37047795024766
 20
-129.2451686959873
 30
0.0
 10
91.37047795024766
 20
-129.2451686959873
 30
0.0
 10
91.18857690862647
 20
-129.2451686959873
 30
0.0
 10
91.18857690862647
 20
-129.2451686959873
 30
0.0
 10
91.18857690862647
 20
-129.2451686959873
 30
0.0
 10
91.18857690862647
 20
-129.0525878583618
 30
0.0
 10
91.18857690862647
 20
-129.0525878583618
 30
0.0
 10
91.18857690862647
 20
-129.0525878583618
 30
0.0
 10
91.37047795024766
 20
-129.0525878583618
 30
0.0
 10
91.37047795024766
 20
-129.0525878583618
 30
0.0
 10
91.37047795024766
 20
-129.0525878583618
 30
0.0
 10
91.37047795024766
 20
-128.7375338762358
 30
0.0
 10
91.37047795024766
 20
-128.7375338762358
 30
0.0
 10
91.37047795024766
 20
-128.7375338762358
 30
0.0
 10
91.58855249446398
 20
-128.7375338762358
 30
0.0
 10
91.58855249446398
 20
-128.7375338762358
 30
0.0
 10
91.58855249446398
 20
-128.7375338762358
 30
0.0
 10
91.58855249446398
 20
-129.0525878583618
 30
0.0
 10
91.58855249446398
 20
-129.0525878583618
 30
0.0
 10
91.58855249446398
 20
-129.0525878583618
 30
0.0
 10
91.77872176524977
 20
-129.0525878583618
 30
0.0
 10
91.77872176524977
 20
-129.0525878583618
 30
0.0
 10
91.77872176524977
 20
-129.0525878583618
 30
0.0
 10
91.77872176524977
 20
-129.2451686959873
 30
0.0
 10
91.77872176524977
 20
-129.2451686959873
 30
0.0
 10
91.77872176524977
 20
-129.2451686959873
 30
0.0
 10
91.58855249446398
 20
-129.2451686959873
 30
0.0
 10
91.58855249446398
 20
-129.2451686959873
 30
0.0
 10
91.58855249446398
 20
-129.2451686959873
 30
0.0
 10
91.58855249446398
 20
-129.9138617296743
 30
0.0
 10
91.58855249446398
 20
-129.9138617296743
 30
0.0
 10
91.58855249446398
 20
-129.9982665690629
 30
0.0
 10
91.6412624553883
 20
-130.0216932183626
 30
0.0
 10
91.71326495103003
 20
-130.0216932183626
 30
0.0
 10
91.7239447470343
 20
-130.0216932183626
 30
0.0
 10
91.74702688678546
 20
-130.0216932183626
 30
0.0
 10
91.77872176524977
 20
-130.0172145942318
 30
0.0
 10
91.77872176524977
 20
-130.0172145942318
 30
0.0
 10
91.77872176524977
 20
-130.1887803493973
 30
0.0
 10
91.77872176524977
 20
-130.1887803493973
 30
0.0
 10
91.74495982949432
 20
-130.2015272026927
 30
0.0
 10
91.67089027656145
 20
-130.2118624891484
 30
0.0
 10
91.62024737292828
 20
-130.2118624891484
 30
0.0
  0
HATCH
  5
12B
330
10D
100
AcDbEntity
  8
_U+30EC_U+30A4_U+30E4_U+30FC 1
 62
   179
420
  2234388
100
AcDbHatch
 10
0.0
 20
0.0
 30
0.0
210
0.0
220
0.0
230
1.0
  2
SOLID
 70
     1
 71
     0
 91
        1
 92
        1
 93
        1
 72
     4
 94
        3
 73
     0
 74
     1
 95
       53
 96
       49
 40
0.0
 40
0.0
 40
0.0
 40
0.0
 40
1.0
 40
1.0
 40
1.0
 40
2.0
 40
2.0
 40
2.0
 40
3.0
 40
3.0
 40
3.0
 40
4.0
 40
4.0
 40
4.0
 40
5.0
 40
5.0
 40
5.0
 40
6.0
 40
6.0
 40
6.0
 40
7.0
 40
7.0
 40
7.0
 40
8.0
 40
8.0
 40
8.0
 40
9.0
 40
9.0
 40
9.0
 40
10.0
 40
10.0
 40
10.0
 40
11.0
 40
11.0
 40
11.0
 40
12.0
 40
12.0
 40
12.0
 40
13.0
 40
13.0
 40
13.0
 40
14.0
 40
14.0
 40
14.0
 40
15.0
 40
15.0
 40
15.0
 40
16.0
 40
16.0
 40
16.0
 40
16.0
 10
91.62024737292828
 20
-130.2118624891484
 10
91.42973359259396
 20
-130.2118624891484
 10
91.37047795024766
 20
-130.0871500325824
 10
91.37047795024766
 20
-129.9390109267166
 10
91.37047795024766
 20
-129.9390109267166
 10
91.37047795024766
 20
-129.2451686959873
 10
91.37047795024766
 20
-129.2451686959873
 10
91.37047795024766
 20
-129.2451686959873
 10
91.18857690862647
 20
-129.2451686959873
 10
91.18857690862647
 20
-129.2451686959873
 10
91.18857690862647
 20
-129.2451686959873
 10
91.18857690862647
 20
-129.0525878583618
 10
91.18857690862647
 20
-129.0525878583618
 10
91.18857690862647
 20
-129.0525878583618
 10
91.37047795024766
 20
-129.0525878583618
 10
91.37047795024766
 20
-129.0525878583618
 10
91.37047795024766
 20
-129.0525878583618
 10
91.37047795024766
 20
-128.7375338762358
 10
91.37047795024766
 20
-128.7375338762358
 10
91.37047795024766
 20
-128.7375338762358
 10
91.58855249446398
 20
-128.7375338762358
 10
91.58855249446398
 20
-128.7375338762358
 10
91.58855249446398
 20
-128.7375338762358
 10
91.58855249446398
 20
-129.0525878583618
 10
91.58855249446398
 20
-129.0525878583618
 10
91.58855249446398
 20
-129.0525878583618
 10
91.77872176524977
 20
-129.0525878583618
 10
91.77872176524977
 20
-129.0525878583618
 10
91.77872176524977
 20
-129.0525878583618
 10
91.77872176524977
 20
-129.2451686959873
 10
91.77872176524977
 20
-129.2451686959873
 10
91.77872176524977
 20
-129.2451686959873
 10
91.58855249446398
 20
-129.2451686959873
 10
91.58855249446398
 20
-129.2451686959873
 10
91.58855249446398
 20
-129.2451686959873
 10
91.58855249446398
 20
-129.9138617296743
 10
91.58855249446398
 20
-129.9138617296743
 10
91.58855249446398
 20
-129.9982665690629
 10
91.6412624553883
 20
-130.0216932183626
 10
91.71326495103003
 20
-130.0216932183626
 10
91.7239447470343
 20
-130.0216932183626
 10
91.74702688678546
 20
-130.0216932183626
 10
91.77872176524977
 20
-130.0172145942318
 10
91.77872176524977
 20
-130.0172145942318
 10
91.77872176524977
 20
-130.1887803493973
 10
91.77872176524977
 20
-130.1887803493973
 10
91.74495982949432
 20
-130.2015272026927
 10
91.67089027656145
 20
-130.2118624891484
 10
91.62024737292828
 20
-130.2118624891484
 97
        0
 97
        0
 75
     2
 76
     1
 98
        0
  0
POLYLINE
  5
12C
330
10D
100
AcDbEntity
  8
_U+30EC_U+30A4_U+30E4_U+30FC 1
370
     0
100
AcDb2dPolyline
 66
     1
 10
0.0
 20
0.0
 30
0.0
  0
VERTEX
  5
12D
330
12C
100
AcDbEntity
  8
_U+30EC_U+30A4_U+30E4_U+30FC 1
370
     0
100
AcDbVertex
100
AcDb2dVertex
 10
91.95269908725489
 20
-129.2747965171605
 30
0.0
  0
VERTEX
  5
12E
330
12C
100
AcDbEntity
  8
_U+30EC_U+30A4_U+30E4_U+30FC 1
370
     0
100
AcDbVertex
100
AcDb2dVertex
 10
91.95269908725489
 20
-129.0694688262396
 30
0.0
  0
VERTEX
  5
12F
330
12C
100
AcDbEntity
  8
_U+30EC_U+30A4_U+30E4_U+30FC 1
370
     0
100
AcDbVertex
100
AcDb2dVertex
 10
93.13092174321032
 20
-129.0694688262396
 30
0.0
  0
VERTEX
  5
130
330
12C
100
AcDbEntity
  8
_U+30EC_U+30A4_U+30E4_U+30FC 1
370
     0
100
AcDbVertex
100
AcDb2dVertex
 10
93.13092174321032
 20
-129.2747965171605
 30
0.0
  0
VERTEX
  5
131
330
12C
100
AcDbEntity
  8
_U+30EC_U+30A4_U+30E4_U+30FC 1
370
     0
100
AcDbVertex
100
AcDb2dVertex
 10
91.95269908725489
 20
-129.2747965171605
 30
0.0
  0
SEQEND
  5
132
330
12C
100
AcDbEntity
  8
_U+30EC_U+30A4_U+30E4_U+30FC 1
370
     0
  0
POLYLINE
  5
133
330
10D
100
AcDbEntity
  8
_U+30EC_U+30A4_U+30E4_U+30FC 1
370
     0
100
AcDb2dPolyline
 66
     1
 10
0.0
 20
0.0
 30
0.0
  0
VERTEX
  5
134
330
133
100
AcDbEntity
  8
_U+30EC_U+30A4_U+30E4_U+30FC 1
370
     0
100
AcDbVertex
100
AcDb2dVertex
 10
91.95269908725489
 20
-129.7085340387534
 30
0.0
  0
VERTEX
  5
135
330
133
100
AcDbEntity
  8
_U+30EC_U+30A4_U+30E4_U+30FC 1
370
     0
100
AcDbVertex
100
AcDb2dVertex
 10
91.95269908725489
 20
-129.5032063478325
 30
0.0
  0
VERTEX
  5
136
330
133
100
AcDbEntity
  8
_U+30EC_U+30A4_U+30E4_U+30FC 1
370
     0
100
AcDbVertex
100
AcDb2dVertex
 10
93.13092174321032
 20
-129.5032063478325
 30
0.0
  0
VERTEX
  5
137
330
133
100
AcDbEntity
  8
_U+30EC_U+30A4_U+30E4_U+30FC 1
370
     0
100
AcDbVertex
100
AcDb2dVertex
 10
93.13092174321032
 20
-129.7085340387534
 30
0.0
  0
VERTEX
  5
138
330
133
100
AcDbEntity
  8
_U+30EC_U+30A4_U+30E4_U+30FC 1
370
     0
100
AcDbVertex
100
AcDb2dVertex
 10
91.95269908725489
 20
-129.7085340387534
 30
0.0
  0
SEQEND
  5
139
330
133
100
AcDbEntity
  8
_U+30EC_U+30A4_U+30E4_U+30FC 1
370
     0
  0
HATCH
  5
13A
330
10D
100
AcDbEntity
  8
_U+30EC_U+30A4_U+30E4_U+30FC 1
 62
   179
420
  2234388
100
AcDbHatch
 10
0.0
 20
0.0
 30
0.0
210
0.0
220
0.0
230
1.0
  2
SOLID
 70
     1
 71
     0
 91
        2
 92
        1
 93
        4
 72
     1
 10
91.95269908725489
 20
-129.2747965171605
 11
91.95269908725489
 21
-129.0694688262396
 72
     1
 10
91.95269908725489
 20
-129.0694688262396
 11
93.13092174321032
 21
-129.0694688262396
 72
     1
 10
93.13092174321032
 20
-129.0694688262396
 11
93.13092174321032
 21
-129.2747965171605
 72
     1
 10
93.13092174321032
 20
-129.2747965171605
 11
91.95269908725489
 21
-129.2747965171605
 97
        0
 92
        1
 93
        4
 72
     1
 10
91.95269908725489
 20
-129.7085340387534
 11
91.95269908725489
 21
-129.5032063478325
 72
     1
 10
91.95269908725489
 20
-129.5032063478325
 11
93.13092174321032
 21
-129.5032063478325
 72
     1
 10
93.13092174321032
 20
-129.5032063478325
 11
93.13092174321032
 21
-129.7085340387534
 72
     1
 10
93.13092174321032
 20
-129.7085340387534
 11
91.95269908725489
 21
-129.7085340387534
 97
        0
 75
     2
 76
     1
 98
        0
  0
SPLINE
  5
13B
330
10D
100
AcDbEntity
  8
_U+30EC_U+30A4_U+30E4_U+30FC 1
370
     0
100
AcDbSpline
210
0.0
220
0.0
230
1.0
 70
    11
 71
     3
 72
    29
 73
    25
 74
     0
 42
0.0000000001
 43
0.0000000001
 12
1.0
 22
0.0
 32
0.0
 13
1.0
 23
0.0
 33
0.0
 40
0.0
 40
0.0
 40
0.0
 40
0.0
 40
1.0
 40
1.0
 40
1.0
 40
2.0
 40
2.0
 40
2.0
 40
3.0
 40
3.0
 40
3.0
 40
4.0
 40
4.0
 40
4.0
 40
5.0
 40
5.0
 40
5.0
 40
6.0
 40
6.0
 40
6.0
 40
7.0
 40
7.0
 40
7.0
 40
8.0
 40
8.0
 40
8.0
 40
8.0
 10
94.2529893427562
 20
-129.9834526584764
 30
0.0
 10
94.14515785406788
 20
-130.1929144639795
 30
0.0
 10
93.97152504161129
 20
-130.2118624891484
 30
0.0
 10
93.85542532375837
 20
-130.2118624891484
 30
0.0
 10
93.6945393645972
 20
-130.2118624891484
 30
0.0
 10
93.55260143060491
 20
-130.1653537000976
 30
0.0
 10
93.45751679521202
 20
-129.9834526584764
 30
0.0
 10
93.353819421106
 20
-129.7888047635597
 30
0.0
 10
93.33487139593711
 20
-129.5521267037231
 30
0.0
 10
93.33487139593711
 20
-129.3891736872708
 30
0.0
 10
93.33487139593711
 20
-129.2451686959873
 30
0.0
 10
93.35175236381484
 20
-128.9933322160156
 30
0.0
 10
93.45751679521202
 20
-128.7945502065166
 30
0.0
 10
93.56534828390033
 20
-128.5914618276612
 30
0.0
 10
93.7262342430615
 20
-128.5682074331357
 30
0.0
 10
93.85542532375837
 20
-128.5682074331357
 30
0.0
 10
94.01389971607986
 20
-128.5682074331357
 30
0.0
 10
94.1579047073633
 20
-128.6126491648955
 30
0.0
 10
94.2529893427562
 20
-128.7945502065166
 30
0.0
 10
94.35255260227993
 20
-128.9871310441421
 30
0.0
 10
94.3756347420311
 20
-129.2155408748142
 30
0.0
 10
94.3756347420311
 20
-129.3891736872708
 30
0.0
 10
94.3756347420311
 20
-129.5603949328877
 30
0.0
 10
94.35461965957107
 20
-129.7908718208509
 30
0.0
 10
94.2529893427562
 20
-129.9834526584764
 30
0.0
  0
SPLINE
  5
13C
330
10D
100
AcDbEntity
  8
_U+30EC_U+30A4_U+30E4_U+30FC 1
370
     0
100
AcDbSpline
210
0.0
220
0.0
230
1.0
 70
    11
 71
     3
 72
    17
 73
    13
 74
     0
 42
0.0000000001
 43
0.0000000001
 12
1.0
 22
0.0
 32
0.0
 13
1.0
 23
0.0
 33
0.0
 40
0.0
 40
0.0
 40
0.0
 40
0.0
 40
1.0
 40
1.0
 40
1.0
 40
2.0
 40
2.0
 40
2.0
 40
3.0
 40
3.0
 40
3.0
 40
4.0
 40
4.0
 40
4.0
 40
4.0
 10
93.85542532375837
 20
-128.7607882707612
 30
0.0
 10
93.60565590107775
 20
-128.7607882707612
 30
0.0
 10
93.55914711202688
 20
-129.0443196291972
 30
0.0
 10
93.55914711202688
 20
-129.3891736872708
 30
0.0
 10
93.55914711202688
 20
-129.7085340387534
 30
0.0
 10
93.59497610507348
 20
-130.0172145942318
 30
0.0
 10
93.85542532375837
 20
-130.0172145942318
 30
0.0
 10
94.10278317959931
 20
-130.0172145942318
 30
0.0
 10
94.15135902594133
 20
-129.7360948026354
 30
0.0
 10
94.15135902594133
 20
-129.3891736872708
 30
0.0
 10
94.15135902594133
 20
-129.0694688262396
 30
0.0
 10
94.11346297560358
 20
-128.7607882707612
 30
0.0
 10
93.85542532375837
 20
-128.7607882707612
 30
0.0
  0
HATCH
  5
13D
330
10D
100
AcDbEntity
  8
_U+30EC_U+30A4_U+30E4_U+30FC 1
 62
   179
420
  2234388
100
AcDbHatch
 10
0.0
 20
0.0
 30
0.0
210
0.0
220
0.0
230
1.0
  2
SOLID
 70
     1
 71
     0
 91
        2
 92
        1
 93
        1
 72
     4
 94
        3
 73
     0
 74
     1
 95
       29
 96
       25
 40
0.0
 40
0.0
 40
0.0
 40
0.0
 40
1.0
 40
1.0
 40
1.0
 40
2.0
 40
2.0
 40
2.0
 40
3.0
 40
3.0
 40
3.0
 40
4.0
 40
4.0
 40
4.0
 40
5.0
 40
5.0
 40
5.0
 40
6.0
 40
6.0
 40
6.0
 40
7.0
 40
7.0
 40
7.0
 40
8.0
 40
8.0
 40
8.0
 40
8.0
 10
94.2529893427562
 20
-129.9834526584764
 10
94.14515785406788
 20
-130.1929144639795
 10
93.97152504161129
 20
-130.2118624891484
 10
93.85542532375837
 20
-130.2118624891484
 10
93.6945393645972
 20
-130.2118624891484
 10
93.55260143060491
 20
-130.1653537000976
 10
93.45751679521202
 20
-129.9834526584764
 10
93.353819421106
 20
-129.7888047635597
 10
93.33487139593711
 20
-129.5521267037231
 10
93.33487139593711
 20
-129.3891736872708
 10
93.33487139593711
 20
-129.2451686959873
 10
93.35175236381484
 20
-128.9933322160156
 10
93.45751679521202
 20
-128.7945502065166
 10
93.56534828390033
 20
-128.5914618276612
 10
93.7262342430615
 20
-128.5682074331357
 10
93.85542532375837
 20
-128.5682074331357
 10
94.01389971607986
 20
-128.5682074331357
 10
94.1579047073633
 20
-128.6126491648955
 10
94.2529893427562
 20
-128.7945502065166
 10
94.35255260227993
 20
-128.9871310441421
 10
94.3756347420311
 20
-129.2155408748142
 10
94.3756347420311
 20
-129.3891736872708
 10
94.3756347420311
 20
-129.5603949328877
 10
94.35461965957107
 20
-129.7908718208509
 10
94.2529893427562
 20
-129.9834526584764
 97
        0
 97
        0
 92
        1
 93
        1
 72
     4
 94
        3
 73
     0
 74
     1
 95
       17
 96
       13
 40
0.0
 40
0.0
 40
0.0
 40
0.0
 40
1.0
 40
1.0
 40
1.0
 40
2.0
 40
2.0
 40
2.0
 40
3.0
 40
3.0
 40
3.0
 40
4.0
 40
4.0
 40
4.0
 40
4.0
 10
93.85542532375837
 20
-128.7607882707612
 10
93.60565590107775
 20
-128.7607882707612
 10
93.55914711202688
 20
-129.0443196291972
 10
93.55914711202688
 20
-129.3891736872708
 10
93.55914711202688
 20
-129.7085340387534
 10
93.59497610507348
 20
-130.0172145942318
 10
93.85542532375837
 20
-130.0172145942318
 10
94.10278317959931
 20
-130.0172145942318
 10
94.15135902594133
 20
-129.7360948026354
 10
94.15135902594133
 20
-129.3891736872708
 10
94.15135902594133
 20
-129.0694688262396
 10
94.11346297560358
 20
-128.7607882707612
 10
93.85542532375837
 20
-128.7607882707612
 97
        0
 97
        0
 75
     2
 76
     1
 98
        0
  0
POLYLINE
  5
13E
330
10D
100
AcDbEntity
  8
_U+30EC_U+30A4_U+30E4_U+30FC 1
370
     0
100
AcDb2dPolyline
 66
     1
 10
0.0
 20
0.0
 30
0.0
  0
VERTEX
  5
13F
330
13E
100
AcDbEntity
  8
_U+30EC_U+30A4_U+30E4_U+30FC 1
370
     0
100
AcDbVertex
100
AcDb2dVertex
 10
94.59198673850479
 20
-130.1612195855153
 30
0.0
  0
VERTEX
  5
140
330
13E
100
AcDbEntity
  8
_U+30EC_U+30A4_U+30E4_U+30FC 1
370
     0
100
AcDbVertex
100
AcDb2dVertex
 10
94.59198673850479
 20
-129.9093831055435
 30
0.0
  0
VERTEX
  5
141
330
13E
100
AcDbEntity
  8
_U+30EC_U+30A4_U+30E4_U+30FC 1
370
     0
100
AcDbVertex
100
AcDb2dVertex
 10
94.84382321847654
 20
-129.9093831055435
 30
0.0
  0
VERTEX
  5
142
330
13E
100
AcDbEntity
  8
_U+30EC_U+30A4_U+30E4_U+30FC 1
370
     0
100
AcDbVertex
100
AcDb2dVertex
 10
94.84382321847654
 20
-130.1612195855153
 30
0.0
  0
VERTEX
  5
143
330
13E
100
AcDbEntity
  8
_U+30EC_U+30A4_U+30E4_U+30FC 1
370
     0
100
AcDbVertex
100
AcDb2dVertex
 10
94.59198673850479
 20
-130.1612195855153
 30
0.0
  0
SEQEND
  5
144
330
13E
100
AcDbEntity
  8
_U+30EC_U+30A4_U+30E4_U+30FC 1
370
     0
  0
HATCH
  5
145
330
10D
100
AcDbEntity
  8
_U+30EC_U+30A4_U+30E4_U+30FC 1
 62
   179
420
  2234388
100
AcDbHatch
 10
0.0
 20
0.0
 30
0.0
210
0.0
220
0.0
230
1.0
  2
SOLID
 70
     1
 71
     0
 91
        1
 92
        1
 93
        4
 72
     1
 10
94.59198673850479
 20
-130.1612195855153
 11
94.59198673850479
 21
-129.9093831055435
 72
     1
 10
94.59198673850479
 20
-129.9093831055435
 11
94.84382321847654
 21
-129.9093831055435
 72
     1
 10
94.84382321847654
 20
-129.9093831055435
 11
94.84382321847654
 21
-130.1612195855153
 72
     1
 10
94.84382321847654
 20
-130.1612195855153
 11
94.59198673850479
 21
-130.1612195855153
 97
        0
 75
     2
 76
     1
 98
        0
  0
SPLINE
  5
146
330
10D
100
AcDbEntity
  8
_U+30EC_U+30A4_U+30E4_U+30FC 1
370
     0
100
AcDbSpline
210
0.0
220
0.0
230
1.0
 70
    11
 71
     3
 72
    53
 73
    49
 74
     0
 42
0.0000000001
 43
0.0000000001
 12
1.0
 22
0.0
 32
0.0
 13
1.0
 23
0.0
 33
0.0
 40
0.0
 40
0.0
 40
0.0
 40
0.0
 40
1.0
 40
1.0
 40
1.0
 40
2.0
 40
2.0
 40
2.0
 40
3.0
 40
3.0
 40
3.0
 40
4.0
 40
4.0
 40
4.0
 40
5.0
 40
5.0
 40
5.0
 40
6.0
 40
6.0
 40
6.0
 40
7.0
 40
7.0
 40
7.0
 40
8.0
 40
8.0
 40
8.0
 40
9.0
 40
9.0
 40
9.0
 40
10.0
 40
10.0
 40
10.0
 40
11.0
 40
11.0
 40
11.0
 40
12.0
 40
12.0
 40
12.0
 40
13.0
 40
13.0
 40
13.0
 40
14.0
 40
14.0
 40
14.0
 40
15.0
 40
15.0
 40
15.0
 40
16.0
 40
16.0
 40
16.0
 40
16.0
 10
95.5614366080541
 20
-130.2118624891484
 30
0.0
 10
95.4828884309904
 20
-130.2118624891484
 30
0.0
 10
95.38160262372405
 20
-130.1949815212707
 30
0.0
 10
95.27997230690917
 20
-130.1315917643421
 30
0.0
 10
95.10633949445258
 20
-130.0216932183626
 30
0.0
 10
95.08532441199256
 20
-129.8904350803746
 30
0.0
 10
95.06637638682369
 20
-129.7826035916863
 30
0.0
 10
95.06637638682369
 20
-129.7826035916863
 30
0.0
 10
95.28824053607377
 20
-129.7826035916863
 30
0.0
 10
95.28824053607377
 20
-129.7826035916863
 30
0.0
 10
95.34336206383777
 20
-129.9813856011852
 30
0.0
 10
95.47014157769497
 20
-130.0110134223584
 30
0.0
 10
95.56350366534524
 20
-130.0110134223584
 30
0.0
 10
95.70303003249786
 20
-130.0110134223584
 30
0.0
 10
95.8553032529459
 20
-129.9114501628347
 30
0.0
 10
95.8553032529459
 20
-129.6789062175803
 30
0.0
 10
95.8553032529459
 20
-129.4229356230262
 30
0.0
 10
95.67546926861586
 20
-129.3530001846756
 30
0.0
 10
95.55489092663211
 20
-129.3530001846756
 30
0.0
 10
95.52319604816782
 20
-129.3530001846756
 30
0.0
 10
95.38160262372405
 20
-129.3530001846756
 30
0.0
 10
95.2927191602046
 20
-129.4821912653725
 30
0.0
 10
95.2927191602046
 20
-129.4821912653725
 30
0.0
 10
95.11701929045687
 20
-129.4632432402036
 30
0.0
 10
95.11701929045687
 20
-129.4632432402036
 30
0.0
 10
95.11701929045687
 20
-129.4632432402036
 30
0.0
 10
95.23759763244061
 20
-128.616955534252
 30
0.0
 10
95.23759763244061
 20
-128.616955534252
 30
0.0
 10
95.23759763244061
 20
-128.616955534252
 30
0.0
 10
96.01618921210707
 20
-128.616955534252
 30
0.0
 10
96.01618921210707
 20
-128.616955534252
 30
0.0
 10
96.01618921210707
 20
-128.616955534252
 30
0.0
 10
96.01618921210707
 20
-128.8114311743944
 30
0.0
 10
96.01618921210707
 20
-128.8114311743944
 30
0.0
 10
96.01618921210707
 20
-128.8114311743944
 30
0.0
 10
95.40055064889292
 20
-128.8114311743944
 30
0.0
 10
95.40055064889292
 20
-128.8114311743944
 30
0.0
 10
95.40055064889292
 20
-128.8114311743944
 30
0.0
 10
95.33474932512465
 20
-129.2344888999831
 30
0.0
 10
95.33474932512465
 20
-129.2344888999831
 30
0.0
 10
95.39641653431062
 20
-129.2007269642276
 30
0.0
 10
95.4787543164081
 20
-129.1604193470502
 30
0.0
 10
95.59726560110069
 20
-129.1604193470502
 30
0.0
 10
95.8511691383636
 20
-129.1604193470502
 30
0.0
 10
96.08819170774879
 20
-129.3467990128022
 30
0.0
 10
96.08819170774879
 20
-129.6599581924114
 30
0.0
 10
96.08819170774879
 20
-129.9772514866029
 30
0.0
 10
95.86391599165903
 20
-130.2118624891484
 30
0.0
 10
95.5614366080541
 20
-130.2118624891484
 30
0.0
  0
HATCH
  5
147
330
10D
100
AcDbEntity
  8
_U+30EC_U+30A4_U+30E4_U+30FC 1
 62
   179
420
  2234388
100
AcDbHatch
 10
0.0
 20
0.0
 30
0.0
210
0.0
220
0.0
230
1.0
  2
SOLID
 70
     1
 71
     0
 91
        1
 92
        1
 93
        1
 72
     4
 94
        3
 73
     0
 74
     1
 95
       53
 96
       49
 40
0.0
 40
0.0
 40
0.0
 40
0.0
 40
1.0
 40
1.0
 40
1.0
 40
2.0
 40
2.0
 40
2.0
 40
3.0
 40
3.0
 40
3.0
 40
4.0
 40
4.0
 40
4.0
 40
5.0
 40
5.0
 40
5.0
 40
6.0
 40
6.0
 40
6.0
 40
7.0
 40
7.0
 40
7.0
 40
8.0
 40
8.0
 40
8.0
 40
9.0
 40
9.0
 40
9.0
 40
10.0
 40
10.0
 40
10.0
 40
11.0
 40
11.0
 40
11.0
 40
12.0
 40
12.0
 40
12.0
 40
13.0
 40
13.0
 40
13.0
 40
14.0
 40
14.0
 40
14.0
 40
15.0
 40
15.0
 40
15.0
 40
16.0
 40
16.0
 40
16.0
 40
16.0
 10
95.5614366080541
 20
-130.2118624891484
 10
95.4828884309904
 20
-130.2118624891484
 10
95.38160262372405
 20
-130.1949815212707
 10
95.27997230690917
 20
-130.1315917643421
 10
95.10633949445258
 20
-130.0216932183626
 10
95.08532441199256
 20
-129.8904350803746
 10
95.06637638682369
 20
-129.7826035916863
 10
95.06637638682369
 20
-129.7826035916863
 10
95.28824053607377
 20
-129.7826035916863
 10
95.28824053607377
 20
-129.7826035916863
 10
95.34336206383777
 20
-129.9813856011852
 10
95.47014157769497
 20
-130.0110134223584
 10
95.56350366534524
 20
-130.0110134223584
 10
95.70303003249786
 20
-130.0110134223584
 10
95.8553032529459
 20
-129.9114501628347
 10
95.8553032529459
 20
-129.6789062175803
 10
95.8553032529459
 20
-129.4229356230262
 10
95.67546926861586
 20
-129.3530001846756
 10
95.55489092663211
 20
-129.3530001846756
 10
95.52319604816782
 20
-129.3530001846756
 10
95.38160262372405
 20
-129.3530001846756
 10
95.2927191602046
 20
-129.4821912653725
 10
95.2927191602046
 20
-129.4821912653725
 10
95.11701929045687
 20
-129.4632432402036
 10
95.11701929045687
 20
-129.4632432402036
 10
95.11701929045687
 20
-129.4632432402036
 10
95.23759763244061
 20
-128.616955534252
 10
95.23759763244061
 20
-128.616955534252
 10
95.23759763244061
 20
-128.616955534252
 10
96.01618921210707
 20
-128.616955534252
 10
96.01618921210707
 20
-128.616955534252
 10
96.01618921210707
 20
-128.616955534252
 10
96.01618921210707
 20
-128.8114311743944
 10
96.01618921210707
 20
-128.8114311743944
 10
96.01618921210707
 20
-128.8114311743944
 10
95.40055064889292
 20
-128.8114311743944
 10
95.40055064889292
 20
-128.8114311743944
 10
95.40055064889292
 20
-128.8114311743944
 10
95.33474932512465
 20
-129.2344888999831
 10
95.33474932512465
 20
-129.2344888999831
 10
95.39641653431062
 20
-129.2007269642276
 10
95.4787543164081
 20
-129.1604193470502
 10
95.59726560110069
 20
-129.1604193470502
 10
95.8511691383636
 20
-129.1604193470502
 10
96.08819170774879
 20
-129.3467990128022
 10
96.08819170774879
 20
-129.6599581924114
 10
96.08819170774879
 20
-129.9772514866029
 10
95.86391599165903
 20
-130.2118624891484
 10
95.5614366080541
 20
-130.2118624891484
 97
        0
 97
        0
 75
     2
 76
     1
 98
        0
  0
ENDBLK
  5
110
330
10D
100
AcDbEntity
  8
0
100
AcDbBlockEnd
  0
BLOCK
  5
14A
330
148
100
AcDbEntity
  8
0
100
AcDbBlockBegin
  2
block 9
 70
     0
 10
0.0
 20
0.0
 30
0.0
  3
block 9
  1

  0
SPLINE
  5
14C
330
148
100
AcDbEntity
  8
_U+30EC_U+30A4_U+30E4_U+30FC 1
370
     0
100
AcDbSpline
210
0.0
220
0.0
230
1.0
 70
    11
 71
     3
 72
    38
 73
    34
 74
     0
 42
0.0000000001
 43
0.0000000001
 12
1.0
 22
0.0
 32
0.0
 13
1.0
 23
0.0
 33
0.0
 40
0.0
 40
0.0
 40
0.0
 40
0.0
 40
1.0
 40
1.0
 40
1.0
 40
2.0
 40
2.0
 40
2.0
 40
3.0
 40
3.0
 40
3.0
 40
4.0
 40
4.0
 40
4.0
 40
5.0
 40
5.0
 40
5.0
 40
6.0
 40
6.0
 40
6.0
 40
7.0
 40
7.0
 40
7.0
 40
8.0
 40
8.0
 40
8.0
 40
9.0
 40
9.0
 40
9.0
 40
10.0
 40
10.0
 40
10.0
 40
11.0
 40
11.0
 40
11.0
 40
11.0
 10
95.19384491977793
 20
-137.9399006816609
 30
0.0
 10
95.00746525402592
 20
-138.2000053907972
 30
0.0
 10
94.92719452921959
 20
-138.3119709940678
 30
0.0
 10
94.72841251972068
 20
-138.4814696919422
 30
0.0
 10
94.72841251972068
 20
-138.4814696919422
 30
0.0
 10
94.56132538868606
 20
-138.3312635287853
 30
0.0
 10
94.56132538868606
 20
-138.3312635287853
 30
0.0
 10
94.76010739818497
 20
-138.2127522440927
 30
0.0
 10
94.91651473321532
 20
-138.0243055210495
 30
0.0
 10
95.04983992849449
 20
-137.7958956903774
 30
0.0
 10
95.04983992849449
 20
-137.7958956903774
 30
0.0
 10
94.20785859189942
 20
-137.7958956903774
 30
0.0
 10
94.20785859189942
 20
-137.7958956903774
 30
0.0
 10
94.04490557544712
 20
-137.7958956903774
 30
0.0
 10
93.79341360502387
 20
-137.8020968622509
 30
0.0
 10
93.58601885681183
 20
-137.810709600964
 30
0.0
 10
93.58601885681183
 20
-137.810709600964
 30
0.0
 10
93.58601885681183
 20
-137.6181287633385
 30
0.0
 10
93.58601885681183
 20
-137.6181287633385
 30
0.0
 10
93.75310598784645
 20
-137.6288085593428
 30
0.0
 10
94.00907658240051
 20
-137.6329426739251
 30
0.0
 10
94.19752330544368
 20
-137.6329426739251
 30
0.0
 10
94.19752330544368
 20
-137.6329426739251
 30
0.0
 10
94.70291881312983
 20
-137.6329426739251
 30
0.0
 10
94.70291881312983
 20
-137.6329426739251
 30
0.0
 10
94.83831106570015
 20
-137.6329426739251
 30
0.0
 10
95.01194387815674
 20
-137.6181287633385
 30
0.0
 10
95.18971080519563
 20
-137.5929795662962
 30
0.0
 10
95.18971080519563
 20
-137.5929795662962
 30
0.0
 10
95.34611814022597
 20
-137.7852158943732
 30
0.0
 10
95.34611814022597
 20
-137.7852158943732
 30
0.0
 10
95.2996093511751
 20
-137.8065754863817
 30
0.0
 10
95.28479544058852
 20
-137.8127766582551
 30
0.0
 10
95.19384491977793
 20
-137.9399006816609
 30
0.0
  0
SPLINE
  5
14D
330
148
100
AcDbEntity
  8
_U+30EC_U+30A4_U+30E4_U+30FC 1
370
     0
100
AcDbSpline
210
0.0
220
0.0
230
1.0
 70
    11
 71
     3
 72
    29
 73
    25
 74
     0
 42
0.0000000001
 43
0.0000000001
 12
1.0
 22
0.0
 32
0.0
 13
1.0
 23
0.0
 33
0.0
 40
0.0
 40
0.0
 40
0.0
 40
0.0
 40
1.0
 40
1.0
 40
1.0
 40
2.0
 40
2.0
 40
2.0
 40
3.0
 40
3.0
 40
3.0
 40
4.0
 40
4.0
 40
4.0
 40
5.0
 40
5.0
 40
5.0
 40
6.0
 40
6.0
 40
6.0
 40
7.0
 40
7.0
 40
7.0
 40
8.0
 40
8.0
 40
8.0
 40
8.0
 10
94.52963051022176
 20
-138.0263725783406
 30
0.0
 10
94.49552406491779
 20
-138.3881076042919
 30
0.0
 10
94.4555609572889
 20
-138.8135768967202
 30
0.0
 10
93.96670190793193
 20
-139.1815130945449
 30
0.0
 10
93.96670190793193
 20
-139.1815130945449
 30
0.0
 10
93.75965166926842
 20
-139.0481878992657
 30
0.0
 10
93.75965166926842
 20
-139.0481878992657
 30
0.0
 10
93.99839678639624
 20
-138.9127956466954
 30
0.0
 10
94.12552080980196
 20
-138.7160806944877
 30
0.0
 10
94.1510145163928
 20
-138.6761175868588
 30
0.0
 10
94.27365991566771
 20
-138.4856038065244
 30
0.0
 10
94.305354794132
 20
-138.2992241407724
 30
0.0
 10
94.305354794132
 20
-138.0560003995138
 30
0.0
 10
94.305354794132
 20
-138.0094916104629
 30
0.0
 10
94.305354794132
 20
-137.9757296747075
 30
0.0
 10
94.3012206795497
 20
-137.9037271790658
 30
0.0
 10
94.3012206795497
 20
-137.9037271790658
 30
0.0
 10
94.52963051022176
 20
-137.9271538283654
 30
0.0
 10
94.52963051022176
 20
-137.9271538283654
 30
0.0
 10
94.57613929927264
 20
-137.9312879429477
 30
0.0
 10
94.58647458572838
 20
-137.9588487068297
 30
0.0
 10
94.58647458572838
 20
-137.9736626174163
 30
0.0
 10
94.58647458572838
 20
-137.9946776998763
 30
0.0
 10
94.58027341385494
 20
-137.9967447571675
 30
0.0
 10
94.52963051022176
 20
-138.0263725783406
 30
0.0
  0
HATCH
  5
14E
330
148
100
AcDbEntity
  8
_U+30EC_U+30A4_U+30E4_U+30FC 1
 62
   179
420
  2234388
100
AcDbHatch
 10
0.0
 20
0.0
 30
0.0
210
0.0
220
0.0
230
1.0
  2
SOLID
 70
     1
 71
     0
 91
        2
 92
        1
 93
        1
 72
     4
 94
        3
 73
     0
 74
     1
 95
       38
 96
       34
 40
0.0
 40
0.0
 40
0.0
 40
0.0
 40
1.0
 40
1.0
 40
1.0
 40
2.0
 40
2.0
 40
2.0
 40
3.0
 40
3.0
 40
3.0
 40
4.0
 40
4.0
 40
4.0
 40
5.0
 40
5.0
 40
5.0
 40
6.0
 40
6.0
 40
6.0
 40
7.0
 40
7.0
 40
7.0
 40
8.0
 40
8.0
 40
8.0
 40
9.0
 40
9.0
 40
9.0
 40
10.0
 40
10.0
 40
10.0
 40
11.0
 40
11.0
 40
11.0
 40
11.0
 10
95.19384491977793
 20
-137.9399006816609
 10
95.00746525402592
 20
-138.2000053907972
 10
94.92719452921959
 20
-138.3119709940678
 10
94.72841251972068
 20
-138.4814696919422
 10
94.72841251972068
 20
-138.4814696919422
 10
94.56132538868606
 20
-138.3312635287853
 10
94.56132538868606
 20
-138.3312635287853
 10
94.76010739818497
 20
-138.2127522440927
 10
94.91651473321532
 20
-138.0243055210495
 10
95.04983992849449
 20
-137.7958956903774
 10
95.04983992849449
 20
-137.7958956903774
 10
94.20785859189942
 20
-137.7958956903774
 10
94.20785859189942
 20
-137.7958956903774
 10
94.04490557544712
 20
-137.7958956903774
 10
93.79341360502387
 20
-137.8020968622509
 10
93.58601885681183
 20
-137.810709600964
 10
93.58601885681183
 20
-137.810709600964
 10
93.58601885681183
 20
-137.6181287633385
 10
93.58601885681183
 20
-137.6181287633385
 10
93.75310598784645
 20
-137.6288085593428
 10
94.00907658240051
 20
-137.6329426739251
 10
94.19752330544368
 20
-137.6329426739251
 10
94.19752330544368
 20
-137.6329426739251
 10
94.70291881312983
 20
-137.6329426739251
 10
94.70291881312983
 20
-137.6329426739251
 10
94.83831106570015
 20
-137.6329426739251
 10
95.01194387815674
 20
-137.6181287633385
 10
95.18971080519563
 20
-137.5929795662962
 10
95.18971080519563
 20
-137.5929795662962
 10
95.34611814022597
 20
-137.7852158943732
 10
95.34611814022597
 20
-137.7852158943732
 10
95.2996093511751
 20
-137.8065754863817
 10
95.28479544058852
 20
-137.8127766582551
 10
95.19384491977793
 20
-137.9399006816609
 97
        0
 97
        0
 92
        1
 93
        1
 72
     4
 94
        3
 73
     0
 74
     1
 95
       29
 96
       25
 40
0.0
 40
0.0
 40
0.0
 40
0.0
 40
1.0
 40
1.0
 40
1.0
 40
2.0
 40
2.0
 40
2.0
 40
3.0
 40
3.0
 40
3.0
 40
4.0
 40
4.0
 40
4.0
 40
5.0
 40
5.0
 40
5.0
 40
6.0
 40
6.0
 40
6.0
 40
7.0
 40
7.0
 40
7.0
 40
8.0
 40
8.0
 40
8.0
 40
8.0
 10
94.52963051022176
 20
-138.0263725783406
 10
94.49552406491779
 20
-138.3881076042919
 10
94.4555609572889
 20
-138.8135768967202
 10
93.96670190793193
 20
-139.1815130945449
 10
93.96670190793193
 20
-139.1815130945449
 10
93.75965166926842
 20
-139.0481878992657
 10
93.75965166926842
 20
-139.0481878992657
 10
93.99839678639624
 20
-138.9127956466954
 10
94.12552080980196
 20
-138.7160806944877
 10
94.1510145163928
 20
-138.6761175868588
 10
94.27365991566771
 20
-138.4856038065244
 10
94.305354794132
 20
-138.2992241407724
 10
94.305354794132
 20
-138.0560003995138
 10
94.305354794132
 20
-138.0094916104629
 10
94.305354794132
 20
-137.9757296747075
 10
94.3012206795497
 20
-137.9037271790658
 10
94.3012206795497
 20
-137.9037271790658
 10
94.52963051022176
 20
-137.9271538283654
 10
94.52963051022176
 20
-137.9271538283654
 10
94.57613929927264
 20
-137.9312879429477
 10
94.58647458572838
 20
-137.9588487068297
 10
94.58647458572838
 20
-137.9736626174163
 10
94.58647458572838
 20
-137.9946776998763
 10
94.58027341385494
 20
-137.9967447571675
 10
94.52963051022176
 20
-138.0263725783406
 97
        0
 97
        0
 75
     2
 76
     1
 98
        0
  0
SPLINE
  5
14F
330
148
100
AcDbEntity
  8
_U+30EC_U+30A4_U+30E4_U+30FC 1
370
     0
100
AcDbSpline
210
0.0
220
0.0
230
1.0
 70
    11
 71
     3
 72
    35
 73
    31
 74
     0
 42
0.0000000001
 43
0.0000000001
 12
1.0
 22
0.0
 32
0.0
 13
1.0
 23
0.0
 33
0.0
 40
0.0
 40
0.0
 40
0.0
 40
0.0
 40
1.0
 40
1.0
 40
1.0
 40
2.0
 40
2.0
 40
2.0
 40
3.0
 40
3.0
 40
3.0
 40
4.0
 40
4.0
 40
4.0
 40
5.0
 40
5.0
 40
5.0
 40
6.0
 40
6.0
 40
6.0
 40
7.0
 40
7.0
 40
7.0
 40
8.0
 40
8.0
 40
8.0
 40
9.0
 40
9.0
 40
9.0
 40
10.0
 40
10.0
 40
10.0
 40
10.0
 10
96.25700138652603
 20
-137.7452527867443
 30
0.0
 10
96.2483886478129
 20
-137.7514539586177
 30
0.0
 10
96.20601397334434
 20
-137.7769476652086
 30
0.0
 10
96.19981280147088
 20
-137.783148837082
 30
0.0
 10
96.19774574417974
 20
-138.4370279601824
 30
0.0
 10
96.11506345253373
 20
-138.8683539149357
 30
0.0
 10
95.67719181635849
 20
-139.113989223034
 30
0.0
 10
95.67719181635849
 20
-139.113989223034
 30
0.0
 10
95.51010468532387
 20
-138.9362222959951
 30
0.0
 10
95.51010468532387
 20
-138.9362222959951
 30
0.0
 10
95.59278697696986
 20
-138.9000487934
 30
0.0
 10
95.76194116529562
 20
-138.8304578645979
 30
0.0
 10
95.88665362186167
 20
-138.5617404167484
 30
0.0
 10
95.92489418174794
 20
-138.4790581251025
 30
0.0
 10
95.95004337879027
 20
-138.3819064324184
 30
0.0
 10
95.9627902320857
 20
-138.2571939758524
 30
0.0
 10
95.97553708538112
 20
-138.1469509203244
 30
0.0
 10
95.97553708538112
 20
-138.0604790236446
 30
0.0
 10
95.97553708538112
 20
-138.0094916104629
 30
0.0
 10
95.97553708538112
 20
-137.8065754863817
 30
0.0
 10
95.96072317479455
 20
-137.7028781122757
 30
0.0
 10
95.95004337879027
 20
-137.6350097312163
 30
0.0
 10
95.95004337879027
 20
-137.6350097312163
 30
0.0
 10
96.19981280147088
 20
-137.6691161765202
 30
0.0
 10
96.19981280147088
 20
-137.6691161765202
 30
0.0
 10
96.2525227623952
 20
-137.6753173483937
 30
0.0
 10
96.26974823982145
 20
-137.679451462976
 30
0.0
 10
96.26974823982145
 20
-137.7135579082799
 30
0.0
 10
96.26974823982145
 20
-137.7283718188665
 30
0.0
 10
96.26526961569063
 20
-137.7366400480311
 30
0.0
 10
96.25700138652603
 20
-137.7452527867443
 30
0.0
  0
SPLINE
  5
150
330
148
100
AcDbEntity
  8
_U+30EC_U+30A4_U+30E4_U+30FC 1
370
     0
100
AcDbSpline
210
0.0
220
0.0
230
1.0
 70
    11
 71
     3
 72
    50
 73
    46
 74
     0
 42
0.0000000001
 43
0.0000000001
 12
1.0
 22
0.0
 32
0.0
 13
1.0
 23
0.0
 33
0.0
 40
0.0
 40
0.0
 40
0.0
 40
0.0
 40
1.0
 40
1.0
 40
1.0
 40
2.0
 40
2.0
 40
2.0
 40
3.0
 40
3.0
 40
3.0
 40
4.0
 40
4.0
 40
4.0
 40
5.0
 40
5.0
 40
5.0
 40
6.0
 40
6.0
 40
6.0
 40
7.0
 40
7.0
 40
7.0
 40
8.0
 40
8.0
 40
8.0
 40
9.0
 40
9.0
 40
9.0
 40
10.0
 40
10.0
 40
10.0
 40
11.0
 40
11.0
 40
11.0
 40
12.0
 40
12.0
 40
12.0
 40
13.0
 40
13.0
 40
13.0
 40
14.0
 40
14.0
 40
14.0
 40
15.0
 40
15.0
 40
15.0
 40
15.0
 10
96.64629717635927
 20
-139.0884955164432
 30
0.0
 10
96.64629717635927
 20
-139.0884955164432
 30
0.0
 10
96.49609101320237
 20
-138.976185403624
 30
0.0
 10
96.49609101320237
 20
-138.976185403624
 30
0.0
 10
96.50435924236697
 20
-138.9320881814128
 30
0.0
 10
96.50849335694927
 20
-138.7942843620028
 30
0.0
 10
96.50849335694927
 20
-138.7415744010785
 30
0.0
 10
96.51090492378894
 20
-138.6716389627279
 30
0.0
 10
96.5129719810801
 20
-138.5576063021662
 30
0.0
 10
96.5129719810801
 20
-138.4897379211068
 30
0.0
 10
96.5129719810801
 20
-138.4897379211068
 30
0.0
 10
96.5129719810801
 20
-138.0580674568049
 30
0.0
 10
96.5129719810801
 20
-138.0580674568049
 30
0.0
 10
96.5129719810801
 20
-138.0243055210495
 30
0.0
 10
96.50229218507582
 20
-137.6646375523894
 30
0.0
 10
96.49815807049352
 20
-137.5991807381697
 30
0.0
 10
96.49815807049352
 20
-137.5991807381697
 30
0.0
 10
96.73483613033018
 20
-137.6246744447605
 30
0.0
 10
96.73483613033018
 20
-137.6246744447605
 30
0.0
 10
96.76239689421219
 20
-137.6267415020517
 30
0.0
 10
96.79202471538534
 20
-137.6370767885074
 30
0.0
 10
96.79202471538534
 20
-137.6667046096806
 30
0.0
 10
96.79202471538534
 20
-137.6839300871068
 30
0.0
 10
96.78375648622074
 20
-137.6942653735626
 30
0.0
 10
96.76894257563416
 20
-137.7049451695668
 30
0.0
 10
96.74965004091676
 20
-137.7197590801534
 30
0.0
 10
96.7475829836256
 20
-137.7218261374445
 30
0.0
 10
96.73276907303904
 20
-137.73457299074
 30
0.0
 10
96.72036672929214
 20
-137.8275905688417
 30
0.0
 10
96.71795516245245
 20
-138.0983750739824
 30
0.0
 10
96.71795516245245
 20
-138.2000053907972
 30
0.0
 10
96.71795516245245
 20
-138.2000053907972
 30
0.0
 10
96.71795516245245
 20
-138.7880831901294
 30
0.0
 10
96.71795516245245
 20
-138.7880831901294
 30
0.0
 10
96.77307669021646
 20
-138.7584553689562
 30
0.0
 10
96.90846894278678
 20
-138.6843858160234
 30
0.0
 10
97.07348901653025
 20
-138.5024847744022
 30
0.0
 10
97.17925344792741
 20
-138.3860405470007
 30
0.0
 10
97.22782929426944
 20
-138.3016357076121
 30
0.0
 10
97.28708493661573
 20
-138.1851914802106
 30
0.0
 10
97.28708493661573
 20
-138.1851914802106
 30
0.0
 10
97.42902287060802
 20
-138.3543456685364
 30
0.0
 10
97.42902287060802
 20
-138.3543456685364
 30
0.0
 10
97.15823836546738
 20
-138.7818820182559
 30
0.0
 10
96.8302652752716
 20
-138.9785969704637
 30
0.0
 10
96.64629717635927
 20
-139.0884955164432
 30
0.0
  0
HATCH
  5
151
330
148
100
AcDbEntity
  8
_U+30EC_U+30A4_U+30E4_U+30FC 1
 62
   179
420
  2234388
100
AcDbHatch
 10
0.0
 20
0.0
 30
0.0
210
0.0
220
0.0
230
1.0
  2
SOLID
 70
     1
 71
     0
 91
        2
 92
        1
 93
        1
 72
     4
 94
        3
 73
     0
 74
     1
 95
       35
 96
       31
 40
0.0
 40
0.0
 40
0.0
 40
0.0
 40
1.0
 40
1.0
 40
1.0
 40
2.0
 40
2.0
 40
2.0
 40
3.0
 40
3.0
 40
3.0
 40
4.0
 40
4.0
 40
4.0
 40
5.0
 40
5.0
 40
5.0
 40
6.0
 40
6.0
 40
6.0
 40
7.0
 40
7.0
 40
7.0
 40
8.0
 40
8.0
 40
8.0
 40
9.0
 40
9.0
 40
9.0
 40
10.0
 40
10.0
 40
10.0
 40
10.0
 10
96.25700138652603
 20
-137.7452527867443
 10
96.2483886478129
 20
-137.7514539586177
 10
96.20601397334434
 20
-137.7769476652086
 10
96.19981280147088
 20
-137.783148837082
 10
96.19774574417974
 20
-138.4370279601824
 10
96.11506345253373
 20
-138.8683539149357
 10
95.67719181635849
 20
-139.113989223034
 10
95.67719181635849
 20
-139.113989223034
 10
95.51010468532387
 20
-138.9362222959951
 10
95.51010468532387
 20
-138.9362222959951
 10
95.59278697696986
 20
-138.9000487934
 10
95.76194116529562
 20
-138.8304578645979
 10
95.88665362186167
 20
-138.5617404167484
 10
95.92489418174794
 20
-138.4790581251025
 10
95.95004337879027
 20
-138.3819064324184
 10
95.9627902320857
 20
-138.2571939758524
 10
95.97553708538112
 20
-138.1469509203244
 10
95.97553708538112
 20
-138.0604790236446
 10
95.97553708538112
 20
-138.0094916104629
 10
95.97553708538112
 20
-137.8065754863817
 10
95.96072317479455
 20
-137.7028781122757
 10
95.95004337879027
 20
-137.6350097312163
 10
95.95004337879027
 20
-137.6350097312163
 10
96.19981280147088
 20
-137.6691161765202
 10
96.19981280147088
 20
-137.6691161765202
 10
96.2525227623952
 20
-137.6753173483937
 10
96.26974823982145
 20
-137.679451462976
 10
96.26974823982145
 20
-137.7135579082799
 10
96.26974823982145
 20
-137.7283718188665
 10
96.26526961569063
 20
-137.7366400480311
 10
96.25700138652603
 20
-137.7452527867443
 97
        0
 97
        0
 92
        1
 93
        1
 72
     4
 94
        3
 73
     0
 74
     1
 95
       50
 96
       46
 40
0.0
 40
0.0
 40
0.0
 40
0.0
 40
1.0
 40
1.0
 40
1.0
 40
2.0
 40
2.0
 40
2.0
 40
3.0
 40
3.0
 40
3.0
 40
4.0
 40
4.0
 40
4.0
 40
5.0
 40
5.0
 40
5.0
 40
6.0
 40
6.0
 40
6.0
 40
7.0
 40
7.0
 40
7.0
 40
8.0
 40
8.0
 40
8.0
 40
9.0
 40
9.0
 40
9.0
 40
10.0
 40
10.0
 40
10.0
 40
11.0
 40
11.0
 40
11.0
 40
12.0
 40
12.0
 40
12.0
 40
13.0
 40
13.0
 40
13.0
 40
14.0
 40
14.0
 40
14.0
 40
15.0
 40
15.0
 40
15.0
 40
15.0
 10
96.64629717635927
 20
-139.0884955164432
 10
96.64629717635927
 20
-139.0884955164432
 10
96.49609101320237
 20
-138.976185403624
 10
96.49609101320237
 20
-138.976185403624
 10
96.50435924236697
 20
-138.9320881814128
 10
96.50849335694927
 20
-138.7942843620028
 10
96.50849335694927
 20
-138.7415744010785
 10
96.51090492378894
 20
-138.6716389627279
 10
96.5129719810801
 20
-138.5576063021662
 10
96.5129719810801
 20
-138.4897379211068
 10
96.5129719810801
 20
-138.4897379211068
 10
96.5129719810801
 20
-138.0580674568049
 10
96.5129719810801
 20
-138.0580674568049
 10
96.5129719810801
 20
-138.0243055210495
 10
96.50229218507582
 20
-137.6646375523894
 10
96.49815807049352
 20
-137.5991807381697
 10
96.49815807049352
 20
-137.5991807381697
 10
96.73483613033018
 20
-137.6246744447605
 10
96.73483613033018
 20
-137.6246744447605
 10
96.76239689421219
 20
-137.6267415020517
 10
96.79202471538534
 20
-137.6370767885074
 10
96.79202471538534
 20
-137.6667046096806
 10
96.79202471538534
 20
-137.6839300871068
 10
96.78375648622074
 20
-137.6942653735626
 10
96.76894257563416
 20
-137.7049451695668
 10
96.74965004091676
 20
-137.7197590801534
 10
96.7475829836256
 20
-137.7218261374445
 10
96.73276907303904
 20
-137.73457299074
 10
96.72036672929214
 20
-137.8275905688417
 10
96.71795516245245
 20
-138.0983750739824
 10
96.71795516245245
 20
-138.2000053907972
 10
96.71795516245245
 20
-138.2000053907972
 10
96.71795516245245
 20
-138.7880831901294
 10
96.71795516245245
 20
-138.7880831901294
 10
96.77307669021646
 20
-138.7584553689562
 10
96.90846894278678
 20
-138.6843858160234
 10
97.07348901653025
 20
-138.5024847744022
 10
97.17925344792741
 20
-138.3860405470007
 10
97.22782929426944
 20
-138.3016357076121
 10
97.28708493661573
 20
-138.1851914802106
 10
97.28708493661573
 20
-138.1851914802106
 10
97.42902287060802
 20
-138.3543456685364
 10
97.42902287060802
 20
-138.3543456685364
 10
97.15823836546738
 20
-138.7818820182559
 10
96.8302652752716
 20
-138.9785969704637
 10
96.64629717635927
 20
-139.0884955164432
 97
        0
 97
        0
 75
     2
 76
     1
 98
        0
  0
SPLINE
  5
152
330
148
100
AcDbEntity
  8
_U+30EC_U+30A4_U+30E4_U+30FC 1
370
     0
100
AcDbSpline
210
0.0
220
0.0
230
1.0
 70
    11
 71
     3
 72
    20
 73
    16
 74
     0
 42
0.0000000001
 43
0.0000000001
 12
1.0
 22
0.0
 32
0.0
 13
1.0
 23
0.0
 33
0.0
 40
0.0
 40
0.0
 40
0.0
 40
0.0
 40
1.0
 40
1.0
 40
1.0
 40
2.0
 40
2.0
 40
2.0
 40
3.0
 40
3.0
 40
3.0
 40
4.0
 40
4.0
 40
4.0
 40
5.0
 40
5.0
 40
5.0
 40
5.0
 10
98.68648272272422
 20
-139.3041584938198
 30
0.0
 10
98.54902341286275
 20
-139.1963270051315
 30
0.0
 10
98.41983233216588
 20
-139.107443541612
 30
0.0
 10
98.18728838691152
 20
-138.9975449956326
 30
0.0
 10
97.9967746065772
 20
-138.906594474822
 30
0.0
 10
97.80005965436943
 20
-138.8263237500157
 30
0.0
 10
97.5926649061574
 20
-138.7901502474205
 30
0.0
 10
97.5926649061574
 20
-138.7901502474205
 30
0.0
 10
97.68154836967683
 20
-138.5955023525039
 30
0.0
 10
97.68154836967683
 20
-138.5955023525039
 30
0.0
 10
98.10047198068322
 20
-138.7033338411922
 30
0.0
 10
98.5193955916896
 20
-138.8959146788177
 30
0.0
 10
98.78156735811712
 20
-139.086428459152
 30
0.0
 10
98.78156735811712
 20
-139.086428459152
 30
0.0
 10
98.68648272272422
 20
-139.3041584938198
 30
0.0
 10
98.68648272272422
 20
-139.3041584938198
 30
0.0
  0
SPLINE
  5
153
330
148
100
AcDbEntity
  8
_U+30EC_U+30A4_U+30E4_U+30FC 1
370
     0
100
AcDbSpline
210
0.0
220
0.0
230
1.0
 70
    11
 71
     3
 72
    17
 73
    13
 74
     0
 42
0.0000000001
 43
0.0000000001
 12
1.0
 22
0.0
 32
0.0
 13
1.0
 23
0.0
 33
0.0
 40
0.0
 40
0.0
 40
0.0
 40
0.0
 40
1.0
 40
1.0
 40
1.0
 40
2.0
 40
2.0
 40
2.0
 40
3.0
 40
3.0
 40
3.0
 40
4.0
 40
4.0
 40
4.0
 40
4.0
 10
98.5827853486182
 20
-138.5362467101576
 30
0.0
 10
98.35644257523728
 20
-138.369159579123
 30
0.0
 10
98.02640242775036
 20
-138.2423800652658
 30
0.0
 10
97.79799259707828
 20
-138.2062065626707
 30
0.0
 10
97.79799259707828
 20
-138.2062065626707
 30
0.0
 10
97.86758352588033
 20
-138.0074245531718
 30
0.0
 10
97.86758352588033
 20
-138.0074245531718
 30
0.0
 10
98.05396319163235
 20
-138.0391194316361
 30
0.0
 10
98.42189938945702
 20
-138.1872585375018
 30
0.0
 10
98.66098901613337
 20
-138.3395317579499
 30
0.0
 10
98.66098901613337
 20
-138.3395317579499
 30
0.0
 10
98.5827853486182
 20
-138.5362467101576
 30
0.0
 10
98.5827853486182
 20
-138.5362467101576
 30
0.0
  0
SPLINE
  5
154
330
148
100
AcDbEntity
  8
_U+30EC_U+30A4_U+30E4_U+30FC 1
370
     0
100
AcDbSpline
210
0.0
220
0.0
230
1.0
 70
    11
 71
     3
 72
    20
 73
    16
 74
     0
 42
0.0000000001
 43
0.0000000001
 12
1.0
 22
0.0
 32
0.0
 13
1.0
 23
0.0
 33
0.0
 40
0.0
 40
0.0
 40
0.0
 40
0.0
 40
1.0
 40
1.0
 40
1.0
 40
2.0
 40
2.0
 40
2.0
 40
3.0
 40
3.0
 40
3.0
 40
4.0
 40
4.0
 40
4.0
 40
5.0
 40
5.0
 40
5.0
 40
5.0
 10
98.6144802270825
 20
-137.969528502834
 30
0.0
 10
98.5510904701539
 20
-137.91440697507
 30
0.0
 10
98.47908797451218
 20
-137.8510172181414
 30
0.0
 10
98.2337971759624
 20
-137.7407741626134
 30
0.0
 10
97.99884166386835
 20
-137.6370767885074
 30
0.0
 10
97.90168997118431
 20
-137.6201958206297
 30
0.0
 10
97.80212671166058
 20
-137.603314852752
 30
0.0
 10
97.80212671166058
 20
-137.603314852752
 30
0.0
 10
97.86999509272
 20
-137.3983316713796
 30
0.0
 10
97.86999509272
 20
-137.3983316713796
 30
0.0
 10
98.18935544420266
 20
-137.4617214283082
 30
0.0
 10
98.5593586993185
 20
-137.6563693232248
 30
0.0
 10
98.68854978001536
 20
-137.7535210159089
 30
0.0
 10
98.68854978001536
 20
-137.7535210159089
 30
0.0
 10
98.6144802270825
 20
-137.969528502834
 30
0.0
 10
98.6144802270825
 20
-137.969528502834
 30
0.0
  0
HATCH
  5
155
330
148
100
AcDbEntity
  8
_U+30EC_U+30A4_U+30E4_U+30FC 1
 62
   179
420
  2234388
100
AcDbHatch
 10
0.0
 20
0.0
 30
0.0
210
0.0
220
0.0
230
1.0
  2
SOLID
 70
     1
 71
     0
 91
        3
 92
        1
 93
        1
 72
     4
 94
        3
 73
     0
 74
     1
 95
       20
 96
       16
 40
0.0
 40
0.0
 40
0.0
 40
0.0
 40
1.0
 40
1.0
 40
1.0
 40
2.0
 40
2.0
 40
2.0
 40
3.0
 40
3.0
 40
3.0
 40
4.0
 40
4.0
 40
4.0
 40
5.0
 40
5.0
 40
5.0
 40
5.0
 10
98.68648272272422
 20
-139.3041584938198
 10
98.54902341286275
 20
-139.1963270051315
 10
98.41983233216588
 20
-139.107443541612
 10
98.18728838691152
 20
-138.9975449956326
 10
97.9967746065772
 20
-138.906594474822
 10
97.80005965436943
 20
-138.8263237500157
 10
97.5926649061574
 20
-138.7901502474205
 10
97.5926649061574
 20
-138.7901502474205
 10
97.68154836967683
 20
-138.5955023525039
 10
97.68154836967683
 20
-138.5955023525039
 10
98.10047198068322
 20
-138.7033338411922
 10
98.5193955916896
 20
-138.8959146788177
 10
98.78156735811712
 20
-139.086428459152
 10
98.78156735811712
 20
-139.086428459152
 10
98.68648272272422
 20
-139.3041584938198
 10
98.68648272272422
 20
-139.3041584938198
 97
        0
 97
        0
 92
        1
 93
        1
 72
     4
 94
        3
 73
     0
 74
     1
 95
       17
 96
       13
 40
0.0
 40
0.0
 40
0.0
 40
0.0
 40
1.0
 40
1.0
 40
1.0
 40
2.0
 40
2.0
 40
2.0
 40
3.0
 40
3.0
 40
3.0
 40
4.0
 40
4.0
 40
4.0
 40
4.0
 10
98.5827853486182
 20
-138.5362467101576
 10
98.35644257523728
 20
-138.369159579123
 10
98.02640242775036
 20
-138.2423800652658
 10
97.79799259707828
 20
-138.2062065626707
 10
97.79799259707828
 20
-138.2062065626707
 10
97.86758352588033
 20
-138.0074245531718
 10
97.86758352588033
 20
-138.0074245531718
 10
98.05396319163235
 20
-138.0391194316361
 10
98.42189938945702
 20
-138.1872585375018
 10
98.66098901613337
 20
-138.3395317579499
 10
98.66098901613337
 20
-138.3395317579499
 10
98.5827853486182
 20
-138.5362467101576
 10
98.5827853486182
 20
-138.5362467101576
 97
        0
 97
        0
 92
        1
 93
        1
 72
     4
 94
        3
 73
     0
 74
     1
 95
       20
 96
       16
 40
0.0
 40
0.0
 40
0.0
 40
0.0
 40
1.0
 40
1.0
 40
1.0
 40
2.0
 40
2.0
 40
2.0
 40
3.0
 40
3.0
 40
3.0
 40
4.0
 40
4.0
 40
4.0
 40
5.0
 40
5.0
 40
5.0
 40
5.0
 10
98.6144802270825
 20
-137.969528502834
 10
98.5510904701539
 20
-137.91440697507
 10
98.47908797451218
 20
-137.8510172181414
 10
98.2337971759624
 20
-137.7407741626134
 10
97.99884166386835
 20
-137.6370767885074
 10
97.90168997118431
 20
-137.6201958206297
 10
97.80212671166058
 20
-137.603314852752
 10
97.80212671166058
 20
-137.603314852752
 10
97.86999509272
 20
-137.3983316713796
 10
97.86999509272
 20
-137.3983316713796
 10
98.18935544420266
 20
-137.4617214283082
 10
98.5593586993185
 20
-137.6563693232248
 10
98.68854978001536
 20
-137.7535210159089
 10
98.68854978001536
 20
-137.7535210159089
 10
98.6144802270825
 20
-137.969528502834
 10
98.6144802270825
 20
-137.969528502834
 97
        0
 97
        0
 75
     2
 76
     1
 98
        0
  0
SPLINE
  5
156
330
148
100
AcDbEntity
  8
_U+30EC_U+30A4_U+30E4_U+30FC 1
370
     0
100
AcDbSpline
210
0.0
220
0.0
230
1.0
 70
    11
 71
     3
 72
   104
 73
   100
 74
     0
 42
0.0000000001
 43
0.0000000001
 12
1.0
 22
0.0
 32
0.0
 13
1.0
 23
0.0
 33
0.0
 40
0.0
 40
0.0
 40
0.0
 40
0.0
 40
1.0
 40
1.0
 40
1.0
 40
2.0
 40
2.0
 40
2.0
 40
3.0
 40
3.0
 40
3.0
 40
4.0
 40
4.0
 40
4.0
 40
5.0
 40
5.0
 40
5.0
 40
6.0
 40
6.0
 40
6.0
 40
7.0
 40
7.0
 40
7.0
 40
8.0
 40
8.0
 40
8.0
 40
9.0
 40
9.0
 40
9.0
 40
10.0
 40
10.0
 40
10.0
 40
11.0
 40
11.0
 40
11.0
 40
12.0
 40
12.0
 40
12.0
 40
13.0
 40
13.0
 40
13.0
 40
14.0
 40
14.0
 40
14.0
 40
15.0
 40
15.0
 40
15.0
 40
16.0
 40
16.0
 40
16.0
 40
17.0
 40
17.0
 40
17.0
 40
18.0
 40
18.0
 40
18.0
 40
19.0
 40
19.0
 40
19.0
 40
20.0
 40
20.0
 40
20.0
 40
21.0
 40
21.0
 40
21.0
 40
22.0
 40
22.0
 40
22.0
 40
23.0
 40
23.0
 40
23.0
 40
24.0
 40
24.0
 40
24.0
 40
25.0
 40
25.0
 40
25.0
 40
26.0
 40
26.0
 40
26.0
 40
27.0
 40
27.0
 40
27.0
 40
28.0
 40
28.0
 40
28.0
 40
29.0
 40
29.0
 40
29.0
 40
30.0
 40
30.0
 40
30.0
 40
31.0
 40
31.0
 40
31.0
 40
32.0
 40
32.0
 40
32.0
 40
33.0
 40
33.0
 40
33.0
 40
33.0
 10
100.5003254957083
 20
-137.7748806079174
 30
0.0
 10
100.5320203741726
 20
-137.831724683424
 30
0.0
 10
100.5616481953457
 20
-137.907861293648
 30
0.0
 10
100.5785291632234
 20
-137.9926106425852
 30
0.0
 10
100.5785291632234
 20
-137.9926106425852
 30
0.0
 10
100.3966281216022
 20
-138.0604790236446
 30
0.0
 10
100.3966281216022
 20
-138.0604790236446
 30
0.0
 10
100.3714789245599
 20
-137.9461018535343
 30
0.0
 10
100.3566650139733
 20
-137.8806450393146
 30
0.0
 10
100.297409371627
 20
-137.7748806079174
 30
0.0
 10
100.297409371627
 20
-137.7748806079174
 30
0.0
 10
100.1768310296433
 20
-137.7748806079174
 30
0.0
 10
100.1768310296433
 20
-137.7748806079174
 30
0.0
 10
100.0879475661238
 20
-137.9399006816609
 30
0.0
 10
100.0497070062376
 20
-137.9819308465809
 30
0.0
 10
100.0200791850644
 20
-138.0160372918849
 30
0.0
 10
100.0200791850644
 20
-138.0160372918849
 30
0.0
 10
99.81716306098322
 20
-137.9440347962432
 30
0.0
 10
99.81716306098322
 20
-137.9440347962432
 30
0.0
 10
99.85747067816064
 20
-137.907861293648
 30
0.0
 10
99.92292749238038
 20
-137.8510172181414
 30
0.0
 10
99.96943628143126
 20
-137.783148837082
 30
0.0
 10
99.91431475366726
 20
-137.7810817797908
 30
0.0
 10
99.74309350805034
 20
-137.7810817797908
 30
0.0
 10
99.67970375112175
 20
-137.7810817797908
 30
0.0
 10
99.67970375112175
 20
-137.7810817797908
 30
0.0
 10
99.6500759299486
 20
-137.7810817797908
 30
0.0
 10
99.6500759299486
 20
-137.7810817797908
 30
0.0
 10
99.68590492299519
 20
-137.8510172181414
 30
0.0
 10
99.73034665475492
 20
-137.9481689108255
 30
0.0
 10
99.75584036134576
 20
-138.0284396356318
 30
0.0
 10
99.75584036134576
 20
-138.0284396356318
 30
0.0
 10
99.57393931972457
 20
-138.1025091885647
 30
0.0
 10
99.57393931972457
 20
-138.1025091885647
 30
0.0
 10
99.55705835184685
 20
-138.0432535462184
 30
0.0
 10
99.52295190654287
 20
-137.9292208856566
 30
0.0
 10
99.44681529631886
 20
-137.7810817797908
 30
0.0
 10
99.44681529631886
 20
-137.7810817797908
 30
0.0
 10
99.33691675033938
 20
-137.7810817797908
 30
0.0
 10
99.33691675033938
 20
-137.7810817797908
 30
0.0
 10
99.33037106891742
 20
-137.7872829516643
 30
0.0
 10
99.23528643352452
 20
-137.8975260071923
 30
0.0
 10
99.14020179813163
 20
-137.9798637892898
 30
0.0
 10
99.14020179813163
 20
-137.9798637892898
 30
0.0
 10
98.94762096050616
 20
-137.8806450393146
 30
0.0
 10
98.94762096050616
 20
-137.8806450393146
 30
0.0
 10
99.0406385386079
 20
-137.8275905688417
 30
0.0
 10
99.12125377296275
 20
-137.7535210159089
 30
0.0
 10
99.19084470176479
 20
-137.6711832338114
 30
0.0
 10
99.27766110799308
 20
-137.5674858597054
 30
0.0
 10
99.31796872517052
 20
-137.4658555428905
 30
0.0
 10
99.35173066092597
 20
-137.3707709074976
 30
0.0
 10
99.35173066092597
 20
-137.3707709074976
 30
0.0
 10
99.54431149855142
 20
-137.4531086895951
 30
0.0
 10
99.54431149855142
 20
-137.4531086895951
 30
0.0
 10
99.559125409138
 20
-137.459654371017
 30
0.0
 10
99.56946069559375
 20
-137.4679226001816
 30
0.0
 10
99.56946069559375
 20
-137.4786023961859
 30
0.0
 10
99.56946069559375
 20
-137.4996174786459
 30
0.0
 10
99.54431149855142
 20
-137.5040961027768
 30
0.0
 10
99.51468367737827
 20
-137.5082302173591
 30
0.0
 10
99.47851017478315
 20
-137.5695529169965
 30
0.0
 10
99.46576332148773
 20
-137.5905679994565
 30
0.0
 10
99.44681529631886
 20
-137.6201958206297
 30
0.0
 10
99.44681529631886
 20
-137.6201958206297
 30
0.0
 10
99.67970375112175
 20
-137.6201958206297
 30
0.0
 10
99.67970375112175
 20
-137.6201958206297
 30
0.0
 10
99.72827959746377
 20
-137.6201958206297
 30
0.0
 10
99.93774140296696
 20
-137.6139946487562
 30
0.0
 10
99.98218313472668
 20
-137.6119275914651
 30
0.0
 10
99.98218313472668
 20
-137.6119275914651
 30
0.0
 10
99.98218313472668
 20
-137.7642008119131
 30
0.0
 10
99.98218313472668
 20
-137.7642008119131
 30
0.0
 10
100.0245578091953
 20
-137.6942653735626
 30
0.0
 10
100.1006944194193
 20
-137.5082302173591
 30
0.0
 10
100.1237765591705
 20
-137.3811061939533
 30
0.0
 10
100.1237765591705
 20
-137.3811061939533
 30
0.0
 10
100.3184244540871
 20
-137.4469075177216
 30
0.0
 10
100.3184244540871
 20
-137.4469075177216
 30
0.0
 10
100.3353054219648
 20
-137.4531086895951
 30
0.0
 10
100.3501193325514
 20
-137.4575873137259
 30
0.0
 10
100.3501193325514
 20
-137.4724012243124
 30
0.0
 10
100.3501193325514
 20
-137.4934163067725
 30
0.0
 10
100.3225585686694
 20
-137.4975504213548
 30
0.0
 10
100.2994764289182
 20
-137.5016845359371
 30
0.0
 10
100.2867295756228
 20
-137.5337239239499
 30
0.0
 10
100.2719156650362
 20
-137.5674858597054
 30
0.0
 10
100.248833525285
 20
-137.6222628779208
 30
0.0
 10
100.248833525285
 20
-137.6222628779208
 30
0.0
 10
100.517206463586
 20
-137.6222628779208
 30
0.0
 10
100.517206463586
 20
-137.6222628779208
 30
0.0
 10
100.5785291632234
 20
-137.6222628779208
 30
0.0
 10
100.855859349786
 20
-137.6098605341739
 30
0.0
 10
100.9130479348412
 20
-137.6074489673342
 30
0.0
 10
100.9130479348412
 20
-137.6074489673342
 30
0.0
 10
100.9130479348412
 20
-137.7872829516643
 30
0.0
 10
100.9130479348412
 20
-137.7872829516643
 30
0.0
 10
100.855859349786
 20
-137.783148837082
 30
0.0
 10
100.6718912508737
 20
-137.7748806079174
 30
0.0
 10
100.5003254957083
 20
-137.7748806079174
 30
0.0
  0
SPLINE
  5
157
330
148
100
AcDbEntity
  8
_U+30EC_U+30A4_U+30E4_U+30FC 1
370
     0
100
AcDbSpline
210
0.0
220
0.0
230
1.0
 70
    11
 71
     3
 72
    17
 73
    13
 74
     0
 42
0.0000000001
 43
0.0000000001
 12
1.0
 22
0.0
 32
0.0
 13
1.0
 23
0.0
 33
0.0
 40
0.0
 40
0.0
 40
0.0
 40
0.0
 40
1.0
 40
1.0
 40
1.0
 40
2.0
 40
2.0
 40
2.0
 40
3.0
 40
3.0
 40
3.0
 40
4.0
 40
4.0
 40
4.0
 40
4.0
 10
99.20359155506021
 20
-138.6716389627279
 30
0.0
 10
99.12952200212735
 20
-138.5893011806305
 30
0.0
 10
99.06613224519874
 20
-138.5383137674488
 30
0.0
 10
98.95623369921928
 20
-138.472856953229
 30
0.0
 10
98.95623369921928
 20
-138.472856953229
 30
0.0
 10
99.07681204120303
 20
-138.3353976433675
 30
0.0
 10
99.07681204120303
 20
-138.3353976433675
 30
0.0
 10
99.17396373388706
 20
-138.396720343005
 30
0.0
 10
99.23735349081566
 20
-138.4494303039293
 30
0.0
 10
99.31349010103969
 20
-138.5259114237019
 30
0.0
 10
99.31349010103969
 20
-138.5259114237019
 30
0.0
 10
99.20359155506021
 20
-138.6716389627279
 30
0.0
 10
99.20359155506021
 20
-138.6716389627279
 30
0.0
  0
SPLINE
  5
158
330
148
100
AcDbEntity
  8
_U+30EC_U+30A4_U+30E4_U+30FC 1
370
     0
100
AcDbSpline
210
0.0
220
0.0
230
1.0
 70
    11
 71
     3
 72
    29
 73
    25
 74
     0
 42
0.0000000001
 43
0.0000000001
 12
1.0
 22
0.0
 32
0.0
 13
1.0
 23
0.0
 33
0.0
 40
0.0
 40
0.0
 40
0.0
 40
0.0
 40
1.0
 40
1.0
 40
1.0
 40
2.0
 40
2.0
 40
2.0
 40
3.0
 40
3.0
 40
3.0
 40
4.0
 40
4.0
 40
4.0
 40
5.0
 40
5.0
 40
5.0
 40
6.0
 40
6.0
 40
6.0
 40
7.0
 40
7.0
 40
7.0
 40
8.0
 40
8.0
 40
8.0
 40
8.0
 10
99.43406844302343
 20
-138.9362222959951
 30
0.0
 10
99.41305336056341
 20
-138.9806640277548
 30
0.0
 10
99.30935598645739
 20
-139.156019387954
 30
0.0
 10
99.25010034411109
 20
-139.2576497047689
 30
0.0
 10
99.25664602553306
 20
-139.2703965580644
 30
0.0
 10
99.26284719740651
 20
-139.2852104686509
 30
0.0
 10
99.26284719740651
 20
-139.3000243792375
 30
0.0
 10
99.26284719740651
 20
-139.3086371179506
 30
0.0
 10
99.25871308282422
 20
-139.3210394616975
 30
0.0
 10
99.24183211494649
 20
-139.3210394616975
 30
0.0
 10
99.23115231894222
 20
-139.3210394616975
 30
0.0
 10
99.2184054656468
 20
-139.3148382898241
 30
0.0
 10
99.2142713510645
 20
-139.3127712325329
 30
0.0
 10
99.2142713510645
 20
-139.3127712325329
 30
0.0
 10
99.04511716273872
 20
-139.2090738584269
 30
0.0
 10
99.04511716273872
 20
-139.2090738584269
 30
0.0
 10
99.17603079117822
 20
-139.0609347525612
 30
0.0
 10
99.35586477550827
 20
-138.7226263759096
 30
0.0
 10
99.42373315656768
 20
-138.5172986849887
 30
0.0
 10
99.42373315656768
 20
-138.5172986849887
 30
0.0
 10
99.56532658101145
 20
-138.652690937559
 30
0.0
 10
99.56532658101145
 20
-138.652690937559
 30
0.0
 10
99.5398328744206
 20
-138.7202148090699
 30
0.0
 10
99.48057723207431
 20
-138.8432047178934
 30
0.0
 10
99.43406844302343
 20
-138.9362222959951
 30
0.0
  0
SPLINE
  5
159
330
148
100
AcDbEntity
  8
_U+30EC_U+30A4_U+30E4_U+30FC 1
370
     0
100
AcDbSpline
210
0.0
220
0.0
230
1.0
 70
    11
 71
     3
 72
    17
 73
    13
 74
     0
 42
0.0000000001
 43
0.0000000001
 12
1.0
 22
0.0
 32
0.0
 13
1.0
 23
0.0
 33
0.0
 40
0.0
 40
0.0
 40
0.0
 40
0.0
 40
1.0
 40
1.0
 40
1.0
 40
2.0
 40
2.0
 40
2.0
 40
3.0
 40
3.0
 40
3.0
 40
4.0
 40
4.0
 40
4.0
 40
4.0
 10
99.42373315656768
 20
-138.3460774393718
 30
0.0
 10
99.33898380763054
 20
-138.2506482944304
 30
0.0
 10
99.26491425469767
 20
-138.189325594793
 30
0.0
 10
99.15708276600934
 20
-138.1197346659909
 30
0.0
 10
99.15708276600934
 20
-138.1197346659909
 30
0.0
 10
99.27559405070194
 20
-137.9843424134206
 30
0.0
 10
99.27559405070194
 20
-137.9843424134206
 30
0.0
 10
99.35586477550827
 20
-138.0370523743449
 30
0.0
 10
99.47024194561855
 20
-138.1238687805732
 30
0.0
 10
99.53776581712945
 20
-138.2062065626707
 30
0.0
 10
99.53776581712945
 20
-138.2062065626707
 30
0.0
 10
99.42373315656768
 20
-138.3460774393718
 30
0.0
 10
99.42373315656768
 20
-138.3460774393718
 30
0.0
  0
SPLINE
  5
15A
330
148
100
AcDbEntity
  8
_U+30EC_U+30A4_U+30E4_U+30FC 1
370
     0
100
AcDbSpline
210
0.0
220
0.0
230
1.0
 70
    11
 71
     3
 72
    71
 73
    67
 74
     0
 42
0.0000000001
 43
0.0000000001
 12
1.0
 22
0.0
 32
0.0
 13
1.0
 23
0.0
 33
0.0
 40
0.0
 40
0.0
 40
0.0
 40
0.0
 40
1.0
 40
1.0
 40
1.0
 40
2.0
 40
2.0
 40
2.0
 40
3.0
 40
3.0
 40
3.0
 40
4.0
 40
4.0
 40
4.0
 40
5.0
 40
5.0
 40
5.0
 40
6.0
 40
6.0
 40
6.0
 40
7.0
 40
7.0
 40
7.0
 40
8.0
 40
8.0
 40
8.0
 40
9.0
 40
9.0
 40
9.0
 40
10.0
 40
10.0
 40
10.0
 40
11.0
 40
11.0
 40
11.0
 40
12.0
 40
12.0
 40
12.0
 40
13.0
 40
13.0
 40
13.0
 40
14.0
 40
14.0
 40
14.0
 40
15.0
 40
15.0
 40
15.0
 40
16.0
 40
16.0
 40
16.0
 40
17.0
 40
17.0
 40
17.0
 40
18.0
 40
18.0
 40
18.0
 40
19.0
 40
19.0
 40
19.0
 40
20.0
 40
20.0
 40
20.0
 40
21.0
 40
21.0
 40
21.0
 40
22.0
 40
22.0
 40
22.0
 40
22.0
 10
100.7904025355663
 20
-138.555539244875
 30
0.0
 10
100.7904025355663
 20
-138.555539244875
 30
0.0
 10
100.7904025355663
 20
-138.9424234678686
 30
0.0
 10
100.7904025355663
 20
-138.9424234678686
 30
0.0
 10
100.7904025355663
 20
-138.9424234678686
 30
0.0
 10
100.7904025355663
 20
-138.9975449956326
 30
0.0
 10
100.7904025355663
 20
-138.9975449956326
 30
0.0
 10
100.7904025355663
 20
-139.0292398740969
 30
0.0
 10
100.7945366501486
 20
-139.2111409157181
 30
0.0
 10
100.7986707647309
 20
-139.3041584938198
 30
0.0
 10
100.7986707647309
 20
-139.3041584938198
 30
0.0
 10
100.5850748446454
 20
-139.3041584938198
 30
0.0
 10
100.5850748446454
 20
-139.3041584938198
 30
0.0
 10
100.5892089592277
 20
-139.2387016796
 30
0.0
 10
100.5892089592277
 20
-139.2300889408869
 30
0.0
 10
100.59334307381
 20
-139.1584309547937
 30
0.0
 10
100.59334307381
 20
-139.1584309547937
 30
0.0
 10
99.83611108615209
 20
-139.1584309547937
 30
0.0
 10
99.83611108615209
 20
-139.1584309547937
 30
0.0
 10
99.83611108615209
 20
-139.1584309547937
 30
0.0
 10
99.84265676757406
 20
-139.3169053471152
 30
0.0
 10
99.84265676757406
 20
-139.3169053471152
 30
0.0
 10
99.84265676757406
 20
-139.3169053471152
 30
0.0
 10
99.63526201936202
 20
-139.3169053471152
 30
0.0
 10
99.63526201936202
 20
-139.3169053471152
 30
0.0
 10
99.63732907665317
 20
-139.2872775259421
 30
0.0
 10
99.63939613394432
 20
-139.2724636153555
 30
0.0
 10
99.64353024852662
 20
-139.1518852733718
 30
0.0
 10
99.64559730581777
 20
-139.1160562803252
 30
0.0
 10
99.64800887265744
 20
-138.9531032638728
 30
0.0
 10
99.64800887265744
 20
-138.9193413281174
 30
0.0
 10
99.64800887265744
 20
-138.9193413281174
 30
0.0
 10
99.64800887265744
 20
-138.5407253342884
 30
0.0
 10
99.64800887265744
 20
-138.5407253342884
 30
0.0
 10
99.64800887265744
 20
-138.4222140495959
 30
0.0
 10
99.64146319123547
 20
-138.2444471225569
 30
0.0
 10
99.63939613394432
 20
-138.1934597093752
 30
0.0
 10
99.7093315722949
 20
-138.2000053907972
 30
0.0
 10
99.92499454967154
 20
-138.2041395053795
 30
0.0
 10
100.0031982171867
 20
-138.2041395053795
 30
0.0
 10
100.0031982171867
 20
-138.2041395053795
 30
0.0
 10
100.0455728916553
 20
-138.2041395053795
 30
0.0
 10
100.0455728916553
 20
-138.2041395053795
 30
0.0
 10
100.0665879741153
 20
-138.1345485765775
 30
0.0
 10
100.090014623415
 20
-138.0391194316361
 30
0.0
 10
100.0962157952884
 20
-137.9671169359943
 30
0.0
 10
100.0962157952884
 20
-137.9671169359943
 30
0.0
 10
100.2825954610405
 20
-138.0201714064672
 30
0.0
 10
100.2825954610405
 20
-138.0201714064672
 30
0.0
 10
100.3184244540871
 20
-138.0308512024715
 30
0.0
 10
100.3270371928002
 20
-138.0308512024715
 30
0.0
 10
100.3270371928002
 20
-138.0497992276403
 30
0.0
 10
100.3270371928002
 20
-138.0687472528092
 30
0.0
 10
100.2994764289182
 20
-138.0794270488135
 30
0.0
 10
100.2739827223273
 20
-138.0901068448178
 30
0.0
 10
100.2633029263231
 20
-138.1321370097378
 30
0.0
 10
100.2550346971585
 20
-138.1596977736198
 30
0.0
 10
100.2360866719896
 20
-138.2041395053795
 30
0.0
 10
100.2360866719896
 20
-138.2041395053795
 30
0.0
 10
100.4073079176065
 20
-138.2041395053795
 30
0.0
 10
100.4073079176065
 20
-138.2041395053795
 30
0.0
 10
100.4706976745351
 20
-138.2041395053795
 30
0.0
 10
100.7414821796757
 20
-138.1958712762149
 30
0.0
 10
100.8028048793132
 20
-138.1934597093752
 30
0.0
 10
100.7945366501486
 20
-138.3057698221944
 30
0.0
 10
100.7904025355663
 20
-138.4136013108827
 30
0.0
 10
100.7904025355663
 20
-138.555539244875
 30
0.0
  0
POLYLINE
  5
15B
330
148
100
AcDbEntity
  8
_U+30EC_U+30A4_U+30E4_U+30FC 1
370
     0
100
AcDb2dPolyline
 66
     1
 10
0.0
 20
0.0
 30
0.0
  0
VERTEX
  5
15C
330
15B
100
AcDbEntity
  8
_U+30EC_U+30A4_U+30E4_U+30FC 1
370
     0
100
AcDbVertex
100
AcDb2dVertex
 10
100.599888755232
 20
-138.3650254645407
 30
0.0
  0
VERTEX
  5
15D
330
15B
100
AcDbEntity
  8
_U+30EC_U+30A4_U+30E4_U+30FC 1
370
     0
100
AcDbVertex
100
AcDb2dVertex
 10
99.83197697156979
 20
-138.3650254645407
 30
0.0
  0
VERTEX
  5
15E
330
15B
100
AcDbEntity
  8
_U+30EC_U+30A4_U+30E4_U+30FC 1
370
     0
100
AcDbVertex
100
AcDb2dVertex
 10
99.83197697156979
 20
-138.5934352952128
 30
0.0
  0
VERTEX
  5
15F
330
15B
100
AcDbEntity
  8
_U+30EC_U+30A4_U+30E4_U+30FC 1
370
     0
100
AcDbVertex
100
AcDb2dVertex
 10
100.599888755232
 20
-138.5934352952128
 30
0.0
  0
VERTEX
  5
160
330
15B
100
AcDbEntity
  8
_U+30EC_U+30A4_U+30E4_U+30FC 1
370
     0
100
AcDbVertex
100
AcDb2dVertex
 10
100.599888755232
 20
-138.3650254645407
 30
0.0
  0
SEQEND
  5
161
330
15B
100
AcDbEntity
  8
_U+30EC_U+30A4_U+30E4_U+30FC 1
370
     0
  0
POLYLINE
  5
162
330
148
100
AcDbEntity
  8
_U+30EC_U+30A4_U+30E4_U+30FC 1
370
     0
100
AcDb2dPolyline
 66
     1
 10
0.0
 20
0.0
 30
0.0
  0
VERTEX
  5
163
330
162
100
AcDbEntity
  8
_U+30EC_U+30A4_U+30E4_U+30FC 1
370
     0
100
AcDbVertex
100
AcDb2dVertex
 10
100.599888755232
 20
-138.7457085156608
 30
0.0
  0
VERTEX
  5
164
330
162
100
AcDbEntity
  8
_U+30EC_U+30A4_U+30E4_U+30FC 1
370
     0
100
AcDbVertex
100
AcDb2dVertex
 10
99.83197697156979
 20
-138.7457085156608
 30
0.0
  0
VERTEX
  5
165
330
162
100
AcDbEntity
  8
_U+30EC_U+30A4_U+30E4_U+30FC 1
370
     0
100
AcDbVertex
100
AcDb2dVertex
 10
99.83197697156979
 20
-138.982731085046
 30
0.0
  0
VERTEX
  5
166
330
162
100
AcDbEntity
  8
_U+30EC_U+30A4_U+30E4_U+30FC 1
370
     0
100
AcDbVertex
100
AcDb2dVertex
 10
100.599888755232
 20
-138.982731085046
 30
0.0
  0
VERTEX
  5
167
330
162
100
AcDbEntity
  8
_U+30EC_U+30A4_U+30E4_U+30FC 1
370
     0
100
AcDbVertex
100
AcDb2dVertex
 10
100.599888755232
 20
-138.7457085156608
 30
0.0
  0
SEQEND
  5
168
330
162
100
AcDbEntity
  8
_U+30EC_U+30A4_U+30E4_U+30FC 1
370
     0
  0
HATCH
  5
169
330
148
100
AcDbEntity
  8
_U+30EC_U+30A4_U+30E4_U+30FC 1
 62
   179
420
  2234388
100
AcDbHatch
 10
0.0
 20
0.0
 30
0.0
210
0.0
220
0.0
230
1.0
  2
SOLID
 70
     1
 71
     0
 91
        7
 92
        1
 93
        1
 72
     4
 94
        3
 73
     0
 74
     1
 95
      104
 96
      100
 40
0.0
 40
0.0
 40
0.0
 40
0.0
 40
1.0
 40
1.0
 40
1.0
 40
2.0
 40
2.0
 40
2.0
 40
3.0
 40
3.0
 40
3.0
 40
4.0
 40
4.0
 40
4.0
 40
5.0
 40
5.0
 40
5.0
 40
6.0
 40
6.0
 40
6.0
 40
7.0
 40
7.0
 40
7.0
 40
8.0
 40
8.0
 40
8.0
 40
9.0
 40
9.0
 40
9.0
 40
10.0
 40
10.0
 40
10.0
 40
11.0
 40
11.0
 40
11.0
 40
12.0
 40
12.0
 40
12.0
 40
13.0
 40
13.0
 40
13.0
 40
14.0
 40
14.0
 40
14.0
 40
15.0
 40
15.0
 40
15.0
 40
16.0
 40
16.0
 40
16.0
 40
17.0
 40
17.0
 40
17.0
 40
18.0
 40
18.0
 40
18.0
 40
19.0
 40
19.0
 40
19.0
 40
20.0
 40
20.0
 40
20.0
 40
21.0
 40
21.0
 40
21.0
 40
22.0
 40
22.0
 40
22.0
 40
23.0
 40
23.0
 40
23.0
 40
24.0
 40
24.0
 40
24.0
 40
25.0
 40
25.0
 40
25.0
 40
26.0
 40
26.0
 40
26.0
 40
27.0
 40
27.0
 40
27.0
 40
28.0
 40
28.0
 40
28.0
 40
29.0
 40
29.0
 40
29.0
 40
30.0
 40
30.0
 40
30.0
 40
31.0
 40
31.0
 40
31.0
 40
32.0
 40
32.0
 40
32.0
 40
33.0
 40
33.0
 40
33.0
 40
33.0
 10
100.5003254957083
 20
-137.7748806079174
 10
100.5320203741726
 20
-137.831724683424
 10
100.5616481953457
 20
-137.907861293648
 10
100.5785291632234
 20
-137.9926106425852
 10
100.5785291632234
 20
-137.9926106425852
 10
100.3966281216022
 20
-138.0604790236446
 10
100.3966281216022
 20
-138.0604790236446
 10
100.3714789245599
 20
-137.9461018535343
 10
100.3566650139733
 20
-137.8806450393146
 10
100.297409371627
 20
-137.7748806079174
 10
100.297409371627
 20
-137.7748806079174
 10
100.1768310296433
 20
-137.7748806079174
 10
100.1768310296433
 20
-137.7748806079174
 10
100.0879475661238
 20
-137.9399006816609
 10
100.0497070062376
 20
-137.9819308465809
 10
100.0200791850644
 20
-138.0160372918849
 10
100.0200791850644
 20
-138.0160372918849
 10
99.81716306098322
 20
-137.9440347962432
 10
99.81716306098322
 20
-137.9440347962432
 10
99.85747067816064
 20
-137.907861293648
 10
99.92292749238038
 20
-137.8510172181414
 10
99.96943628143126
 20
-137.783148837082
 10
99.91431475366726
 20
-137.7810817797908
 10
99.74309350805034
 20
-137.7810817797908
 10
99.67970375112175
 20
-137.7810817797908
 10
99.67970375112175
 20
-137.7810817797908
 10
99.6500759299486
 20
-137.7810817797908
 10
99.6500759299486
 20
-137.7810817797908
 10
99.68590492299519
 20
-137.8510172181414
 10
99.73034665475492
 20
-137.9481689108255
 10
99.75584036134576
 20
-138.0284396356318
 10
99.75584036134576
 20
-138.0284396356318
 10
99.57393931972457
 20
-138.1025091885647
 10
99.57393931972457
 20
-138.1025091885647
 10
99.55705835184685
 20
-138.0432535462184
 10
99.52295190654287
 20
-137.9292208856566
 10
99.44681529631886
 20
-137.7810817797908
 10
99.44681529631886
 20
-137.7810817797908
 10
99.33691675033938
 20
-137.7810817797908
 10
99.33691675033938
 20
-137.7810817797908
 10
99.33037106891742
 20
-137.7872829516643
 10
99.23528643352452
 20
-137.8975260071923
 10
99.14020179813163
 20
-137.9798637892898
 10
99.14020179813163
 20
-137.9798637892898
 10
98.94762096050616
 20
-137.8806450393146
 10
98.94762096050616
 20
-137.8806450393146
 10
99.0406385386079
 20
-137.8275905688417
 10
99.12125377296275
 20
-137.7535210159089
 10
99.19084470176479
 20
-137.6711832338114
 10
99.27766110799308
 20
-137.5674858597054
 10
99.31796872517052
 20
-137.4658555428905
 10
99.35173066092597
 20
-137.3707709074976
 10
99.35173066092597
 20
-137.3707709074976
 10
99.54431149855142
 20
-137.4531086895951
 10
99.54431149855142
 20
-137.4531086895951
 10
99.559125409138
 20
-137.459654371017
 10
99.56946069559375
 20
-137.4679226001816
 10
99.56946069559375
 20
-137.4786023961859
 10
99.56946069559375
 20
-137.4996174786459
 10
99.54431149855142
 20
-137.5040961027768
 10
99.51468367737827
 20
-137.5082302173591
 10
99.47851017478315
 20
-137.5695529169965
 10
99.46576332148773
 20
-137.5905679994565
 10
99.44681529631886
 20
-137.6201958206297
 10
99.44681529631886
 20
-137.6201958206297
 10
99.67970375112175
 20
-137.6201958206297
 10
99.67970375112175
 20
-137.6201958206297
 10
99.72827959746377
 20
-137.6201958206297
 10
99.93774140296696
 20
-137.6139946487562
 10
99.98218313472668
 20
-137.6119275914651
 10
99.98218313472668
 20
-137.6119275914651
 10
99.98218313472668
 20
-137.7642008119131
 10
99.98218313472668
 20
-137.7642008119131
 10
100.0245578091953
 20
-137.6942653735626
 10
100.1006944194193
 20
-137.5082302173591
 10
100.1237765591705
 20
-137.3811061939533
 10
100.1237765591705
 20
-137.3811061939533
 10
100.3184244540871
 20
-137.4469075177216
 10
100.3184244540871
 20
-137.4469075177216
 10
100.3353054219648
 20
-137.4531086895951
 10
100.3501193325514
 20
-137.4575873137259
 10
100.3501193325514
 20
-137.4724012243124
 10
100.3501193325514
 20
-137.4934163067725
 10
100.3225585686694
 20
-137.4975504213548
 10
100.2994764289182
 20
-137.5016845359371
 10
100.2867295756228
 20
-137.5337239239499
 10
100.2719156650362
 20
-137.5674858597054
 10
100.248833525285
 20
-137.6222628779208
 10
100.248833525285
 20
-137.6222628779208
 10
100.517206463586
 20
-137.6222628779208
 10
100.517206463586
 20
-137.6222628779208
 10
100.5785291632234
 20
-137.6222628779208
 10
100.855859349786
 20
-137.6098605341739
 10
100.9130479348412
 20
-137.6074489673342
 10
100.9130479348412
 20
-137.6074489673342
 10
100.9130479348412
 20
-137.7872829516643
 10
100.9130479348412
 20
-137.7872829516643
 10
100.855859349786
 20
-137.783148837082
 10
100.6718912508737
 20
-137.7748806079174
 10
100.5003254957083
 20
-137.7748806079174
 97
        0
 97
        0
 92
        1
 93
        1
 72
     4
 94
        3
 73
     0
 74
     1
 95
       17
 96
       13
 40
0.0
 40
0.0
 40
0.0
 40
0.0
 40
1.0
 40
1.0
 40
1.0
 40
2.0
 40
2.0
 40
2.0
 40
3.0
 40
3.0
 40
3.0
 40
4.0
 40
4.0
 40
4.0
 40
4.0
 10
99.20359155506021
 20
-138.6716389627279
 10
99.12952200212735
 20
-138.5893011806305
 10
99.06613224519874
 20
-138.5383137674488
 10
98.95623369921928
 20
-138.472856953229
 10
98.95623369921928
 20
-138.472856953229
 10
99.07681204120303
 20
-138.3353976433675
 10
99.07681204120303
 20
-138.3353976433675
 10
99.17396373388706
 20
-138.396720343005
 10
99.23735349081566
 20
-138.4494303039293
 10
99.31349010103969
 20
-138.5259114237019
 10
99.31349010103969
 20
-138.5259114237019
 10
99.20359155506021
 20
-138.6716389627279
 10
99.20359155506021
 20
-138.6716389627279
 97
        0
 97
        0
 92
        1
 93
        1
 72
     4
 94
        3
 73
     0
 74
     1
 95
       29
 96
       25
 40
0.0
 40
0.0
 40
0.0
 40
0.0
 40
1.0
 40
1.0
 40
1.0
 40
2.0
 40
2.0
 40
2.0
 40
3.0
 40
3.0
 40
3.0
 40
4.0
 40
4.0
 40
4.0
 40
5.0
 40
5.0
 40
5.0
 40
6.0
 40
6.0
 40
6.0
 40
7.0
 40
7.0
 40
7.0
 40
8.0
 40
8.0
 40
8.0
 40
8.0
 10
99.43406844302343
 20
-138.9362222959951
 10
99.41305336056341
 20
-138.9806640277548
 10
99.30935598645739
 20
-139.156019387954
 10
99.25010034411109
 20
-139.2576497047689
 10
99.25664602553306
 20
-139.2703965580644
 10
99.26284719740651
 20
-139.2852104686509
 10
99.26284719740651
 20
-139.3000243792375
 10
99.26284719740651
 20
-139.3086371179506
 10
99.25871308282422
 20
-139.3210394616975
 10
99.24183211494649
 20
-139.3210394616975
 10
99.23115231894222
 20
-139.3210394616975
 10
99.2184054656468
 20
-139.3148382898241
 10
99.2142713510645
 20
-139.3127712325329
 10
99.2142713510645
 20
-139.3127712325329
 10
99.04511716273872
 20
-139.2090738584269
 10
99.04511716273872
 20
-139.2090738584269
 10
99.17603079117822
 20
-139.0609347525612
 10
99.35586477550827
 20
-138.7226263759096
 10
99.42373315656768
 20
-138.5172986849887
 10
99.42373315656768
 20
-138.5172986849887
 10
99.56532658101145
 20
-138.652690937559
 10
99.56532658101145
 20
-138.652690937559
 10
99.5398328744206
 20
-138.7202148090699
 10
99.48057723207431
 20
-138.8432047178934
 10
99.43406844302343
 20
-138.9362222959951
 97
        0
 97
        0
 92
        1
 93
        1
 72
     4
 94
        3
 73
     0
 74
     1
 95
       17
 96
       13
 40
0.0
 40
0.0
 40
0.0
 40
0.0
 40
1.0
 40
1.0
 40
1.0
 40
2.0
 40
2.0
 40
2.0
 40
3.0
 40
3.0
 40
3.0
 40
4.0
 40
4.0
 40
4.0
 40
4.0
 10
99.42373315656768
 20
-138.3460774393718
 10
99.33898380763054
 20
-138.2506482944304
 10
99.26491425469767
 20
-138.189325594793
 10
99.15708276600934
 20
-138.1197346659909
 10
99.15708276600934
 20
-138.1197346659909
 10
99.27559405070194
 20
-137.9843424134206
 10
99.27559405070194
 20
-137.9843424134206
 10
99.35586477550827
 20
-138.0370523743449
 10
99.47024194561855
 20
-138.1238687805732
 10
99.53776581712945
 20
-138.2062065626707
 10
99.53776581712945
 20
-138.2062065626707
 10
99.42373315656768
 20
-138.3460774393718
 10
99.42373315656768
 20
-138.3460774393718
 97
        0
 97
        0
 92
        1
 93
        1
 72
     4
 94
        3
 73
     0
 74
     1
 95
       71
 96
       67
 40
0.0
 40
0.0
 40
0.0
 40
0.0
 40
1.0
 40
1.0
 40
1.0
 40
2.0
 40
2.0
 40
2.0
 40
3.0
 40
3.0
 40
3.0
 40
4.0
 40
4.0
 40
4.0
 40
5.0
 40
5.0
 40
5.0
 40
6.0
 40
6.0
 40
6.0
 40
7.0
 40
7.0
 40
7.0
 40
8.0
 40
8.0
 40
8.0
 40
9.0
 40
9.0
 40
9.0
 40
10.0
 40
10.0
 40
10.0
 40
11.0
 40
11.0
 40
11.0
 40
12.0
 40
12.0
 40
12.0
 40
13.0
 40
13.0
 40
13.0
 40
14.0
 40
14.0
 40
14.0
 40
15.0
 40
15.0
 40
15.0
 40
16.0
 40
16.0
 40
16.0
 40
17.0
 40
17.0
 40
17.0
 40
18.0
 40
18.0
 40
18.0
 40
19.0
 40
19.0
 40
19.0
 40
20.0
 40
20.0
 40
20.0
 40
21.0
 40
21.0
 40
21.0
 40
22.0
 40
22.0
 40
22.0
 40
22.0
 10
100.7904025355663
 20
-138.555539244875
 10
100.7904025355663
 20
-138.555539244875
 10
100.7904025355663
 20
-138.9424234678686
 10
100.7904025355663
 20
-138.9424234678686
 10
100.7904025355663
 20
-138.9424234678686
 10
100.7904025355663
 20
-138.9975449956326
 10
100.7904025355663
 20
-138.9975449956326
 10
100.7904025355663
 20
-139.0292398740969
 10
100.7945366501486
 20
-139.2111409157181
 10
100.7986707647309
 20
-139.3041584938198
 10
100.7986707647309
 20
-139.3041584938198
 10
100.5850748446454
 20
-139.3041584938198
 10
100.5850748446454
 20
-139.3041584938198
 10
100.5892089592277
 20
-139.2387016796
 10
100.5892089592277
 20
-139.2300889408869
 10
100.59334307381
 20
-139.1584309547937
 10
100.59334307381
 20
-139.1584309547937
 10
99.83611108615209
 20
-139.1584309547937
 10
99.83611108615209
 20
-139.1584309547937
 10
99.83611108615209
 20
-139.1584309547937
 10
99.84265676757406
 20
-139.3169053471152
 10
99.84265676757406
 20
-139.3169053471152
 10
99.84265676757406
 20
-139.3169053471152
 10
99.63526201936202
 20
-139.3169053471152
 10
99.63526201936202
 20
-139.3169053471152
 10
99.63732907665317
 20
-139.2872775259421
 10
99.63939613394432
 20
-139.2724636153555
 10
99.64353024852662
 20
-139.1518852733718
 10
99.64559730581777
 20
-139.1160562803252
 10
99.64800887265744
 20
-138.9531032638728
 10
99.64800887265744
 20
-138.9193413281174
 10
99.64800887265744
 20
-138.9193413281174
 10
99.64800887265744
 20
-138.5407253342884
 10
99.64800887265744
 20
-138.5407253342884
 10
99.64800887265744
 20
-138.4222140495959
 10
99.64146319123547
 20
-138.2444471225569
 10
99.63939613394432
 20
-138.1934597093752
 10
99.7093315722949
 20
-138.2000053907972
 10
99.92499454967154
 20
-138.2041395053795
 10
100.0031982171867
 20
-138.2041395053795
 10
100.0031982171867
 20
-138.2041395053795
 10
100.0455728916553
 20
-138.2041395053795
 10
100.0455728916553
 20
-138.2041395053795
 10
100.0665879741153
 20
-138.1345485765775
 10
100.090014623415
 20
-138.0391194316361
 10
100.0962157952884
 20
-137.9671169359943
 10
100.0962157952884
 20
-137.9671169359943
 10
100.2825954610405
 20
-138.0201714064672
 10
100.2825954610405
 20
-138.0201714064672
 10
100.3184244540871
 20
-138.0308512024715
 10
100.3270371928002
 20
-138.0308512024715
 10
100.3270371928002
 20
-138.0497992276403
 10
100.3270371928002
 20
-138.0687472528092
 10
100.2994764289182
 20
-138.0794270488135
 10
100.2739827223273
 20
-138.0901068448178
 10
100.2633029263231
 20
-138.1321370097378
 10
100.2550346971585
 20
-138.1596977736198
 10
100.2360866719896
 20
-138.2041395053795
 10
100.2360866719896
 20
-138.2041395053795
 10
100.4073079176065
 20
-138.2041395053795
 10
100.4073079176065
 20
-138.2041395053795
 10
100.4706976745351
 20
-138.2041395053795
 10
100.7414821796757
 20
-138.1958712762149
 10
100.8028048793132
 20
-138.1934597093752
 10
100.7945366501486
 20
-138.3057698221944
 10
100.7904025355663
 20
-138.4136013108827
 10
100.7904025355663
 20
-138.555539244875
 97
        0
 97
        0
 92
        1
 93
        4
 72
     1
 10
100.599888755232
 20
-138.3650254645407
 11
99.83197697156979
 21
-138.3650254645407
 72
     1
 10
99.83197697156979
 20
-138.3650254645407
 11
99.83197697156979
 21
-138.5934352952128
 72
     1
 10
99.83197697156979
 20
-138.5934352952128
 11
100.599888755232
 21
-138.5934352952128
 72
     1
 10
100.599888755232
 20
-138.5934352952128
 11
100.599888755232
 21
-138.3650254645407
 97
        0
 92
        1
 93
        4
 72
     1
 10
100.599888755232
 20
-138.7457085156608
 11
99.83197697156979
 21
-138.7457085156608
 72
     1
 10
99.83197697156979
 20
-138.7457085156608
 11
99.83197697156979
 21
-138.982731085046
 72
     1
 10
99.83197697156979
 20
-138.982731085046
 11
100.599888755232
 21
-138.982731085046
 72
     1
 10
100.599888755232
 20
-138.982731085046
 11
100.599888755232
 21
-138.7457085156608
 97
        0
 75
     2
 76
     1
 98
        0
  0
ENDBLK
  5
14B
330
148
100
AcDbEntity
  8
0
100
AcDbBlockEnd
  0
ENDSEC
  0
SECTION
  2
ENTITIES
  0
SPLINE
  5
41
330
1F
100
AcDbEntity
  8
_U+30EC_U+30A4_U+30E4_U+30FC 1
 62
   179
420
  2234388
370
    25
100
AcDbSpline
210
0.0
220
0.0
230
1.0
 70
    11
 71
     3
 72
    38
 73
    34
 74
     0
 42
0.0000000001
 43
0.0000000001
 12
1.0
 22
0.0
 32
0.0
 13
1.0
 23
0.0
 33
0.0
 40
0.0
 40
0.0
 40
0.0
 40
0.0
 40
1.0
 40
1.0
 40
1.0
 40
2.0
 40
2.0
 40
2.0
 40
3.0
 40
3.0
 40
3.0
 40
4.0
 40
4.0
 40
4.0
 40
5.0
 40
5.0
 40
5.0
 40
6.0
 40
6.0
 40
6.0
 40
7.0
 40
7.0
 40
7.0
 40
8.0
 40
8.0
 40
8.0
 40
9.0
 40
9.0
 40
9.0
 40
10.0
 40
10.0
 40
10.0
 40
11.0
 40
11.0
 40
11.0
 40
11.0
 10
80.65967349775585
 20
-133.877790799864
 30
0.0
 10
80.65967349775585
 20
-133.877790799864
 30
0.0
 10
80.65967349775585
 20
-126.3778058017391
 30
0.0
 10
80.65967349775585
 20
-126.3778058017391
 30
0.0
 10
80.65967349775585
 20
-126.3778058017391
 30
0.0
 10
99.15948330854359
 20
-126.3778058017391
 30
0.0
 10
99.15948330854359
 20
-126.3778058017391
 30
0.0
 10
99.43577635207089
 20
-126.3778058017391
 30
0.0
 10
99.6597221973073
 20
-126.1538977462393
 30
0.0
 10
99.6597221973073
 20
-125.8782724685306
 30
0.0
 10
99.6597221973073
 20
-125.8782724685306
 30
0.0
 10
99.6597221973073
 20
-125.3780335797665
 30
0.0
 10
99.6597221973073
 20
-125.3780335797665
 30
0.0
 10
99.6597221973073
 20
-125.3780335797665
 30
0.0
 10
78.65963521544774
 20
-125.3780335797665
 30
0.0
 10
78.65963521544774
 20
-125.3780335797665
 30
0.0
 10
78.65963521544774
 20
-125.3780335797665
 30
0.0
 10
78.65963521544774
 20
-135.8780055215858
 30
0.0
 10
78.65963521544774
 20
-135.8780055215858
 30
0.0
 10
78.65963521544774
 20
-135.8780055215858
 30
0.0
 10
88.65968551588075
 20
-135.8780055215858
 30
0.0
 10
88.65968551588075
 20
-135.8780055215858
 30
0.0
 10
88.65968551588075
 20
-135.8780055215858
 30
0.0
 10
88.65968551588075
 20
-132.8780185778915
 30
0.0
 10
88.65968551588075
 20
-132.8780185778915
 30
0.0
 10
88.65968551588075
 20
-132.8780185778915
 30
0.0
 10
86.65947084468827
 20
-132.8780185778915
 30
0.0
 10
86.65947084468827
 20
-132.8780185778915
 30
0.0
 10
86.65947084468827
 20
-132.8780185778915
 30
0.0
 10
86.65947084468827
 20
-133.877790799864
 30
0.0
 10
86.65947084468827
 20
-133.877790799864
 30
0.0
 10
86.65947084468827
 20
-133.877790799864
 30
0.0
 10
80.65967349775585
 20
-133.877790799864
 30
0.0
 10
80.65967349775585
 20
-133.877790799864
 30
0.0
  0
HATCH
  5
42
330
1F
100
AcDbEntity
  8
_U+30EC_U+30A4_U+30E4_U+30FC 1
 62
     9
420
 13224394
100
AcDbHatch
 10
0.0
 20
0.0
 30
0.0
210
0.0
220
0.0
230
1.0
  2
SOLID
 70
     1
 71
     0
 91
        1
 92
        1
 93
        1
 72
     4
 94
        3
 73
     0
 74
     1
 95
       38
 96
       34
 40
0.0
 40
0.0
 40
0.0
 40
0.0
 40
1.0
 40
1.0
 40
1.0
 40
2.0
 40
2.0
 40
2.0
 40
3.0
 40
3.0
 40
3.0
 40
4.0
 40
4.0
 40
4.0
 40
5.0
 40
5.0
 40
5.0
 40
6.0
 40
6.0
 40
6.0
 40
7.0
 40
7.0
 40
7.0
 40
8.0
 40
8.0
 40
8.0
 40
9.0
 40
9.0
 40
9.0
 40
10.0
 40
10.0
 40
10.0
 40
11.0
 40
11.0
 40
11.0
 40
11.0
 10
80.65967349775585
 20
-133.877790799864
 10
80.65967349775585
 20
-133.877790799864
 10
80.65967349775585
 20
-126.3778058017391
 10
80.65967349775585
 20
-126.3778058017391
 10
80.65967349775585
 20
-126.3778058017391
 10
99.15948330854359
 20
-126.3778058017391
 10
99.15948330854359
 20
-126.3778058017391
 10
99.43577635207089
 20
-126.3778058017391
 10
99.6597221973073
 20
-126.1538977462393
 10
99.6597221973073
 20
-125.8782724685306
 10
99.6597221973073
 20
-125.8782724685306
 10
99.6597221973073
 20
-125.3780335797665
 10
99.6597221973073
 20
-125.3780335797665
 10
99.6597221973073
 20
-125.3780335797665
 10
78.65963521544774
 20
-125.3780335797665
 10
78.65963521544774
 20
-125.3780335797665
 10
78.65963521544774
 20
-125.3780335797665
 10
78.65963521544774
 20
-135.8780055215858
 10
78.65963521544774
 20
-135.8780055215858
 10
78.65963521544774
 20
-135.8780055215858
 10
88.65968551588075
 20
-135.8780055215858
 10
88.65968551588075
 20
-135.8780055215858
 10
88.65968551588075
 20
-135.8780055215858
 10
88.65968551588075
 20
-132.8780185778915
 10
88.65968551588075
 20
-132.8780185778915
 10
88.65968551588075
 20
-132.8780185778915
 10
86.65947084468827
 20
-132.8780185778915
 10
86.65947084468827
 20
-132.8780185778915
 10
86.65947084468827
 20
-132.8780185778915
 10
86.65947084468827
 20
-133.877790799864
 10
86.65947084468827
 20
-133.877790799864
 10
86.65947084468827
 20
-133.877790799864
 10
80.65967349775585
 20
-133.877790799864
 10
80.65967349775585
 20
-133.877790799864
 97
        0
 97
        0
 75
     2
 76
     1
 98
        0
  0
POLYLINE
  5
43
330
1F
100
AcDbEntity
  8
_U+30EC_U+30A4_U+30E4_U+30FC 1
 62
   179
420
  2234388
370
     9
100
AcDb2dPolyline
 66
     1
 10
0.0
 20
0.0
 30
0.0
  0
VERTEX
  5
44
330
43
100
AcDbEntity
  8
_U+30EC_U+30A4_U+30E4_U+30FC 1
 62
   179
420
  2234388
370
     9
100
AcDbVertex
100
AcDb2dVertex
 10
79.78012796463936
 20
-133.8164780221014
 30
0.0
  0
VERTEX
  5
45
330
43
100
AcDbEntity
  8
_U+30EC_U+30A4_U+30E4_U+30FC 1
 62
   179
420
  2234388
370
     9
100
AcDbVertex
100
AcDb2dVertex
 10
79.36861269736022
 20
-133.8164780221014
 30
0.0
  0
VERTEX
  5
46
330
43
100
AcDbEntity
  8
_U+30EC_U+30A4_U+30E4_U+30FC 1
 62
   179
420
  2234388
370
     9
100
AcDbVertex
100
AcDb2dVertex
 10
79.36861269736022
 20
-127.3486502459406
 30
0.0
  0
VERTEX
  5
47
330
43
100
AcDbEntity
  8
_U+30EC_U+30A4_U+30E4_U+30FC 1
 62
   179
420
  2234388
370
     9
100
AcDbVertex
100
AcDb2dVertex
 10
79.78012796463936
 20
-127.3486502459406
 30
0.0
  0
VERTEX
  5
48
330
43
100
AcDbEntity
  8
_U+30EC_U+30A4_U+30E4_U+30FC 1
 62
   179
420
  2234388
370
     9
100
AcDbVertex
100
AcDb2dVertex
 10
79.78012796463936
 20
-133.8164780221014
 30
0.0
  0
SEQEND
  5
4A
330
43
100
AcDbEntity
  8
_U+30EC_U+30A4_U+30E4_U+30FC 1
 62
   179
420
  2234388
370
     9
  0
HATCH
  5
49
330
1F
100
AcDbEntity
  8
_U+30EC_U+30A4_U+30E4_U+30FC 1
 62
   179
420
  2234388
100
AcDbHatch
 10
0.0
 20
0.0
 30
0.0
210
0.0
220
0.0
230
1.0
  2
SOLID
 70
     1
 71
     0
 91
        1
 92
        1
 93
        4
 72
     1
 10
79.78012796463936
 20
-133.8164780221014
 11
79.36861269736022
 21
-133.8164780221014
 72
     1
 10
79.36861269736022
 20
-133.8164780221014
 11
79.36861269736022
 21
-127.3486502459406
 72
     1
 10
79.36861269736022
 20
-127.3486502459406
 11
79.78012796463936
 21
-127.3486502459406
 72
     1
 10
79.78012796463936
 20
-127.3486502459406
 11
79.78012796463936
 21
-133.8164780221014
 97
        0
 75
     2
 76
     1
 98
        0
  0
POLYLINE
  5
4B
330
1F
100
AcDbEntity
  8
_U+30EC_U+30A4_U+30E4_U+30FC 1
 62
   179
420
  2234388
370
    25
100
AcDb2dPolyline
 66
     1
 10
0.0
 20
0.0
 30
0.0
  0
VERTEX
  5
4C
330
4B
100
AcDbEntity
  8
_U+30EC_U+30A4_U+30E4_U+30FC 1
 62
   179
420
  2234388
370
    25
100
AcDbVertex
100
AcDb2dVertex
 10
79.40960547409219
 20
-127.3782835792665
 30
0.0
  0
VERTEX
  5
4D
330
4B
100
AcDbEntity
  8
_U+30EC_U+30A4_U+30E4_U+30FC 1
 62
   179
420
  2234388
370
    25
100
AcDbVertex
100
AcDb2dVertex
 10
79.90966796133453
 20
-127.3782835792665
 30
0.0
  0
SEQEND
  5
4E
330
4B
100
AcDbEntity
  8
_U+30EC_U+30A4_U+30E4_U+30FC 1
 62
   179
420
  2234388
370
    25
  0
POLYLINE
  5
4F
330
1F
100
AcDbEntity
  8
_U+30EC_U+30A4_U+30E4_U+30FC 1
 62
   179
420
  2234388
370
    25
100
AcDb2dPolyline
 66
     1
 10
0.0
 20
0.0
 30
0.0
  0
VERTEX
  5
50
330
4F
100
AcDbEntity
  8
_U+30EC_U+30A4_U+30E4_U+30FC 1
 62
   179
420
  2234388
370
    25
100
AcDbVertex
100
AcDb2dVertex
 10
79.90966796133453
 20
-127.3782835792665
 30
0.0
  0
VERTEX
  5
51
330
4F
100
AcDbEntity
  8
_U+30EC_U+30A4_U+30E4_U+30FC 1
 62
   179
420
  2234388
370
    25
100
AcDbVertex
100
AcDb2dVertex
 10
79.90966796133453
 20
-133.877790799864
 30
0.0
  0
SEQEND
  5
52
330
4F
100
AcDbEntity
  8
_U+30EC_U+30A4_U+30E4_U+30FC 1
 62
   179
420
  2234388
370
    25
  0
POLYLINE
  5
53
330
1F
100
AcDbEntity
  8
_U+30EC_U+30A4_U+30E4_U+30FC 1
 62
   179
420
  2234388
370
    25
100
AcDb2dPolyline
 66
     1
 10
0.0
 20
0.0
 30
0.0
  0
VERTEX
  5
54
330
53
100
AcDbEntity
  8
_U+30EC_U+30A4_U+30E4_U+30FC 1
 62
   179
420
  2234388
370
    25
100
AcDbVertex
100
AcDb2dVertex
 10
79.40960547409219
 20
-127.3782835792665
 30
0.0
  0
VERTEX
  5
55
330
53
100
AcDbEntity
  8
_U+30EC_U+30A4_U+30E4_U+30FC 1
 62
   179
420
  2234388
370
    25
100
AcDbVertex
100
AcDb2dVertex
 10
79.40960547409219
 20
-133.877790799864
 30
0.0
  0
SEQEND
  5
56
330
53
100
AcDbEntity
  8
_U+30EC_U+30A4_U+30E4_U+30FC 1
 62
   179
420
  2234388
370
    25
  0
POLYLINE
  5
57
330
1F
100
AcDbEntity
  8
_U+30EC_U+30A4_U+30E4_U+30FC 1
 62
   179
420
  2234388
370
    25
100
AcDb2dPolyline
 66
     1
 10
0.0
 20
0.0
 30
0.0
  0
VERTEX
  5
58
330
57
100
AcDbEntity
  8
_U+30EC_U+30A4_U+30E4_U+30FC 1
 62
   179
420
  2234388
370
    25
100
AcDbVertex
100
AcDb2dVertex
 10
79.40960547409219
 20
-133.877790799864
 30
0.0
  0
VERTEX
  5
59
330
57
100
AcDbEntity
  8
_U+30EC_U+30A4_U+30E4_U+30FC 1
 62
   179
420
  2234388
370
    25
100
AcDbVertex
100
AcDb2dVertex
 10
79.90966796133453
 20
-133.877790799864
 30
0.0
  0
SEQEND
  5
5A
330
57
100
AcDbEntity
  8
_U+30EC_U+30A4_U+30E4_U+30FC 1
 62
   179
420
  2234388
370
    25
  0
POLYLINE
  5
5B
330
1F
100
AcDbEntity
  8
_U+30EC_U+30A4_U+30E4_U+30FC 1
 62
   179
420
  2234388
370
     9
100
AcDb2dPolyline
 66
     1
 10
0.0
 20
0.0
 30
0.0
  0
VERTEX
  5
5C
330
5B
100
AcDbEntity
  8
_U+30EC_U+30A4_U+30E4_U+30FC 1
 62
   179
420
  2234388
370
     9
100
AcDbVertex
100
AcDb2dVertex
 10
82.391000953586
 20
-130.6559419117808
 30
0.0
  0
VERTEX
  5
5D
330
5B
100
AcDbEntity
  8
_U+30EC_U+30A4_U+30E4_U+30FC 1
 62
   179
420
  2234388
370
     9
100
AcDbVertex
100
AcDb2dVertex
 10
98.1920936060221
 20
-130.6559419117808
 30
0.0
  0
SEQEND
  5
5E
330
5B
100
AcDbEntity
  8
_U+30EC_U+30A4_U+30E4_U+30FC 1
 62
   179
420
  2234388
370
     9
  0
POLYLINE
  5
5F
330
1F
100
AcDbEntity
  8
_U+30EC_U+30A4_U+30E4_U+30FC 1
 62
   179
420
  2234388
370
     9
100
AcDb2dPolyline
 66
     1
 10
0.0
 20
0.0
 30
0.0
  0
VERTEX
  5
60
330
5F
100
AcDbEntity
  8
_U+30EC_U+30A4_U+30E4_U+30FC 1
 62
   179
420
  2234388
370
     9
100
AcDbVertex
100
AcDb2dVertex
 10
79.90966796133453
 20
-132.0883960780892
 30
0.0
  0
VERTEX
  5
61
330
5F
100
AcDbEntity
  8
_U+30EC_U+30A4_U+30E4_U+30FC 1
 62
   179
420
  2234388
370
     9
100
AcDbVertex
100
AcDb2dVertex
 10
82.391000953586
 20
-130.6559419117808
 30
0.0
  0
SEQEND
  5
62
330
5F
100
AcDbEntity
  8
_U+30EC_U+30A4_U+30E4_U+30FC 1
 62
   179
420
  2234388
370
     9
  0
POLYLINE
  5
63
330
1F
100
AcDbEntity
  8
_U+30EC_U+30A4_U+30E4_U+30FC 1
 62
   179
420
  2234388
370
     9
100
AcDb2dPolyline
 66
     1
 10
0.0
 20
0.0
 30
0.0
  0
VERTEX
  5
64
330
63
100
AcDbEntity
  8
_U+30EC_U+30A4_U+30E4_U+30FC 1
 62
   179
420
  2234388
370
     9
100
AcDbVertex
100
AcDb2dVertex
 10
79.90966796133453
 20
-132.0883960780892
 30
0.0
  0
VERTEX
  5
65
330
63
100
AcDbEntity
  8
_U+30EC_U+30A4_U+30E4_U+30FC 1
 62
   179
420
  2234388
370
     9
100
AcDbVertex
100
AcDb2dVertex
 10
80.26315128564976
 20
-131.7349480226216
 30
0.0
  0
SEQEND
  5
66
330
63
100
AcDbEntity
  8
_U+30EC_U+30A4_U+30E4_U+30FC 1
 62
   179
420
  2234388
370
     9
  0
POLYLINE
  5
67
330
1F
100
AcDbEntity
  8
_U+30EC_U+30A4_U+30E4_U+30FC 1
 62
   179
420
  2234388
370
     9
100
AcDb2dPolyline
 66
     1
 10
0.0
 20
0.0
 30
0.0
  0
VERTEX
  5
68
330
67
100
AcDbEntity
  8
_U+30EC_U+30A4_U+30E4_U+30FC 1
 62
   179
420
  2234388
370
     9
100
AcDbVertex
100
AcDb2dVertex
 10
79.90966796133453
 20
-132.0883960780892
 30
0.0
  0
VERTEX
  5
69
330
67
100
AcDbEntity
  8
_U+30EC_U+30A4_U+30E4_U+30FC 1
 62
   179
420
  2234388
370
     9
100
AcDbVertex
100
AcDb2dVertex
 10
80.39251489346051
 20
-131.9588560781214
 30
0.0
  0
SEQEND
  5
6A
330
67
100
AcDbEntity
  8
_U+30EC_U+30A4_U+30E4_U+30FC 1
 62
   179
420
  2234388
370
     9
  0
POLYLINE
  5
6B
330
1F
100
AcDbEntity
  8
_U+30EC_U+30A4_U+30E4_U+30FC 1
 62
   154
420
    23468
370
    25
100
AcDb2dPolyline
 66
     1
 10
0.0
 20
0.0
 30
0.0
  0
VERTEX
  5
6C
330
6B
100
AcDbEntity
  8
_U+30EC_U+30A4_U+30E4_U+30FC 1
 62
   154
420
    23468
370
    25
100
AcDbVertex
100
AcDb2dVertex
 10
89.65945771259666
 20
-132.8780185778915
 30
0.0
  0
VERTEX
  5
6D
330
6B
100
AcDbEntity
  8
_U+30EC_U+30A4_U+30E4_U+30FC 1
 62
   154
420
    23468
370
    25
100
AcDbVertex
100
AcDb2dVertex
 10
89.65945771259666
 20
-136.8777777435583
 30
0.0
  0
SEQEND
  5
6E
330
6B
100
AcDbEntity
  8
_U+30EC_U+30A4_U+30E4_U+30FC 1
 62
   154
420
    23468
370
    25
  0
POLYLINE
  5
6F
330
1F
100
AcDbEntity
  8
_U+30EC_U+30A4_U+30E4_U+30FC 1
 62
   154
420
    23468
370
    25
100
AcDb2dPolyline
 66
     1
 10
0.0
 20
0.0
 30
0.0
  0
VERTEX
  5
70
330
6F
100
AcDbEntity
  8
_U+30EC_U+30A4_U+30E4_U+30FC 1
 62
   154
420
    23468
370
    25
100
AcDbVertex
100
AcDb2dVertex
 10
78.1595727282054
 20
-136.8777777435583
 30
0.0
  0
VERTEX
  5
71
330
6F
100
AcDbEntity
  8
_U+30EC_U+30A4_U+30E4_U+30FC 1
 62
   154
420
    23468
370
    25
100
AcDbVertex
100
AcDb2dVertex
 10
89.65945771259666
 20
-136.8777777435583
 30
0.0
  0
SEQEND
  5
72
330
6F
100
AcDbEntity
  8
_U+30EC_U+30A4_U+30E4_U+30FC 1
 62
   154
420
    23468
370
    25
  0
POLYLINE
  5
73
330
1F
100
AcDbEntity
  8
_U+30EC_U+30A4_U+30E4_U+30FC 1
 62
   154
420
    23468
370
    25
100
AcDb2dPolyline
 66
     1
 10
0.0
 20
0.0
 30
0.0
  0
VERTEX
  5
74
330
73
100
AcDbEntity
  8
_U+30EC_U+30A4_U+30E4_U+30FC 1
 62
   154
420
    23468
370
    25
100
AcDbVertex
100
AcDb2dVertex
 10
78.1595727282054
 20
-126.7776088571945
 30
0.0
  0
VERTEX
  5
75
330
73
100
AcDbEntity
  8
_U+30EC_U+30A4_U+30E4_U+30FC 1
 62
   154
420
    23468
370
    25
100
AcDbVertex
100
AcDb2dVertex
 10
78.1595727282054
 20
-136.8777777435583
 30
0.0
  0
SEQEND
  5
76
330
73
100
AcDbEntity
  8
_U+30EC_U+30A4_U+30E4_U+30FC 1
 62
   154
420
    23468
370
    25
  0
POLYLINE
  5
77
330
1F
100
AcDbEntity
  8
_U+30EC_U+30A4_U+30E4_U+30FC 1
 62
   179
420
  2234388
370
     9
100
AcDb2dPolyline
 66
     1
 10
0.0
 20
0.0
 30
0.0
  0
VERTEX
  5
78
330
77
100
AcDbEntity
  8
_U+30EC_U+30A4_U+30E4_U+30FC 1
 62
   179
420
  2234388
370
     9
100
AcDbVertex
100
AcDb2dVertex
 10
91.28244711563521
 20
-137.8148613544354
 30
0.0
  0
VERTEX
  5
79
330
77
100
AcDbEntity
  8
_U+30EC_U+30A4_U+30E4_U+30FC 1
 62
   179
420
  2234388
370
     9
100
AcDbVertex
100
AcDb2dVertex
 10
91.63610682883481
 20
-138.1683094099023
 30
0.0
  0
SEQEND
  5
7A
330
77
100
AcDbEntity
  8
_U+30EC_U+30A4_U+30E4_U+30FC 1
 62
   179
420
  2234388
370
     9
  0
POLYLINE
  5
7B
330
1F
100
AcDbEntity
  8
_U+30EC_U+30A4_U+30E4_U+30FC 1
 62
   179
420
  2234388
370
     9
100
AcDb2dPolyline
 66
     1
 10
0.0
 20
0.0
 30
0.0
  0
VERTEX
  5
7C
330
7B
100
AcDbEntity
  8
_U+30EC_U+30A4_U+30E4_U+30FC 1
 62
   179
420
  2234388
370
     9
100
AcDbVertex
100
AcDb2dVertex
 10
91.28244711563521
 20
-137.8148613544354
 30
0.0
  0
VERTEX
  5
7D
330
7B
100
AcDbEntity
  8
_U+30EC_U+30A4_U+30E4_U+30FC 1
 62
   179
420
  2234388
370
     9
100
AcDbVertex
100
AcDb2dVertex
 10
93.76378010788667
 20
-139.2473155207438
 30
0.0
  0
SEQEND
  5
7E
330
7B
100
AcDbEntity
  8
_U+30EC_U+30A4_U+30E4_U+30FC 1
 62
   179
420
  2234388
370
     9
  0
POLYLINE
  5
7F
330
1F
100
AcDbEntity
  8
_U+30EC_U+30A4_U+30E4_U+30FC 1
 62
   179
420
  2234388
370
     9
100
AcDb2dPolyline
 66
     1
 10
0.0
 20
0.0
 30
0.0
  0
VERTEX
  5
80
330
7F
100
AcDbEntity
  8
_U+30EC_U+30A4_U+30E4_U+30FC 1
 62
   179
420
  2234388
370
     9
100
AcDbVertex
100
AcDb2dVertex
 10
93.76378010788667
 20
-139.2473155207438
 30
0.0
  0
VERTEX
  5
81
330
7F
100
AcDbEntity
  8
_U+30EC_U+30A4_U+30E4_U+30FC 1
 62
   179
420
  2234388
370
     9
100
AcDbVertex
100
AcDb2dVertex
 10
101.1156360858323
 20
-139.2473155207438
 30
0.0
  0
SEQEND
  5
82
330
7F
100
AcDbEntity
  8
_U+30EC_U+30A4_U+30E4_U+30FC 1
 62
   179
420
  2234388
370
     9
  0
POLYLINE
  5
83
330
1F
100
AcDbEntity
  8
_U+30EC_U+30A4_U+30E4_U+30FC 1
 62
   179
420
  2234388
370
     9
100
AcDb2dPolyline
 66
     1
 10
0.0
 20
0.0
 30
0.0
  0
VERTEX
  5
84
330
83
100
AcDbEntity
  8
_U+30EC_U+30A4_U+30E4_U+30FC 1
 62
   179
420
  2234388
370
     9
100
AcDbVertex
100
AcDb2dVertex
 10
91.28244711563521
 20
-137.8148613544354
 30
0.0
  0
VERTEX
  5
85
330
83
100
AcDbEntity
  8
_U+30EC_U+30A4_U+30E4_U+30FC 1
 62
   179
420
  2234388
370
     9
100
AcDbVertex
100
AcDb2dVertex
 10
91.76561386594734
 20
-137.944366076625
 30
0.0
  0
SEQEND
  5
86
330
83
100
AcDbEntity
  8
_U+30EC_U+30A4_U+30E4_U+30FC 1
 62
   179
420
  2234388
370
     9
  0
SPLINE
  5
87
330
1F
100
AcDbEntity
  8
_U+30EC_U+30A4_U+30E4_U+30FC 1
 62
   179
420
  2234388
370
     9
100
AcDbSpline
210
0.0
220
0.0
230
1.0
 70
    11
 71
     3
 72
    17
 73
    13
 74
     0
 42
0.0000000001
 43
0.0000000001
 12
1.0
 22
0.0
 32
0.0
 13
1.0
 23
0.0
 33
0.0
 40
0.0
 40
0.0
 40
0.0
 40
0.0
 40
1.0
 40
1.0
 40
1.0
 40
2.0
 40
2.0
 40
2.0
 40
3.0
 40
3.0
 40
3.0
 40
4.0
 40
4.0
 40
4.0
 40
4.0
 10
78.75954187956557
 20
-117.3778449706554
 30
0.0
 10
78.75954187956557
 20
-117.3227410817805
 30
0.0
 10
78.7149154918152
 20
-117.2779383040137
 30
0.0
 10
78.65963521544774
 20
-117.2779383040137
 30
0.0
 10
78.6043196613034
 20
-117.2779383040137
 30
0.0
 10
78.55955216244551
 20
-117.3227410817805
 30
0.0
 10
78.55955216244551
 20
-117.3778449706554
 30
0.0
 10
78.55955216244551
 20
-117.4329841373085
 30
0.0
 10
78.6043196613034
 20
-117.4777516372973
 30
0.0
 10
78.65963521544774
 20
-117.4777516372973
 30
0.0
 10
78.7149154918152
 20
-117.4777516372973
 30
0.0
 10
78.75954187956557
 20
-117.4329841373085
 30
0.0
 10
78.75954187956557
 20
-117.3778449706554
 30
0.0
  0
SPLINE
  5
88
330
1F
100
AcDbEntity
  8
_U+30EC_U+30A4_U+30E4_U+30FC 1
 62
   179
420
  2234388
370
     9
100
AcDbSpline
210
0.0
220
0.0
230
1.0
 70
    11
 71
     3
 72
    17
 73
    13
 74
     0
 42
0.0000000001
 43
0.0000000001
 12
1.0
 22
0.0
 32
0.0
 13
1.0
 23
0.0
 33
0.0
 40
0.0
 40
0.0
 40
0.0
 40
0.0
 40
1.0
 40
1.0
 40
1.0
 40
2.0
 40
2.0
 40
2.0
 40
3.0
 40
3.0
 40
3.0
 40
4.0
 40
4.0
 40
4.0
 40
4.0
 10
99.75962634380879
 20
-117.3778449706554
 30
0.0
 10
99.75962634380879
 20
-117.3227410817805
 30
0.0
 10
99.7148588449509
 20
-117.2779383040137
 30
0.0
 10
99.6597221973073
 20
-117.2779383040137
 30
0.0
 10
99.60461579220788
 20
-117.2779383040137
 30
0.0
 10
99.55981301557311
 20
-117.3227410817805
 30
0.0
 10
99.55981301557311
 20
-117.3778449706554
 30
0.0
 10
99.55981301557311
 20
-117.4329841373085
 30
0.0
 10
99.60461579220788
 20
-117.4777516372973
 30
0.0
 10
99.6597221973073
 20
-117.4777516372973
 30
0.0
 10
99.7148588449509
 20
-117.4777516372973
 30
0.0
 10
99.75962634380879
 20
-117.4329841373085
 30
0.0
 10
99.75962634380879
 20
-117.3778449706554
 30
0.0
  0
SPLINE
  5
89
330
1F
100
AcDbEntity
  8
_U+30EC_U+30A4_U+30E4_U+30FC 1
 62
   179
420
  2234388
370
     9
100
AcDbSpline
210
0.0
220
0.0
230
1.0
 70
    11
 71
     3
 72
    17
 73
    13
 74
     0
 42
0.0000000001
 43
0.0000000001
 12
1.0
 22
0.0
 32
0.0
 13
1.0
 23
0.0
 33
0.0
 40
0.0
 40
0.0
 40
0.0
 40
0.0
 40
1.0
 40
1.0
 40
1.0
 40
2.0
 40
2.0
 40
2.0
 40
3.0
 40
3.0
 40
3.0
 40
4.0
 40
4.0
 40
4.0
 40
4.0
 10
78.75954187956557
 20
-121.3776041363223
 30
0.0
 10
78.75954187956557
 20
-121.322500247447
 30
0.0
 10
78.7149154918152
 20
-121.2776974696806
 30
0.0
 10
78.65963521544774
 20
-121.2776974696806
 30
0.0
 10
78.6043196613034
 20
-121.2776974696806
 30
0.0
 10
78.55955216244551
 20
-121.322500247447
 30
0.0
 10
78.55955216244551
 20
-121.3776041363223
 30
0.0
 10
78.55955216244551
 20
-121.4334135807527
 30
0.0
 10
78.6043196613034
 20
-121.4782163585194
 30
0.0
 10
78.65963521544774
 20
-121.4782163585194
 30
0.0
 10
78.7149154918152
 20
-121.4782163585194
 30
0.0
 10
78.75954187956557
 20
-121.4334135807527
 30
0.0
 10
78.75954187956557
 20
-121.3776041363223
 30
0.0
  0
SPLINE
  5
8A
330
1F
100
AcDbEntity
  8
_U+30EC_U+30A4_U+30E4_U+30FC 1
 62
   179
420
  2234388
370
     9
100
AcDbSpline
210
0.0
220
0.0
230
1.0
 70
    11
 71
     3
 72
    17
 73
    13
 74
     0
 42
0.0000000001
 43
0.0000000001
 12
1.0
 22
0.0
 32
0.0
 13
1.0
 23
0.0
 33
0.0
 40
0.0
 40
0.0
 40
0.0
 40
0.0
 40
1.0
 40
1.0
 40
1.0
 40
2.0
 40
2.0
 40
2.0
 40
3.0
 40
3.0
 40
3.0
 40
4.0
 40
4.0
 40
4.0
 40
4.0
 10
80.75958016187369
 20
-121.3776041363223
 30
0.0
 10
80.75958016187369
 20
-121.322500247447
 30
0.0
 10
80.71481266301579
 20
-121.2776974696806
 30
0.0
 10
80.65967349775585
 20
-121.2776974696806
 30
0.0
 10
80.60439322138839
 20
-121.2776974696806
 30
0.0
 10
80.55959044475362
 20
-121.322500247447
 30
0.0
 10
80.55959044475362
 20
-121.3776041363223
 30
0.0
 10
80.55959044475362
 20
-121.4334135807527
 30
0.0
 10
80.60439322138839
 20
-121.4782163585194
 30
0.0
 10
80.65967349775585
 20
-121.4782163585194
 30
0.0
 10
80.71481266301579
 20
-121.4782163585194
 30
0.0
 10
80.75958016187369
 20
-121.4334135807527
 30
0.0
 10
80.75958016187369
 20
-121.3776041363223
 30
0.0
  0
SPLINE
  5
8B
330
1F
100
AcDbEntity
  8
_U+30EC_U+30A4_U+30E4_U+30FC 1
 62
   179
420
  2234388
370
     9
100
AcDbSpline
210
0.0
220
0.0
230
1.0
 70
    11
 71
     3
 72
    17
 73
    13
 74
     0
 42
0.0000000001
 43
0.0000000001
 12
1.0
 22
0.0
 32
0.0
 13
1.0
 23
0.0
 33
0.0
 40
0.0
 40
0.0
 40
0.0
 40
0.0
 40
1.0
 40
1.0
 40
1.0
 40
2.0
 40
2.0
 40
2.0
 40
3.0
 40
3.0
 40
3.0
 40
4.0
 40
4.0
 40
4.0
 40
4.0
 10
103.7593854084331
 20
-125.3780335797665
 30
0.0
 10
103.7593854084331
 20
-125.3229296908916
 30
0.0
 10
103.7145826317983
 20
-125.2781269131249
 30
0.0
 10
103.6594787443153
 20
-125.2781269131249
 30
0.0
 10
103.6043395790553
 20
-125.2781269131249
 30
0.0
 10
103.5595720801974
 20
-125.3229296908916
 30
0.0
 10
103.5595720801974
 20
-125.3780335797665
 30
0.0
 10
103.5595720801974
 20
-125.4331727464196
 30
0.0
 10
103.6043395790553
 20
-125.4779402464082
 30
0.0
 10
103.6594787443153
 20
-125.4779402464082
 30
0.0
 10
103.7145826317983
 20
-125.4779402464082
 30
0.0
 10
103.7593854084331
 20
-125.4331727464196
 30
0.0
 10
103.7593854084331
 20
-125.3780335797665
 30
0.0
  0
SPLINE
  5
8C
330
1F
100
AcDbEntity
  8
_U+30EC_U+30A4_U+30E4_U+30FC 1
 62
   179
420
  2234388
370
     9
100
AcDbSpline
210
0.0
220
0.0
230
1.0
 70
    11
 71
     3
 72
    17
 73
    13
 74
     0
 42
0.0000000001
 43
0.0000000001
 12
1.0
 22
0.0
 32
0.0
 13
1.0
 23
0.0
 33
0.0
 40
0.0
 40
0.0
 40
0.0
 40
0.0
 40
1.0
 40
1.0
 40
1.0
 40
2.0
 40
2.0
 40
2.0
 40
3.0
 40
3.0
 40
3.0
 40
4.0
 40
4.0
 40
4.0
 40
4.0
 10
88.75962745777548
 20
-140.8782071870026
 30
0.0
 10
88.75962745777548
 20
-140.8231032981277
 30
0.0
 10
88.71482468114071
 20
-140.7783005203609
 30
0.0
 10
88.65968551588075
 20
-140.7783005203609
 30
0.0
 10
88.60458162839768
 20
-140.7783005203609
 30
0.0
 10
88.55977885176293
 20
-140.8231032981277
 30
0.0
 10
88.55977885176293
 20
-140.8782071870026
 30
0.0
 10
88.55977885176293
 20
-140.9333463536557
 30
0.0
 10
88.60458162839768
 20
-140.9781138536442
 30
0.0
 10
88.65968551588075
 20
-140.9781138536442
 30
0.0
 10
88.71482468114071
 20
-140.9781138536442
 30
0.0
 10
88.75962745777548
 20
-140.9333463536557
 30
0.0
 10
88.75962745777548
 20
-140.8782071870026
 30
0.0
  0
SPLINE
  5
8D
330
1F
100
AcDbEntity
  8
_U+30EC_U+30A4_U+30E4_U+30FC 1
 62
   179
420
  2234388
370
     9
100
AcDbSpline
210
0.0
220
0.0
230
1.0
 70
    11
 71
     3
 72
    17
 73
    13
 74
     0
 42
0.0000000001
 43
0.0000000001
 12
1.0
 22
0.0
 32
0.0
 13
1.0
 23
0.0
 33
0.0
 40
0.0
 40
0.0
 40
0.0
 40
0.0
 40
1.0
 40
1.0
 40
1.0
 40
2.0
 40
2.0
 40
2.0
 40
3.0
 40
3.0
 40
3.0
 40
4.0
 40
4.0
 40
4.0
 40
4.0
 10
78.75954187956557
 20
-140.8782071870026
 30
0.0
 10
78.75954187956557
 20
-140.8231032981277
 30
0.0
 10
78.7149154918152
 20
-140.7783005203609
 30
0.0
 10
78.65963521544774
 20
-140.7783005203609
 30
0.0
 10
78.6043196613034
 20
-140.7783005203609
 30
0.0
 10
78.55955216244551
 20
-140.8231032981277
 30
0.0
 10
78.55955216244551
 20
-140.8782071870026
 30
0.0
 10
78.55955216244551
 20
-140.9333463536557
 30
0.0
 10
78.6043196613034
 20
-140.9781138536442
 30
0.0
 10
78.65963521544774
 20
-140.9781138536442
 30
0.0
 10
78.7149154918152
 20
-140.9781138536442
 30
0.0
 10
78.75954187956557
 20
-140.9333463536557
 30
0.0
 10
78.75954187956557
 20
-140.8782071870026
 30
0.0
  0
SPLINE
  5
8E
330
1F
100
AcDbEntity
  8
_U+30EC_U+30A4_U+30E4_U+30FC 1
 62
   179
420
  2234388
370
     9
100
AcDbSpline
210
0.0
220
0.0
230
1.0
 70
    11
 71
     3
 72
    17
 73
    13
 74
     0
 42
0.0000000001
 43
0.0000000001
 12
1.0
 22
0.0
 32
0.0
 13
1.0
 23
0.0
 33
0.0
 40
0.0
 40
0.0
 40
0.0
 40
0.0
 40
1.0
 40
1.0
 40
1.0
 40
2.0
 40
2.0
 40
2.0
 40
3.0
 40
3.0
 40
3.0
 40
4.0
 40
4.0
 40
4.0
 40
4.0
 10
103.7593854084331
 20
-126.3778058017391
 30
0.0
 10
103.7593854084331
 20
-126.3227019128638
 30
0.0
 10
103.7145826317983
 20
-126.2778991350971
 30
0.0
 10
103.6594787443153
 20
-126.2778991350971
 30
0.0
 10
103.6043395790553
 20
-126.2778991350971
 30
0.0
 10
103.5595720801974
 20
-126.3227019128638
 30
0.0
 10
103.5595720801974
 20
-126.3778058017391
 30
0.0
 10
103.5595720801974
 20
-126.4329449683918
 30
0.0
 10
103.6043395790553
 20
-126.4777124683807
 30
0.0
 10
103.6594787443153
 20
-126.4777124683807
 30
0.0
 10
103.7145826317983
 20
-126.4777124683807
 30
0.0
 10
103.7593854084331
 20
-126.4329449683918
 30
0.0
 10
103.7593854084331
 20
-126.3778058017391
 30
0.0
  0
SPLINE
  5
8F
330
1F
100
AcDbEntity
  8
_U+30EC_U+30A4_U+30E4_U+30FC 1
 62
   179
420
  2234388
370
     9
100
AcDbSpline
210
0.0
220
0.0
230
1.0
 70
    11
 71
     3
 72
    17
 73
    13
 74
     0
 42
0.0000000001
 43
0.0000000001
 12
1.0
 22
0.0
 32
0.0
 13
1.0
 23
0.0
 33
0.0
 40
0.0
 40
0.0
 40
0.0
 40
0.0
 40
1.0
 40
1.0
 40
1.0
 40
2.0
 40
2.0
 40
2.0
 40
3.0
 40
3.0
 40
3.0
 40
4.0
 40
4.0
 40
4.0
 40
4.0
 10
103.7593854084331
 20
-132.8780185778915
 30
0.0
 10
103.7593854084331
 20
-132.8229146890165
 30
0.0
 10
103.7145826317983
 20
-132.7781119112498
 30
0.0
 10
103.6594787443153
 20
-132.7781119112498
 30
0.0
 10
103.6043395790553
 20
-132.7781119112498
 30
0.0
 10
103.5595720801974
 20
-132.8229146890165
 30
0.0
 10
103.5595720801974
 20
-132.8780185778915
 30
0.0
 10
103.5595720801974
 20
-132.9331577445445
 30
0.0
 10
103.6043395790553
 20
-132.9779252445331
 30
0.0
 10
103.6594787443153
 20
-132.9779252445331
 30
0.0
 10
103.7145826317983
 20
-132.9779252445331
 30
0.0
 10
103.7593854084331
 20
-132.9331577445445
 30
0.0
 10
103.7593854084331
 20
-132.8780185778915
 30
0.0
  0
SPLINE
  5
90
330
1F
100
AcDbEntity
  8
_U+30EC_U+30A4_U+30E4_U+30FC 1
 62
   179
420
  2234388
370
     9
100
AcDbSpline
210
0.0
220
0.0
230
1.0
 70
    11
 71
     3
 72
    17
 73
    13
 74
     0
 42
0.0000000001
 43
0.0000000001
 12
1.0
 22
0.0
 32
0.0
 13
1.0
 23
0.0
 33
0.0
 40
0.0
 40
0.0
 40
0.0
 40
0.0
 40
1.0
 40
1.0
 40
1.0
 40
2.0
 40
2.0
 40
2.0
 40
3.0
 40
3.0
 40
3.0
 40
4.0
 40
4.0
 40
4.0
 40
4.0
 10
103.7593854084331
 20
-135.8780055215858
 30
0.0
 10
103.7593854084331
 20
-135.8229016327109
 30
0.0
 10
103.7145826317983
 20
-135.7780988549441
 30
0.0
 10
103.6594787443153
 20
-135.7780988549441
 30
0.0
 10
103.6043395790553
 20
-135.7780988549441
 30
0.0
 10
103.5595720801974
 20
-135.8229016327109
 30
0.0
 10
103.5595720801974
 20
-135.8780055215858
 30
0.0
 10
103.5595720801974
 20
-135.9331446882389
 30
0.0
 10
103.6043395790553
 20
-135.9779121882274
 30
0.0
 10
103.6594787443153
 20
-135.9779121882274
 30
0.0
 10
103.7145826317983
 20
-135.9779121882274
 30
0.0
 10
103.7593854084331
 20
-135.9331446882389
 30
0.0
 10
103.7593854084331
 20
-135.8780055215858
 30
0.0
  0
POLYLINE
  5
91
330
1F
100
AcDbEntity
  8
_U+30EC_U+30A4_U+30E4_U+30FC 1
 62
   179
420
  2234388
370
     9
100
AcDb2dPolyline
 66
     1
 10
0.0
 20
0.0
 30
0.0
  0
VERTEX
  5
92
330
91
100
AcDbEntity
  8
_U+30EC_U+30A4_U+30E4_U+30FC 1
 62
   179
420
  2234388
370
     9
100
AcDbVertex
100
AcDb2dVertex
 10
103.6594787443153
 20
-125.3780335797665
 30
0.0
  0
VERTEX
  5
93
330
91
100
AcDbEntity
  8
_U+30EC_U+30A4_U+30E4_U+30FC 1
 62
   179
420
  2234388
370
     9
100
AcDbVertex
100
AcDb2dVertex
 10
103.6594787443153
 20
-121.6077210807091
 30
0.0
  0
SEQEND
  5
94
330
91
100
AcDbEntity
  8
_U+30EC_U+30A4_U+30E4_U+30FC 1
 62
   179
420
  2234388
370
     9
  0
POLYLINE
  5
95
330
1F
100
AcDbEntity
  8
_U+30EC_U+30A4_U+30E4_U+30FC 1
 62
   179
420
  2234388
370
     9
100
AcDb2dPolyline
 66
     1
 10
0.0
 20
0.0
 30
0.0
  0
VERTEX
  5
96
330
95
100
AcDbEntity
  8
_U+30EC_U+30A4_U+30E4_U+30FC 1
 62
   179
420
  2234388
370
     9
100
AcDbVertex
100
AcDb2dVertex
 10
103.6594787443153
 20
-125.3780335797665
 30
0.0
  0
VERTEX
  5
97
330
95
100
AcDbEntity
  8
_U+30EC_U+30A4_U+30E4_U+30FC 1
 62
   179
420
  2234388
370
     9
100
AcDbVertex
100
AcDb2dVertex
 10
103.6594787443153
 20
-126.3778058017391
 30
0.0
  0
SEQEND
  5
98
330
95
100
AcDbEntity
  8
_U+30EC_U+30A4_U+30E4_U+30FC 1
 62
   179
420
  2234388
370
     9
  0
POLYLINE
  5
99
330
1F
100
AcDbEntity
  8
_U+30EC_U+30A4_U+30E4_U+30FC 1
 62
   179
420
  2234388
370
     9
100
AcDb2dPolyline
 66
     1
 10
0.0
 20
0.0
 30
0.0
  0
VERTEX
  5
9A
330
99
100
AcDbEntity
  8
_U+30EC_U+30A4_U+30E4_U+30FC 1
 62
   179
420
  2234388
370
     9
100
AcDbVertex
100
AcDb2dVertex
 10
102.1994373926751
 20
-125.3780335797665
 30
0.0
  0
VERTEX
  5
9B
330
99
100
AcDbEntity
  8
_U+30EC_U+30A4_U+30E4_U+30FC 1
 62
   179
420
  2234388
370
     9
100
AcDbVertex
100
AcDb2dVertex
 10
104.6599212187919
 20
-125.3780335797665
 30
0.0
  0
SEQEND
  5
9C
330
99
100
AcDbEntity
  8
_U+30EC_U+30A4_U+30E4_U+30FC 1
 62
   179
420
  2234388
370
     9
  0
POLYLINE
  5
9D
330
1F
100
AcDbEntity
  8
_U+30EC_U+30A4_U+30E4_U+30FC 1
 62
   179
420
  2234388
370
     9
100
AcDb2dPolyline
 66
     1
 10
0.0
 20
0.0
 30
0.0
  0
VERTEX
  5
9E
330
9D
100
AcDbEntity
  8
_U+30EC_U+30A4_U+30E4_U+30FC 1
 62
   179
420
  2234388
370
     9
100
AcDbVertex
100
AcDb2dVertex
 10
101.699904072086
 20
-126.3778058017391
 30
0.0
  0
VERTEX
  5
9F
330
9D
100
AcDbEntity
  8
_U+30EC_U+30A4_U+30E4_U+30FC 1
 62
   179
420
  2234388
370
     9
100
AcDbVertex
100
AcDb2dVertex
 10
104.6599212187919
 20
-126.3778058017391
 30
0.0
  0
SEQEND
  5
A0
330
9D
100
AcDbEntity
  8
_U+30EC_U+30A4_U+30E4_U+30FC 1
 62
   179
420
  2234388
370
     9
  0
INSERT
  5
A2
330
1F
100
AcDbEntity
  8
_U+30EC_U+30A4_U+30E4_U+30FC 1
100
AcDbBlockReference
  2
block 2
 10
0.0
 20
0.0
 30
0.0
  0
POLYLINE
  5
A7
330
1F
100
AcDbEntity
  8
_U+30EC_U+30A4_U+30E4_U+30FC 1
 62
   179
420
  2234388
370
     9
100
AcDb2dPolyline
 66
     1
 10
0.0
 20
0.0
 30
0.0
  0
VERTEX
  5
A8
330
A7
100
AcDbEntity
  8
_U+30EC_U+30A4_U+30E4_U+30FC 1
 62
   179
420
  2234388
370
     9
100
AcDbVertex
100
AcDb2dVertex
 10
103.6594787443153
 20
-126.3778058017391
 30
0.0
  0
VERTEX
  5
A9
330
A7
100
AcDbEntity
  8
_U+30EC_U+30A4_U+30E4_U+30FC 1
 62
   179
420
  2234388
370
     9
100
AcDbVertex
100
AcDb2dVertex
 10
103.6594787443153
 20
-132.8780185778915
 30
0.0
  0
SEQEND
  5
AA
330
A7
100
AcDbEntity
  8
_U+30EC_U+30A4_U+30E4_U+30FC 1
 62
   179
420
  2234388
370
     9
  0
POLYLINE
  5
AB
330
1F
100
AcDbEntity
  8
_U+30EC_U+30A4_U+30E4_U+30FC 1
 62
   179
420
  2234388
370
     9
100
AcDb2dPolyline
 66
     1
 10
0.0
 20
0.0
 30
0.0
  0
VERTEX
  5
AC
330
AB
100
AcDbEntity
  8
_U+30EC_U+30A4_U+30E4_U+30FC 1
 62
   179
420
  2234388
370
     9
100
AcDbVertex
100
AcDb2dVertex
 10
92.19970459223401
 20
-132.8780185778915
 30
0.0
  0
VERTEX
  5
AD
330
AB
100
AcDbEntity
  8
_U+30EC_U+30A4_U+30E4_U+30FC 1
 62
   179
420
  2234388
370
     9
100
AcDbVertex
100
AcDb2dVertex
 10
104.6599212187919
 20
-132.8780185778915
 30
0.0
  0
SEQEND
  5
AE
330
AB
100
AcDbEntity
  8
_U+30EC_U+30A4_U+30E4_U+30FC 1
 62
   179
420
  2234388
370
     9
  0
INSERT
  5
B0
330
1F
100
AcDbEntity
  8
_U+30EC_U+30A4_U+30E4_U+30FC 1
100
AcDbBlockReference
  2
block 3
 10
0.0
 20
0.0
 30
0.0
  0
POLYLINE
  5
C0
330
1F
100
AcDbEntity
  8
_U+30EC_U+30A4_U+30E4_U+30FC 1
 62
   179
420
  2234388
370
     9
100
AcDb2dPolyline
 66
     1
 10
0.0
 20
0.0
 30
0.0
  0
VERTEX
  5
C1
330
C0
100
AcDbEntity
  8
_U+30EC_U+30A4_U+30E4_U+30FC 1
 62
   179
420
  2234388
370
     9
100
AcDbVertex
100
AcDb2dVertex
 10
103.6594787443153
 20
-132.8780185778915
 30
0.0
  0
VERTEX
  5
C2
330
C0
100
AcDbEntity
  8
_U+30EC_U+30A4_U+30E4_U+30FC 1
 62
   179
420
  2234388
370
     9
100
AcDbVertex
100
AcDb2dVertex
 10
103.6594787443153
 20
-135.8780055215858
 30
0.0
  0
SEQEND
  5
C3
330
C0
100
AcDbEntity
  8
_U+30EC_U+30A4_U+30E4_U+30FC 1
 62
   179
420
  2234388
370
     9
  0
POLYLINE
  5
C4
330
1F
100
AcDbEntity
  8
_U+30EC_U+30A4_U+30E4_U+30FC 1
 62
   179
420
  2234388
370
     9
100
AcDb2dPolyline
 66
     1
 10
0.0
 20
0.0
 30
0.0
  0
VERTEX
  5
C5
330
C4
100
AcDbEntity
  8
_U+30EC_U+30A4_U+30E4_U+30FC 1
 62
   179
420
  2234388
370
     9
100
AcDbVertex
100
AcDb2dVertex
 10
92.19970459223401
 20
-135.8780055215858
 30
0.0
  0
VERTEX
  5
C6
330
C4
100
AcDbEntity
  8
_U+30EC_U+30A4_U+30E4_U+30FC 1
 62
   179
420
  2234388
370
     9
100
AcDbVertex
100
AcDb2dVertex
 10
104.6599212187919
 20
-135.8780055215858
 30
0.0
  0
SEQEND
  5
C7
330
C4
100
AcDbEntity
  8
_U+30EC_U+30A4_U+30E4_U+30FC 1
 62
   179
420
  2234388
370
     9
  0
INSERT
  5
C9
330
1F
100
AcDbEntity
  8
_U+30EC_U+30A4_U+30E4_U+30FC 1
100
AcDbBlockReference
  2
block 4
 10
0.0
 20
0.0
 30
0.0
  0
POLYLINE
  5
CE
330
1F
100
AcDbEntity
  8
_U+30EC_U+30A4_U+30E4_U+30FC 1
 62
   179
420
  2234388
370
     9
100
AcDb2dPolyline
 66
     1
 10
0.0
 20
0.0
 30
0.0
  0
VERTEX
  5
CF
330
CE
100
AcDbEntity
  8
_U+30EC_U+30A4_U+30E4_U+30FC 1
 62
   179
420
  2234388
370
     9
100
AcDbVertex
100
AcDb2dVertex
 10
80.65967349775585
 20
-121.3776041363223
 30
0.0
  0
VERTEX
  5
D0
330
CE
100
AcDbEntity
  8
_U+30EC_U+30A4_U+30E4_U+30FC 1
 62
   179
420
  2234388
370
     9
100
AcDbVertex
100
AcDb2dVertex
 10
84.42980951268278
 20
-121.3776041363223
 30
0.0
  0
SEQEND
  5
D1
330
CE
100
AcDbEntity
  8
_U+30EC_U+30A4_U+30E4_U+30FC 1
 62
   179
420
  2234388
370
     9
  0
POLYLINE
  5
D2
330
1F
100
AcDbEntity
  8
_U+30EC_U+30A4_U+30E4_U+30FC 1
 62
   179
420
  2234388
370
     9
100
AcDb2dPolyline
 66
     1
 10
0.0
 20
0.0
 30
0.0
  0
VERTEX
  5
D3
330
D2
100
AcDbEntity
  8
_U+30EC_U+30A4_U+30E4_U+30FC 1
 62
   179
420
  2234388
370
     9
100
AcDbVertex
100
AcDb2dVertex
 10
77.65968662984744
 20
-121.3776041363223
 30
0.0
  0
VERTEX
  5
D4
330
D2
100
AcDbEntity
  8
_U+30EC_U+30A4_U+30E4_U+30FC 1
 62
   179
420
  2234388
370
     9
100
AcDbVertex
100
AcDb2dVertex
 10
80.65967349775585
 20
-121.3776041363223
 30
0.0
  0
SEQEND
  5
D5
330
D2
100
AcDbEntity
  8
_U+30EC_U+30A4_U+30E4_U+30FC 1
 62
   179
420
  2234388
370
     9
  0
POLYLINE
  5
D6
330
1F
100
AcDbEntity
  8
_U+30EC_U+30A4_U+30E4_U+30FC 1
 62
   179
420
  2234388
370
     9
100
AcDb2dPolyline
 66
     1
 10
0.0
 20
0.0
 30
0.0
  0
VERTEX
  5
D7
330
D6
100
AcDbEntity
  8
_U+30EC_U+30A4_U+30E4_U+30FC 1
 62
   179
420
  2234388
370
     9
100
AcDbVertex
100
AcDb2dVertex
 10
78.65963521544774
 20
-122.8376455248463
 30
0.0
  0
VERTEX
  5
D8
330
D6
100
AcDbEntity
  8
_U+30EC_U+30A4_U+30E4_U+30FC 1
 62
   179
420
  2234388
370
     9
100
AcDbVertex
100
AcDb2dVertex
 10
78.65963521544774
 20
-120.3778319143501
 30
0.0
  0
SEQEND
  5
D9
330
D6
100
AcDbEntity
  8
_U+30EC_U+30A4_U+30E4_U+30FC 1
 62
   179
420
  2234388
370
     9
  0
POLYLINE
  5
DA
330
1F
100
AcDbEntity
  8
_U+30EC_U+30A4_U+30E4_U+30FC 1
 62
   179
420
  2234388
370
     9
100
AcDb2dPolyline
 66
     1
 10
0.0
 20
0.0
 30
0.0
  0
VERTEX
  5
DB
330
DA
100
AcDbEntity
  8
_U+30EC_U+30A4_U+30E4_U+30FC 1
 62
   179
420
  2234388
370
     9
100
AcDbVertex
100
AcDb2dVertex
 10
80.65967349775585
 20
-123.8380880245959
 30
0.0
  0
VERTEX
  5
DC
330
DA
100
AcDbEntity
  8
_U+30EC_U+30A4_U+30E4_U+30FC 1
 62
   179
420
  2234388
370
     9
100
AcDbVertex
100
AcDb2dVertex
 10
80.65967349775585
 20
-120.3778319143501
 30
0.0
  0
SEQEND
  5
DD
330
DA
100
AcDbEntity
  8
_U+30EC_U+30A4_U+30E4_U+30FC 1
 62
   179
420
  2234388
370
     9
  0
INSERT
  5
DF
330
1F
100
AcDbEntity
  8
_U+30EC_U+30A4_U+30E4_U+30FC 1
100
AcDbBlockReference
  2
block 5
 10
0.0
 20
0.0
 30
0.0
  0
POLYLINE
  5
E4
330
1F
100
AcDbEntity
  8
_U+30EC_U+30A4_U+30E4_U+30FC 1
 62
   179
420
  2234388
370
     9
100
AcDb2dPolyline
 66
     1
 10
0.0
 20
0.0
 30
0.0
  0
VERTEX
  5
E5
330
E4
100
AcDbEntity
  8
_U+30EC_U+30A4_U+30E4_U+30FC 1
 62
   179
420
  2234388
370
     9
100
AcDbVertex
100
AcDb2dVertex
 10
78.65963521544774
 20
-117.3778449706554
 30
0.0
  0
VERTEX
  5
E6
330
E4
100
AcDbEntity
  8
_U+30EC_U+30A4_U+30E4_U+30FC 1
 62
   179
420
  2234388
370
     9
100
AcDbVertex
100
AcDb2dVertex
 10
99.6597221973073
 20
-117.3778449706554
 30
0.0
  0
SEQEND
  5
E7
330
E4
100
AcDbEntity
  8
_U+30EC_U+30A4_U+30E4_U+30FC 1
 62
   179
420
  2234388
370
     9
  0
POLYLINE
  5
E8
330
1F
100
AcDbEntity
  8
_U+30EC_U+30A4_U+30E4_U+30FC 1
 62
   179
420
  2234388
370
     9
100
AcDb2dPolyline
 66
     1
 10
0.0
 20
0.0
 30
0.0
  0
VERTEX
  5
E9
330
E8
100
AcDbEntity
  8
_U+30EC_U+30A4_U+30E4_U+30FC 1
 62
   179
420
  2234388
370
     9
100
AcDbVertex
100
AcDb2dVertex
 10
78.65963521544774
 20
-122.8376455248463
 30
0.0
  0
VERTEX
  5
EA
330
E8
100
AcDbEntity
  8
_U+30EC_U+30A4_U+30E4_U+30FC 1
 62
   179
420
  2234388
370
     9
100
AcDbVertex
100
AcDb2dVertex
 10
78.65963521544774
 20
-116.3780727486832
 30
0.0
  0
SEQEND
  5
EB
330
E8
100
AcDbEntity
  8
_U+30EC_U+30A4_U+30E4_U+30FC 1
 62
   179
420
  2234388
370
     9
  0
POLYLINE
  5
EC
330
1F
100
AcDbEntity
  8
_U+30EC_U+30A4_U+30E4_U+30FC 1
 62
   179
420
  2234388
370
     9
100
AcDb2dPolyline
 66
     1
 10
0.0
 20
0.0
 30
0.0
  0
VERTEX
  5
ED
330
EC
100
AcDbEntity
  8
_U+30EC_U+30A4_U+30E4_U+30FC 1
 62
   179
420
  2234388
370
     9
100
AcDbVertex
100
AcDb2dVertex
 10
99.6597221973073
 20
-122.8376455248463
 30
0.0
  0
VERTEX
  5
EE
330
EC
100
AcDbEntity
  8
_U+30EC_U+30A4_U+30E4_U+30FC 1
 62
   179
420
  2234388
370
     9
100
AcDbVertex
100
AcDb2dVertex
 10
99.6597221973073
 20
-116.3780727486832
 30
0.0
  0
SEQEND
  5
EF
330
EC
100
AcDbEntity
  8
_U+30EC_U+30A4_U+30E4_U+30FC 1
 62
   179
420
  2234388
370
     9
  0
INSERT
  5
F1
330
1F
100
AcDbEntity
  8
_U+30EC_U+30A4_U+30E4_U+30FC 1
100
AcDbBlockReference
  2
block 6
 10
0.0
 20
0.0
 30
0.0
  0
POLYLINE
  5
F8
330
1F
100
AcDbEntity
  8
_U+30EC_U+30A4_U+30E4_U+30FC 1
 62
   179
420
  2234388
370
     9
100
AcDb2dPolyline
 66
     1
 10
0.0
 20
0.0
 30
0.0
  0
VERTEX
  5
F9
330
F8
100
AcDbEntity
  8
_U+30EC_U+30A4_U+30E4_U+30FC 1
 62
   179
420
  2234388
370
     9
100
AcDbVertex
100
AcDb2dVertex
 10
78.65963521544774
 20
-140.8782071870026
 30
0.0
  0
VERTEX
  5
FA
330
F8
100
AcDbEntity
  8
_U+30EC_U+30A4_U+30E4_U+30FC 1
 62
   179
420
  2234388
370
     9
100
AcDbVertex
100
AcDb2dVertex
 10
88.65968551588075
 20
-140.8782071870026
 30
0.0
  0
SEQEND
  5
FB
330
F8
100
AcDbEntity
  8
_U+30EC_U+30A4_U+30E4_U+30FC 1
 62
   179
420
  2234388
370
     9
  0
POLYLINE
  5
FC
330
1F
100
AcDbEntity
  8
_U+30EC_U+30A4_U+30E4_U+30FC 1
 62
   179
420
  2234388
370
     9
100
AcDb2dPolyline
 66
     1
 10
0.0
 20
0.0
 30
0.0
  0
VERTEX
  5
FD
330
FC
100
AcDbEntity
  8
_U+30EC_U+30A4_U+30E4_U+30FC 1
 62
   179
420
  2234388
370
     9
100
AcDbVertex
100
AcDb2dVertex
 10
78.65963521544774
 20
-139.4182010762564
 30
0.0
  0
VERTEX
  5
FE
330
FC
100
AcDbEntity
  8
_U+30EC_U+30A4_U+30E4_U+30FC 1
 62
   179
420
  2234388
370
     9
100
AcDbVertex
100
AcDb2dVertex
 10
78.65963521544774
 20
-141.8779794089751
 30
0.0
  0
SEQEND
  5
FF
330
FC
100
AcDbEntity
  8
_U+30EC_U+30A4_U+30E4_U+30FC 1
 62
   179
420
  2234388
370
     9
  0
POLYLINE
  5
100
330
1F
100
AcDbEntity
  8
_U+30EC_U+30A4_U+30E4_U+30FC 1
 62
   179
420
  2234388
370
     9
100
AcDb2dPolyline
 66
     1
 10
0.0
 20
0.0
 30
0.0
  0
VERTEX
  5
101
330
100
100
AcDbEntity
  8
_U+30EC_U+30A4_U+30E4_U+30FC 1
 62
   179
420
  2234388
370
     9
100
AcDbVertex
100
AcDb2dVertex
 10
88.65968551588075
 20
-139.4182010762564
 30
0.0
  0
VERTEX
  5
102
330
100
100
AcDbEntity
  8
_U+30EC_U+30A4_U+30E4_U+30FC 1
 62
   179
420
  2234388
370
     9
100
AcDbVertex
100
AcDb2dVertex
 10
88.65968551588075
 20
-141.8779794089751
 30
0.0
  0
SEQEND
  5
103
330
100
100
AcDbEntity
  8
_U+30EC_U+30A4_U+30E4_U+30FC 1
 62
   179
420
  2234388
370
     9
  0
INSERT
  5
105
330
1F
100
AcDbEntity
  8
_U+30EC_U+30A4_U+30E4_U+30FC 1
100
AcDbBlockReference
  2
block 7
 10
0.0
 20
0.0
 30
0.0
  0
INSERT
  5
10E
330
1F
100
AcDbEntity
  8
_U+30EC_U+30A4_U+30E4_U+30FC 1
100
AcDbBlockReference
  2
block 8
 10
0.0
 20
0.0
 30
0.0
  0
INSERT
  5
149
330
1F
100
AcDbEntity
  8
_U+30EC_U+30A4_U+30E4_U+30FC 1
100
AcDbBlockReference
  2
block 9
 10
0.0
 20
0.0
 30
0.0
  0
ENDSEC
  0
SECTION
  2
OBJECTS
  0
DICTIONARY
  5
C
330
0
100
AcDbDictionary
281
     1
  3
ACAD_GROUP
350
D
  3
ACAD_LAYOUT
350
1A
  3
ACAD_MATERIAL
350
3B
  3
ACAD_MLEADERSTYLE
350
16B
  3
ACAD_MLINESTYLE
350
17
  3
ACAD_PLOTSETTINGS
350
19
  3
ACAD_PLOTSTYLENAME
350
E
  3
ACAD_TABLESTYLE
350
16A
  3
ACAD_VISUALSTYLE
350
2A
  0
SUN
  5
3F
330
29
100
AcDbSun
 90
        1
290
     0
 63
     7
421
 16777215
 40
1.0
291
     1
 91
  2455826
 92
 54000000
292
     0
 70
     2
 71
   256
280
     1
  0
DICTIONARY
  5
D
102
{ACAD_REACTORS
330
C
102
}
330
C
100
AcDbDictionary
281
     1
  0
DICTIONARY
  5
1A
102
{ACAD_REACTORS
330
C
102
}
330
C
100
AcDbDictionary
281
     1
  3
Layout1
350
1E
  3
Layout2
350
26
  3
Model
350
22
  0
DICTIONARY
  5
3B
102
{ACAD_REACTORS
330
C
102
}
330
C
100
AcDbDictionary
281
     1
  3
ByBlock
350
3D
  3
ByLayer
350
3C
  3
Global
350
3E
  0
DICTIONARY
  5
16B
102
{ACAD_REACTORS
330
C
102
}
330
C
100
AcDbDictionary
281
     1
  0
DICTIONARY
  5
17
102
{ACAD_REACTORS
330
C
102
}
330
C
100
AcDbDictionary
281
     1
  3
Standard
350
18
  0
DICTIONARY
  5
19
102
{ACAD_REACTORS
330
C
102
}
330
C
100
AcDbDictionary
281
     1
  0
ACDBDICTIONARYWDFLT
  5
E
102
{ACAD_REACTORS
330
C
102
}
330
C
100
AcDbDictionary
281
     1
  3
Normal
350
F
100
AcDbDictionaryWithDefault
340
F
  0
DICTIONARY
  5
16A
102
{ACAD_REACTORS
330
C
102
}
330
C
100
AcDbDictionary
281
     1
  0
DICTIONARY
  5
2A
102
{ACAD_REACTORS
330
C
102
}
330
C
100
AcDbDictionary
281
     1
  3
2dWireframe
350
2F
  3
3D Hidden
350
31
  3
3dWireframe
350
30
  3
Basic
350
32
  3
Brighten
350
36
  3
ColorChange
350
3A
  3
Conceptual
350
34
  3
Dim
350
35
  3
Facepattern
350
39
  3
Flat
350
2B
  3
FlatWithEdges
350
2C
  3
Gouraud
350
2D
  3
GouraudWithEdges
350
2E
  3
Linepattern
350
38
  3
Realistic
350
33
  3
Thicken
350
37
  0
LAYOUT
  5
1E
102
{ACAD_REACTORS
330
1A
102
}
330
1A
100
AcDbPlotSettings
  1

  2
none_device
  4

  6

 40
0.0
 41
0.0
 42
0.0
 43
0.0
 44
0.0
 45
0.0
 46
0.0
 47
0.0
 48
0.0
 49
0.0
140
0.0
141
0.0
142
1.0
143
1.0
 70
   688
 72
     0
 73
     0
 74
     5
  7

 75
    16
 76
     0
 77
     2
 78
   300
147
1.0
148
0.0
149
0.0
100
AcDbLayout
  1
Layout1
 70
     1
 71
     1
 10
0.0
 20
0.0
 11
12.0
 21
9.0
 12
0.0
 22
0.0
 32
0.0
 14
1.000000000000000E+20
 24
1.000000000000000E+20
 34
1.000000000000000E+20
 15
-1.000000000000000E+20
 25
-1.000000000000000E+20
 35
-1.000000000000000E+20
146
0.0
 13
0.0
 23
0.0
 33
0.0
 16
1.0
 26
0.0
 36
0.0
 17
0.0
 27
1.0
 37
0.0
 76
     0
330
1B
  0
LAYOUT
  5
26
102
{ACAD_REACTORS
330
1A
102
}
330
1A
100
AcDbPlotSettings
  1

  2
none_device
  4

  6

 40
0.0
 41
0.0
 42
0.0
 43
0.0
 44
0.0
 45
0.0
 46
0.0
 47
0.0
 48
0.0
 49
0.0
140
0.0
141
0.0
142
1.0
143
1.0
 70
   688
 72
     0
 73
     0
 74
     5
  7

 75
    16
 76
     0
 77
     2
 78
   300
147
1.0
148
0.0
149
0.0
100
AcDbLayout
  1
Layout2
 70
     1
 71
     2
 10
0.0
 20
0.0
 11
0.0
 21
0.0
 12
0.0
 22
0.0
 32
0.0
 14
0.0
 24
0.0
 34
0.0
 15
0.0
 25
0.0
 35
0.0
146
0.0
 13
0.0
 23
0.0
 33
0.0
 16
1.0
 26
0.0
 36
0.0
 17
0.0
 27
1.0
 37
0.0
 76
     0
330
23
  0
LAYOUT
  5
22
102
{ACAD_REACTORS
330
1A
102
}
330
1A
100
AcDbPlotSettings
  1

  2
none_device
  4

  6

 40
0.0
 41
0.0
 42
0.0
 43
0.0
 44
0.0
 45
0.0
 46
0.0
 47
0.0
 48
0.0
 49
0.0
140
0.0
141
0.0
142
1.0
143
1.0
 70
  1712
 72
     0
 73
     0
 74
     0
  7

 75
     0
 76
     0
 77
     2
 78
   300
147
1.0
148
0.0
149
0.0
100
AcDbLayout
  1
Model
 70
     1
 71
     0
 10
0.0
 20
0.0
 11
12.0
 21
9.0
 12
0.0
 22
0.0
 32
0.0
 14
1.000000000000000E+20
 24
1.000000000000000E+20
 34
1.000000000000000E+20
 15
-1.000000000000000E+20
 25
-1.000000000000000E+20
 35
-1.000000000000000E+20
146
0.0
 13
0.0
 23
0.0
 33
0.0
 16
1.0
 26
0.0
 36
0.0
 17
0.0
 27
1.0
 37
0.0
 76
     0
330
1F
331
29
  0
MATERIAL
  5
3D
102
{ACAD_REACTORS
330
3B
102
}
330
3B
100
AcDbMaterial
  1
ByBlock
 72
     1
 94
      127
  0
MATERIAL
  5
3C
102
{ACAD_REACTORS
330
3B
102
}
330
3B
100
AcDbMaterial
  1
ByLayer
 72
     1
 94
      127
  0
MATERIAL
  5
3E
102
{ACAD_REACTORS
330
3B
102
}
330
3B
100
AcDbMaterial
  1
Global
 72
     1
 94
      127
  0
MLINESTYLE
  5
18
102
{ACAD_REACTORS
330
17
102
}
330
17
100
AcDbMlineStyle
  2
Standard
 70
     0
  3

 62
   256
 51
90.0
 52
90.0
 71
     2
 49
0.5
 62
   256
  6
BYLAYER
 49
-0.5
 62
   256
  6
BYLAYER
  0
ACDBPLACEHOLDER
  5
F
102
{ACAD_REACTORS
330
E
102
}
330
E
  0
VISUALSTYLE
  5
2F
102
{ACAD_REACTORS
330
2A
102
}
330
2A
100
AcDbVisualStyle
  2
2dWireframe
 70
     4
177
     2
291
     0
 71
     0
176
     1
 72
     2
176
     1
 73
     0
176
     1
 90
        0
176
     1
 40
-0.6
176
     1
 41
-30.0
176
     1
 62
     5
 63
     7
421
 16777215
176
     1
 74
     1
176
     1
 91
        4
176
     1
 64
     7
176
     1
 65
   257
176
     1
 75
     1
176
     1
175
     1
176
     1
 42
1.0
176
     1
 92
        0
176
     1
 66
   257
176
     1
 43
1.0
176
     1
 76
     1
176
     1
 77
     6
176
     1
 78
     2
176
     1
 67
     7
176
     1
 79
     5
176
     1
170
     0
176
     1
171
     0
176
     1
290
     0
176
     1
 93
        1
176
     1
 44
0.0
176
     1
173
     0
176
     1
  0
VISUALSTYLE
  5
31
102
{ACAD_REACTORS
330
2A
102
}
330
2A
100
AcDbVisualStyle
  2
3D Hidden
 70
     6
177
     2
291
     0
 71
     1
176
     1
 72
     2
176
     1
 73
     2
176
     1
 90
        0
176
     1
 40
-0.6
176
     1
 41
-30.0
176
     1
 62
     5
 63
     7
421
 16777215
176
     1
 74
     2
176
     1
 91
        2
176
     1
 64
     7
176
     1
 65
   257
176
     1
 75
     2
176
     1
175
     1
176
     1
 42
40.0
176
     1
 92
        0
176
     1
 66
   257
176
     1
 43
1.0
176
     1
 76
     1
176
     1
 77
     6
176
     1
 78
     2
176
     1
 67
     7
176
     1
 79
     3
176
     1
170
     0
176
     1
171
     0
176
     1
290
     0
176
     1
 93
        1
176
     1
 44
0.0
176
     1
173
     0
176
     1
  0
VISUALSTYLE
  5
30
102
{ACAD_REACTORS
330
2A
102
}
330
2A
100
AcDbVisualStyle
  2
3dWireframe
 70
     5
177
     2
291
     0
 71
     0
176
     1
 72
     2
176
     1
 73
     0
176
     1
 90
        0
176
     1
 40
-0.6
176
     1
 41
-30.0
176
     1
 62
     5
 63
     7
421
 16777215
176
     1
 74
     1
176
     1
 91
        4
176
     1
 64
     7
176
     1
 65
   257
176
     1
 75
     1
176
     1
175
     1
176
     1
 42
1.0
176
     1
 92
        0
176
     1
 66
   257
176
     1
 43
1.0
176
     1
 76
     1
176
     1
 77
     6
176
     1
 78
     2
176
     1
 67
     7
176
     1
 79
     5
176
     1
170
     0
176
     1
171
     0
176
     1
290
     0
176
     1
 93
        1
176
     1
 44
0.0
176
     1
173
     0
176
     1
  0
VISUALSTYLE
  5
32
102
{ACAD_REACTORS
330
2A
102
}
330
2A
100
AcDbVisualStyle
  2
Basic
 70
     7
177
     2
291
     1
 71
     1
176
     1
 72
     0
176
     1
 73
     1
176
     1
 90
        0
176
     1
 40
-0.6
176
     1
 41
-30.0
176
     1
 62
     5
 63
     7
421
 16777215
176
     1
 74
     0
176
     1
 91
        4
176
     1
 64
     7
176
     1
 65
   257
176
     1
 75
     1
176
     1
175
     1
176
     1
 42
1.0
176
     1
 92
        8
176
     1
 66
     7
176
     1
 43
1.0
176
     1
 76
     1
176
     1
 77
     6
176
     1
 78
     2
176
     1
 67
     7
176
     1
 79
     5
176
     1
170
     0
176
     1
171
     0
176
     1
290
     0
176
     1
 93
        1
176
     1
 44
0.0
176
     1
173
     0
176
     1
  0
VISUALSTYLE
  5
36
102
{ACAD_REACTORS
330
2A
102
}
330
2A
100
AcDbVisualStyle
  2
Brighten
 70
    12
177
     2
291
     1
 71
     2
176
     1
 72
     2
176
     1
 73
     0
176
     1
 90
        0
176
     1
 40
-0.6
176
     1
 41
-30.0
176
     1
 62
     5
 63
     7
421
 16777215
176
     1
 74
     1
176
     1
 91
        4
176
     1
 64
     7
176
     1
 65
   257
176
     1
 75
     1
176
     1
175
     1
176
     1
 42
1.0
176
     1
 92
        8
176
     1
 66
     7
176
     1
 43
1.0
176
     1
 76
     1
176
     1
 77
     6
176
     1
 78
     2
176
     1
 67
     7
176
     1
 79
     5
176
     1
170
     0
176
     1
171
     0
176
     1
290
     0
176
     1
 93
        1
176
     1
 44
50.0
176
     1
173
     0
176
     1
  0
VISUALSTYLE
  5
3A
102
{ACAD_REACTORS
330
2A
102
}
330
2A
100
AcDbVisualStyle
  2
ColorChange
 70
    16
177
     2
291
     1
 71
     2
176
     1
 72
     2
176
     1
 73
     3
176
     1
 90
        0
176
     1
 40
-0.6
176
     1
 41
-30.0
176
     1
 62
     5
 63
     8
421
  8421504
176
     1
 74
     1
176
     1
 91
        4
176
     1
 64
     7
176
     1
 65
   257
176
     1
 75
     1
176
     1
175
     1
176
     1
 42
1.0
176
     1
 92
        8
176
     1
 66
     8
424
  8421504
176
     1
 43
1.0
176
     1
 76
     1
176
     1
 77
     6
176
     1
 78
     2
176
     1
 67
     7
176
     1
 79
     5
176
     1
170
     0
176
     1
171
     0
176
     1
290
     0
176
     1
 93
        1
176
     1
 44
0.0
176
     1
173
     0
176
     1
  0
VISUALSTYLE
  5
34
102
{ACAD_REACTORS
330
2A
102
}
330
2A
100
AcDbVisualStyle
  2
Conceptual
 70
     9
177
     2
291
     0
 71
     3
176
     1
 72
     2
176
     1
 73
     0
176
     1
 90
        0
176
     1
 40
-0.6
176
     1
 41
-30.0
176
     1
 62
     5
 63
     7
421
 16777215
176
     1
 74
     2
176
     1
 91
        2
176
     1
 64
     7
176
     1
 65
   257
176
     1
 75
     1
176
     1
175
     1
176
     1
 42
40.0
176
     1
 92
        8
176
     1
 66
     7
176
     1
 43
1.0
176
     1
 76
     1
176
     1
 77
     6
176
     1
 78
     2
176
     1
 67
     7
176
     1
 79
     3
176
     1
170
     0
176
     1
171
     0
176
     1
290
     0
176
     1
 93
        1
176
     1
 44
0.0
176
     1
173
     0
176
     1
  0
VISUALSTYLE
  5
35
102
{ACAD_REACTORS
330
2A
102
}
330
2A
100
AcDbVisualStyle
  2
Dim
 70
    11
177
     2
291
     1
 71
     2
176
     1
 72
     2
176
     1
 73
     0
176
     1
 90
        0
176
     1
 40
-0.6
176
     1
 41
-30.0
176
     1
 62
     5
 63
     7
421
 16777215
176
     1
 74
     1
176
     1
 91
        4
176
     1
 64
     7
176
     1
 65
   257
176
     1
 75
     1
176
     1
175
     1
176
     1
 42
1.0
176
     1
 92
        8
176
     1
 66
     7
176
     1
 43
1.0
176
     1
 76
     1
176
     1
 77
     6
176
     1
 78
     2
176
     1
 67
     7
176
     1
 79
     5
176
     1
170
     0
176
     1
171
     0
176
     1
290
     0
176
     1
 93
        1
176
     1
 44
-50.0
176
     1
173
     0
176
     1
  0
VISUALSTYLE
  5
39
102
{ACAD_REACTORS
330
2A
102
}
330
2A
100
AcDbVisualStyle
  2
Facepattern
 70
    15
177
     2
291
     1
 71
     2
176
     1
 72
     2
176
     1
 73
     0
176
     1
 90
        0
176
     1
 40
-0.6
176
     1
 41
-30.0
176
     1
 62
     5
 63
     7
421
 16777215
176
     1
 74
     1
176
     1
 91
        4
176
     1
 64
     7
176
     1
 65
   257
176
     1
 75
     1
176
     1
175
     1
176
     1
 42
1.0
176
     1
 92
        8
176
     1
 66
     7
176
     1
 43
1.0
176
     1
 76
     1
176
     1
 77
     6
176
     1
 78
     2
176
     1
 67
     7
176
     1
 79
     5
176
     1
170
     0
176
     1
171
     0
176
     1
290
     0
176
     1
 93
        1
176
     1
 44
0.0
176
     1
173
     0
176
     1
  0
VISUALSTYLE
  5
2B
102
{ACAD_REACTORS
330
2A
102
}
330
2A
100
AcDbVisualStyle
  2
Flat
 70
     0
177
     2
291
     1
 71
     2
176
     1
 72
     1
176
     1
 73
     1
176
     1
 90
        2
176
     1
 40
-0.6
176
     1
 41
30.0
176
     1
 62
     5
 63
     7
421
 16777215
176
     1
 74
     0
176
     1
 91
        4
176
     1
 64
     7
176
     1
 65
   257
176
     1
 75
     1
176
     1
175
     1
176
     1
 42
1.0
176
     1
 92
        8
176
     1
 66
     7
176
     1
 43
1.0
176
     1
 76
     1
176
     1
 77
     6
176
     1
 78
     2
176
     1
 67
     7
176
     1
 79
     5
176
     1
170
     0
176
     1
171
     0
176
     1
290
     0
176
     1
 93
       13
176
     1
 44
0.0
176
     1
173
     0
176
     1
  0
VISUALSTYLE
  5
2C
102
{ACAD_REACTORS
330
2A
102
}
330
2A
100
AcDbVisualStyle
  2
FlatWithEdges
 70
     1
177
     2
291
     1
 71
     2
176
     1
 72
     1
176
     1
 73
     1
176
     1
 90
        2
176
     1
 40
-0.6
176
     1
 41
30.0
176
     1
 62
     5
 63
     7
421
 16777215
176
     1
 74
     1
176
     1
 91
        4
176
     1
 64
     7
176
     1
 65
   257
176
     1
 75
     1
176
     1
175
     1
176
     1
 42
1.0
176
     1
 92
        0
176
     1
 66
   257
176
     1
 43
1.0
176
     1
 76
     1
176
     1
 77
     6
176
     1
 78
     2
176
     1
 67
     7
176
     1
 79
     5
176
     1
170
     0
176
     1
171
     0
176
     1
290
     0
176
     1
 93
       13
176
     1
 44
0.0
176
     1
173
     0
176
     1
  0
VISUALSTYLE
  5
2D
102
{ACAD_REACTORS
330
2A
102
}
330
2A
100
AcDbVisualStyle
  2
Gouraud
 70
     2
177
     2
291
     1
 71
     2
176
     1
 72
     2
176
     1
 73
     1
176
     1
 90
        2
176
     1
 40
-0.6
176
     1
 41
30.0
176
     1
 62
     5
 63
     7
421
 16777215
176
     1
 74
     0
176
     1
 91
        4
176
     1
 64
     7
176
     1
 65
   257
176
     1
 75
     1
176
     1
175
     1
176
     1
 42
1.0
176
     1
 92
        0
176
     1
 66
     7
176
     1
 43
1.0
176
     1
 76
     1
176
     1
 77
     6
176
     1
 78
     2
176
     1
 67
     7
176
     1
 79
     5
176
     1
170
     0
176
     1
171
     0
176
     1
290
     0
176
     1
 93
       13
176
     1
 44
0.0
176
     1
173
     0
176
     1
  0
VISUALSTYLE
  5
2E
102
{ACAD_REACTORS
330
2A
102
}
330
2A
100
AcDbVisualStyle
  2
GouraudWithEdges
 70
     3
177
     2
291
     1
 71
     2
176
     1
 72
     2
176
     1
 73
     1
176
     1
 90
        2
176
     1
 40
-0.6
176
     1
 41
30.0
176
     1
 62
     5
 63
     7
421
 16777215
176
     1
 74
     1
176
     1
 91
        4
176
     1
 64
     7
176
     1
 65
   257
176
     1
 75
     1
176
     1
175
     1
176
     1
 42
1.0
176
     1
 92
        0
176
     1
 66
   257
176
     1
 43
1.0
176
     1
 76
     1
176
     1
 77
     6
176
     1
 78
     2
176
     1
 67
     7
176
     1
 79
     5
176
     1
170
     0
176
     1
171
     0
176
     1
290
     0
176
     1
 93
       13
176
     1
 44
0.0
176
     1
173
     0
176
     1
  0
VISUALSTYLE
  5
38
102
{ACAD_REACTORS
330
2A
102
}
330
2A
100
AcDbVisualStyle
  2
Linepattern
 70
    14
177
     2
291
     1
 71
     2
176
     1
 72
     2
176
     1
 73
     0
176
     1
 90
        0
176
     1
 40
-0.6
176
     1
 41
-30.0
176
     1
 62
     5
 63
     7
421
 16777215
176
     1
 74
     1
176
     1
 91
        4
176
     1
 64
     7
176
     1
 65
   257
176
     1
 75
     7
176
     1
175
     7
176
     1
 42
1.0
176
     1
 92
        8
176
     1
 66
     7
176
     1
 43
1.0
176
     1
 76
     1
176
     1
 77
     6
176
     1
 78
     2
176
     1
 67
     7
176
     1
 79
     5
176
     1
170
     0
176
     1
171
     0
176
     1
290
     0
176
     1
 93
        1
176
     1
 44
0.0
176
     1
173
     0
176
     1
  0
VISUALSTYLE
  5
33
102
{ACAD_REACTORS
330
2A
102
}
330
2A
100
AcDbVisualStyle
  2
Realistic
 70
     8
177
     2
291
     0
 71
     2
176
     1
 72
     2
176
     1
 73
     0
176
     1
 90
        0
176
     1
 40
-0.6
176
     1
 41
-30.0
176
     1
 62
     5
 63
     7
421
 16777215
176
     1
 74
     1
176
     1
 91
        0
176
     1
 64
     7
176
     1
 65
   257
176
     1
 75
     1
176
     1
175
     1
176
     1
 42
1.0
176
     1
 92
        8
176
     1
 66
     8
424
  7895160
176
     1
 43
1.0
176
     1
 76
     1
176
     1
 77
     6
176
     1
 78
     2
176
     1
 67
     7
176
     1
 79
     5
176
     1
170
     0
176
     1
171
     0
176
     1
290
     0
176
     1
 93
       13
176
     1
 44
0.0
176
     1
173
     0
176
     1
  0
VISUALSTYLE
  5
37
102
{ACAD_REACTORS
330
2A
102
}
330
2A
100
AcDbVisualStyle
  2
Thicken
 70
    13
177
     2
291
     1
 71
     2
176
     1
 72
     2
176
     1
 73
     0
176
     1
 90
        0
176
     1
 40
-0.6
176
     1
 41
-30.0
176
     1
 62
     5
 63
     7
421
 16777215
176
     1
 74
     1
176
     1
 91
        4
176
     1
 64
     7
176
     1
 65
   257
176
     1
 75
     1
176
     1
175
     1
176
     1
 42
1.0
176
     1
 92
       12
176
     1
 66
     7
176
     1
 43
1.0
176
     1
 76
     1
176
     1
 77
     6
176
     1
 78
     2
176
     1
 67
     7
176
     1
 79
     5
176
     1
170
     0
176
     1
171
     0
176
     1
290
     0
176
     1
 93
        1
176
     1
 44
0.0
176
     1
173
     0
176
     1
  0
ENDSEC
  0
EOF
