  0
SECTION
  2
HEADER
  9
$ACADVER
  1
AC1024
  9
$ACADMAINTVER
 70
     6
  9
$DWGCODEPAGE
  3
UNDEFINED
  9
$INSBASE
 10
0.0
 20
0.0
 30
0.0
  9
$EXTMIN
 10
1.000000000000000E+20
 20
1.000000000000000E+20
 30
1.000000000000000E+20
  9
$EXTMAX
 10
-1.000000000000000E+20
 20
-1.000000000000000E+20
 30
-1.000000000000000E+20
  9
$LIMMIN
 10
0.0
 20
0.0
  9
$LIMMAX
 10
12.0
 20
9.0
  9
$ORTHOMODE
 70
     0
  9
$REGENMODE
 70
     1
  9
$FILLMODE
 70
     1
  9
$QTEXTMODE
 70
     0
  9
$MIRRTEXT
 70
     1
  9
$LTSCALE
 40
1.0
  9
$ATTMODE
 70
     1
  9
$TEXTSIZE
 40
0.2
  9
$TRACEWID
 40
0.05
  9
$TEXTSTYLE
  7
Standard
  9
$CLAYER
  8
0
  9
$CELTYPE
  6
ByLayer
  9
$CECOLOR
 62
   256
  9
$CELTSCALE
 40
1.0
  9
$DISPSILH
 70
     0
  9
$DIMSCALE
 40
1.0
  9
$DIMASZ
 40
0.18
  9
$DIMEXO
 40
0.0625
  9
$DIMDLI
 40
0.38
  9
$DIMRND
 40
0.0
  9
$DIMDLE
 40
0.0
  9
$DIMEXE
 40
0.18
  9
$DIMTP
 40
0.0
  9
$DIMTM
 40
0.0
  9
$DIMTXT
 40
0.18
  9
$DIMCEN
 40
0.09
  9
$DIMTSZ
 40
0.0
  9
$DIMTOL
 70
     0
  9
$DIMLIM
 70
     0
  9
$DIMTIH
 70
     1
  9
$DIMTOH
 70
     1
  9
$DIMSE1
 70
     0
  9
$DIMSE2
 70
     0
  9
$DIMTAD
 70
     0
  9
$DIMZIN
 70
     0
  9
$DIMBLK
  1

  9
$DIMASO
 70
     1
  9
$DIMSHO
 70
     1
  9
$DIMPOST
  1

  9
$DIMAPOST
  1

  9
$DIMALT
 70
     0
  9
$DIMALTD
 70
     2
  9
$DIMALTF
 40
25.4
  9
$DIMLFAC
 40
1.0
  9
$DIMTOFL
 70
     0
  9
$DIMTVP
 40
0.0
  9
$DIMTIX
 70
     0
  9
$DIMSOXD
 70
     0
  9
$DIMSAH
 70
     0
  9
$DIMBLK1
  1

  9
$DIMBLK2
  1

  9
$DIMSTYLE
  2
Standard
  9
$DIMCLRD
 70
     0
  9
$DIMCLRE
 70
     0
  9
$DIMCLRT
 70
     0
  9
$DIMTFAC
 40
1.0
  9
$DIMGAP
 40
0.09
  9
$DIMJUST
 70
     0
  9
$DIMSD1
 70
     0
  9
$DIMSD2
 70
     0
  9
$DIMTOLJ
 70
     1
  9
$DIMTZIN
 70
     0
  9
$DIMALTZ
 70
     0
  9
$DIMALTTZ
 70
     0
  9
$DIMUPT
 70
     0
  9
$DIMDEC
 70
     4
  9
$DIMTDEC
 70
     4
  9
$DIMALTU
 70
     2
  9
$DIMALTTD
 70
     2
  9
$DIMTXSTY
  7
Standard
  9
$DIMAUNIT
 70
     0
  9
$DIMADEC
 70
     0
  9
$DIMALTRND
 40
0.0
  9
$DIMAZIN
 70
     0
  9
$DIMDSEP
 70
    46
  9
$DIMATFIT
 70
     3
  9
$DIMFRAC
 70
     0
  9
$DIMLDRBLK
  1

  9
$DIMLUNIT
 70
     2
  9
$DIMLWD
 70
    -2
  9
$DIMLWE
 70
    -2
  9
$DIMTMOVE
 70
     0
  9
$DIMFXL
 40
1.0
  9
$DIMFXLON
 70
     0
  9
$DIMJOGANG
 40
0.7853981633974483
  9
$DIMTFILL
 70
     0
  9
$DIMTFILLCLR
 70
     0
  9
$DIMARCSYM
 70
     0
  9
$DIMLTYPE
  6

  9
$DIMLTEX1
  6

  9
$DIMLTEX2
  6

  9
$DIMTXTDIRECTION
 70
     0
  9
$LUNITS
 70
     2
  9
$LUPREC
 70
     4
  9
$SKETCHINC
 40
0.1
  9
$FILLETRAD
 40
0.5
  9
$AUNITS
 70
     0
  9
$AUPREC
 70
     0
  9
$MENU
  1
.
  9
$ELEVATION
 40
0.0
  9
$PELEVATION
 40
0.0
  9
$THICKNESS
 40
0.0
  9
$LIMCHECK
 70
     0
  9
$CHAMFERA
 40
0.5
  9
$CHAMFERB
 40
0.5
  9
$CHAMFERC
 40
1.0
  9
$CHAMFERD
 40
0.0
  9
$SKPOLY
 70
     0
  9
$TDCREATE
 40
2457917.589768519
  9
$TDUCREATE
 40
2457917.214768519
  9
$TDUPDATE
 40
2457917.589768519
  9
$TDUUPDATE
 40
2457917.214768519
  9
$TDINDWG
 40
0.0000000116
  9
$TDUSRTIMER
 40
0.0000000116
  9
$USRTIMER
 70
     1
  9
$ANGBASE
 50
0.0
  9
$ANGDIR
 70
     0
  9
$PDMODE
 70
     0
  9
$PDSIZE
 40
0.0
  9
$PLINEWID
 40
0.0
  9
$SPLFRAME
 70
     0
  9
$SPLINETYPE
 70
     6
  9
$SPLINESEGS
 70
     8
  9
$HANDSEED
  5
139
  9
$SURFTAB1
 70
     6
  9
$SURFTAB2
 70
     6
  9
$SURFTYPE
 70
     6
  9
$SURFU
 70
     6
  9
$SURFV
 70
     6
  9
$UCSBASE
  2

  9
$UCSNAME
  2

  9
$UCSORG
 10
0.0
 20
0.0
 30
0.0
  9
$UCSXDIR
 10
1.0
 20
0.0
 30
0.0
  9
$UCSYDIR
 10
0.0
 20
1.0
 30
0.0
  9
$UCSORTHOREF
  2

  9
$UCSORTHOVIEW
 70
     0
  9
$UCSORGTOP
 10
0.0
 20
0.0
 30
0.0
  9
$UCSORGBOTTOM
 10
0.0
 20
0.0
 30
0.0
  9
$UCSORGLEFT
 10
0.0
 20
0.0
 30
0.0
  9
$UCSORGRIGHT
 10
0.0
 20
0.0
 30
0.0
  9
$UCSORGFRONT
 10
0.0
 20
0.0
 30
0.0
  9
$UCSORGBACK
 10
0.0
 20
0.0
 30
0.0
  9
$PUCSBASE
  2

  9
$PUCSNAME
  2

  9
$PUCSORG
 10
0.0
 20
0.0
 30
0.0
  9
$PUCSXDIR
 10
1.0
 20
0.0
 30
0.0
  9
$PUCSYDIR
 10
0.0
 20
1.0
 30
0.0
  9
$PUCSORTHOREF
  2

  9
$PUCSORTHOVIEW
 70
     0
  9
$PUCSORGTOP
 10
0.0
 20
0.0
 30
0.0
  9
$PUCSORGBOTTOM
 10
0.0
 20
0.0
 30
0.0
  9
$PUCSORGLEFT
 10
0.0
 20
0.0
 30
0.0
  9
$PUCSORGRIGHT
 10
0.0
 20
0.0
 30
0.0
  9
$PUCSORGFRONT
 10
0.0
 20
0.0
 30
0.0
  9
$PUCSORGBACK
 10
0.0
 20
0.0
 30
0.0
  9
$USERI1
 70
     0
  9
$USERI2
 70
     0
  9
$USERI3
 70
     0
  9
$USERI4
 70
     0
  9
$USERI5
 70
     0
  9
$USERR1
 40
0.0
  9
$USERR2
 40
0.0
  9
$USERR3
 40
0.0
  9
$USERR4
 40
0.0
  9
$USERR5
 40
0.0
  9
$WORLDVIEW
 70
     1
  9
$SHADEDGE
 70
     3
  9
$SHADEDIF
 70
    70
  9
$TILEMODE
 70
     1
  9
$MAXACTVP
 70
    64
  9
$PINSBASE
 10
0.0
 20
0.0
 30
0.0
  9
$PLIMCHECK
 70
     0
  9
$PEXTMIN
 10
1.000000000000000E+20
 20
1.000000000000000E+20
 30
1.000000000000000E+20
  9
$PEXTMAX
 10
-1.000000000000000E+20
 20
-1.000000000000000E+20
 30
-1.000000000000000E+20
  9
$PLIMMIN
 10
0.0
 20
0.0
  9
$PLIMMAX
 10
12.0
 20
9.0
  9
$UNITMODE
 70
     0
  9
$VISRETAIN
 70
     1
  9
$PLINEGEN
 70
     0
  9
$PSLTSCALE
 70
     1
  9
$TREEDEPTH
 70
  3020
  9
$CMLSTYLE
  2
Standard
  9
$CMLJUST
 70
     0
  9
$CMLSCALE
 40
1.0
  9
$PROXYGRAPHICS
 70
     1
  9
$MEASUREMENT
 70
     0
  9
$CELWEIGHT
370
    -1
  9
$ENDCAPS
280
     0
  9
$JOINSTYLE
280
     0
  9
$LWDISPLAY
290
     1
  9
$INSUNITS
 70
     1
  9
$HYPERLINKBASE
  1

  9
$STYLESHEET
  1

  9
$XEDIT
290
     1
  9
$CEPSNTYPE
380
     0
  9
$PSTYLEMODE
290
     1
  9
$FINGERPRINTGUID
  2
{B8449ED0-170A-3D27-131E-129D8B9563DD}
  9
$VERSIONGUID
  2
{FAEB1C32-E019-11D5-929B-00C0DF256EC4}
  9
$EXTNAMES
290
     1
  9
$PSVPSCALE
 40
0.0
  9
$OLESTARTUP
290
     0
  9
$SORTENTS
280
   127
  9
$INDEXCTL
280
     0
  9
$HIDETEXT
280
     1
  9
$XCLIPFRAME
280
     2
  9
$HALOGAP
280
     0
  9
$OBSCOLOR
 70
   257
  9
$OBSLTYPE
280
     0
  9
$INTERSECTIONDISPLAY
280
     0
  9
$INTERSECTIONCOLOR
 70
   257
  9
$DIMASSOC
280
     2
  9
$PROJECTNAME
  1

  9
$CAMERADISPLAY
290
     0
  9
$LENSLENGTH
 40
50.0
  9
$CAMERAHEIGHT
 40
0.0
  9
$STEPSPERSEC
 40
2.0
  9
$STEPSIZE
 40
6.0
  9
$3DDWFPREC
 40
2.0
  9
$PSOLWIDTH
 40
0.25
  9
$PSOLHEIGHT
 40
4.0
  9
$LOFTANG1
 40
1.570796326794897
  9
$LOFTANG2
 40
1.570796326794897
  9
$LOFTMAG1
 40
0.0
  9
$LOFTMAG2
 40
0.0
  9
$LOFTPARAM
 70
     7
  9
$LOFTNORMALS
280
     1
  9
$LATITUDE
 40
37.795
  9
$LONGITUDE
 40
-122.394
  9
$NORTHDIRECTION
 40
0.0
  9
$TIMEZONE
 70
 -8000
  9
$LIGHTGLYPHDISPLAY
280
     1
  9
$TILEMODELIGHTSYNCH
280
     1
  9
$CMATERIAL
347
3C
  9
$SOLIDHIST
280
     1
  9
$SHOWHIST
280
     1
  9
$DWFFRAME
280
     2
  9
$DGNFRAME
280
     2
  9
$REALWORLDSCALE
290
     1
  9
$INTERFERECOLOR
 62
   256
  9
$CSHADOW
280
     0
  9
$SHADOWPLANELOCATION
 40
0.0
  0
ENDSEC
  0
SECTION
  2
CLASSES
  0
CLASS
  1
ACDBDICTIONARYWDFLT
  2
AcDbDictionaryWithDefault
  3
ObjectDBX Classes
 90
        0
 91
        4
280
     0
281
     0
  0
CLASS
  1
VISUALSTYLE
  2
AcDbVisualStyle
  3
ObjectDBX Classes
 90
     4095
 91
        4
280
     0
281
     0
  0
CLASS
  1
MATERIAL
  2
AcDbMaterial
  3
ObjectDBX Classes
 90
     1153
 91
        4
280
     0
281
     0
  0
CLASS
  1
SUN
  2
AcDbSun
  3
SCENEOE
 90
     1024
 91
        4
280
     0
281
     0
  0
ENDSEC
  0
SECTION
  2
TABLES
  0
TABLE
  2
VPORT
  5
8
330
0
100
AcDbSymbolTable
 70
     1
  0
VPORT
  5
29
330
8
100
AcDbSymbolTableRecord
100
AcDbViewportTableRecord
  2
*Active
 70
     0
 10
0.0
 20
0.0
 11
1.0
 21
1.0
 12
0.0
 22
0.0
 13
0.0
 23
0.0
 14
0.5
 24
0.5
 15
0.5
 25
0.5
 16
0.0
 26
0.0
 36
1.0
 17
91.00082462281999
 27
-128.4993055234307
 37
0.0
 40
256.9986110468615
 41
0.7081814508812795
 42
50.0
 43
0.0
 44
0.0
 50
0.0
 51
0.0
 71
     0
 72
   100
 73
     1
 74
     3
 75
     0
 76
     0
 77
     0
 78
     0
281
     0
 65
     1
110
0.0
120
0.0
130
0.0
111
1.0
121
0.0
131
0.0
112
0.0
122
1.0
132
0.0
 79
     0
146
0.0
 60
     3
 61
     5
292
     1
282
     1
141
0.0
142
0.0
 63
   250
361
3F
  0
ENDTAB
  0
TABLE
  2
LTYPE
  5
5
330
0
100
AcDbSymbolTable
 70
     2
  0
LTYPE
  5
14
330
5
100
AcDbSymbolTableRecord
100
AcDbLinetypeTableRecord
  2
ByBlock
 70
     0
  3

 72
    65
 73
     0
 40
0.0
  0
LTYPE
  5
15
330
5
100
AcDbSymbolTableRecord
100
AcDbLinetypeTableRecord
  2
ByLayer
 70
     0
  3

 72
    65
 73
     0
 40
0.0
  0
LTYPE
  5
16
330
5
100
AcDbSymbolTableRecord
100
AcDbLinetypeTableRecord
  2
Continuous
 70
     0
  3
Solid line
 72
    65
 73
     0
 40
0.0
  0
LTYPE
  5
44
330
5
100
AcDbSymbolTableRecord
100
AcDbLinetypeTableRecord
  2
AI-Linetype-1
 70
     0
  3
Adobe Illustrator Linetype No. 1
 72
    65
 73
     2
 40
1.411111110758333
 49
0.7055555553791667
 74
     0
 49
-0.7055555553791667
 74
     0
  0
ENDTAB
  0
TABLE
  2
LAYER
  5
2
330
0
100
AcDbSymbolTable
 70
     2
  0
LAYER
  5
10
330
2
100
AcDbSymbolTableRecord
100
AcDbLayerTableRecord
  2
0
 70
     0
 62
     7
  6
Continuous
370
    -3
390
F
347
3E
  0
LAYER
  5
40
330
2
100
AcDbSymbolTableRecord
100
AcDbLayerTableRecord
  2
_U+30EC_U+30A4_U+30E4_U+30FC 1
 70
     0
 62
     7
  6
Continuous
370
    -3
390
F
347
3E
  0
ENDTAB
  0
TABLE
  2
STYLE
  5
3
330
0
100
AcDbSymbolTable
 70
     1
  0
STYLE
  5
11
330
3
100
AcDbSymbolTableRecord
100
AcDbTextStyleTableRecord
  2
Standard
 70
     0
 40
0.0
 41
1.0
 50
0.0
 71
     0
 42
0.2
  3
txt
  4

  0
ENDTAB
  0
TABLE
  2
VIEW
  5
6
330
0
100
AcDbSymbolTable
 70
     0
  0
ENDTAB
  0
TABLE
  2
UCS
  5
7
330
0
100
AcDbSymbolTable
 70
     0
  0
ENDTAB
  0
TABLE
  2
APPID
  5
9
330
0
100
AcDbSymbolTable
 70
     1
  0
APPID
  5
12
330
9
100
AcDbSymbolTableRecord
100
AcDbRegAppTableRecord
  2
ACAD
 70
     0
  0
ENDTAB
  0
TABLE
  2
DIMSTYLE
  5
A
330
0
100
AcDbSymbolTable
 70
     1
100
AcDbDimStyleTable
  0
DIMSTYLE
105
27
330
A
100
AcDbSymbolTableRecord
100
AcDbDimStyleTableRecord
  2
Standard
 70
     0
178
     0
340
11
  0
ENDTAB
  0
TABLE
  2
BLOCK_RECORD
  5
1
330
0
100
AcDbSymbolTable
 70
     7
  0
BLOCK_RECORD
  5
1F
330
1
100
AcDbSymbolTableRecord
100
AcDbBlockTableRecord
  2
*Model_Space
340
22
 70
     0
280
     1
281
     0
  0
BLOCK_RECORD
  5
1B
330
1
100
AcDbSymbolTableRecord
100
AcDbBlockTableRecord
  2
*Paper_Space
340
1E
 70
     0
280
     1
281
     0
  0
BLOCK_RECORD
  5
23
330
1
100
AcDbSymbolTableRecord
100
AcDbBlockTableRecord
  2
*Paper_Space0
340
26
 70
     0
280
     1
281
     0
  0
BLOCK_RECORD
  5
52
330
1
100
AcDbSymbolTableRecord
100
AcDbBlockTableRecord
  2
block 2
340
0
102
{BLKREFS
331
53
102
}
 70
     0
280
     1
281
     0
  0
BLOCK_RECORD
  5
7A
330
1
100
AcDbSymbolTableRecord
100
AcDbBlockTableRecord
  2
block 3
340
0
102
{BLKREFS
331
7B
102
}
 70
     0
280
     1
281
     0
  0
BLOCK_RECORD
  5
8D
330
1
100
AcDbSymbolTableRecord
100
AcDbBlockTableRecord
  2
block 4
340
0
102
{BLKREFS
331
8E
102
}
 70
     0
280
     1
281
     0
  0
BLOCK_RECORD
  5
B0
330
1
100
AcDbSymbolTableRecord
100
AcDbBlockTableRecord
  2
block 5
340
0
102
{BLKREFS
331
B1
102
}
 70
     0
280
     1
281
     0
  0
BLOCK_RECORD
  5
B6
330
1
100
AcDbSymbolTableRecord
100
AcDbBlockTableRecord
  2
block 6
340
0
102
{BLKREFS
331
B7
102
}
 70
     0
280
     1
281
     0
  0
BLOCK_RECORD
  5
BF
330
1
100
AcDbSymbolTableRecord
100
AcDbBlockTableRecord
  2
block 7
340
0
102
{BLKREFS
331
C0
102
}
 70
     0
280
     1
281
     0
  0
ENDTAB
  0
ENDSEC
  0
SECTION
  2
BLOCKS
  0
BLOCK
  5
20
330
1F
100
AcDbEntity
  8
0
100
AcDbBlockBegin
  2
*Model_Space
 70
     0
 10
0.0
 20
0.0
 30
0.0
  3
*Model_Space
  1

  0
ENDBLK
  5
21
330
1F
100
AcDbEntity
  8
0
100
AcDbBlockEnd
  0
BLOCK
  5
1C
330
1B
100
AcDbEntity
 67
     1
  8
0
100
AcDbBlockBegin
  2
*Paper_Space
 70
     0
 10
0.0
 20
0.0
 30
0.0
  3
*Paper_Space
  1

  0
ENDBLK
  5
1D
330
1B
100
AcDbEntity
 67
     1
  8
0
100
AcDbBlockEnd
  0
BLOCK
  5
24
330
23
100
AcDbEntity
  8
0
100
AcDbBlockBegin
  2
*Paper_Space0
 70
     0
 10
0.0
 20
0.0
 30
0.0
  3
*Paper_Space0
  1

  0
ENDBLK
  5
25
330
23
100
AcDbEntity
  8
0
100
AcDbBlockEnd
  0
BLOCK
  5
54
330
52
100
AcDbEntity
  8
0
100
AcDbBlockBegin
  2
block 2
 70
     0
 10
0.0
 20
0.0
 30
0.0
  3
block 2
  1

  0
SPLINE
  5
56
330
52
100
AcDbEntity
  8
_U+30EC_U+30A4_U+30E4_U+30FC 1
370
     0
100
AcDbSpline
210
0.0
220
0.0
230
1.0
 70
    11
 71
     3
 72
   242
 73
   238
 74
     0
 42
0.0000000001
 43
0.0000000001
 12
1.0
 22
0.0
 32
0.0
 13
1.0
 23
0.0
 33
0.0
 40
0.0
 40
0.0
 40
0.0
 40
0.0
 40
1.0
 40
1.0
 40
1.0
 40
2.0
 40
2.0
 40
2.0
 40
3.0
 40
3.0
 40
3.0
 40
4.0
 40
4.0
 40
4.0
 40
5.0
 40
5.0
 40
5.0
 40
6.0
 40
6.0
 40
6.0
 40
7.0
 40
7.0
 40
7.0
 40
8.0
 40
8.0
 40
8.0
 40
9.0
 40
9.0
 40
9.0
 40
10.0
 40
10.0
 40
10.0
 40
11.0
 40
11.0
 40
11.0
 40
12.0
 40
12.0
 40
12.0
 40
13.0
 40
13.0
 40
13.0
 40
14.0
 40
14.0
 40
14.0
 40
15.0
 40
15.0
 40
15.0
 40
16.0
 40
16.0
 40
16.0
 40
17.0
 40
17.0
 40
17.0
 40
18.0
 40
18.0
 40
18.0
 40
19.0
 40
19.0
 40
19.0
 40
20.0
 40
20.0
 40
20.0
 40
21.0
 40
21.0
 40
21.0
 40
22.0
 40
22.0
 40
22.0
 40
23.0
 40
23.0
 40
23.0
 40
24.0
 40
24.0
 40
24.0
 40
25.0
 40
25.0
 40
25.0
 40
26.0
 40
26.0
 40
26.0
 40
27.0
 40
27.0
 40
27.0
 40
28.0
 40
28.0
 40
28.0
 40
29.0
 40
29.0
 40
29.0
 40
30.0
 40
30.0
 40
30.0
 40
31.0
 40
31.0
 40
31.0
 40
32.0
 40
32.0
 40
32.0
 40
33.0
 40
33.0
 40
33.0
 40
34.0
 40
34.0
 40
34.0
 40
35.0
 40
35.0
 40
35.0
 40
36.0
 40
36.0
 40
36.0
 40
37.0
 40
37.0
 40
37.0
 40
38.0
 40
38.0
 40
38.0
 40
39.0
 40
39.0
 40
39.0
 40
40.0
 40
40.0
 40
40.0
 40
41.0
 40
41.0
 40
41.0
 40
42.0
 40
42.0
 40
42.0
 40
43.0
 40
43.0
 40
43.0
 40
44.0
 40
44.0
 40
44.0
 40
45.0
 40
45.0
 40
45.0
 40
46.0
 40
46.0
 40
46.0
 40
47.0
 40
47.0
 40
47.0
 40
48.0
 40
48.0
 40
48.0
 40
49.0
 40
49.0
 40
49.0
 40
50.0
 40
50.0
 40
50.0
 40
51.0
 40
51.0
 40
51.0
 40
52.0
 40
52.0
 40
52.0
 40
53.0
 40
53.0
 40
53.0
 40
54.0
 40
54.0
 40
54.0
 40
55.0
 40
55.0
 40
55.0
 40
56.0
 40
56.0
 40
56.0
 40
57.0
 40
57.0
 40
57.0
 40
58.0
 40
58.0
 40
58.0
 40
59.0
 40
59.0
 40
59.0
 40
60.0
 40
60.0
 40
60.0
 40
61.0
 40
61.0
 40
61.0
 40
62.0
 40
62.0
 40
62.0
 40
63.0
 40
63.0
 40
63.0
 40
64.0
 40
64.0
 40
64.0
 40
65.0
 40
65.0
 40
65.0
 40
66.0
 40
66.0
 40
66.0
 40
67.0
 40
67.0
 40
67.0
 40
68.0
 40
68.0
 40
68.0
 40
69.0
 40
69.0
 40
69.0
 40
70.0
 40
70.0
 40
70.0
 40
71.0
 40
71.0
 40
71.0
 40
72.0
 40
72.0
 40
72.0
 40
73.0
 40
73.0
 40
73.0
 40
74.0
 40
74.0
 40
74.0
 40
75.0
 40
75.0
 40
75.0
 40
76.0
 40
76.0
 40
76.0
 40
77.0
 40
77.0
 40
77.0
 40
78.0
 40
78.0
 40
78.0
 40
79.0
 40
79.0
 40
79.0
 40
79.0
 10
68.39048528021141
 20
-136.4361165023493
 30
0.0
 10
68.39048528021141
 20
-136.4361165023493
 30
0.0
 10
68.1365817429485
 20
-136.4361165023493
 30
0.0
 10
68.1365817429485
 20
-136.4361165023493
 30
0.0
 10
68.1365817429485
 20
-136.4361165023493
 30
0.0
 10
67.85959606593441
 20
-136.4361165023493
 30
0.0
 10
67.85959606593441
 20
-136.4361165023493
 30
0.0
 10
67.85959606593441
 20
-136.4361165023493
 30
0.0
 10
67.9863755797916
 20
-136.4788356863664
 30
0.0
 10
67.9863755797916
 20
-136.4788356863664
 30
0.0
 10
67.99705537579588
 20
-136.4829698009487
 30
0.0
 10
68.0098022290913
 20
-136.4891709728222
 30
0.0
 10
68.0098022290913
 20
-136.5019178261176
 30
0.0
 10
68.0098022290913
 20
-136.5229329085776
 30
0.0
 10
67.97776284107847
 20
-136.5294785899996
 30
0.0
 10
67.95674775861845
 20
-136.5336127045819
 30
0.0
 10
67.94606796261418
 20
-136.5566948443331
 30
0.0
 10
67.91644014144103
 20
-136.6224961681013
 30
0.0
 10
67.89749211627216
 20
-136.666937899861
 30
0.0
 10
67.89749211627216
 20
-136.666937899861
 30
0.0
 10
68.1682766214128
 20
-136.666937899861
 30
0.0
 10
68.1682766214128
 20
-136.666937899861
 30
0.0
 10
68.2592271422234
 20
-136.666937899861
 30
0.0
 10
68.45594209443115
 20
-136.6628037852788
 30
0.0
 10
68.59788002842345
 20
-136.6541910465656
 30
0.0
 10
68.59788002842345
 20
-136.6541910465656
 30
0.0
 10
68.59788002842345
 20
-136.8319579736045
 30
0.0
 10
68.59788002842345
 20
-136.8319579736045
 30
0.0
 10
68.51519773677745
 20
-136.8274793494737
 30
0.0
 10
68.49418265431743
 20
-136.8274793494737
 30
0.0
 10
68.31434866998738
 20
-136.8233452348914
 30
0.0
 10
68.28265379152309
 20
-136.9776855126306
 30
0.0
 10
68.23821205976337
 20
-137.0583007469854
 30
0.0
 10
68.19377032800364
 20
-137.1278916757875
 30
0.0
 10
68.31434866998738
 20
-137.1871473181338
 30
0.0
 10
68.42011310138456
 20
-137.2550156991932
 30
0.0
 10
68.52381047549058
 20
-137.3373534812907
 30
0.0
 10
68.52381047549058
 20
-137.3373534812907
 30
0.0
 10
68.40529919079799
 20
-137.5047851218738
 30
0.0
 10
68.40529919079799
 20
-137.5047851218738
 30
0.0
 10
68.38187254149828
 20
-137.4854925871564
 30
0.0
 10
68.36912568820286
 20
-137.4772243579918
 30
0.0
 10
68.25716008493224
 20
-137.3924750090547
 30
0.0
 10
68.20858423859022
 20
-137.3545789587169
 30
0.0
 10
68.14932859624392
 20
-137.3187499656703
 30
0.0
 10
68.06871336188908
 20
-137.2739637243621
 30
0.0
 10
67.85718449909473
 20
-137.4603433901141
 30
0.0
 10
67.65220131772237
 20
-137.4834255298653
 30
0.0
 10
67.36212427786434
 20
-137.5130533510384
 30
0.0
 10
67.36212427786434
 20
-137.5130533510384
 30
0.0
 10
67.25877141330683
 20
-137.3332193667084
 30
0.0
 10
67.25877141330683
 20
-137.3332193667084
 30
0.0
 10
67.57606470749835
 20
-137.3290852521261
 30
0.0
 10
67.75142006769757
 20
-137.3035915455352
 30
0.0
 10
67.9036932881456
 20
-137.1936929995557
 30
0.0
 10
67.78552651300154
 20
-137.1430500959226
 30
0.0
 10
67.69664304948209
 20
-137.1154893320406
 30
0.0
 10
67.66046954688697
 20
-137.1027424787451
 30
0.0
 10
67.64152152171809
 20
-137.1303032426271
 30
0.0
 10
67.62670761113152
 20
-137.149251267796
 30
0.0
 10
67.59914684724953
 20
-137.1830132035515
 30
0.0
 10
67.59914684724953
 20
-137.1830132035515
 30
0.0
 10
67.40243189504176
 20
-137.100675421454
 30
0.0
 10
67.40243189504176
 20
-137.100675421454
 30
0.0
 10
67.48511418668775
 20
-137.0204046966477
 30
0.0
 10
67.5464368863252
 20
-136.9249755517063
 30
0.0
 10
67.60328096183183
 20
-136.8233452348914
 30
0.0
 10
67.41311169104603
 20
-136.8274793494737
 30
0.0
 10
67.39175209903748
 20
-136.8274793494737
 30
0.0
 10
67.30941431694
 20
-136.8319579736045
 30
0.0
 10
67.30941431694
 20
-136.8319579736045
 30
0.0
 10
67.30941431694
 20
-136.6541910465656
 30
0.0
 10
67.30941431694
 20
-136.6541910465656
 30
0.0
 10
67.44894068409263
 20
-136.6607367279876
 30
0.0
 10
67.65840248959582
 20
-136.6648708425699
 30
0.0
 10
67.68389619618667
 20
-136.6648708425699
 30
0.0
 10
67.70077716406439
 20
-136.6311089068145
 30
0.0
 10
67.75589869182839
 20
-136.5105305648307
 30
0.0
 10
67.77484671699726
 20
-136.4361165023493
 30
0.0
 10
67.75589869182839
 20
-136.4361165023493
 30
0.0
 10
67.5781317647895
 20
-136.4426621837713
 30
0.0
 10
67.38348386987288
 20
-136.4554090370667
 30
0.0
 10
67.38348386987288
 20
-136.4554090370667
 30
0.0
 10
67.38348386987288
 20
-136.5887342323459
 30
0.0
 10
67.38348386987288
 20
-136.5887342323459
 30
0.0
 10
67.33490802353086
 20
-136.6138834293882
 30
0.0
 10
67.27565238118456
 20
-136.6455783078525
 30
0.0
 10
67.14232718590539
 20
-136.7113796316208
 30
0.0
 10
67.14232718590539
 20
-136.7113796316208
 30
0.0
 10
67.14232718590539
 20
-136.8571071706468
 30
0.0
 10
67.14232718590539
 20
-136.8571071706468
 30
0.0
 10
67.14232718590539
 20
-136.8571071706468
 30
0.0
 10
67.14232718590539
 20
-137.3249511375438
 30
0.0
 10
67.14232718590539
 20
-137.3249511375438
 30
0.0
 10
67.14232718590539
 20
-137.451730651401
 30
0.0
 10
67.10615368331027
 20
-137.5109862937473
 30
0.0
 10
66.82296683442273
 20
-137.5027180645827
 30
0.0
 10
66.82296683442273
 20
-137.5027180645827
 30
0.0
 10
66.71926946031671
 20
-137.2953233163706
 30
0.0
 10
66.71926946031671
 20
-137.2953233163706
 30
0.0
 10
66.78265921724531
 20
-137.3077256601175
 30
0.0
 10
66.83123506358733
 20
-137.3122042842483
 30
0.0
 10
66.87154268076476
 20
-137.3122042842483
 30
0.0
 10
66.94767929098877
 20
-137.3122042842483
 30
0.0
 10
66.95835908699306
 20
-137.2891221444972
 30
0.0
 10
66.95835908699306
 20
-137.2233208207289
 30
0.0
 10
66.95835908699306
 20
-137.2233208207289
 30
0.0
 10
66.95835908699306
 20
-136.7937174137182
 30
0.0
 10
66.95835908699306
 20
-136.7937174137182
 30
0.0
 10
66.86086288476048
 20
-136.8340250308957
 30
0.0
 10
66.84398191688275
 20
-136.8405707123176
 30
0.0
 10
66.79747312783188
 20
-136.8595187374865
 30
0.0
 10
66.79333901324958
 20
-136.8805338199465
 30
0.0
 10
66.78886038911877
 20
-136.9101616411197
 30
0.0
 10
66.76991236394989
 20
-136.9101616411197
 30
0.0
 10
66.76164413478529
 20
-136.9101616411197
 30
0.0
 10
66.75096433878102
 20
-136.9060275265374
 30
0.0
 10
66.74441865735903
 20
-136.8826008772377
 30
0.0
 10
66.74441865735903
 20
-136.8826008772377
 30
0.0
 10
66.69170869643472
 20
-136.6903645491608
 30
0.0
 10
66.69170869643472
 20
-136.6903645491608
 30
0.0
 10
66.83778074500931
 20
-136.6435112505613
 30
0.0
 10
66.90323755922905
 20
-136.6204291108102
 30
0.0
 10
66.95835908699306
 20
-136.5994140283501
 30
0.0
 10
66.95835908699306
 20
-136.5994140283501
 30
0.0
 10
66.95835908699306
 20
-136.1866915892172
 30
0.0
 10
66.95835908699306
 20
-136.1866915892172
 30
0.0
 10
66.95835908699306
 20
-136.1866915892172
 30
0.0
 10
66.9053046165202
 20
-136.1866915892172
 30
0.0
 10
66.9053046165202
 20
-136.1866915892172
 30
0.0
 10
66.9053046165202
 20
-136.1866915892172
 30
0.0
 10
66.82710094900503
 20
-136.1866915892172
 30
0.0
 10
66.82710094900503
 20
-136.1866915892172
 30
0.0
 10
66.75923256794562
 20
-136.1866915892172
 30
0.0
 10
66.75096433878102
 20
-136.1866915892172
 30
0.0
 10
66.71479083618588
 20
-136.1928927610907
 30
0.0
 10
66.71479083618588
 20
-136.1928927610907
 30
0.0
 10
66.71479083618588
 20
-135.9985893757226
 30
0.0
 10
66.71479083618588
 20
-135.9985893757226
 30
0.0
 10
66.74235160006789
 20
-136.004790547596
 30
0.0
 10
66.75096433878102
 20
-136.004790547596
 30
0.0
 10
66.82055526758306
 20
-136.004790547596
 30
0.0
 10
66.82055526758306
 20
-136.004790547596
 30
0.0
 10
66.95388046286223
 20
-136.004790547596
 30
0.0
 10
66.95388046286223
 20
-136.004790547596
 30
0.0
 10
66.95388046286223
 20
-135.935199618794
 30
0.0
 10
66.95388046286223
 20
-135.852517327148
 30
0.0
 10
66.95181340557107
 20
-135.8483832125657
 30
0.0
 10
66.94354517640647
 20
-135.6685492282356
 30
0.0
 10
66.94354517640647
 20
-135.6492566935183
 30
0.0
 10
66.9411336095668
 20
-135.6030924140159
 30
0.0
 10
66.9411336095668
 20
-135.6030924140159
 30
0.0
 10
67.15714109649197
 20
-135.6113606431805
 30
0.0
 10
67.15714109649197
 20
-135.6113606431805
 30
0.0
 10
67.16782089249624
 20
-135.6113606431805
 30
0.0
 10
67.18883597495626
 20
-135.6134277004716
 30
0.0
 10
67.18883597495626
 20
-135.6303086683494
 30
0.0
 10
67.18883597495626
 20
-135.6492566935183
 30
0.0
 10
67.1740220643697
 20
-135.6599364895225
 30
0.0
 10
67.14852835777884
 20
-135.6788845146914
 30
0.0
 10
67.14852835777884
 20
-135.7298719278731
 30
0.0
 10
67.14232718590539
 20
-135.9582817585452
 30
0.0
 10
67.14439424319654
 20
-136.004790547596
 30
0.0
 10
67.27358532389341
 20
-136.004790547596
 30
0.0
 10
67.28598766764031
 20
-136.004790547596
 30
0.0
 10
67.38348386987288
 20
-135.9965223184314
 30
0.0
 10
67.38348386987288
 20
-135.9965223184314
 30
0.0
 10
67.38348386987288
 20
-136.1908257037995
 30
0.0
 10
67.38348386987288
 20
-136.1908257037995
 30
0.0
 10
67.34524330998661
 20
-136.1887586465084
 30
0.0
 10
67.27771943847571
 20
-136.1846245319261
 30
0.0
 10
67.14232718590539
 20
-136.1866915892172
 30
0.0
 10
67.14232718590539
 20
-136.1866915892172
 30
0.0
 10
67.14232718590539
 20
-136.5249999658687
 30
0.0
 10
67.14232718590539
 20
-136.5249999658687
 30
0.0
 10
67.19744871366939
 20
-136.5019178261176
 30
0.0
 10
67.26290552788913
 20
-136.4743570622356
 30
0.0
 10
67.31148137423116
 20
-136.4512749224844
 30
0.0
 10
67.31148137423116
 20
-136.4512749224844
 30
0.0
 10
67.31148137423116
 20
-136.2735079954455
 30
0.0
 10
67.31148137423116
 20
-136.2735079954455
 30
0.0
 10
67.42585854434145
 20
-136.2859103391924
 30
0.0
 10
67.54436982903405
 20
-136.2859103391924
 30
0.0
 10
67.66046954688697
 20
-136.2859103391924
 30
0.0
 10
67.63738740713579
 20
-136.1908257037995
 30
0.0
 10
67.6098266432538
 20
-136.1084879217021
 30
0.0
 10
67.5464368863252
 20
-135.9751627264229
 30
0.0
 10
67.50199515456548
 20
-135.977229783714
 30
0.0
 10
67.41931286291948
 20
-135.9813638982963
 30
0.0
 10
67.38141681258173
 20
-135.9834309555875
 30
0.0
 10
67.38141681258173
 20
-135.9834309555875
 30
0.0
 10
67.38141681258173
 20
-135.8035969712574
 30
0.0
 10
67.38141681258173
 20
-135.8035969712574
 30
0.0
 10
67.50612926914778
 20
-135.8122097099706
 30
0.0
 10
67.67976208160437
 20
-135.8166883341014
 30
0.0
 10
67.76209986370183
 20
-135.8166883341014
 30
0.0
 10
67.76209986370183
 20
-135.8166883341014
 30
0.0
 10
67.84478215534783
 20
-135.8166883341014
 30
0.0
 10
67.84478215534783
 20
-135.8166883341014
 30
0.0
 10
67.84478215534783
 20
-135.6533908081005
 30
0.0
 10
67.84478215534783
 20
-135.6430555216448
 30
0.0
 10
67.84237058850816
 20
-135.5879339938808
 30
0.0
 10
67.84237058850816
 20
-135.5879339938808
 30
0.0
 10
68.06664630459792
 20
-135.6134277004716
 30
0.0
 10
68.06664630459792
 20
-135.6134277004716
 30
0.0
 10
68.07112492872875
 20
-135.6134277004716
 30
0.0
 10
68.09214001118877
 20
-135.6154947577628
 30
0.0
 10
68.09214001118877
 20
-135.6323757256405
 30
0.0
 10
68.09214001118877
 20
-135.6471896362271
 30
0.0
 10
68.08146021518449
 20
-135.6558023749402
 30
0.0
 10
68.0538994513025
 20
-135.6706162855268
 30
0.0
 10
68.04769827942906
 20
-135.7360730997465
 30
0.0
 10
68.0456312221379
 20
-135.7574326917551
 30
0.0
 10
68.0456312221379
 20
-135.8166883341014
 30
0.0
 10
68.0456312221379
 20
-135.8166883341014
 30
0.0
 10
68.1407158575308
 20
-135.8166883341014
 30
0.0
 10
68.1407158575308
 20
-135.8166883341014
 30
0.0
 10
68.22339814917679
 20
-135.8166883341014
 30
0.0
 10
68.39668645208486
 20
-135.8122097099706
 30
0.0
 10
68.52174341819943
 20
-135.8035969712574
 30
0.0
 10
68.52174341819943
 20
-135.8035969712574
 30
0.0
 10
68.52174341819943
 20
-135.9834309555875
 30
0.0
 10
68.52174341819943
 20
-135.9834309555875
 30
0.0
 10
68.49211559702628
 20
-135.9813638982963
 30
0.0
 10
68.37360431233368
 20
-135.977229783714
 30
0.0
 10
68.33329669515626
 20
-135.9751627264229
 30
0.0
 10
68.31848278456968
 20
-136.0261501396046
 30
0.0
 10
68.28472084881425
 20
-136.1381157428752
 30
0.0
 10
68.21891952504596
 20
-136.2776421100278
 30
0.0
 10
68.26129419951454
 20
-136.2776421100278
 30
0.0
 10
68.53862438607715
 20
-136.2586940848589
 30
0.0
 10
68.5999470857146
 20
-136.2562825180193
 30
0.0
 10
68.5999470857146
 20
-136.2562825180193
 30
0.0
 10
68.5999470857146
 20
-136.4405951264801
 30
0.0
 10
68.5999470857146
 20
-136.4405951264801
 30
0.0
 10
68.57031926454145
 20
-136.4405951264801
 30
0.0
 10
68.55343829666373
 20
-136.4361165023493
 30
0.0
 10
68.39048528021141
 20
-136.4361165023493
 30
0.0
  0
SPLINE
  5
57
330
52
100
AcDbEntity
  8
_U+30EC_U+30A4_U+30E4_U+30FC 1
370
     0
100
AcDbSpline
210
0.0
220
0.0
230
1.0
 70
    11
 71
     3
 72
    20
 73
    16
 74
     0
 42
0.0000000001
 43
0.0000000001
 12
1.0
 22
0.0
 32
0.0
 13
1.0
 23
0.0
 33
0.0
 40
0.0
 40
0.0
 40
0.0
 40
0.0
 40
1.0
 40
1.0
 40
1.0
 40
2.0
 40
2.0
 40
2.0
 40
3.0
 40
3.0
 40
3.0
 40
4.0
 40
4.0
 40
4.0
 40
5.0
 40
5.0
 40
5.0
 40
5.0
 10
67.76209986370183
 20
-135.9710286118406
 30
0.0
 10
67.76209986370183
 20
-135.9710286118406
 30
0.0
 10
67.73040498523754
 20
-135.9710286118406
 30
0.0
 10
67.73040498523754
 20
-135.9710286118406
 30
0.0
 10
67.77691377428842
 20
-136.0702473618158
 30
0.0
 10
67.80860865275271
 20
-136.1508625961706
 30
0.0
 10
67.84237058850816
 20
-136.2776421100278
 30
0.0
 10
67.84237058850816
 20
-136.2776421100278
 30
0.0
 10
68.0497653367202
 20
-136.2776421100278
 30
0.0
 10
68.0497653367202
 20
-136.2776421100278
 30
0.0
 10
68.08146021518449
 20
-136.1846245319261
 30
0.0
 10
68.1048868644842
 20
-136.0998751829889
 30
0.0
 10
68.12796900423537
 20
-135.9710286118406
 30
0.0
 10
68.12796900423537
 20
-135.9710286118406
 30
0.0
 10
67.76209986370183
 20
-135.9710286118406
 30
0.0
 10
67.76209986370183
 20
-135.9710286118406
 30
0.0
  0
SPLINE
  5
58
330
52
100
AcDbEntity
  8
_U+30EC_U+30A4_U+30E4_U+30FC 1
370
     0
100
AcDbSpline
210
0.0
220
0.0
230
1.0
 70
    11
 71
     3
 72
    17
 73
    13
 74
     0
 42
0.0000000001
 43
0.0000000001
 12
1.0
 22
0.0
 32
0.0
 13
1.0
 23
0.0
 33
0.0
 40
0.0
 40
0.0
 40
0.0
 40
0.0
 40
1.0
 40
1.0
 40
1.0
 40
2.0
 40
2.0
 40
2.0
 40
3.0
 40
3.0
 40
3.0
 40
4.0
 40
4.0
 40
4.0
 40
4.0
 10
67.82548962063044
 20
-136.8212781776002
 30
0.0
 10
67.80860865275271
 20
-136.8509059987734
 30
0.0
 10
67.75796574911953
 20
-136.9439235768751
 30
0.0
 10
67.74728595311527
 20
-136.9632161115925
 30
0.0
 10
67.93779973344958
 20
-137.0224717539388
 30
0.0
 10
67.9588148159096
 20
-137.0286729258123
 30
0.0
 10
68.03081731155133
 20
-137.0562336896943
 30
0.0
 10
68.08593883931532
 20
-136.969417283466
 30
0.0
 10
68.1090209790665
 20
-136.8953477305331
 30
0.0
 10
68.12383488965307
 20
-136.8212781776002
 30
0.0
 10
68.12383488965307
 20
-136.8212781776002
 30
0.0
 10
67.82548962063044
 20
-136.8212781776002
 30
0.0
 10
67.82548962063044
 20
-136.8212781776002
 30
0.0
  0
HATCH
  5
59
330
52
100
AcDbEntity
  8
_U+30EC_U+30A4_U+30E4_U+30FC 1
 62
   179
420
  2234388
100
AcDbHatch
 10
0.0
 20
0.0
 30
0.0
210
0.0
220
0.0
230
1.0
  2
SOLID
 70
     1
 71
     0
 91
        3
 92
        1
 93
        1
 72
     4
 94
        3
 73
     0
 74
     1
 95
      242
 96
      238
 40
0.0
 40
0.0
 40
0.0
 40
0.0
 40
1.0
 40
1.0
 40
1.0
 40
2.0
 40
2.0
 40
2.0
 40
3.0
 40
3.0
 40
3.0
 40
4.0
 40
4.0
 40
4.0
 40
5.0
 40
5.0
 40
5.0
 40
6.0
 40
6.0
 40
6.0
 40
7.0
 40
7.0
 40
7.0
 40
8.0
 40
8.0
 40
8.0
 40
9.0
 40
9.0
 40
9.0
 40
10.0
 40
10.0
 40
10.0
 40
11.0
 40
11.0
 40
11.0
 40
12.0
 40
12.0
 40
12.0
 40
13.0
 40
13.0
 40
13.0
 40
14.0
 40
14.0
 40
14.0
 40
15.0
 40
15.0
 40
15.0
 40
16.0
 40
16.0
 40
16.0
 40
17.0
 40
17.0
 40
17.0
 40
18.0
 40
18.0
 40
18.0
 40
19.0
 40
19.0
 40
19.0
 40
20.0
 40
20.0
 40
20.0
 40
21.0
 40
21.0
 40
21.0
 40
22.0
 40
22.0
 40
22.0
 40
23.0
 40
23.0
 40
23.0
 40
24.0
 40
24.0
 40
24.0
 40
25.0
 40
25.0
 40
25.0
 40
26.0
 40
26.0
 40
26.0
 40
27.0
 40
27.0
 40
27.0
 40
28.0
 40
28.0
 40
28.0
 40
29.0
 40
29.0
 40
29.0
 40
30.0
 40
30.0
 40
30.0
 40
31.0
 40
31.0
 40
31.0
 40
32.0
 40
32.0
 40
32.0
 40
33.0
 40
33.0
 40
33.0
 40
34.0
 40
34.0
 40
34.0
 40
35.0
 40
35.0
 40
35.0
 40
36.0
 40
36.0
 40
36.0
 40
37.0
 40
37.0
 40
37.0
 40
38.0
 40
38.0
 40
38.0
 40
39.0
 40
39.0
 40
39.0
 40
40.0
 40
40.0
 40
40.0
 40
41.0
 40
41.0
 40
41.0
 40
42.0
 40
42.0
 40
42.0
 40
43.0
 40
43.0
 40
43.0
 40
44.0
 40
44.0
 40
44.0
 40
45.0
 40
45.0
 40
45.0
 40
46.0
 40
46.0
 40
46.0
 40
47.0
 40
47.0
 40
47.0
 40
48.0
 40
48.0
 40
48.0
 40
49.0
 40
49.0
 40
49.0
 40
50.0
 40
50.0
 40
50.0
 40
51.0
 40
51.0
 40
51.0
 40
52.0
 40
52.0
 40
52.0
 40
53.0
 40
53.0
 40
53.0
 40
54.0
 40
54.0
 40
54.0
 40
55.0
 40
55.0
 40
55.0
 40
56.0
 40
56.0
 40
56.0
 40
57.0
 40
57.0
 40
57.0
 40
58.0
 40
58.0
 40
58.0
 40
59.0
 40
59.0
 40
59.0
 40
60.0
 40
60.0
 40
60.0
 40
61.0
 40
61.0
 40
61.0
 40
62.0
 40
62.0
 40
62.0
 40
63.0
 40
63.0
 40
63.0
 40
64.0
 40
64.0
 40
64.0
 40
65.0
 40
65.0
 40
65.0
 40
66.0
 40
66.0
 40
66.0
 40
67.0
 40
67.0
 40
67.0
 40
68.0
 40
68.0
 40
68.0
 40
69.0
 40
69.0
 40
69.0
 40
70.0
 40
70.0
 40
70.0
 40
71.0
 40
71.0
 40
71.0
 40
72.0
 40
72.0
 40
72.0
 40
73.0
 40
73.0
 40
73.0
 40
74.0
 40
74.0
 40
74.0
 40
75.0
 40
75.0
 40
75.0
 40
76.0
 40
76.0
 40
76.0
 40
77.0
 40
77.0
 40
77.0
 40
78.0
 40
78.0
 40
78.0
 40
79.0
 40
79.0
 40
79.0
 40
79.0
 10
68.39048528021141
 20
-136.4361165023493
 10
68.39048528021141
 20
-136.4361165023493
 10
68.1365817429485
 20
-136.4361165023493
 10
68.1365817429485
 20
-136.4361165023493
 10
68.1365817429485
 20
-136.4361165023493
 10
67.85959606593441
 20
-136.4361165023493
 10
67.85959606593441
 20
-136.4361165023493
 10
67.85959606593441
 20
-136.4361165023493
 10
67.9863755797916
 20
-136.4788356863664
 10
67.9863755797916
 20
-136.4788356863664
 10
67.99705537579588
 20
-136.4829698009487
 10
68.0098022290913
 20
-136.4891709728222
 10
68.0098022290913
 20
-136.5019178261176
 10
68.0098022290913
 20
-136.5229329085776
 10
67.97776284107847
 20
-136.5294785899996
 10
67.95674775861845
 20
-136.5336127045819
 10
67.94606796261418
 20
-136.5566948443331
 10
67.91644014144103
 20
-136.6224961681013
 10
67.89749211627216
 20
-136.666937899861
 10
67.89749211627216
 20
-136.666937899861
 10
68.1682766214128
 20
-136.666937899861
 10
68.1682766214128
 20
-136.666937899861
 10
68.2592271422234
 20
-136.666937899861
 10
68.45594209443115
 20
-136.6628037852788
 10
68.59788002842345
 20
-136.6541910465656
 10
68.59788002842345
 20
-136.6541910465656
 10
68.59788002842345
 20
-136.8319579736045
 10
68.59788002842345
 20
-136.8319579736045
 10
68.51519773677745
 20
-136.8274793494737
 10
68.49418265431743
 20
-136.8274793494737
 10
68.31434866998738
 20
-136.8233452348914
 10
68.28265379152309
 20
-136.9776855126306
 10
68.23821205976337
 20
-137.0583007469854
 10
68.19377032800364
 20
-137.1278916757875
 10
68.31434866998738
 20
-137.1871473181338
 10
68.42011310138456
 20
-137.2550156991932
 10
68.52381047549058
 20
-137.3373534812907
 10
68.52381047549058
 20
-137.3373534812907
 10
68.40529919079799
 20
-137.5047851218738
 10
68.40529919079799
 20
-137.5047851218738
 10
68.38187254149828
 20
-137.4854925871564
 10
68.36912568820286
 20
-137.4772243579918
 10
68.25716008493224
 20
-137.3924750090547
 10
68.20858423859022
 20
-137.3545789587169
 10
68.14932859624392
 20
-137.3187499656703
 10
68.06871336188908
 20
-137.2739637243621
 10
67.85718449909473
 20
-137.4603433901141
 10
67.65220131772237
 20
-137.4834255298653
 10
67.36212427786434
 20
-137.5130533510384
 10
67.36212427786434
 20
-137.5130533510384
 10
67.25877141330683
 20
-137.3332193667084
 10
67.25877141330683
 20
-137.3332193667084
 10
67.57606470749835
 20
-137.3290852521261
 10
67.75142006769757
 20
-137.3035915455352
 10
67.9036932881456
 20
-137.1936929995557
 10
67.78552651300154
 20
-137.1430500959226
 10
67.69664304948209
 20
-137.1154893320406
 10
67.66046954688697
 20
-137.1027424787451
 10
67.64152152171809
 20
-137.1303032426271
 10
67.62670761113152
 20
-137.149251267796
 10
67.59914684724953
 20
-137.1830132035515
 10
67.59914684724953
 20
-137.1830132035515
 10
67.40243189504176
 20
-137.100675421454
 10
67.40243189504176
 20
-137.100675421454
 10
67.48511418668775
 20
-137.0204046966477
 10
67.5464368863252
 20
-136.9249755517063
 10
67.60328096183183
 20
-136.8233452348914
 10
67.41311169104603
 20
-136.8274793494737
 10
67.39175209903748
 20
-136.8274793494737
 10
67.30941431694
 20
-136.8319579736045
 10
67.30941431694
 20
-136.8319579736045
 10
67.30941431694
 20
-136.6541910465656
 10
67.30941431694
 20
-136.6541910465656
 10
67.44894068409263
 20
-136.6607367279876
 10
67.65840248959582
 20
-136.6648708425699
 10
67.68389619618667
 20
-136.6648708425699
 10
67.70077716406439
 20
-136.6311089068145
 10
67.75589869182839
 20
-136.5105305648307
 10
67.77484671699726
 20
-136.4361165023493
 10
67.75589869182839
 20
-136.4361165023493
 10
67.5781317647895
 20
-136.4426621837713
 10
67.38348386987288
 20
-136.4554090370667
 10
67.38348386987288
 20
-136.4554090370667
 10
67.38348386987288
 20
-136.5887342323459
 10
67.38348386987288
 20
-136.5887342323459
 10
67.33490802353086
 20
-136.6138834293882
 10
67.27565238118456
 20
-136.6455783078525
 10
67.14232718590539
 20
-136.7113796316208
 10
67.14232718590539
 20
-136.7113796316208
 10
67.14232718590539
 20
-136.8571071706468
 10
67.14232718590539
 20
-136.8571071706468
 10
67.14232718590539
 20
-136.8571071706468
 10
67.14232718590539
 20
-137.3249511375438
 10
67.14232718590539
 20
-137.3249511375438
 10
67.14232718590539
 20
-137.451730651401
 10
67.10615368331027
 20
-137.5109862937473
 10
66.82296683442273
 20
-137.5027180645827
 10
66.82296683442273
 20
-137.5027180645827
 10
66.71926946031671
 20
-137.2953233163706
 10
66.71926946031671
 20
-137.2953233163706
 10
66.78265921724531
 20
-137.3077256601175
 10
66.83123506358733
 20
-137.3122042842483
 10
66.87154268076476
 20
-137.3122042842483
 10
66.94767929098877
 20
-137.3122042842483
 10
66.95835908699306
 20
-137.2891221444972
 10
66.95835908699306
 20
-137.2233208207289
 10
66.95835908699306
 20
-137.2233208207289
 10
66.95835908699306
 20
-136.7937174137182
 10
66.95835908699306
 20
-136.7937174137182
 10
66.86086288476048
 20
-136.8340250308957
 10
66.84398191688275
 20
-136.8405707123176
 10
66.79747312783188
 20
-136.8595187374865
 10
66.79333901324958
 20
-136.8805338199465
 10
66.78886038911877
 20
-136.9101616411197
 10
66.76991236394989
 20
-136.9101616411197
 10
66.76164413478529
 20
-136.9101616411197
 10
66.75096433878102
 20
-136.9060275265374
 10
66.74441865735903
 20
-136.8826008772377
 10
66.74441865735903
 20
-136.8826008772377
 10
66.69170869643472
 20
-136.6903645491608
 10
66.69170869643472
 20
-136.6903645491608
 10
66.83778074500931
 20
-136.6435112505613
 10
66.90323755922905
 20
-136.6204291108102
 10
66.95835908699306
 20
-136.5994140283501
 10
66.95835908699306
 20
-136.5994140283501
 10
66.95835908699306
 20
-136.1866915892172
 10
66.95835908699306
 20
-136.1866915892172
 10
66.95835908699306
 20
-136.1866915892172
 10
66.9053046165202
 20
-136.1866915892172
 10
66.9053046165202
 20
-136.1866915892172
 10
66.9053046165202
 20
-136.1866915892172
 10
66.82710094900503
 20
-136.1866915892172
 10
66.82710094900503
 20
-136.1866915892172
 10
66.75923256794562
 20
-136.1866915892172
 10
66.75096433878102
 20
-136.1866915892172
 10
66.71479083618588
 20
-136.1928927610907
 10
66.71479083618588
 20
-136.1928927610907
 10
66.71479083618588
 20
-135.9985893757226
 10
66.71479083618588
 20
-135.9985893757226
 10
66.74235160006789
 20
-136.004790547596
 10
66.75096433878102
 20
-136.004790547596
 10
66.82055526758306
 20
-136.004790547596
 10
66.82055526758306
 20
-136.004790547596
 10
66.95388046286223
 20
-136.004790547596
 10
66.95388046286223
 20
-136.004790547596
 10
66.95388046286223
 20
-135.935199618794
 10
66.95388046286223
 20
-135.852517327148
 10
66.95181340557107
 20
-135.8483832125657
 10
66.94354517640647
 20
-135.6685492282356
 10
66.94354517640647
 20
-135.6492566935183
 10
66.9411336095668
 20
-135.6030924140159
 10
66.9411336095668
 20
-135.6030924140159
 10
67.15714109649197
 20
-135.6113606431805
 10
67.15714109649197
 20
-135.6113606431805
 10
67.16782089249624
 20
-135.6113606431805
 10
67.18883597495626
 20
-135.6134277004716
 10
67.18883597495626
 20
-135.6303086683494
 10
67.18883597495626
 20
-135.6492566935183
 10
67.1740220643697
 20
-135.6599364895225
 10
67.14852835777884
 20
-135.6788845146914
 10
67.14852835777884
 20
-135.7298719278731
 10
67.14232718590539
 20
-135.9582817585452
 10
67.14439424319654
 20
-136.004790547596
 10
67.27358532389341
 20
-136.004790547596
 10
67.28598766764031
 20
-136.004790547596
 10
67.38348386987288
 20
-135.9965223184314
 10
67.38348386987288
 20
-135.9965223184314
 10
67.38348386987288
 20
-136.1908257037995
 10
67.38348386987288
 20
-136.1908257037995
 10
67.34524330998661
 20
-136.1887586465084
 10
67.27771943847571
 20
-136.1846245319261
 10
67.14232718590539
 20
-136.1866915892172
 10
67.14232718590539
 20
-136.1866915892172
 10
67.14232718590539
 20
-136.5249999658687
 10
67.14232718590539
 20
-136.5249999658687
 10
67.19744871366939
 20
-136.5019178261176
 10
67.26290552788913
 20
-136.4743570622356
 10
67.31148137423116
 20
-136.4512749224844
 10
67.31148137423116
 20
-136.4512749224844
 10
67.31148137423116
 20
-136.2735079954455
 10
67.31148137423116
 20
-136.2735079954455
 10
67.42585854434145
 20
-136.2859103391924
 10
67.54436982903405
 20
-136.2859103391924
 10
67.66046954688697
 20
-136.2859103391924
 10
67.63738740713579
 20
-136.1908257037995
 10
67.6098266432538
 20
-136.1084879217021
 10
67.5464368863252
 20
-135.9751627264229
 10
67.50199515456548
 20
-135.977229783714
 10
67.41931286291948
 20
-135.9813638982963
 10
67.38141681258173
 20
-135.9834309555875
 10
67.38141681258173
 20
-135.9834309555875
 10
67.38141681258173
 20
-135.8035969712574
 10
67.38141681258173
 20
-135.8035969712574
 10
67.50612926914778
 20
-135.8122097099706
 10
67.67976208160437
 20
-135.8166883341014
 10
67.76209986370183
 20
-135.8166883341014
 10
67.76209986370183
 20
-135.8166883341014
 10
67.84478215534783
 20
-135.8166883341014
 10
67.84478215534783
 20
-135.8166883341014
 10
67.84478215534783
 20
-135.6533908081005
 10
67.84478215534783
 20
-135.6430555216448
 10
67.84237058850816
 20
-135.5879339938808
 10
67.84237058850816
 20
-135.5879339938808
 10
68.06664630459792
 20
-135.6134277004716
 10
68.06664630459792
 20
-135.6134277004716
 10
68.07112492872875
 20
-135.6134277004716
 10
68.09214001118877
 20
-135.6154947577628
 10
68.09214001118877
 20
-135.6323757256405
 10
68.09214001118877
 20
-135.6471896362271
 10
68.08146021518449
 20
-135.6558023749402
 10
68.0538994513025
 20
-135.6706162855268
 10
68.04769827942906
 20
-135.7360730997465
 10
68.0456312221379
 20
-135.7574326917551
 10
68.0456312221379
 20
-135.8166883341014
 10
68.0456312221379
 20
-135.8166883341014
 10
68.1407158575308
 20
-135.8166883341014
 10
68.1407158575308
 20
-135.8166883341014
 10
68.22339814917679
 20
-135.8166883341014
 10
68.39668645208486
 20
-135.8122097099706
 10
68.52174341819943
 20
-135.8035969712574
 10
68.52174341819943
 20
-135.8035969712574
 10
68.52174341819943
 20
-135.9834309555875
 10
68.52174341819943
 20
-135.9834309555875
 10
68.49211559702628
 20
-135.9813638982963
 10
68.37360431233368
 20
-135.977229783714
 10
68.33329669515626
 20
-135.9751627264229
 10
68.31848278456968
 20
-136.0261501396046
 10
68.28472084881425
 20
-136.1381157428752
 10
68.21891952504596
 20
-136.2776421100278
 10
68.26129419951454
 20
-136.2776421100278
 10
68.53862438607715
 20
-136.2586940848589
 10
68.5999470857146
 20
-136.2562825180193
 10
68.5999470857146
 20
-136.2562825180193
 10
68.5999470857146
 20
-136.4405951264801
 10
68.5999470857146
 20
-136.4405951264801
 10
68.57031926454145
 20
-136.4405951264801
 10
68.55343829666373
 20
-136.4361165023493
 10
68.39048528021141
 20
-136.4361165023493
 97
        0
 97
        0
 92
        1
 93
        1
 72
     4
 94
        3
 73
     0
 74
     1
 95
       20
 96
       16
 40
0.0
 40
0.0
 40
0.0
 40
0.0
 40
1.0
 40
1.0
 40
1.0
 40
2.0
 40
2.0
 40
2.0
 40
3.0
 40
3.0
 40
3.0
 40
4.0
 40
4.0
 40
4.0
 40
5.0
 40
5.0
 40
5.0
 40
5.0
 10
67.76209986370183
 20
-135.9710286118406
 10
67.76209986370183
 20
-135.9710286118406
 10
67.73040498523754
 20
-135.9710286118406
 10
67.73040498523754
 20
-135.9710286118406
 10
67.77691377428842
 20
-136.0702473618158
 10
67.80860865275271
 20
-136.1508625961706
 10
67.84237058850816
 20
-136.2776421100278
 10
67.84237058850816
 20
-136.2776421100278
 10
68.0497653367202
 20
-136.2776421100278
 10
68.0497653367202
 20
-136.2776421100278
 10
68.08146021518449
 20
-136.1846245319261
 10
68.1048868644842
 20
-136.0998751829889
 10
68.12796900423537
 20
-135.9710286118406
 10
68.12796900423537
 20
-135.9710286118406
 10
67.76209986370183
 20
-135.9710286118406
 10
67.76209986370183
 20
-135.9710286118406
 97
        0
 97
        0
 92
        1
 93
        1
 72
     4
 94
        3
 73
     0
 74
     1
 95
       17
 96
       13
 40
0.0
 40
0.0
 40
0.0
 40
0.0
 40
1.0
 40
1.0
 40
1.0
 40
2.0
 40
2.0
 40
2.0
 40
3.0
 40
3.0
 40
3.0
 40
4.0
 40
4.0
 40
4.0
 40
4.0
 10
67.82548962063044
 20
-136.8212781776002
 10
67.80860865275271
 20
-136.8509059987734
 10
67.75796574911953
 20
-136.9439235768751
 10
67.74728595311527
 20
-136.9632161115925
 10
67.93779973344958
 20
-137.0224717539388
 10
67.9588148159096
 20
-137.0286729258123
 10
68.03081731155133
 20
-137.0562336896943
 10
68.08593883931532
 20
-136.969417283466
 10
68.1090209790665
 20
-136.8953477305331
 10
68.12383488965307
 20
-136.8212781776002
 10
68.12383488965307
 20
-136.8212781776002
 10
67.82548962063044
 20
-136.8212781776002
 10
67.82548962063044
 20
-136.8212781776002
 97
        0
 97
        0
 75
     2
 76
     1
 98
        0
  0
SPLINE
  5
5A
330
52
100
AcDbEntity
  8
_U+30EC_U+30A4_U+30E4_U+30FC 1
370
     0
100
AcDbSpline
210
0.0
220
0.0
230
1.0
 70
    11
 71
     3
 72
   203
 73
   199
 74
     0
 42
0.0000000001
 43
0.0000000001
 12
1.0
 22
0.0
 32
0.0
 13
1.0
 23
0.0
 33
0.0
 40
0.0
 40
0.0
 40
0.0
 40
0.0
 40
1.0
 40
1.0
 40
1.0
 40
2.0
 40
2.0
 40
2.0
 40
3.0
 40
3.0
 40
3.0
 40
4.0
 40
4.0
 40
4.0
 40
5.0
 40
5.0
 40
5.0
 40
6.0
 40
6.0
 40
6.0
 40
7.0
 40
7.0
 40
7.0
 40
8.0
 40
8.0
 40
8.0
 40
9.0
 40
9.0
 40
9.0
 40
10.0
 40
10.0
 40
10.0
 40
11.0
 40
11.0
 40
11.0
 40
12.0
 40
12.0
 40
12.0
 40
13.0
 40
13.0
 40
13.0
 40
14.0
 40
14.0
 40
14.0
 40
15.0
 40
15.0
 40
15.0
 40
16.0
 40
16.0
 40
16.0
 40
17.0
 40
17.0
 40
17.0
 40
18.0
 40
18.0
 40
18.0
 40
19.0
 40
19.0
 40
19.0
 40
20.0
 40
20.0
 40
20.0
 40
21.0
 40
21.0
 40
21.0
 40
22.0
 40
22.0
 40
22.0
 40
23.0
 40
23.0
 40
23.0
 40
24.0
 40
24.0
 40
24.0
 40
25.0
 40
25.0
 40
25.0
 40
26.0
 40
26.0
 40
26.0
 40
27.0
 40
27.0
 40
27.0
 40
28.0
 40
28.0
 40
28.0
 40
29.0
 40
29.0
 40
29.0
 40
30.0
 40
30.0
 40
30.0
 40
31.0
 40
31.0
 40
31.0
 40
32.0
 40
32.0
 40
32.0
 40
33.0
 40
33.0
 40
33.0
 40
34.0
 40
34.0
 40
34.0
 40
35.0
 40
35.0
 40
35.0
 40
36.0
 40
36.0
 40
36.0
 40
37.0
 40
37.0
 40
37.0
 40
38.0
 40
38.0
 40
38.0
 40
39.0
 40
39.0
 40
39.0
 40
40.0
 40
40.0
 40
40.0
 40
41.0
 40
41.0
 40
41.0
 40
42.0
 40
42.0
 40
42.0
 40
43.0
 40
43.0
 40
43.0
 40
44.0
 40
44.0
 40
44.0
 40
45.0
 40
45.0
 40
45.0
 40
46.0
 40
46.0
 40
46.0
 40
47.0
 40
47.0
 40
47.0
 40
48.0
 40
48.0
 40
48.0
 40
49.0
 40
49.0
 40
49.0
 40
50.0
 40
50.0
 40
50.0
 40
51.0
 40
51.0
 40
51.0
 40
52.0
 40
52.0
 40
52.0
 40
53.0
 40
53.0
 40
53.0
 40
54.0
 40
54.0
 40
54.0
 40
55.0
 40
55.0
 40
55.0
 40
56.0
 40
56.0
 40
56.0
 40
57.0
 40
57.0
 40
57.0
 40
58.0
 40
58.0
 40
58.0
 40
59.0
 40
59.0
 40
59.0
 40
60.0
 40
60.0
 40
60.0
 40
61.0
 40
61.0
 40
61.0
 40
62.0
 40
62.0
 40
62.0
 40
63.0
 40
63.0
 40
63.0
 40
64.0
 40
64.0
 40
64.0
 40
65.0
 40
65.0
 40
65.0
 40
66.0
 40
66.0
 40
66.0
 40
66.0
 10
70.08202716346908
 20
-136.5039848834087
 30
0.0
 10
70.08202716346908
 20
-136.5039848834087
 30
0.0
 10
69.52323267576156
 20
-136.5039848834087
 30
0.0
 10
69.52323267576156
 20
-136.5039848834087
 30
0.0
 10
69.5128973893058
 20
-136.5484266151685
 30
0.0
 10
69.50428465059268
 20
-136.5801214936328
 30
0.0
 10
69.49153779729725
 20
-136.618362053519
 30
0.0
 10
69.5170315038881
 20
-136.618362053519
 30
0.0
 10
69.53184541447467
 20
-136.6204291108102
 30
0.0
 10
69.53804658634813
 20
-136.6204291108102
 30
0.0
 10
69.53804658634813
 20
-136.6204291108102
 30
0.0
 10
69.7264933093913
 20
-136.6204291108102
 30
0.0
 10
69.7264933093913
 20
-136.6204291108102
 30
0.0
 10
69.7264933093913
 20
-136.6204291108102
 30
0.0
 10
70.10097518863796
 20
-136.6204291108102
 30
0.0
 10
70.10097518863796
 20
-136.6204291108102
 30
0.0
 10
70.15161809227112
 20
-136.6204291108102
 30
0.0
 10
70.43514945070719
 20
-136.6076822575147
 30
0.0
 10
70.4668443291715
 20
-136.6076822575147
 30
0.0
 10
70.46477727188034
 20
-136.6352430213967
 30
0.0
 10
70.46271021458918
 20
-136.6541910465656
 30
0.0
 10
70.46271021458918
 20
-136.6838188677388
 30
0.0
 10
70.46064315729804
 20
-136.7155137462031
 30
0.0
 10
70.46064315729804
 20
-136.8509059987734
 30
0.0
 10
70.46064315729804
 20
-136.8784667626554
 30
0.0
 10
70.46064315729804
 20
-136.8784667626554
 30
0.0
 10
70.46064315729804
 20
-137.1237575612052
 30
0.0
 10
70.46064315729804
 20
-137.1237575612052
 30
0.0
 10
70.46064315729804
 20
-137.1685438025134
 30
0.0
 10
70.46477727188034
 20
-137.3649142451727
 30
0.0
 10
70.46891138646264
 20
-137.5171874656207
 30
0.0
 10
70.46891138646264
 20
-137.5171874656207
 30
0.0
 10
70.24256861308172
 20
-137.5171874656207
 30
0.0
 10
70.24256861308172
 20
-137.5171874656207
 30
0.0
 10
70.24256861308172
 20
-137.5171874656207
 30
0.0
 10
70.24463567037287
 20
-137.4834255298653
 30
0.0
 10
70.24463567037287
 20
-137.4834255298653
 30
0.0
 10
70.24463567037287
 20
-137.4834255298653
 30
0.0
 10
69.54252521047896
 20
-137.4834255298653
 30
0.0
 10
69.54252521047896
 20
-137.4834255298653
 30
0.0
 10
69.54252521047896
 20
-137.4834255298653
 30
0.0
 10
69.5445922677701
 20
-137.5171874656207
 30
0.0
 10
69.5445922677701
 20
-137.5171874656207
 30
0.0
 10
69.5445922677701
 20
-137.5171874656207
 30
0.0
 10
69.32651772355379
 20
-137.5171874656207
 30
0.0
 10
69.32651772355379
 20
-137.5171874656207
 30
0.0
 10
69.33099634768462
 20
-137.4624104474052
 30
0.0
 10
69.33099634768462
 20
-137.4496635941098
 30
0.0
 10
69.33719751955806
 20
-137.3352864239995
 30
0.0
 10
69.33926457684922
 20
-137.3077256601175
 30
0.0
 10
69.34133163414036
 20
-137.1747449743869
 30
0.0
 10
69.34133163414036
 20
-137.1554524396695
 30
0.0
 10
69.34133163414036
 20
-137.1554524396695
 30
0.0
 10
69.34133163414036
 20
-136.9525363155882
 30
0.0
 10
69.34133163414036
 20
-136.9525363155882
 30
0.0
 10
69.20180526698775
 20
-137.2023057382689
 30
0.0
 10
69.03265107866198
 20
-137.3332193667084
 30
0.0
 10
68.92688664726481
 20
-137.3986761809281
 30
0.0
 10
68.92688664726481
 20
-137.3986761809281
 30
0.0
 10
68.75325383480822
 20
-137.259494323324
 30
0.0
 10
68.75325383480822
 20
-137.259494323324
 30
0.0
 10
68.84213729832766
 20
-137.2085069101423
 30
0.0
 10
68.98614228961111
 20
-137.121690503914
 30
0.0
 10
69.12360159947258
 20
-136.9273871185459
 30
0.0
 10
69.21455212028317
 20
-136.8002630951402
 30
0.0
 10
69.28000893450292
 20
-136.6566026134053
 30
0.0
 10
69.31411537980689
 20
-136.5039848834087
 30
0.0
 10
69.0853610395863
 20
-136.5063964502484
 30
0.0
 10
68.90552705525626
 20
-136.5125976221219
 30
0.0
 10
68.81044241986336
 20
-136.514664679413
 30
0.0
 10
68.81044241986336
 20
-136.514664679413
 30
0.0
 10
68.81044241986336
 20
-136.3368977523741
 30
0.0
 10
68.81044241986336
 20
-136.3368977523741
 30
0.0
 10
69.00715737207113
 20
-136.3430989242476
 30
0.0
 10
69.2906887305072
 20
-136.3475775483784
 30
0.0
 10
69.44089489366408
 20
-136.3475775483784
 30
0.0
 10
69.44089489366408
 20
-136.3475775483784
 30
0.0
 10
69.65449081374958
 20
-136.3475775483784
 30
0.0
 10
69.65449081374958
 20
-136.3475775483784
 30
0.0
 10
69.65449081374958
 20
-136.3475775483784
 30
0.0
 10
69.65449081374958
 20
-136.2397460596901
 30
0.0
 10
69.65449081374958
 20
-136.2397460596901
 30
0.0
 10
69.65449081374958
 20
-136.2397460596901
 30
0.0
 10
69.50841876517498
 20
-136.2397460596901
 30
0.0
 10
69.50841876517498
 20
-136.2397460596901
 30
0.0
 10
69.33926457684922
 20
-136.2397460596901
 30
0.0
 10
69.17011038852345
 20
-136.2438801742724
 30
0.0
 10
69.00302325748883
 20
-136.2500813461458
 30
0.0
 10
69.00302325748883
 20
-136.2500813461458
 30
0.0
 10
69.00302325748883
 20
-136.0788601005289
 30
0.0
 10
69.00302325748883
 20
-136.0788601005289
 30
0.0
 10
69.15736353522803
 20
-136.0895398965332
 30
0.0
 10
69.34339869143152
 20
-136.0895398965332
 30
0.0
 10
69.50841876517498
 20
-136.0895398965332
 30
0.0
 10
69.50841876517498
 20
-136.0895398965332
 30
0.0
 10
69.65449081374958
 20
-136.0895398965332
 30
0.0
 10
69.65449081374958
 20
-136.0895398965332
 30
0.0
 10
69.65449081374958
 20
-136.0895398965332
 30
0.0
 10
69.65449081374958
 20
-135.9710286118406
 30
0.0
 10
69.65449081374958
 20
-135.9710286118406
 30
0.0
 10
69.65449081374958
 20
-135.9710286118406
 30
0.0
 10
69.52323267576156
 20
-135.9710286118406
 30
0.0
 10
69.52323267576156
 20
-135.9710286118406
 30
0.0
 10
69.47672388671069
 20
-135.9710286118406
 30
0.0
 10
69.27380776262947
 20
-135.9792968410052
 30
0.0
 10
69.2314330881609
 20
-135.9792968410052
 30
0.0
 10
69.02851696407969
 20
-135.9834309555875
 30
0.0
 10
68.95203584430713
 20
-135.9854980128786
 30
0.0
 10
68.87383217679196
 20
-135.9879095797183
 30
0.0
 10
68.87383217679196
 20
-135.9879095797183
 30
0.0
 10
68.87383217679196
 20
-135.8035969712574
 30
0.0
 10
68.87383217679196
 20
-135.8035969712574
 30
0.0
 10
68.98820934690225
 20
-135.8122097099706
 30
0.0
 10
69.03265107866198
 20
-135.8122097099706
 30
0.0
 10
69.41540118707324
 20
-135.8208224486837
 30
0.0
 10
69.35201143014464
 20
-135.7257378132908
 30
0.0
 10
69.32445066626263
 20
-135.6981770494088
 30
0.0
 10
69.28862167321604
 20
-135.6620035468137
 30
0.0
 10
69.28862167321604
 20
-135.6620035468137
 30
0.0
 10
69.46397703341526
 20
-135.5796657647162
 30
0.0
 10
69.46397703341526
 20
-135.5796657647162
 30
0.0
 10
69.50428465059268
 20
-135.6154947577628
 30
0.0
 10
69.5487263823524
 20
-135.6578694322314
 30
0.0
 10
69.62279593528528
 20
-135.7677679782109
 30
0.0
 10
69.62279593528528
 20
-135.7677679782109
 30
0.0
 10
69.50841876517498
 20
-135.8228895059748
 30
0.0
 10
69.50841876517498
 20
-135.8228895059748
 30
0.0
 10
69.50841876517498
 20
-135.8228895059748
 30
0.0
 10
69.51909856117926
 20
-135.8228895059748
 30
0.0
 10
69.51909856117926
 20
-135.8228895059748
 30
0.0
 10
69.51909856117926
 20
-135.8228895059748
 30
0.0
 10
70.04171954629166
 20
-135.8228895059748
 30
0.0
 10
70.04171954629166
 20
-135.8228895059748
 30
0.0
 10
70.04171954629166
 20
-135.8228895059748
 30
0.0
 10
69.94663491089877
 20
-135.7784477742151
 30
0.0
 10
69.94663491089877
 20
-135.7784477742151
 30
0.0
 10
69.97385116523223
 20
-135.7402072143288
 30
0.0
 10
70.03103975028738
 20
-135.6599364895225
 30
0.0
 10
70.04585366087396
 20
-135.5858669365896
 30
0.0
 10
70.04585366087396
 20
-135.5858669365896
 30
0.0
 10
70.25944958095944
 20
-135.6492566935183
 30
0.0
 10
70.25944958095944
 20
-135.6492566935183
 30
0.0
 10
70.26806231967257
 20
-135.6513237508094
 30
0.0
 10
70.28907740213259
 20
-135.6620035468137
 30
0.0
 10
70.28907740213259
 20
-135.6830186292737
 30
0.0
 10
70.28907740213259
 20
-135.72125918916
 30
0.0
 10
70.22362058791285
 20
-135.72125918916
 30
0.0
 10
70.20467256274398
 20
-135.72125918916
 30
0.0
 10
70.1939927667397
 20
-135.7402072143288
 30
0.0
 10
70.17056611744
 20
-135.7805148315063
 30
0.0
 10
70.14093829626685
 20
-135.8208224486837
 30
0.0
 10
70.54091388210436
 20
-135.8146212768102
 30
0.0
 10
70.57054170327751
 20
-135.8122097099706
 30
0.0
 10
70.64667831350152
 20
-135.8060085380971
 30
0.0
 10
70.64667831350152
 20
-135.8060085380971
 30
0.0
 10
70.64667831350152
 20
-135.9879095797183
 30
0.0
 10
70.64667831350152
 20
-135.9879095797183
 30
0.0
 10
70.62773028833266
 20
-135.9879095797183
 30
0.0
 10
70.6022365817418
 20
-135.9854980128786
 30
0.0
 10
70.38243948978287
 20
-135.977229783714
 30
0.0
 10
70.33145207660117
 20
-135.9751627264229
 30
0.0
 10
70.11165498464223
 20
-135.9710286118406
 30
0.0
 10
70.06721325288251
 20
-135.9710286118406
 30
0.0
 10
70.06721325288251
 20
-135.9710286118406
 30
0.0
 10
69.85120576595735
 20
-135.9710286118406
 30
0.0
 10
69.85120576595735
 20
-135.9710286118406
 30
0.0
 10
69.85120576595735
 20
-135.9710286118406
 30
0.0
 10
69.85120576595735
 20
-136.0895398965332
 30
0.0
 10
69.85120576595735
 20
-136.0895398965332
 30
0.0
 10
69.85120576595735
 20
-136.0895398965332
 30
0.0
 10
70.02483857841393
 20
-136.0895398965332
 30
0.0
 10
70.02483857841393
 20
-136.0895398965332
 30
0.0
 10
70.18779159486625
 20
-136.0895398965332
 30
0.0
 10
70.37796086565204
 20
-136.0895398965332
 30
0.0
 10
70.5347127102309
 20
-136.0788601005289
 30
0.0
 10
70.5347127102309
 20
-136.0788601005289
 30
0.0
 10
70.5347127102309
 20
-136.2500813461458
 30
0.0
 10
70.5347127102309
 20
-136.2500813461458
 30
0.0
 10
70.32525090472772
 20
-136.2418131169812
 30
0.0
 10
70.12853595251995
 20
-136.2397460596901
 30
0.0
 10
70.02483857841393
 20
-136.2397460596901
 30
0.0
 10
70.02483857841393
 20
-136.2397460596901
 30
0.0
 10
69.85120576595735
 20
-136.2397460596901
 30
0.0
 10
69.85120576595735
 20
-136.2397460596901
 30
0.0
 10
69.85120576595735
 20
-136.2397460596901
 30
0.0
 10
69.85120576595735
 20
-136.3475775483784
 30
0.0
 10
69.85120576595735
 20
-136.3475775483784
 30
0.0
 10
69.85120576595735
 20
-136.3475775483784
 30
0.0
 10
70.08202716346908
 20
-136.3475775483784
 30
0.0
 10
70.08202716346908
 20
-136.3475775483784
 30
0.0
 10
70.21500784919972
 20
-136.3475775483784
 30
0.0
 10
70.50301783176661
 20
-136.3430989242476
 30
0.0
 10
70.71213512772127
 20
-136.3368977523741
 30
0.0
 10
70.71213512772127
 20
-136.3368977523741
 30
0.0
 10
70.71213512772127
 20
-136.514664679413
 30
0.0
 10
70.71213512772127
 20
-136.514664679413
 30
0.0
 10
70.51989879964434
 20
-136.5084635075395
 30
0.0
 10
70.20673962003512
 20
-136.5039848834087
 30
0.0
 10
70.08202716346908
 20
-136.5039848834087
 30
0.0
  0
POLYLINE
  5
5B
330
52
100
AcDbEntity
  8
_U+30EC_U+30A4_U+30E4_U+30FC 1
370
     0
100
AcDb2dPolyline
 66
     1
 10
0.0
 20
0.0
 30
0.0
  0
VERTEX
  5
5C
330
5B
100
AcDbEntity
  8
_U+30EC_U+30A4_U+30E4_U+30FC 1
370
     0
100
AcDbVertex
100
AcDb2dVertex
 10
70.24704723721254
 20
-136.7599554779628
 30
0.0
  0
VERTEX
  5
5D
330
5B
100
AcDbEntity
  8
_U+30EC_U+30A4_U+30E4_U+30FC 1
370
     0
100
AcDbVertex
100
AcDb2dVertex
 10
69.5404581531878
 20
-136.7599554779628
 30
0.0
  0
VERTEX
  5
5E
330
5B
100
AcDbEntity
  8
_U+30EC_U+30A4_U+30E4_U+30FC 1
370
     0
100
AcDbVertex
100
AcDb2dVertex
 10
69.5404581531878
 20
-136.8681314761996
 30
0.0
  0
VERTEX
  5
5F
330
5B
100
AcDbEntity
  8
_U+30EC_U+30A4_U+30E4_U+30FC 1
370
     0
100
AcDbVertex
100
AcDb2dVertex
 10
70.24704723721254
 20
-136.8681314761996
 30
0.0
  0
VERTEX
  5
60
330
5B
100
AcDbEntity
  8
_U+30EC_U+30A4_U+30E4_U+30FC 1
370
     0
100
AcDbVertex
100
AcDb2dVertex
 10
70.24704723721254
 20
-136.7599554779628
 30
0.0
  0
SEQEND
  5
61
330
5B
100
AcDbEntity
  8
_U+30EC_U+30A4_U+30E4_U+30FC 1
370
     0
  0
POLYLINE
  5
62
330
52
100
AcDbEntity
  8
_U+30EC_U+30A4_U+30E4_U+30FC 1
370
     0
100
AcDb2dPolyline
 66
     1
 10
0.0
 20
0.0
 30
0.0
  0
VERTEX
  5
63
330
62
100
AcDbEntity
  8
_U+30EC_U+30A4_U+30E4_U+30FC 1
370
     0
100
AcDbVertex
100
AcDb2dVertex
 10
70.24704723721254
 20
-136.9928439327657
 30
0.0
  0
VERTEX
  5
64
330
62
100
AcDbEntity
  8
_U+30EC_U+30A4_U+30E4_U+30FC 1
370
     0
100
AcDbVertex
100
AcDb2dVertex
 10
69.5404581531878
 20
-136.9928439327657
 30
0.0
  0
VERTEX
  5
65
330
62
100
AcDbEntity
  8
_U+30EC_U+30A4_U+30E4_U+30FC 1
370
     0
100
AcDbVertex
100
AcDb2dVertex
 10
69.5404581531878
 20
-137.107221102876
 30
0.0
  0
VERTEX
  5
66
330
62
100
AcDbEntity
  8
_U+30EC_U+30A4_U+30E4_U+30FC 1
370
     0
100
AcDbVertex
100
AcDb2dVertex
 10
70.24704723721254
 20
-137.107221102876
 30
0.0
  0
VERTEX
  5
67
330
62
100
AcDbEntity
  8
_U+30EC_U+30A4_U+30E4_U+30FC 1
370
     0
100
AcDbVertex
100
AcDb2dVertex
 10
70.24704723721254
 20
-136.9928439327657
 30
0.0
  0
SEQEND
  5
68
330
62
100
AcDbEntity
  8
_U+30EC_U+30A4_U+30E4_U+30FC 1
370
     0
  0
POLYLINE
  5
69
330
52
100
AcDbEntity
  8
_U+30EC_U+30A4_U+30E4_U+30FC 1
370
     0
100
AcDb2dPolyline
 66
     1
 10
0.0
 20
0.0
 30
0.0
  0
VERTEX
  5
6A
330
69
100
AcDbEntity
  8
_U+30EC_U+30A4_U+30E4_U+30FC 1
370
     0
100
AcDbVertex
100
AcDb2dVertex
 10
70.24704723721254
 20
-137.2360676740243
 30
0.0
  0
VERTEX
  5
6B
330
69
100
AcDbEntity
  8
_U+30EC_U+30A4_U+30E4_U+30FC 1
370
     0
100
AcDbVertex
100
AcDb2dVertex
 10
69.5404581531878
 20
-137.2360676740243
 30
0.0
  0
VERTEX
  5
6C
330
69
100
AcDbEntity
  8
_U+30EC_U+30A4_U+30E4_U+30FC 1
370
     0
100
AcDbVertex
100
AcDb2dVertex
 10
69.5404581531878
 20
-137.3504448441346
 30
0.0
  0
VERTEX
  5
6D
330
69
100
AcDbEntity
  8
_U+30EC_U+30A4_U+30E4_U+30FC 1
370
     0
100
AcDbVertex
100
AcDb2dVertex
 10
70.24704723721254
 20
-137.3504448441346
 30
0.0
  0
VERTEX
  5
6E
330
69
100
AcDbEntity
  8
_U+30EC_U+30A4_U+30E4_U+30FC 1
370
     0
100
AcDbVertex
100
AcDb2dVertex
 10
70.24704723721254
 20
-137.2360676740243
 30
0.0
  0
SEQEND
  5
6F
330
69
100
AcDbEntity
  8
_U+30EC_U+30A4_U+30E4_U+30FC 1
370
     0
  0
HATCH
  5
70
330
52
100
AcDbEntity
  8
_U+30EC_U+30A4_U+30E4_U+30FC 1
 62
   179
420
  2234388
100
AcDbHatch
 10
0.0
 20
0.0
 30
0.0
210
0.0
220
0.0
230
1.0
  2
SOLID
 70
     1
 71
     0
 91
        4
 92
        1
 93
        1
 72
     4
 94
        3
 73
     0
 74
     1
 95
      203
 96
      199
 40
0.0
 40
0.0
 40
0.0
 40
0.0
 40
1.0
 40
1.0
 40
1.0
 40
2.0
 40
2.0
 40
2.0
 40
3.0
 40
3.0
 40
3.0
 40
4.0
 40
4.0
 40
4.0
 40
5.0
 40
5.0
 40
5.0
 40
6.0
 40
6.0
 40
6.0
 40
7.0
 40
7.0
 40
7.0
 40
8.0
 40
8.0
 40
8.0
 40
9.0
 40
9.0
 40
9.0
 40
10.0
 40
10.0
 40
10.0
 40
11.0
 40
11.0
 40
11.0
 40
12.0
 40
12.0
 40
12.0
 40
13.0
 40
13.0
 40
13.0
 40
14.0
 40
14.0
 40
14.0
 40
15.0
 40
15.0
 40
15.0
 40
16.0
 40
16.0
 40
16.0
 40
17.0
 40
17.0
 40
17.0
 40
18.0
 40
18.0
 40
18.0
 40
19.0
 40
19.0
 40
19.0
 40
20.0
 40
20.0
 40
20.0
 40
21.0
 40
21.0
 40
21.0
 40
22.0
 40
22.0
 40
22.0
 40
23.0
 40
23.0
 40
23.0
 40
24.0
 40
24.0
 40
24.0
 40
25.0
 40
25.0
 40
25.0
 40
26.0
 40
26.0
 40
26.0
 40
27.0
 40
27.0
 40
27.0
 40
28.0
 40
28.0
 40
28.0
 40
29.0
 40
29.0
 40
29.0
 40
30.0
 40
30.0
 40
30.0
 40
31.0
 40
31.0
 40
31.0
 40
32.0
 40
32.0
 40
32.0
 40
33.0
 40
33.0
 40
33.0
 40
34.0
 40
34.0
 40
34.0
 40
35.0
 40
35.0
 40
35.0
 40
36.0
 40
36.0
 40
36.0
 40
37.0
 40
37.0
 40
37.0
 40
38.0
 40
38.0
 40
38.0
 40
39.0
 40
39.0
 40
39.0
 40
40.0
 40
40.0
 40
40.0
 40
41.0
 40
41.0
 40
41.0
 40
42.0
 40
42.0
 40
42.0
 40
43.0
 40
43.0
 40
43.0
 40
44.0
 40
44.0
 40
44.0
 40
45.0
 40
45.0
 40
45.0
 40
46.0
 40
46.0
 40
46.0
 40
47.0
 40
47.0
 40
47.0
 40
48.0
 40
48.0
 40
48.0
 40
49.0
 40
49.0
 40
49.0
 40
50.0
 40
50.0
 40
50.0
 40
51.0
 40
51.0
 40
51.0
 40
52.0
 40
52.0
 40
52.0
 40
53.0
 40
53.0
 40
53.0
 40
54.0
 40
54.0
 40
54.0
 40
55.0
 40
55.0
 40
55.0
 40
56.0
 40
56.0
 40
56.0
 40
57.0
 40
57.0
 40
57.0
 40
58.0
 40
58.0
 40
58.0
 40
59.0
 40
59.0
 40
59.0
 40
60.0
 40
60.0
 40
60.0
 40
61.0
 40
61.0
 40
61.0
 40
62.0
 40
62.0
 40
62.0
 40
63.0
 40
63.0
 40
63.0
 40
64.0
 40
64.0
 40
64.0
 40
65.0
 40
65.0
 40
65.0
 40
66.0
 40
66.0
 40
66.0
 40
66.0
 10
70.08202716346908
 20
-136.5039848834087
 10
70.08202716346908
 20
-136.5039848834087
 10
69.52323267576156
 20
-136.5039848834087
 10
69.52323267576156
 20
-136.5039848834087
 10
69.5128973893058
 20
-136.5484266151685
 10
69.50428465059268
 20
-136.5801214936328
 10
69.49153779729725
 20
-136.618362053519
 10
69.5170315038881
 20
-136.618362053519
 10
69.53184541447467
 20
-136.6204291108102
 10
69.53804658634813
 20
-136.6204291108102
 10
69.53804658634813
 20
-136.6204291108102
 10
69.7264933093913
 20
-136.6204291108102
 10
69.7264933093913
 20
-136.6204291108102
 10
69.7264933093913
 20
-136.6204291108102
 10
70.10097518863796
 20
-136.6204291108102
 10
70.10097518863796
 20
-136.6204291108102
 10
70.15161809227112
 20
-136.6204291108102
 10
70.43514945070719
 20
-136.6076822575147
 10
70.4668443291715
 20
-136.6076822575147
 10
70.46477727188034
 20
-136.6352430213967
 10
70.46271021458918
 20
-136.6541910465656
 10
70.46271021458918
 20
-136.6838188677388
 10
70.46064315729804
 20
-136.7155137462031
 10
70.46064315729804
 20
-136.8509059987734
 10
70.46064315729804
 20
-136.8784667626554
 10
70.46064315729804
 20
-136.8784667626554
 10
70.46064315729804
 20
-137.1237575612052
 10
70.46064315729804
 20
-137.1237575612052
 10
70.46064315729804
 20
-137.1685438025134
 10
70.46477727188034
 20
-137.3649142451727
 10
70.46891138646264
 20
-137.5171874656207
 10
70.46891138646264
 20
-137.5171874656207
 10
70.24256861308172
 20
-137.5171874656207
 10
70.24256861308172
 20
-137.5171874656207
 10
70.24256861308172
 20
-137.5171874656207
 10
70.24463567037287
 20
-137.4834255298653
 10
70.24463567037287
 20
-137.4834255298653
 10
70.24463567037287
 20
-137.4834255298653
 10
69.54252521047896
 20
-137.4834255298653
 10
69.54252521047896
 20
-137.4834255298653
 10
69.54252521047896
 20
-137.4834255298653
 10
69.5445922677701
 20
-137.5171874656207
 10
69.5445922677701
 20
-137.5171874656207
 10
69.5445922677701
 20
-137.5171874656207
 10
69.32651772355379
 20
-137.5171874656207
 10
69.32651772355379
 20
-137.5171874656207
 10
69.33099634768462
 20
-137.4624104474052
 10
69.33099634768462
 20
-137.4496635941098
 10
69.33719751955806
 20
-137.3352864239995
 10
69.33926457684922
 20
-137.3077256601175
 10
69.34133163414036
 20
-137.1747449743869
 10
69.34133163414036
 20
-137.1554524396695
 10
69.34133163414036
 20
-137.1554524396695
 10
69.34133163414036
 20
-136.9525363155882
 10
69.34133163414036
 20
-136.9525363155882
 10
69.20180526698775
 20
-137.2023057382689
 10
69.03265107866198
 20
-137.3332193667084
 10
68.92688664726481
 20
-137.3986761809281
 10
68.92688664726481
 20
-137.3986761809281
 10
68.75325383480822
 20
-137.259494323324
 10
68.75325383480822
 20
-137.259494323324
 10
68.84213729832766
 20
-137.2085069101423
 10
68.98614228961111
 20
-137.121690503914
 10
69.12360159947258
 20
-136.9273871185459
 10
69.21455212028317
 20
-136.8002630951402
 10
69.28000893450292
 20
-136.6566026134053
 10
69.31411537980689
 20
-136.5039848834087
 10
69.0853610395863
 20
-136.5063964502484
 10
68.90552705525626
 20
-136.5125976221219
 10
68.81044241986336
 20
-136.514664679413
 10
68.81044241986336
 20
-136.514664679413
 10
68.81044241986336
 20
-136.3368977523741
 10
68.81044241986336
 20
-136.3368977523741
 10
69.00715737207113
 20
-136.3430989242476
 10
69.2906887305072
 20
-136.3475775483784
 10
69.44089489366408
 20
-136.3475775483784
 10
69.44089489366408
 20
-136.3475775483784
 10
69.65449081374958
 20
-136.3475775483784
 10
69.65449081374958
 20
-136.3475775483784
 10
69.65449081374958
 20
-136.3475775483784
 10
69.65449081374958
 20
-136.2397460596901
 10
69.65449081374958
 20
-136.2397460596901
 10
69.65449081374958
 20
-136.2397460596901
 10
69.50841876517498
 20
-136.2397460596901
 10
69.50841876517498
 20
-136.2397460596901
 10
69.33926457684922
 20
-136.2397460596901
 10
69.17011038852345
 20
-136.2438801742724
 10
69.00302325748883
 20
-136.2500813461458
 10
69.00302325748883
 20
-136.2500813461458
 10
69.00302325748883
 20
-136.0788601005289
 10
69.00302325748883
 20
-136.0788601005289
 10
69.15736353522803
 20
-136.0895398965332
 10
69.34339869143152
 20
-136.0895398965332
 10
69.50841876517498
 20
-136.0895398965332
 10
69.50841876517498
 20
-136.0895398965332
 10
69.65449081374958
 20
-136.0895398965332
 10
69.65449081374958
 20
-136.0895398965332
 10
69.65449081374958
 20
-136.0895398965332
 10
69.65449081374958
 20
-135.9710286118406
 10
69.65449081374958
 20
-135.9710286118406
 10
69.65449081374958
 20
-135.9710286118406
 10
69.52323267576156
 20
-135.9710286118406
 10
69.52323267576156
 20
-135.9710286118406
 10
69.47672388671069
 20
-135.9710286118406
 10
69.27380776262947
 20
-135.9792968410052
 10
69.2314330881609
 20
-135.9792968410052
 10
69.02851696407969
 20
-135.9834309555875
 10
68.95203584430713
 20
-135.9854980128786
 10
68.87383217679196
 20
-135.9879095797183
 10
68.87383217679196
 20
-135.9879095797183
 10
68.87383217679196
 20
-135.8035969712574
 10
68.87383217679196
 20
-135.8035969712574
 10
68.98820934690225
 20
-135.8122097099706
 10
69.03265107866198
 20
-135.8122097099706
 10
69.41540118707324
 20
-135.8208224486837
 10
69.35201143014464
 20
-135.7257378132908
 10
69.32445066626263
 20
-135.6981770494088
 10
69.28862167321604
 20
-135.6620035468137
 10
69.28862167321604
 20
-135.6620035468137
 10
69.46397703341526
 20
-135.5796657647162
 10
69.46397703341526
 20
-135.5796657647162
 10
69.50428465059268
 20
-135.6154947577628
 10
69.5487263823524
 20
-135.6578694322314
 10
69.62279593528528
 20
-135.7677679782109
 10
69.62279593528528
 20
-135.7677679782109
 10
69.50841876517498
 20
-135.8228895059748
 10
69.50841876517498
 20
-135.8228895059748
 10
69.50841876517498
 20
-135.8228895059748
 10
69.51909856117926
 20
-135.8228895059748
 10
69.51909856117926
 20
-135.8228895059748
 10
69.51909856117926
 20
-135.8228895059748
 10
70.04171954629166
 20
-135.8228895059748
 10
70.04171954629166
 20
-135.8228895059748
 10
70.04171954629166
 20
-135.8228895059748
 10
69.94663491089877
 20
-135.7784477742151
 10
69.94663491089877
 20
-135.7784477742151
 10
69.97385116523223
 20
-135.7402072143288
 10
70.03103975028738
 20
-135.6599364895225
 10
70.04585366087396
 20
-135.5858669365896
 10
70.04585366087396
 20
-135.5858669365896
 10
70.25944958095944
 20
-135.6492566935183
 10
70.25944958095944
 20
-135.6492566935183
 10
70.26806231967257
 20
-135.6513237508094
 10
70.28907740213259
 20
-135.6620035468137
 10
70.28907740213259
 20
-135.6830186292737
 10
70.28907740213259
 20
-135.72125918916
 10
70.22362058791285
 20
-135.72125918916
 10
70.20467256274398
 20
-135.72125918916
 10
70.1939927667397
 20
-135.7402072143288
 10
70.17056611744
 20
-135.7805148315063
 10
70.14093829626685
 20
-135.8208224486837
 10
70.54091388210436
 20
-135.8146212768102
 10
70.57054170327751
 20
-135.8122097099706
 10
70.64667831350152
 20
-135.8060085380971
 10
70.64667831350152
 20
-135.8060085380971
 10
70.64667831350152
 20
-135.9879095797183
 10
70.64667831350152
 20
-135.9879095797183
 10
70.62773028833266
 20
-135.9879095797183
 10
70.6022365817418
 20
-135.9854980128786
 10
70.38243948978287
 20
-135.977229783714
 10
70.33145207660117
 20
-135.9751627264229
 10
70.11165498464223
 20
-135.9710286118406
 10
70.06721325288251
 20
-135.9710286118406
 10
70.06721325288251
 20
-135.9710286118406
 10
69.85120576595735
 20
-135.9710286118406
 10
69.85120576595735
 20
-135.9710286118406
 10
69.85120576595735
 20
-135.9710286118406
 10
69.85120576595735
 20
-136.0895398965332
 10
69.85120576595735
 20
-136.0895398965332
 10
69.85120576595735
 20
-136.0895398965332
 10
70.02483857841393
 20
-136.0895398965332
 10
70.02483857841393
 20
-136.0895398965332
 10
70.18779159486625
 20
-136.0895398965332
 10
70.37796086565204
 20
-136.0895398965332
 10
70.5347127102309
 20
-136.0788601005289
 10
70.5347127102309
 20
-136.0788601005289
 10
70.5347127102309
 20
-136.2500813461458
 10
70.5347127102309
 20
-136.2500813461458
 10
70.32525090472772
 20
-136.2418131169812
 10
70.12853595251995
 20
-136.2397460596901
 10
70.02483857841393
 20
-136.2397460596901
 10
70.02483857841393
 20
-136.2397460596901
 10
69.85120576595735
 20
-136.2397460596901
 10
69.85120576595735
 20
-136.2397460596901
 10
69.85120576595735
 20
-136.2397460596901
 10
69.85120576595735
 20
-136.3475775483784
 10
69.85120576595735
 20
-136.3475775483784
 10
69.85120576595735
 20
-136.3475775483784
 10
70.08202716346908
 20
-136.3475775483784
 10
70.08202716346908
 20
-136.3475775483784
 10
70.21500784919972
 20
-136.3475775483784
 10
70.50301783176661
 20
-136.3430989242476
 10
70.71213512772127
 20
-136.3368977523741
 10
70.71213512772127
 20
-136.3368977523741
 10
70.71213512772127
 20
-136.514664679413
 10
70.71213512772127
 20
-136.514664679413
 10
70.51989879964434
 20
-136.5084635075395
 10
70.20673962003512
 20
-136.5039848834087
 10
70.08202716346908
 20
-136.5039848834087
 97
        0
 97
        0
 92
        1
 93
        4
 72
     1
 10
70.24704723721254
 20
-136.7599554779628
 11
69.5404581531878
 21
-136.7599554779628
 72
     1
 10
69.5404581531878
 20
-136.7599554779628
 11
69.5404581531878
 21
-136.8681314761996
 72
     1
 10
69.5404581531878
 20
-136.8681314761996
 11
70.24704723721254
 21
-136.8681314761996
 72
     1
 10
70.24704723721254
 20
-136.8681314761996
 11
70.24704723721254
 21
-136.7599554779628
 97
        0
 92
        1
 93
        4
 72
     1
 10
70.24704723721254
 20
-136.9928439327657
 11
69.5404581531878
 21
-136.9928439327657
 72
     1
 10
69.5404581531878
 20
-136.9928439327657
 11
69.5404581531878
 21
-137.107221102876
 72
     1
 10
69.5404581531878
 20
-137.107221102876
 11
70.24704723721254
 21
-137.107221102876
 72
     1
 10
70.24704723721254
 20
-137.107221102876
 11
70.24704723721254
 21
-136.9928439327657
 97
        0
 92
        1
 93
        4
 72
     1
 10
70.24704723721254
 20
-137.2360676740243
 11
69.5404581531878
 21
-137.2360676740243
 72
     1
 10
69.5404581531878
 20
-137.2360676740243
 11
69.5404581531878
 21
-137.3504448441346
 72
     1
 10
69.5404581531878
 20
-137.3504448441346
 11
70.24704723721254
 21
-137.3504448441346
 72
     1
 10
70.24704723721254
 20
-137.3504448441346
 11
70.24704723721254
 21
-137.2360676740243
 97
        0
 75
     2
 76
     1
 98
        0
  0
SPLINE
  5
71
330
52
100
AcDbEntity
  8
_U+30EC_U+30A4_U+30E4_U+30FC 1
370
     0
100
AcDbSpline
210
0.0
220
0.0
230
1.0
 70
    11
 71
     3
 72
    47
 73
    43
 74
     0
 42
0.0000000001
 43
0.0000000001
 12
1.0
 22
0.0
 32
0.0
 13
1.0
 23
0.0
 33
0.0
 40
0.0
 40
0.0
 40
0.0
 40
0.0
 40
1.0
 40
1.0
 40
1.0
 40
2.0
 40
2.0
 40
2.0
 40
3.0
 40
3.0
 40
3.0
 40
4.0
 40
4.0
 40
4.0
 40
5.0
 40
5.0
 40
5.0
 40
6.0
 40
6.0
 40
6.0
 40
7.0
 40
7.0
 40
7.0
 40
8.0
 40
8.0
 40
8.0
 40
9.0
 40
9.0
 40
9.0
 40
10.0
 40
10.0
 40
10.0
 40
11.0
 40
11.0
 40
11.0
 40
12.0
 40
12.0
 40
12.0
 40
13.0
 40
13.0
 40
13.0
 40
14.0
 40
14.0
 40
14.0
 40
14.0
 10
72.05882295290543
 20
-136.4809027436576
 30
0.0
 10
72.05882295290543
 20
-136.4809027436576
 30
0.0
 10
71.95719263609057
 20
-136.4809027436576
 30
0.0
 10
71.95719263609057
 20
-136.4809027436576
 30
0.0
 10
71.95719263609057
 20
-136.5677191498858
 30
0.0
 10
71.93617755363054
 20
-136.9570149397191
 30
0.0
 10
71.73946260142277
 20
-137.176812031678
 30
0.0
 10
71.58684487142621
 20
-137.3459662200038
 30
0.0
 10
71.3797946327627
 20
-137.4159016583544
 30
0.0
 10
71.29504528382554
 20
-137.4434624222364
 30
0.0
 10
71.29504528382554
 20
-137.4434624222364
 30
0.0
 10
71.10039738890893
 20
-137.2760307816532
 30
0.0
 10
71.10039738890893
 20
-137.2760307816532
 30
0.0
 10
71.19789359114151
 20
-137.2636284379063
 30
0.0
 10
71.37324895134071
 20
-137.2402017886066
 30
0.0
 10
71.56169567438388
 20
-137.052099575112
 30
0.0
 10
71.63576522731675
 20
-136.9800970794703
 30
0.0
 10
71.73946260142277
 20
-136.8405707123176
 30
0.0
 10
71.73946260142277
 20
-136.4809027436576
 30
0.0
 10
71.73946260142277
 20
-136.4809027436576
 30
0.0
 10
71.50864120391104
 20
-136.4809027436576
 30
0.0
 10
71.50864120391104
 20
-136.4809027436576
 30
0.0
 10
71.32260604770755
 20
-136.4809027436576
 30
0.0
 10
71.13622638195552
 20
-136.4850368582399
 30
0.0
 10
70.95019122575204
 20
-136.4998507688264
 30
0.0
 10
70.95019122575204
 20
-136.4998507688264
 30
0.0
 10
70.95019122575204
 20
-136.279709167319
 30
0.0
 10
70.95019122575204
 20
-136.279709167319
 30
0.0
 10
71.1386379487952
 20
-136.2948675874541
 30
0.0
 10
71.42423636452241
 20
-136.2990017020364
 30
0.0
 10
71.50864120391104
 20
-136.2990017020364
 30
0.0
 10
71.50864120391104
 20
-136.2990017020364
 30
0.0
 10
72.05882295290543
 20
-136.2990017020364
 30
0.0
 10
72.05882295290543
 20
-136.2990017020364
 30
0.0
 10
72.07777097807431
 20
-136.2990017020364
 30
0.0
 10
72.39506427226583
 20
-136.2990017020364
 30
0.0
 10
72.62347410293789
 20
-136.279709167319
 30
0.0
 10
72.62347410293789
 20
-136.279709167319
 30
0.0
 10
72.62347410293789
 20
-136.4998507688264
 30
0.0
 10
72.62347410293789
 20
-136.4998507688264
 30
0.0
 10
72.43537188944325
 20
-136.4850368582399
 30
0.0
 10
72.24692516640008
 20
-136.4809027436576
 30
0.0
 10
72.05882295290543
 20
-136.4809027436576
 30
0.0
  0
SPLINE
  5
72
330
52
100
AcDbEntity
  8
_U+30EC_U+30A4_U+30E4_U+30FC 1
370
     0
100
AcDbSpline
210
0.0
220
0.0
230
1.0
 70
    11
 71
     3
 72
    29
 73
    25
 74
     0
 42
0.0000000001
 43
0.0000000001
 12
1.0
 22
0.0
 32
0.0
 13
1.0
 23
0.0
 33
0.0
 40
0.0
 40
0.0
 40
0.0
 40
0.0
 40
1.0
 40
1.0
 40
1.0
 40
2.0
 40
2.0
 40
2.0
 40
3.0
 40
3.0
 40
3.0
 40
4.0
 40
4.0
 40
4.0
 40
5.0
 40
5.0
 40
5.0
 40
6.0
 40
6.0
 40
6.0
 40
7.0
 40
7.0
 40
7.0
 40
8.0
 40
8.0
 40
8.0
 40
8.0
 10
71.95719263609057
 20
-135.9517360771232
 30
0.0
 10
71.95719263609057
 20
-135.9517360771232
 30
0.0
 10
71.60372583930393
 20
-135.9517360771232
 30
0.0
 10
71.60372583930393
 20
-135.9517360771232
 30
0.0
 10
71.49176023603331
 20
-135.9517360771232
 30
0.0
 10
71.35223386888069
 20
-135.9582817585452
 30
0.0
 10
71.24440238019237
 20
-135.9710286118406
 30
0.0
 10
71.24440238019237
 20
-135.9710286118406
 30
0.0
 10
71.24440238019237
 20
-135.7360730997465
 30
0.0
 10
71.24440238019237
 20
-135.7360730997465
 30
0.0
 10
71.36256915533644
 20
-135.7508870103331
 30
0.0
 10
71.54688176379732
 20
-135.7553656344639
 30
0.0
 10
71.60372583930393
 20
-135.7553656344639
 30
0.0
 10
71.60372583930393
 20
-135.7553656344639
 30
0.0
 10
71.95719263609057
 20
-135.7553656344639
 30
0.0
 10
71.95719263609057
 20
-135.7553656344639
 30
0.0
 10
71.97614066125944
 20
-135.7553656344639
 30
0.0
 10
72.17940129488917
 20
-135.7553656344639
 30
0.0
 10
72.32099471933294
 20
-135.7360730997465
 30
0.0
 10
72.32099471933294
 20
-135.7360730997465
 30
0.0
 10
72.32099471933294
 20
-135.9710286118406
 30
0.0
 10
72.32099471933294
 20
-135.9710286118406
 30
0.0
 10
72.1645873843026
 20
-135.9517360771232
 30
0.0
 10
71.9740736039683
 20
-135.9517360771232
 30
0.0
 10
71.95719263609057
 20
-135.9517360771232
 30
0.0
  0
HATCH
  5
73
330
52
100
AcDbEntity
  8
_U+30EC_U+30A4_U+30E4_U+30FC 1
 62
   179
420
  2234388
100
AcDbHatch
 10
0.0
 20
0.0
 30
0.0
210
0.0
220
0.0
230
1.0
  2
SOLID
 70
     1
 71
     0
 91
        2
 92
        1
 93
        1
 72
     4
 94
        3
 73
     0
 74
     1
 95
       47
 96
       43
 40
0.0
 40
0.0
 40
0.0
 40
0.0
 40
1.0
 40
1.0
 40
1.0
 40
2.0
 40
2.0
 40
2.0
 40
3.0
 40
3.0
 40
3.0
 40
4.0
 40
4.0
 40
4.0
 40
5.0
 40
5.0
 40
5.0
 40
6.0
 40
6.0
 40
6.0
 40
7.0
 40
7.0
 40
7.0
 40
8.0
 40
8.0
 40
8.0
 40
9.0
 40
9.0
 40
9.0
 40
10.0
 40
10.0
 40
10.0
 40
11.0
 40
11.0
 40
11.0
 40
12.0
 40
12.0
 40
12.0
 40
13.0
 40
13.0
 40
13.0
 40
14.0
 40
14.0
 40
14.0
 40
14.0
 10
72.05882295290543
 20
-136.4809027436576
 10
72.05882295290543
 20
-136.4809027436576
 10
71.95719263609057
 20
-136.4809027436576
 10
71.95719263609057
 20
-136.4809027436576
 10
71.95719263609057
 20
-136.5677191498858
 10
71.93617755363054
 20
-136.9570149397191
 10
71.73946260142277
 20
-137.176812031678
 10
71.58684487142621
 20
-137.3459662200038
 10
71.3797946327627
 20
-137.4159016583544
 10
71.29504528382554
 20
-137.4434624222364
 10
71.29504528382554
 20
-137.4434624222364
 10
71.10039738890893
 20
-137.2760307816532
 10
71.10039738890893
 20
-137.2760307816532
 10
71.19789359114151
 20
-137.2636284379063
 10
71.37324895134071
 20
-137.2402017886066
 10
71.56169567438388
 20
-137.052099575112
 10
71.63576522731675
 20
-136.9800970794703
 10
71.73946260142277
 20
-136.8405707123176
 10
71.73946260142277
 20
-136.4809027436576
 10
71.73946260142277
 20
-136.4809027436576
 10
71.50864120391104
 20
-136.4809027436576
 10
71.50864120391104
 20
-136.4809027436576
 10
71.32260604770755
 20
-136.4809027436576
 10
71.13622638195552
 20
-136.4850368582399
 10
70.95019122575204
 20
-136.4998507688264
 10
70.95019122575204
 20
-136.4998507688264
 10
70.95019122575204
 20
-136.279709167319
 10
70.95019122575204
 20
-136.279709167319
 10
71.1386379487952
 20
-136.2948675874541
 10
71.42423636452241
 20
-136.2990017020364
 10
71.50864120391104
 20
-136.2990017020364
 10
71.50864120391104
 20
-136.2990017020364
 10
72.05882295290543
 20
-136.2990017020364
 10
72.05882295290543
 20
-136.2990017020364
 10
72.07777097807431
 20
-136.2990017020364
 10
72.39506427226583
 20
-136.2990017020364
 10
72.62347410293789
 20
-136.279709167319
 10
72.62347410293789
 20
-136.279709167319
 10
72.62347410293789
 20
-136.4998507688264
 10
72.62347410293789
 20
-136.4998507688264
 10
72.43537188944325
 20
-136.4850368582399
 10
72.24692516640008
 20
-136.4809027436576
 10
72.05882295290543
 20
-136.4809027436576
 97
        0
 97
        0
 92
        1
 93
        1
 72
     4
 94
        3
 73
     0
 74
     1
 95
       29
 96
       25
 40
0.0
 40
0.0
 40
0.0
 40
0.0
 40
1.0
 40
1.0
 40
1.0
 40
2.0
 40
2.0
 40
2.0
 40
3.0
 40
3.0
 40
3.0
 40
4.0
 40
4.0
 40
4.0
 40
5.0
 40
5.0
 40
5.0
 40
6.0
 40
6.0
 40
6.0
 40
7.0
 40
7.0
 40
7.0
 40
8.0
 40
8.0
 40
8.0
 40
8.0
 10
71.95719263609057
 20
-135.9517360771232
 10
71.95719263609057
 20
-135.9517360771232
 10
71.60372583930393
 20
-135.9517360771232
 10
71.60372583930393
 20
-135.9517360771232
 10
71.49176023603331
 20
-135.9517360771232
 10
71.35223386888069
 20
-135.9582817585452
 10
71.24440238019237
 20
-135.9710286118406
 10
71.24440238019237
 20
-135.9710286118406
 10
71.24440238019237
 20
-135.7360730997465
 10
71.24440238019237
 20
-135.7360730997465
 10
71.36256915533644
 20
-135.7508870103331
 10
71.54688176379732
 20
-135.7553656344639
 10
71.60372583930393
 20
-135.7553656344639
 10
71.60372583930393
 20
-135.7553656344639
 10
71.95719263609057
 20
-135.7553656344639
 10
71.95719263609057
 20
-135.7553656344639
 10
71.97614066125944
 20
-135.7553656344639
 10
72.17940129488917
 20
-135.7553656344639
 10
72.32099471933294
 20
-135.7360730997465
 10
72.32099471933294
 20
-135.7360730997465
 10
72.32099471933294
 20
-135.9710286118406
 10
72.32099471933294
 20
-135.9710286118406
 10
72.1645873843026
 20
-135.9517360771232
 10
71.9740736039683
 20
-135.9517360771232
 10
71.95719263609057
 20
-135.9517360771232
 97
        0
 97
        0
 75
     2
 76
     1
 98
        0
  0
SPLINE
  5
74
330
52
100
AcDbEntity
  8
_U+30EC_U+30A4_U+30E4_U+30FC 1
370
     0
100
AcDbSpline
210
0.0
220
0.0
230
1.0
 70
    11
 71
     3
 72
    29
 73
    25
 74
     0
 42
0.0000000001
 43
0.0000000001
 12
1.0
 22
0.0
 32
0.0
 13
1.0
 23
0.0
 33
0.0
 40
0.0
 40
0.0
 40
0.0
 40
0.0
 40
1.0
 40
1.0
 40
1.0
 40
2.0
 40
2.0
 40
2.0
 40
3.0
 40
3.0
 40
3.0
 40
4.0
 40
4.0
 40
4.0
 40
5.0
 40
5.0
 40
5.0
 40
6.0
 40
6.0
 40
6.0
 40
7.0
 40
7.0
 40
7.0
 40
8.0
 40
8.0
 40
8.0
 40
8.0
 10
73.9047051139023
 20
-136.6435112505613
 30
0.0
 10
73.9047051139023
 20
-136.6435112505613
 30
0.0
 10
73.42032468867617
 20
-136.6435112505613
 30
0.0
 10
73.42032468867617
 20
-136.6435112505613
 30
0.0
 10
73.39276392479417
 20
-136.6435112505613
 30
0.0
 10
73.07547063060267
 20
-136.6435112505613
 30
0.0
 10
72.86394176780833
 20
-136.6690049571522
 30
0.0
 10
72.86394176780833
 20
-136.6690049571522
 30
0.0
 10
72.86394176780833
 20
-136.438528069189
 30
0.0
 10
72.86394176780833
 20
-136.438528069189
 30
0.0
 10
73.02241616012982
 20
-136.4616102089402
 30
0.0
 10
73.21292994046414
 20
-136.4636772662313
 30
0.0
 10
73.42032468867617
 20
-136.4636772662313
 30
0.0
 10
73.42032468867617
 20
-136.4636772662313
 30
0.0
 10
73.9047051139023
 20
-136.4636772662313
 30
0.0
 10
73.9047051139023
 20
-136.4636772662313
 30
0.0
 10
74.0907402701058
 20
-136.4636772662313
 30
0.0
 10
74.27711993585781
 20
-136.4616102089402
 30
0.0
 10
74.46108803477014
 20
-136.438528069189
 30
0.0
 10
74.46108803477014
 20
-136.438528069189
 30
0.0
 10
74.46108803477014
 20
-136.6690049571522
 30
0.0
 10
74.46108803477014
 20
-136.6690049571522
 30
0.0
 10
74.27711993585781
 20
-136.6455783078525
 30
0.0
 10
74.02941757046834
 20
-136.6435112505613
 30
0.0
 10
73.9047051139023
 20
-136.6435112505613
 30
0.0
  0
HATCH
  5
75
330
52
100
AcDbEntity
  8
_U+30EC_U+30A4_U+30E4_U+30FC 1
 62
   179
420
  2234388
100
AcDbHatch
 10
0.0
 20
0.0
 30
0.0
210
0.0
220
0.0
230
1.0
  2
SOLID
 70
     1
 71
     0
 91
        1
 92
        1
 93
        1
 72
     4
 94
        3
 73
     0
 74
     1
 95
       29
 96
       25
 40
0.0
 40
0.0
 40
0.0
 40
0.0
 40
1.0
 40
1.0
 40
1.0
 40
2.0
 40
2.0
 40
2.0
 40
3.0
 40
3.0
 40
3.0
 40
4.0
 40
4.0
 40
4.0
 40
5.0
 40
5.0
 40
5.0
 40
6.0
 40
6.0
 40
6.0
 40
7.0
 40
7.0
 40
7.0
 40
8.0
 40
8.0
 40
8.0
 40
8.0
 10
73.9047051139023
 20
-136.6435112505613
 10
73.9047051139023
 20
-136.6435112505613
 10
73.42032468867617
 20
-136.6435112505613
 10
73.42032468867617
 20
-136.6435112505613
 10
73.39276392479417
 20
-136.6435112505613
 10
73.07547063060267
 20
-136.6435112505613
 10
72.86394176780833
 20
-136.6690049571522
 10
72.86394176780833
 20
-136.6690049571522
 10
72.86394176780833
 20
-136.438528069189
 10
72.86394176780833
 20
-136.438528069189
 10
73.02241616012982
 20
-136.4616102089402
 10
73.21292994046414
 20
-136.4636772662313
 10
73.42032468867617
 20
-136.4636772662313
 10
73.42032468867617
 20
-136.4636772662313
 10
73.9047051139023
 20
-136.4636772662313
 10
73.9047051139023
 20
-136.4636772662313
 10
74.0907402701058
 20
-136.4636772662313
 10
74.27711993585781
 20
-136.4616102089402
 10
74.46108803477014
 20
-136.438528069189
 10
74.46108803477014
 20
-136.438528069189
 10
74.46108803477014
 20
-136.6690049571522
 10
74.46108803477014
 20
-136.6690049571522
 10
74.27711993585781
 20
-136.6455783078525
 10
74.02941757046834
 20
-136.6435112505613
 10
73.9047051139023
 20
-136.6435112505613
 97
        0
 97
        0
 75
     2
 76
     1
 98
        0
  0
SPLINE
  5
76
330
52
100
AcDbEntity
  8
_U+30EC_U+30A4_U+30E4_U+30FC 1
370
     0
100
AcDbSpline
210
0.0
220
0.0
230
1.0
 70
    11
 71
     3
 72
    44
 73
    40
 74
     0
 42
0.0000000001
 43
0.0000000001
 12
1.0
 22
0.0
 32
0.0
 13
1.0
 23
0.0
 33
0.0
 40
0.0
 40
0.0
 40
0.0
 40
0.0
 40
1.0
 40
1.0
 40
1.0
 40
2.0
 40
2.0
 40
2.0
 40
3.0
 40
3.0
 40
3.0
 40
4.0
 40
4.0
 40
4.0
 40
5.0
 40
5.0
 40
5.0
 40
6.0
 40
6.0
 40
6.0
 40
7.0
 40
7.0
 40
7.0
 40
8.0
 40
8.0
 40
8.0
 40
9.0
 40
9.0
 40
9.0
 40
10.0
 40
10.0
 40
10.0
 40
11.0
 40
11.0
 40
11.0
 40
12.0
 40
12.0
 40
12.0
 40
13.0
 40
13.0
 40
13.0
 40
13.0
 10
76.11611190588417
 20
-136.2059841239346
 30
0.0
 10
76.00414630261355
 20
-136.5739203217593
 30
0.0
 10
75.95350339898037
 20
-136.7323947140808
 30
0.0
 10
75.75678844677262
 20
-136.9821641367614
 30
0.0
 10
75.57247583831175
 20
-137.2126410247246
 30
0.0
 10
75.33579777847508
 20
-137.3986761809281
 30
0.0
 10
75.05640053462132
 20
-137.4920382685784
 30
0.0
 10
75.05640053462132
 20
-137.4920382685784
 30
0.0
 10
74.86381969699585
 20
-137.3122042842483
 30
0.0
 10
74.86381969699585
 20
-137.3122042842483
 30
0.0
 10
75.50495196680085
 20
-137.1599310638003
 30
0.0
 10
75.83499211428779
 20
-136.6035481429325
 30
0.0
 10
75.89838187121639
 20
-136.1632649399175
 30
0.0
 10
75.89838187121639
 20
-136.1632649399175
 30
0.0
 10
75.13253714484534
 20
-136.1632649399175
 30
0.0
 10
75.13253714484534
 20
-136.1632649399175
 30
0.0
 10
75.03951956674359
 20
-136.1632649399175
 30
0.0
 10
74.85555146783125
 20
-136.1677435640484
 30
0.0
 10
74.69879962325238
 20
-136.1866915892172
 30
0.0
 10
74.69879962325238
 20
-136.1866915892172
 30
0.0
 10
74.69879962325238
 20
-135.9668944972583
 30
0.0
 10
74.69879962325238
 20
-135.9668944972583
 30
0.0
 10
74.78561602948068
 20
-135.9879095797183
 30
0.0
 10
75.03745250945245
 20
-135.9879095797183
 30
0.0
 10
75.13667125942764
 20
-135.9879095797183
 30
0.0
 10
75.13667125942764
 20
-135.9879095797183
 30
0.0
 10
75.56834172372945
 20
-135.9879095797183
 30
0.0
 10
75.56834172372945
 20
-135.9879095797183
 30
0.0
 10
75.61071639819802
 20
-135.9879095797183
 30
0.0
 10
75.84532740074353
 20
-135.9854980128786
 30
0.0
 10
75.8835679606298
 20
-135.9792968410052
 30
0.0
 10
75.92594263509838
 20
-135.9730956691317
 30
0.0
 10
75.92800969238952
 20
-135.9710286118406
 30
0.0
 10
75.98933239202698
 20
-135.9307209946631
 30
0.0
 10
75.98933239202698
 20
-135.9307209946631
 30
0.0
 10
76.17743460552161
 20
-136.0854057819509
 30
0.0
 10
76.17743460552161
 20
-136.0854057819509
 30
0.0
 10
76.14815129389699
 20
-136.115033603124
 30
0.0
 10
76.13333738331042
 20
-136.1467284815883
 30
0.0
 10
76.11611190588417
 20
-136.2059841239346
 30
0.0
  0
SPLINE
  5
77
330
52
100
AcDbEntity
  8
_U+30EC_U+30A4_U+30E4_U+30FC 1
370
     0
100
AcDbSpline
210
0.0
220
0.0
230
1.0
 70
    11
 71
     3
 72
    17
 73
    13
 74
     0
 42
0.0000000001
 43
0.0000000001
 12
1.0
 22
0.0
 32
0.0
 13
1.0
 23
0.0
 33
0.0
 40
0.0
 40
0.0
 40
0.0
 40
0.0
 40
1.0
 40
1.0
 40
1.0
 40
2.0
 40
2.0
 40
2.0
 40
3.0
 40
3.0
 40
3.0
 40
4.0
 40
4.0
 40
4.0
 40
4.0
 10
76.32557371138736
 20
-136.0068576048872
 30
0.0
 10
76.19879419753016
 20
-136.0068576048872
 30
0.0
 10
76.0971638807153
 20
-135.9055717976208
 30
0.0
 10
76.0971638807153
 20
-135.7784477742151
 30
0.0
 10
76.0971638807153
 20
-135.6513237508094
 30
0.0
 10
76.19879419753016
 20
-135.5479708862519
 30
0.0
 10
76.32557371138736
 20
-135.5479708862519
 30
0.0
 10
76.45269773479308
 20
-135.5479708862519
 30
0.0
 10
76.5563951088991
 20
-135.6513237508094
 30
0.0
 10
76.5563951088991
 20
-135.7784477742151
 30
0.0
 10
76.5563951088991
 20
-135.9055717976208
 30
0.0
 10
76.45269773479308
 20
-136.0068576048872
 30
0.0
 10
76.32557371138736
 20
-136.0068576048872
 30
0.0
  0
SPLINE
  5
78
330
52
100
AcDbEntity
  8
_U+30EC_U+30A4_U+30E4_U+30FC 1
370
     0
100
AcDbSpline
210
0.0
220
0.0
230
1.0
 70
    11
 71
     3
 72
    17
 73
    13
 74
     0
 42
0.0000000001
 43
0.0000000001
 12
1.0
 22
0.0
 32
0.0
 13
1.0
 23
0.0
 33
0.0
 40
0.0
 40
0.0
 40
0.0
 40
0.0
 40
1.0
 40
1.0
 40
1.0
 40
2.0
 40
2.0
 40
2.0
 40
3.0
 40
3.0
 40
3.0
 40
4.0
 40
4.0
 40
4.0
 40
4.0
 10
76.3235066540962
 20
-135.6768174574002
 30
0.0
 10
76.26872963588073
 20
-135.6768174574002
 30
0.0
 10
76.22428790412101
 20
-135.72125918916
 30
0.0
 10
76.22428790412101
 20
-135.776380716924
 30
0.0
 10
76.22428790412101
 20
-135.8332247924306
 30
0.0
 10
76.26872963588073
 20
-135.8821451483211
 30
0.0
 10
76.3276407686785
 20
-135.8821451483211
 30
0.0
 10
76.38689641102481
 20
-135.8821451483211
 30
0.0
 10
76.42720402820223
 20
-135.8311577351394
 30
0.0
 10
76.42720402820223
 20
-135.7784477742151
 30
0.0
 10
76.42720402820223
 20
-135.72125918916
 30
0.0
 10
76.38069523915135
 20
-135.6768174574002
 30
0.0
 10
76.3235066540962
 20
-135.6768174574002
 30
0.0
  0
HATCH
  5
79
330
52
100
AcDbEntity
  8
_U+30EC_U+30A4_U+30E4_U+30FC 1
 62
   179
420
  2234388
100
AcDbHatch
 10
0.0
 20
0.0
 30
0.0
210
0.0
220
0.0
230
1.0
  2
SOLID
 70
     1
 71
     0
 91
        3
 92
        1
 93
        1
 72
     4
 94
        3
 73
     0
 74
     1
 95
       44
 96
       40
 40
0.0
 40
0.0
 40
0.0
 40
0.0
 40
1.0
 40
1.0
 40
1.0
 40
2.0
 40
2.0
 40
2.0
 40
3.0
 40
3.0
 40
3.0
 40
4.0
 40
4.0
 40
4.0
 40
5.0
 40
5.0
 40
5.0
 40
6.0
 40
6.0
 40
6.0
 40
7.0
 40
7.0
 40
7.0
 40
8.0
 40
8.0
 40
8.0
 40
9.0
 40
9.0
 40
9.0
 40
10.0
 40
10.0
 40
10.0
 40
11.0
 40
11.0
 40
11.0
 40
12.0
 40
12.0
 40
12.0
 40
13.0
 40
13.0
 40
13.0
 40
13.0
 10
76.11611190588417
 20
-136.2059841239346
 10
76.00414630261355
 20
-136.5739203217593
 10
75.95350339898037
 20
-136.7323947140808
 10
75.75678844677262
 20
-136.9821641367614
 10
75.57247583831175
 20
-137.2126410247246
 10
75.33579777847508
 20
-137.3986761809281
 10
75.05640053462132
 20
-137.4920382685784
 10
75.05640053462132
 20
-137.4920382685784
 10
74.86381969699585
 20
-137.3122042842483
 10
74.86381969699585
 20
-137.3122042842483
 10
75.50495196680085
 20
-137.1599310638003
 10
75.83499211428779
 20
-136.6035481429325
 10
75.89838187121639
 20
-136.1632649399175
 10
75.89838187121639
 20
-136.1632649399175
 10
75.13253714484534
 20
-136.1632649399175
 10
75.13253714484534
 20
-136.1632649399175
 10
75.03951956674359
 20
-136.1632649399175
 10
74.85555146783125
 20
-136.1677435640484
 10
74.69879962325238
 20
-136.1866915892172
 10
74.69879962325238
 20
-136.1866915892172
 10
74.69879962325238
 20
-135.9668944972583
 10
74.69879962325238
 20
-135.9668944972583
 10
74.78561602948068
 20
-135.9879095797183
 10
75.03745250945245
 20
-135.9879095797183
 10
75.13667125942764
 20
-135.9879095797183
 10
75.13667125942764
 20
-135.9879095797183
 10
75.56834172372945
 20
-135.9879095797183
 10
75.56834172372945
 20
-135.9879095797183
 10
75.61071639819802
 20
-135.9879095797183
 10
75.84532740074353
 20
-135.9854980128786
 10
75.8835679606298
 20
-135.9792968410052
 10
75.92594263509838
 20
-135.9730956691317
 10
75.92800969238952
 20
-135.9710286118406
 10
75.98933239202698
 20
-135.9307209946631
 10
75.98933239202698
 20
-135.9307209946631
 10
76.17743460552161
 20
-136.0854057819509
 10
76.17743460552161
 20
-136.0854057819509
 10
76.14815129389699
 20
-136.115033603124
 10
76.13333738331042
 20
-136.1467284815883
 10
76.11611190588417
 20
-136.2059841239346
 97
        0
 97
        0
 92
        1
 93
        1
 72
     4
 94
        3
 73
     0
 74
     1
 95
       17
 96
       13
 40
0.0
 40
0.0
 40
0.0
 40
0.0
 40
1.0
 40
1.0
 40
1.0
 40
2.0
 40
2.0
 40
2.0
 40
3.0
 40
3.0
 40
3.0
 40
4.0
 40
4.0
 40
4.0
 40
4.0
 10
76.32557371138736
 20
-136.0068576048872
 10
76.19879419753016
 20
-136.0068576048872
 10
76.0971638807153
 20
-135.9055717976208
 10
76.0971638807153
 20
-135.7784477742151
 10
76.0971638807153
 20
-135.6513237508094
 10
76.19879419753016
 20
-135.5479708862519
 10
76.32557371138736
 20
-135.5479708862519
 10
76.45269773479308
 20
-135.5479708862519
 10
76.5563951088991
 20
-135.6513237508094
 10
76.5563951088991
 20
-135.7784477742151
 10
76.5563951088991
 20
-135.9055717976208
 10
76.45269773479308
 20
-136.0068576048872
 10
76.32557371138736
 20
-136.0068576048872
 97
        0
 97
        0
 92
        1
 93
        1
 72
     4
 94
        3
 73
     0
 74
     1
 95
       17
 96
       13
 40
0.0
 40
0.0
 40
0.0
 40
0.0
 40
1.0
 40
1.0
 40
1.0
 40
2.0
 40
2.0
 40
2.0
 40
3.0
 40
3.0
 40
3.0
 40
4.0
 40
4.0
 40
4.0
 40
4.0
 10
76.3235066540962
 20
-135.6768174574002
 10
76.26872963588073
 20
-135.6768174574002
 10
76.22428790412101
 20
-135.72125918916
 10
76.22428790412101
 20
-135.776380716924
 10
76.22428790412101
 20
-135.8332247924306
 10
76.26872963588073
 20
-135.8821451483211
 10
76.3276407686785
 20
-135.8821451483211
 10
76.38689641102481
 20
-135.8821451483211
 10
76.42720402820223
 20
-135.8311577351394
 10
76.42720402820223
 20
-135.7784477742151
 10
76.42720402820223
 20
-135.72125918916
 10
76.38069523915135
 20
-135.6768174574002
 10
76.3235066540962
 20
-135.6768174574002
 97
        0
 97
        0
 75
     2
 76
     1
 98
        0
  0
ENDBLK
  5
55
330
52
100
AcDbEntity
  8
0
100
AcDbBlockEnd
  0
BLOCK
  5
7C
330
7A
100
AcDbEntity
  8
0
100
AcDbBlockBegin
  2
block 3
 70
     0
 10
0.0
 20
0.0
 30
0.0
  3
block 3
  1

  0
SPLINE
  5
7E
330
7A
100
AcDbEntity
  8
_U+30EC_U+30A4_U+30E4_U+30FC 1
370
     0
100
AcDbSpline
210
0.0
220
0.0
230
1.0
 70
    11
 71
     3
 72
    29
 73
    25
 74
     0
 42
0.0000000001
 43
0.0000000001
 12
1.0
 22
0.0
 32
0.0
 13
1.0
 23
0.0
 33
0.0
 40
0.0
 40
0.0
 40
0.0
 40
0.0
 40
1.0
 40
1.0
 40
1.0
 40
2.0
 40
2.0
 40
2.0
 40
3.0
 40
3.0
 40
3.0
 40
4.0
 40
4.0
 40
4.0
 40
5.0
 40
5.0
 40
5.0
 40
6.0
 40
6.0
 40
6.0
 40
7.0
 40
7.0
 40
7.0
 40
8.0
 40
8.0
 40
8.0
 40
8.0
 10
113.4831678318723
 20
-123.7908935237398
 30
0.0
 10
113.6926296373755
 20
-123.9063042224956
 30
0.0
 10
113.7115776625443
 20
-124.0916503596021
 30
0.0
 10
113.7115776625443
 20
-124.2160183066196
 30
0.0
 10
113.7115776625443
 20
-124.387584061785
 30
0.0
 10
113.6650688734935
 20
-124.539168263136
 30
0.0
 10
113.4831678318723
 20
-124.6407985799509
 30
0.0
 10
113.2885199369557
 20
-124.751730654576
 30
0.0
 10
113.0514973675705
 20
-124.7720567179389
 30
0.0
 10
112.8888888606667
 20
-124.7720567179389
 30
0.0
 10
112.7448838693832
 20
-124.7720567179389
 30
0.0
 10
112.4930473894115
 20
-124.7537977118671
 30
0.0
 10
112.2942653799125
 20
-124.6407985799509
 30
0.0
 10
112.0913492558313
 20
-124.5257323907436
 30
0.0
 10
112.0679226065316
 20
-124.3538221260296
 30
0.0
 10
112.0679226065316
 20
-124.2160183066196
 30
0.0
 10
112.0679226065316
 20
-124.0461750991968
 30
0.0
 10
112.1123643382914
 20
-123.8925238405547
 30
0.0
 10
112.2942653799125
 20
-123.7908935237398
 30
0.0
 10
112.486846217538
 20
-123.6844400732456
 30
0.0
 10
112.7152560482101
 20
-123.6596353857518
 30
0.0
 10
112.8888888606667
 20
-123.6596353857518
 30
0.0
 10
113.0601101062836
 20
-123.6596353857518
 30
0.0
 10
113.2905869942468
 20
-123.6823730159544
 30
0.0
 10
113.4831678318723
 20
-123.7908935237398
 30
0.0
  0
SPLINE
  5
7F
330
7A
100
AcDbEntity
  8
_U+30EC_U+30A4_U+30E4_U+30FC 1
370
     0
100
AcDbSpline
210
0.0
220
0.0
230
1.0
 70
    11
 71
     3
 72
    17
 73
    13
 74
     0
 42
0.0000000001
 43
0.0000000001
 12
1.0
 22
0.0
 32
0.0
 13
1.0
 23
0.0
 33
0.0
 40
0.0
 40
0.0
 40
0.0
 40
0.0
 40
1.0
 40
1.0
 40
1.0
 40
2.0
 40
2.0
 40
2.0
 40
3.0
 40
3.0
 40
3.0
 40
4.0
 40
4.0
 40
4.0
 40
4.0
 10
112.2605034441571
 20
-124.2160183066196
 30
0.0
 10
112.2605034441571
 20
-124.482668697178
 30
0.0
 10
112.5440348025932
 20
-124.5322780721656
 30
0.0
 10
112.8888888606667
 20
-124.5322780721656
 30
0.0
 10
113.2082492121493
 20
-124.5322780721656
 30
0.0
 10
113.5169297676277
 20
-124.4940375122793
 30
0.0
 10
113.5169297676277
 20
-124.2160183066196
 30
0.0
 10
113.5169297676277
 20
-123.9514349733524
 30
0.0
 10
113.2358099760313
 20
-123.8994140315252
 30
0.0
 10
112.8888888606667
 20
-123.8994140315252
 30
0.0
 10
112.5691839996355
 20
-123.8994140315252
 30
0.0
 10
112.2605034441571
 20
-123.9400661582511
 30
0.0
 10
112.2605034441571
 20
-124.2160183066196
 30
0.0
  0
HATCH
  5
80
330
7A
100
AcDbEntity
  8
_U+30EC_U+30A4_U+30E4_U+30FC 1
 62
   179
420
  2234388
100
AcDbHatch
 10
0.0
 20
0.0
 30
0.0
210
0.0
220
0.0
230
1.0
  2
SOLID
 70
     1
 71
     0
 91
        2
 92
        1
 93
        1
 72
     4
 94
        3
 73
     0
 74
     1
 95
       29
 96
       25
 40
0.0
 40
0.0
 40
0.0
 40
0.0
 40
1.0
 40
1.0
 40
1.0
 40
2.0
 40
2.0
 40
2.0
 40
3.0
 40
3.0
 40
3.0
 40
4.0
 40
4.0
 40
4.0
 40
5.0
 40
5.0
 40
5.0
 40
6.0
 40
6.0
 40
6.0
 40
7.0
 40
7.0
 40
7.0
 40
8.0
 40
8.0
 40
8.0
 40
8.0
 10
113.4831678318723
 20
-123.7908935237398
 10
113.6926296373755
 20
-123.9063042224956
 10
113.7115776625443
 20
-124.0916503596021
 10
113.7115776625443
 20
-124.2160183066196
 10
113.7115776625443
 20
-124.387584061785
 10
113.6650688734935
 20
-124.539168263136
 10
113.4831678318723
 20
-124.6407985799509
 10
113.2885199369557
 20
-124.751730654576
 10
113.0514973675705
 20
-124.7720567179389
 10
112.8888888606667
 20
-124.7720567179389
 10
112.7448838693832
 20
-124.7720567179389
 10
112.4930473894115
 20
-124.7537977118671
 10
112.2942653799125
 20
-124.6407985799509
 10
112.0913492558313
 20
-124.5257323907436
 10
112.0679226065316
 20
-124.3538221260296
 10
112.0679226065316
 20
-124.2160183066196
 10
112.0679226065316
 20
-124.0461750991968
 10
112.1123643382914
 20
-123.8925238405547
 10
112.2942653799125
 20
-123.7908935237398
 10
112.486846217538
 20
-123.6844400732456
 10
112.7152560482101
 20
-123.6596353857518
 10
112.8888888606667
 20
-123.6596353857518
 10
113.0601101062836
 20
-123.6596353857518
 10
113.2905869942468
 20
-123.6823730159544
 10
113.4831678318723
 20
-123.7908935237398
 97
        0
 97
        0
 92
        1
 93
        1
 72
     4
 94
        3
 73
     0
 74
     1
 95
       17
 96
       13
 40
0.0
 40
0.0
 40
0.0
 40
0.0
 40
1.0
 40
1.0
 40
1.0
 40
2.0
 40
2.0
 40
2.0
 40
3.0
 40
3.0
 40
3.0
 40
4.0
 40
4.0
 40
4.0
 40
4.0
 10
112.2605034441571
 20
-124.2160183066196
 10
112.2605034441571
 20
-124.482668697178
 10
112.5440348025932
 20
-124.5322780721656
 10
112.8888888606667
 20
-124.5322780721656
 10
113.2082492121493
 20
-124.5322780721656
 10
113.5169297676277
 20
-124.4940375122793
 10
113.5169297676277
 20
-124.2160183066196
 10
113.5169297676277
 20
-123.9514349733524
 10
113.2358099760313
 20
-123.8994140315252
 10
112.8888888606667
 20
-123.8994140315252
 10
112.5691839996355
 20
-123.8994140315252
 10
112.2605034441571
 20
-123.9400661582511
 10
112.2605034441571
 20
-124.2160183066196
 97
        0
 97
        0
 75
     2
 76
     1
 98
        0
  0
POLYLINE
  5
81
330
7A
100
AcDbEntity
  8
_U+30EC_U+30A4_U+30E4_U+30FC 1
370
     0
100
AcDb2dPolyline
 66
     1
 10
0.0
 20
0.0
 30
0.0
  0
VERTEX
  5
82
330
81
100
AcDbEntity
  8
_U+30EC_U+30A4_U+30E4_U+30FC 1
370
     0
100
AcDbVertex
100
AcDb2dVertex
 10
113.6609347589112
 20
-123.4284694786915
 30
0.0
  0
VERTEX
  5
83
330
81
100
AcDbEntity
  8
_U+30EC_U+30A4_U+30E4_U+30FC 1
370
     0
100
AcDbVertex
100
AcDb2dVertex
 10
113.4090982789394
 20
-123.4284694786915
 30
0.0
  0
VERTEX
  5
84
330
81
100
AcDbEntity
  8
_U+30EC_U+30A4_U+30E4_U+30FC 1
370
     0
100
AcDbVertex
100
AcDb2dVertex
 10
113.4090982789394
 20
-123.1594075212935
 30
0.0
  0
VERTEX
  5
85
330
81
100
AcDbEntity
  8
_U+30EC_U+30A4_U+30E4_U+30FC 1
370
     0
100
AcDbVertex
100
AcDb2dVertex
 10
113.6609347589112
 20
-123.1594075212935
 30
0.0
  0
VERTEX
  5
86
330
81
100
AcDbEntity
  8
_U+30EC_U+30A4_U+30E4_U+30FC 1
370
     0
100
AcDbVertex
100
AcDb2dVertex
 10
113.6609347589112
 20
-123.4284694786915
 30
0.0
  0
SEQEND
  5
87
330
81
100
AcDbEntity
  8
_U+30EC_U+30A4_U+30E4_U+30FC 1
370
     0
  0
HATCH
  5
88
330
7A
100
AcDbEntity
  8
_U+30EC_U+30A4_U+30E4_U+30FC 1
 62
   179
420
  2234388
100
AcDbHatch
 10
0.0
 20
0.0
 30
0.0
210
0.0
220
0.0
230
1.0
  2
SOLID
 70
     1
 71
     0
 91
        1
 92
        1
 93
        4
 72
     1
 10
113.6609347589112
 20
-123.4284694786915
 11
113.4090982789394
 21
-123.4284694786915
 72
     1
 10
113.4090982789394
 20
-123.4284694786915
 11
113.4090982789394
 21
-123.1594075212935
 72
     1
 10
113.4090982789394
 20
-123.1594075212935
 11
113.6609347589112
 21
-123.1594075212935
 72
     1
 10
113.6609347589112
 20
-123.1594075212935
 11
113.6609347589112
 21
-123.4284694786915
 97
        0
 75
     2
 76
     1
 98
        0
  0
SPLINE
  5
89
330
7A
100
AcDbEntity
  8
_U+30EC_U+30A4_U+30E4_U+30FC 1
370
     0
100
AcDbSpline
210
0.0
220
0.0
230
1.0
 70
    11
 71
     3
 72
    29
 73
    25
 74
     0
 42
0.0000000001
 43
0.0000000001
 12
1.0
 22
0.0
 32
0.0
 13
1.0
 23
0.0
 33
0.0
 40
0.0
 40
0.0
 40
0.0
 40
0.0
 40
1.0
 40
1.0
 40
1.0
 40
2.0
 40
2.0
 40
2.0
 40
3.0
 40
3.0
 40
3.0
 40
4.0
 40
4.0
 40
4.0
 40
5.0
 40
5.0
 40
5.0
 40
6.0
 40
6.0
 40
6.0
 40
7.0
 40
7.0
 40
7.0
 40
8.0
 40
8.0
 40
8.0
 40
8.0
 10
113.7115776625443
 20
-122.3722032029139
 30
0.0
 10
113.7115776625443
 20
-122.6571125995441
 30
0.0
 10
113.5741183526829
 20
-122.9282416142332
 30
0.0
 10
113.2251301800271
 20
-122.9282416142332
 30
0.0
 10
112.969159585473
 20
-122.9282416142332
 30
0.0
 10
112.8740749500801
 20
-122.7766574128822
 30
0.0
 10
112.8127522504427
 20
-122.663658280966
 30
0.0
 10
112.7534966080964
 20
-122.7969834762452
 30
0.0
 10
112.6391194379861
 20
-122.8786322392456
 30
0.0
 10
112.4782334788249
 20
-122.8786322392456
 30
0.0
 10
112.203314859102
 20
-122.8786322392456
 30
0.0
 10
112.0679226065316
 20
-122.6660698478057
 30
0.0
 10
112.0679226065316
 20
-122.3722032029139
 30
0.0
 10
112.0679226065316
 20
-122.0690348002119
 30
0.0
 10
112.2119275978151
 20
-121.8657741665822
 30
0.0
 10
112.4782334788249
 20
-121.8657741665822
 30
0.0
 10
112.6391194379861
 20
-121.8657741665822
 30
0.0
 10
112.7534966080964
 20
-121.9491454773252
 30
0.0
 10
112.8127522504427
 20
-122.0828151821529
 30
0.0
 10
112.8633951540758
 20
-121.98773054676
 30
0.0
 10
112.9584797894687
 20
-121.8182318488857
 30
0.0
 10
113.2209960654448
 20
-121.8182318488857
 30
0.0
 10
113.5954779446914
 20
-121.8182318488857
 30
0.0
 10
113.7115776625443
 20
-122.1165771179084
 30
0.0
 10
113.7115776625443
 20
-122.3722032029139
 30
0.0
  0
SPLINE
  5
8A
330
7A
100
AcDbEntity
  8
_U+30EC_U+30A4_U+30E4_U+30FC 1
370
     0
100
AcDbSpline
210
0.0
220
0.0
230
1.0
 70
    11
 71
     3
 72
    17
 73
    13
 74
     0
 42
0.0000000001
 43
0.0000000001
 12
1.0
 22
0.0
 32
0.0
 13
1.0
 23
0.0
 33
0.0
 40
0.0
 40
0.0
 40
0.0
 40
0.0
 40
1.0
 40
1.0
 40
1.0
 40
2.0
 40
2.0
 40
2.0
 40
3.0
 40
3.0
 40
3.0
 40
4.0
 40
4.0
 40
4.0
 40
4.0
 10
112.2605034441571
 20
-122.3722032029139
 30
0.0
 10
112.2605034441571
 20
-122.5482475822102
 30
0.0
 10
112.35558807955
 20
-122.6388535934722
 30
0.0
 10
112.4909803321203
 20
-122.6388535934722
 30
0.0
 10
112.6136257313952
 20
-122.6388535934722
 30
0.0
 10
112.7321370160878
 20
-122.5620279641512
 30
0.0
 10
112.7321370160878
 20
-122.3722032029139
 30
0.0
 10
112.7321370160878
 20
-122.1820339321281
 30
0.0
 10
112.6136257313952
 20
-122.105208302807
 30
0.0
 10
112.4909803321203
 20
-122.105208302807
 30
0.0
 10
112.35558807955
 20
-122.105208302807
 30
0.0
 10
112.2605034441571
 20
-122.1978813713603
 30
0.0
 10
112.2605034441571
 20
-122.3722032029139
 30
0.0
  0
SPLINE
  5
8B
330
7A
100
AcDbEntity
  8
_U+30EC_U+30A4_U+30E4_U+30FC 1
370
     0
100
AcDbSpline
210
0.0
220
0.0
230
1.0
 70
    11
 71
     3
 72
    17
 73
    13
 74
     0
 42
0.0000000001
 43
0.0000000001
 12
1.0
 22
0.0
 32
0.0
 13
1.0
 23
0.0
 33
0.0
 40
0.0
 40
0.0
 40
0.0
 40
0.0
 40
1.0
 40
1.0
 40
1.0
 40
2.0
 40
2.0
 40
2.0
 40
3.0
 40
3.0
 40
3.0
 40
4.0
 40
4.0
 40
4.0
 40
4.0
 10
112.920583739131
 20
-122.3722032029139
 30
0.0
 10
112.920583739131
 20
-122.525854461556
 30
0.0
 10
113.0074001453593
 20
-122.6884629684598
 30
0.0
 10
113.2103162694405
 20
-122.6884629684598
 30
0.0
 10
113.4156439603614
 20
-122.6884629684598
 30
0.0
 10
113.5169297676277
 20
-122.5530707158895
 30
0.0
 10
113.5169297676277
 20
-122.3722032029139
 30
0.0
 10
113.5169297676277
 20
-122.1730766838665
 30
0.0
 10
113.3942843683528
 20
-122.0555989278194
 30
0.0
 10
113.2165174413139
 20
-122.0555989278194
 30
0.0
 10
112.9946532920638
 20
-122.0555989278194
 30
0.0
 10
112.920583739131
 20
-122.2295762498246
 30
0.0
 10
112.920583739131
 20
-122.3722032029139
 30
0.0
  0
HATCH
  5
8C
330
7A
100
AcDbEntity
  8
_U+30EC_U+30A4_U+30E4_U+30FC 1
 62
   179
420
  2234388
100
AcDbHatch
 10
0.0
 20
0.0
 30
0.0
210
0.0
220
0.0
230
1.0
  2
SOLID
 70
     1
 71
     0
 91
        3
 92
        1
 93
        1
 72
     4
 94
        3
 73
     0
 74
     1
 95
       29
 96
       25
 40
0.0
 40
0.0
 40
0.0
 40
0.0
 40
1.0
 40
1.0
 40
1.0
 40
2.0
 40
2.0
 40
2.0
 40
3.0
 40
3.0
 40
3.0
 40
4.0
 40
4.0
 40
4.0
 40
5.0
 40
5.0
 40
5.0
 40
6.0
 40
6.0
 40
6.0
 40
7.0
 40
7.0
 40
7.0
 40
8.0
 40
8.0
 40
8.0
 40
8.0
 10
113.7115776625443
 20
-122.3722032029139
 10
113.7115776625443
 20
-122.6571125995441
 10
113.5741183526829
 20
-122.9282416142332
 10
113.2251301800271
 20
-122.9282416142332
 10
112.969159585473
 20
-122.9282416142332
 10
112.8740749500801
 20
-122.7766574128822
 10
112.8127522504427
 20
-122.663658280966
 10
112.7534966080964
 20
-122.7969834762452
 10
112.6391194379861
 20
-122.8786322392456
 10
112.4782334788249
 20
-122.8786322392456
 10
112.203314859102
 20
-122.8786322392456
 10
112.0679226065316
 20
-122.6660698478057
 10
112.0679226065316
 20
-122.3722032029139
 10
112.0679226065316
 20
-122.0690348002119
 10
112.2119275978151
 20
-121.8657741665822
 10
112.4782334788249
 20
-121.8657741665822
 10
112.6391194379861
 20
-121.8657741665822
 10
112.7534966080964
 20
-121.9491454773252
 10
112.8127522504427
 20
-122.0828151821529
 10
112.8633951540758
 20
-121.98773054676
 10
112.9584797894687
 20
-121.8182318488857
 10
113.2209960654448
 20
-121.8182318488857
 10
113.5954779446914
 20
-121.8182318488857
 10
113.7115776625443
 20
-122.1165771179084
 10
113.7115776625443
 20
-122.3722032029139
 97
        0
 97
        0
 92
        1
 93
        1
 72
     4
 94
        3
 73
     0
 74
     1
 95
       17
 96
       13
 40
0.0
 40
0.0
 40
0.0
 40
0.0
 40
1.0
 40
1.0
 40
1.0
 40
2.0
 40
2.0
 40
2.0
 40
3.0
 40
3.0
 40
3.0
 40
4.0
 40
4.0
 40
4.0
 40
4.0
 10
112.2605034441571
 20
-122.3722032029139
 10
112.2605034441571
 20
-122.5482475822102
 10
112.35558807955
 20
-122.6388535934722
 10
112.4909803321203
 20
-122.6388535934722
 10
112.6136257313952
 20
-122.6388535934722
 10
112.7321370160878
 20
-122.5620279641512
 10
112.7321370160878
 20
-122.3722032029139
 10
112.7321370160878
 20
-122.1820339321281
 10
112.6136257313952
 20
-122.105208302807
 10
112.4909803321203
 20
-122.105208302807
 10
112.35558807955
 20
-122.105208302807
 10
112.2605034441571
 20
-122.1978813713603
 10
112.2605034441571
 20
-122.3722032029139
 97
        0
 97
        0
 92
        1
 93
        1
 72
     4
 94
        3
 73
     0
 74
     1
 95
       17
 96
       13
 40
0.0
 40
0.0
 40
0.0
 40
0.0
 40
1.0
 40
1.0
 40
1.0
 40
2.0
 40
2.0
 40
2.0
 40
3.0
 40
3.0
 40
3.0
 40
4.0
 40
4.0
 40
4.0
 40
4.0
 10
112.920583739131
 20
-122.3722032029139
 10
112.920583739131
 20
-122.525854461556
 10
113.0074001453593
 20
-122.6884629684598
 10
113.2103162694405
 20
-122.6884629684598
 10
113.4156439603614
 20
-122.6884629684598
 10
113.5169297676277
 20
-122.5530707158895
 10
113.5169297676277
 20
-122.3722032029139
 10
113.5169297676277
 20
-122.1730766838665
 10
113.3942843683528
 20
-122.0555989278194
 10
113.2165174413139
 20
-122.0555989278194
 10
112.9946532920638
 20
-122.0555989278194
 10
112.920583739131
 20
-122.2295762498246
 10
112.920583739131
 20
-122.3722032029139
 97
        0
 97
        0
 75
     2
 76
     1
 98
        0
  0
ENDBLK
  5
7D
330
7A
100
AcDbEntity
  8
0
100
AcDbBlockEnd
  0
BLOCK
  5
8F
330
8D
100
AcDbEntity
  8
0
100
AcDbBlockBegin
  2
block 4
 70
     0
 10
0.0
 20
0.0
 30
0.0
  3
block 4
  1

  0
POLYLINE
  5
91
330
8D
100
AcDbEntity
  8
_U+30EC_U+30A4_U+30E4_U+30FC 1
370
     0
100
AcDb2dPolyline
 66
     1
 10
0.0
 20
0.0
 30
0.0
  0
VERTEX
  5
92
330
91
100
AcDbEntity
  8
_U+30EC_U+30A4_U+30E4_U+30FC 1
370
     0
100
AcDbVertex
100
AcDb2dVertex
 10
113.196880397048
 20
-129.8625298069441
 30
0.0
  0
VERTEX
  5
93
330
91
100
AcDbEntity
  8
_U+30EC_U+30A4_U+30E4_U+30FC 1
370
     0
100
AcDbVertex
100
AcDb2dVertex
 10
113.5438015124127
 20
-129.8625298069441
 30
0.0
  0
VERTEX
  5
94
330
91
100
AcDbEntity
  8
_U+30EC_U+30A4_U+30E4_U+30FC 1
370
     0
100
AcDbVertex
100
AcDb2dVertex
 10
113.5438015124127
 20
-130.095418261747
 30
0.0
  0
VERTEX
  5
95
330
91
100
AcDbEntity
  8
_U+30EC_U+30A4_U+30E4_U+30FC 1
370
     0
100
AcDbVertex
100
AcDb2dVertex
 10
113.196880397048
 20
-130.095418261747
 30
0.0
  0
VERTEX
  5
96
330
91
100
AcDbEntity
  8
_U+30EC_U+30A4_U+30E4_U+30FC 1
370
     0
100
AcDbVertex
100
AcDb2dVertex
 10
113.196880397048
 20
-130.7964951929953
 30
0.0
  0
VERTEX
  5
97
330
91
100
AcDbEntity
  8
_U+30EC_U+30A4_U+30E4_U+30FC 1
370
     0
100
AcDbVertex
100
AcDb2dVertex
 10
112.9726046809582
 20
-130.7964951929953
 30
0.0
  0
VERTEX
  5
98
330
91
100
AcDbEntity
  8
_U+30EC_U+30A4_U+30E4_U+30FC 1
370
     0
100
AcDbVertex
100
AcDb2dVertex
 10
111.9993652063752
 20
-130.0706135742532
 30
0.0
  0
VERTEX
  5
99
330
91
100
AcDbEntity
  8
_U+30EC_U+30A4_U+30E4_U+30FC 1
370
     0
100
AcDbVertex
100
AcDb2dVertex
 10
111.9993652063752
 20
-129.8625298069441
 30
0.0
  0
VERTEX
  5
9A
330
91
100
AcDbEntity
  8
_U+30EC_U+30A4_U+30E4_U+30FC 1
370
     0
100
AcDbVertex
100
AcDb2dVertex
 10
112.9980983875491
 20
-129.8625298069441
 30
0.0
  0
VERTEX
  5
9B
330
91
100
AcDbEntity
  8
_U+30EC_U+30A4_U+30E4_U+30FC 1
370
     0
100
AcDbVertex
100
AcDb2dVertex
 10
112.9980983875491
 20
-129.6410101672425
 30
0.0
  0
VERTEX
  5
9C
330
91
100
AcDbEntity
  8
_U+30EC_U+30A4_U+30E4_U+30FC 1
370
     0
100
AcDbVertex
100
AcDb2dVertex
 10
113.196880397048
 20
-129.6410101672425
 30
0.0
  0
VERTEX
  5
9D
330
91
100
AcDbEntity
  8
_U+30EC_U+30A4_U+30E4_U+30FC 1
370
     0
100
AcDbVertex
100
AcDb2dVertex
 10
113.196880397048
 20
-129.8625298069441
 30
0.0
  0
SEQEND
  5
9E
330
91
100
AcDbEntity
  8
_U+30EC_U+30A4_U+30E4_U+30FC 1
370
     0
  0
POLYLINE
  5
9F
330
8D
100
AcDbEntity
  8
_U+30EC_U+30A4_U+30E4_U+30FC 1
370
     0
100
AcDb2dPolyline
 66
     1
 10
0.0
 20
0.0
 30
0.0
  0
VERTEX
  5
A0
330
9F
100
AcDbEntity
  8
_U+30EC_U+30A4_U+30E4_U+30FC 1
370
     0
100
AcDbVertex
100
AcDb2dVertex
 10
112.3421522071575
 20
-130.095418261747
 30
0.0
  0
VERTEX
  5
A1
330
9F
100
AcDbEntity
  8
_U+30EC_U+30A4_U+30E4_U+30FC 1
370
     0
100
AcDbVertex
100
AcDb2dVertex
 10
112.9980983875491
 20
-130.5839328015554
 30
0.0
  0
VERTEX
  5
A2
330
9F
100
AcDbEntity
  8
_U+30EC_U+30A4_U+30E4_U+30FC 1
370
     0
100
AcDbVertex
100
AcDb2dVertex
 10
112.9980983875491
 20
-130.095418261747
 30
0.0
  0
VERTEX
  5
A3
330
9F
100
AcDbEntity
  8
_U+30EC_U+30A4_U+30E4_U+30FC 1
370
     0
100
AcDbVertex
100
AcDb2dVertex
 10
112.3421522071575
 20
-130.095418261747
 30
0.0
  0
SEQEND
  5
A4
330
9F
100
AcDbEntity
  8
_U+30EC_U+30A4_U+30E4_U+30FC 1
370
     0
  0
HATCH
  5
A5
330
8D
100
AcDbEntity
  8
_U+30EC_U+30A4_U+30E4_U+30FC 1
 62
   179
420
  2234388
100
AcDbHatch
 10
0.0
 20
0.0
 30
0.0
210
0.0
220
0.0
230
1.0
  2
SOLID
 70
     1
 71
     0
 91
        2
 92
        1
 93
       11
 72
     1
 10
113.196880397048
 20
-129.8625298069441
 11
113.5438015124127
 21
-129.8625298069441
 72
     1
 10
113.5438015124127
 20
-129.8625298069441
 11
113.5438015124127
 21
-130.095418261747
 72
     1
 10
113.5438015124127
 20
-130.095418261747
 11
113.196880397048
 21
-130.095418261747
 72
     1
 10
113.196880397048
 20
-130.095418261747
 11
113.196880397048
 21
-130.7964951929953
 72
     1
 10
113.196880397048
 20
-130.7964951929953
 11
112.9726046809582
 21
-130.7964951929953
 72
     1
 10
112.9726046809582
 20
-130.7964951929953
 11
111.9993652063752
 21
-130.0706135742532
 72
     1
 10
111.9993652063752
 20
-130.0706135742532
 11
111.9993652063752
 21
-129.8625298069441
 72
     1
 10
111.9993652063752
 20
-129.8625298069441
 11
112.9980983875491
 21
-129.8625298069441
 72
     1
 10
112.9980983875491
 20
-129.8625298069441
 11
112.9980983875491
 21
-129.6410101672425
 72
     1
 10
112.9980983875491
 20
-129.6410101672425
 11
113.196880397048
 21
-129.6410101672425
 72
     1
 10
113.196880397048
 20
-129.6410101672425
 11
113.196880397048
 21
-129.8625298069441
 97
        0
 92
        1
 93
        3
 72
     1
 10
112.3421522071575
 20
-130.095418261747
 11
112.9980983875491
 21
-130.5839328015554
 72
     1
 10
112.9980983875491
 20
-130.5839328015554
 11
112.9980983875491
 21
-130.095418261747
 72
     1
 10
112.9980983875491
 20
-130.095418261747
 11
112.3421522071575
 21
-130.095418261747
 97
        0
 75
     2
 76
     1
 98
        0
  0
POLYLINE
  5
A6
330
8D
100
AcDbEntity
  8
_U+30EC_U+30A4_U+30E4_U+30FC 1
370
     0
100
AcDb2dPolyline
 66
     1
 10
0.0
 20
0.0
 30
0.0
  0
VERTEX
  5
A7
330
A6
100
AcDbEntity
  8
_U+30EC_U+30A4_U+30E4_U+30FC 1
370
     0
100
AcDbVertex
100
AcDb2dVertex
 10
113.5438015124127
 20
-129.4301703235452
 30
0.0
  0
VERTEX
  5
A8
330
A6
100
AcDbEntity
  8
_U+30EC_U+30A4_U+30E4_U+30FC 1
370
     0
100
AcDbVertex
100
AcDb2dVertex
 10
113.2919650324409
 20
-129.4301703235452
 30
0.0
  0
VERTEX
  5
A9
330
A6
100
AcDbEntity
  8
_U+30EC_U+30A4_U+30E4_U+30FC 1
370
     0
100
AcDbVertex
100
AcDb2dVertex
 10
113.2919650324409
 20
-129.1611083661472
 30
0.0
  0
VERTEX
  5
AA
330
A6
100
AcDbEntity
  8
_U+30EC_U+30A4_U+30E4_U+30FC 1
370
     0
100
AcDbVertex
100
AcDb2dVertex
 10
113.5438015124127
 20
-129.1611083661472
 30
0.0
  0
VERTEX
  5
AB
330
A6
100
AcDbEntity
  8
_U+30EC_U+30A4_U+30E4_U+30FC 1
370
     0
100
AcDbVertex
100
AcDb2dVertex
 10
113.5438015124127
 20
-129.4301703235452
 30
0.0
  0
SEQEND
  5
AC
330
A6
100
AcDbEntity
  8
_U+30EC_U+30A4_U+30E4_U+30FC 1
370
     0
  0
HATCH
  5
AD
330
8D
100
AcDbEntity
  8
_U+30EC_U+30A4_U+30E4_U+30FC 1
 62
   179
420
  2234388
100
AcDbHatch
 10
0.0
 20
0.0
 30
0.0
210
0.0
220
0.0
230
1.0
  2
SOLID
 70
     1
 71
     0
 91
        1
 92
        1
 93
        4
 72
     1
 10
113.5438015124127
 20
-129.4301703235452
 11
113.2919650324409
 21
-129.4301703235452
 72
     1
 10
113.2919650324409
 20
-129.4301703235452
 11
113.2919650324409
 21
-129.1611083661472
 72
     1
 10
113.2919650324409
 20
-129.1611083661472
 11
113.5438015124127
 21
-129.1611083661472
 72
     1
 10
113.5438015124127
 20
-129.1611083661472
 11
113.5438015124127
 21
-129.4301703235452
 97
        0
 75
     2
 76
     1
 98
        0
  0
SPLINE
  5
AE
330
8D
100
AcDbEntity
  8
_U+30EC_U+30A4_U+30E4_U+30FC 1
370
     0
100
AcDbSpline
210
0.0
220
0.0
230
1.0
 70
    11
 71
     3
 72
    53
 73
    49
 74
     0
 42
0.0000000001
 43
0.0000000001
 12
1.0
 22
0.0
 32
0.0
 13
1.0
 23
0.0
 33
0.0
 40
0.0
 40
0.0
 40
0.0
 40
0.0
 40
1.0
 40
1.0
 40
1.0
 40
2.0
 40
2.0
 40
2.0
 40
3.0
 40
3.0
 40
3.0
 40
4.0
 40
4.0
 40
4.0
 40
5.0
 40
5.0
 40
5.0
 40
6.0
 40
6.0
 40
6.0
 40
7.0
 40
7.0
 40
7.0
 40
8.0
 40
8.0
 40
8.0
 40
9.0
 40
9.0
 40
9.0
 40
10.0
 40
10.0
 40
10.0
 40
11.0
 40
11.0
 40
11.0
 40
12.0
 40
12.0
 40
12.0
 40
13.0
 40
13.0
 40
13.0
 40
14.0
 40
14.0
 40
14.0
 40
15.0
 40
15.0
 40
15.0
 40
16.0
 40
16.0
 40
16.0
 40
16.0
 10
113.5944444160458
 20
-128.3942301111306
 30
0.0
 10
113.5944444160458
 20
-128.4779459314222
 30
0.0
 10
113.5775634481681
 20
-128.586121929659
 30
0.0
 10
113.5141736912395
 20
-128.6949869469929
 30
0.0
 10
113.40427514526
 20
-128.8803330840994
 30
0.0
 10
113.273017007272
 20
-128.9027262047535
 30
0.0
 10
113.1651855185837
 20
-128.9230522681165
 30
0.0
 10
113.1651855185837
 20
-128.9230522681165
 30
0.0
 10
113.1651855185837
 20
-128.6856851891827
 30
0.0
 10
113.1651855185837
 20
-128.6856851891827
 30
0.0
 10
113.3639675280826
 20
-128.6271185659335
 30
0.0
 10
113.3935953492558
 20
-128.4913818038146
 30
0.0
 10
113.3935953492558
 20
-128.3918185442909
 30
0.0
 10
113.3935953492558
 20
-128.2426459097796
 30
0.0
 10
113.2940320897321
 20
-128.0796928933273
 30
0.0
 10
113.0614881444777
 20
-128.0796928933273
 30
0.0
 10
112.8055175499236
 20
-128.0796928933273
 30
0.0
 10
112.7355821115731
 20
-128.2719292214042
 30
0.0
 10
112.7355821115731
 20
-128.4007757925526
 30
0.0
 10
112.7355821115731
 20
-128.4348822378566
 30
0.0
 10
112.7355821115731
 20
-128.586121929659
 30
0.0
 10
112.8647731922699
 20
-128.6812065650519
 30
0.0
 10
112.8647731922699
 20
-128.6812065650519
 30
0.0
 10
112.8458251671011
 20
-128.868964268998
 30
0.0
 10
112.8458251671011
 20
-128.868964268998
 30
0.0
 10
112.8458251671011
 20
-128.868964268998
 30
0.0
 10
111.9993652063752
 20
-128.7401176978497
 30
0.0
 10
111.9993652063752
 20
-128.7401176978497
 30
0.0
 10
111.9993652063752
 20
-128.7401176978497
 30
0.0
 10
111.9993652063752
 20
-127.9081271381619
 30
0.0
 10
111.9993652063752
 20
-127.9081271381619
 30
0.0
 10
111.9993652063752
 20
-127.9081271381619
 30
0.0
 10
112.1940131012918
 20
-127.9081271381619
 30
0.0
 10
112.1940131012918
 20
-127.9081271381619
 30
0.0
 10
112.1940131012918
 20
-127.9081271381619
 30
0.0
 10
112.1940131012918
 20
-128.5657958662961
 30
0.0
 10
112.1940131012918
 20
-128.5657958662961
 30
0.0
 10
112.1940131012918
 20
-128.5657958662961
 30
0.0
 10
112.6170708268805
 20
-128.6360758141952
 30
0.0
 10
112.6170708268805
 20
-128.6360758141952
 30
0.0
 10
112.583308891125
 20
-128.5706189999754
 30
0.0
 10
112.5430012739476
 20
-128.482424555553
 30
0.0
 10
112.5430012739476
 20
-128.3556450416958
 30
0.0
 10
112.5430012739476
 20
-128.0845160270067
 30
0.0
 10
112.7293809396996
 20
-127.8313015088408
 30
0.0
 10
113.0425401193088
 20
-127.8313015088408
 30
0.0
 10
113.3598334135003
 20
-127.8313015088408
 30
0.0
 10
113.5944444160458
 20
-128.0707356450657
 30
0.0
 10
113.5944444160458
 20
-128.3942301111306
 30
0.0
  0
HATCH
  5
AF
330
8D
100
AcDbEntity
  8
_U+30EC_U+30A4_U+30E4_U+30FC 1
 62
   179
420
  2234388
100
AcDbHatch
 10
0.0
 20
0.0
 30
0.0
210
0.0
220
0.0
230
1.0
  2
SOLID
 70
     1
 71
     0
 91
        1
 92
        1
 93
        1
 72
     4
 94
        3
 73
     0
 74
     1
 95
       53
 96
       49
 40
0.0
 40
0.0
 40
0.0
 40
0.0
 40
1.0
 40
1.0
 40
1.0
 40
2.0
 40
2.0
 40
2.0
 40
3.0
 40
3.0
 40
3.0
 40
4.0
 40
4.0
 40
4.0
 40
5.0
 40
5.0
 40
5.0
 40
6.0
 40
6.0
 40
6.0
 40
7.0
 40
7.0
 40
7.0
 40
8.0
 40
8.0
 40
8.0
 40
9.0
 40
9.0
 40
9.0
 40
10.0
 40
10.0
 40
10.0
 40
11.0
 40
11.0
 40
11.0
 40
12.0
 40
12.0
 40
12.0
 40
13.0
 40
13.0
 40
13.0
 40
14.0
 40
14.0
 40
14.0
 40
15.0
 40
15.0
 40
15.0
 40
16.0
 40
16.0
 40
16.0
 40
16.0
 10
113.5944444160458
 20
-128.3942301111306
 10
113.5944444160458
 20
-128.4779459314222
 10
113.5775634481681
 20
-128.586121929659
 10
113.5141736912395
 20
-128.6949869469929
 10
113.40427514526
 20
-128.8803330840994
 10
113.273017007272
 20
-128.9027262047535
 10
113.1651855185837
 20
-128.9230522681165
 10
113.1651855185837
 20
-128.9230522681165
 10
113.1651855185837
 20
-128.6856851891827
 10
113.1651855185837
 20
-128.6856851891827
 10
113.3639675280826
 20
-128.6271185659335
 10
113.3935953492558
 20
-128.4913818038146
 10
113.3935953492558
 20
-128.3918185442909
 10
113.3935953492558
 20
-128.2426459097796
 10
113.2940320897321
 20
-128.0796928933273
 10
113.0614881444777
 20
-128.0796928933273
 10
112.8055175499236
 20
-128.0796928933273
 10
112.7355821115731
 20
-128.2719292214042
 10
112.7355821115731
 20
-128.4007757925526
 10
112.7355821115731
 20
-128.4348822378566
 10
112.7355821115731
 20
-128.586121929659
 10
112.8647731922699
 20
-128.6812065650519
 10
112.8647731922699
 20
-128.6812065650519
 10
112.8458251671011
 20
-128.868964268998
 10
112.8458251671011
 20
-128.868964268998
 10
112.8458251671011
 20
-128.868964268998
 10
111.9993652063752
 20
-128.7401176978497
 10
111.9993652063752
 20
-128.7401176978497
 10
111.9993652063752
 20
-128.7401176978497
 10
111.9993652063752
 20
-127.9081271381619
 10
111.9993652063752
 20
-127.9081271381619
 10
111.9993652063752
 20
-127.9081271381619
 10
112.1940131012918
 20
-127.9081271381619
 10
112.1940131012918
 20
-127.9081271381619
 10
112.1940131012918
 20
-127.9081271381619
 10
112.1940131012918
 20
-128.5657958662961
 10
112.1940131012918
 20
-128.5657958662961
 10
112.1940131012918
 20
-128.5657958662961
 10
112.6170708268805
 20
-128.6360758141952
 10
112.6170708268805
 20
-128.6360758141952
 10
112.583308891125
 20
-128.5706189999754
 10
112.5430012739476
 20
-128.482424555553
 10
112.5430012739476
 20
-128.3556450416958
 10
112.5430012739476
 20
-128.0845160270067
 10
112.7293809396996
 20
-127.8313015088408
 10
113.0425401193088
 20
-127.8313015088408
 10
113.3598334135003
 20
-127.8313015088408
 10
113.5944444160458
 20
-128.0707356450657
 10
113.5944444160458
 20
-128.3942301111306
 97
        0
 97
        0
 75
     2
 76
     1
 98
        0
  0
ENDBLK
  5
90
330
8D
100
AcDbEntity
  8
0
100
AcDbBlockEnd
  0
BLOCK
  5
B2
330
B0
100
AcDbEntity
  8
0
100
AcDbBlockBegin
  2
block 5
 70
     0
 10
0.0
 20
0.0
 30
0.0
  3
block 5
  1

  0
SPLINE
  5
B4
330
B0
100
AcDbEntity
  8
_U+30EC_U+30A4_U+30E4_U+30FC 1
370
     0
100
AcDbSpline
210
0.0
220
0.0
230
1.0
 70
    11
 71
     3
 72
    62
 73
    58
 74
     0
 42
0.0000000001
 43
0.0000000001
 12
1.0
 22
0.0
 32
0.0
 13
1.0
 23
0.0
 33
0.0
 40
0.0
 40
0.0
 40
0.0
 40
0.0
 40
1.0
 40
1.0
 40
1.0
 40
2.0
 40
2.0
 40
2.0
 40
3.0
 40
3.0
 40
3.0
 40
4.0
 40
4.0
 40
4.0
 40
5.0
 40
5.0
 40
5.0
 40
6.0
 40
6.0
 40
6.0
 40
7.0
 40
7.0
 40
7.0
 40
8.0
 40
8.0
 40
8.0
 40
9.0
 40
9.0
 40
9.0
 40
10.0
 40
10.0
 40
10.0
 40
11.0
 40
11.0
 40
11.0
 40
12.0
 40
12.0
 40
12.0
 40
13.0
 40
13.0
 40
13.0
 40
14.0
 40
14.0
 40
14.0
 40
15.0
 40
15.0
 40
15.0
 40
16.0
 40
16.0
 40
16.0
 40
17.0
 40
17.0
 40
17.0
 40
18.0
 40
18.0
 40
18.0
 40
19.0
 40
19.0
 40
19.0
 40
19.0
 10
113.7115776625443
 20
-133.005145908589
 30
0.0
 10
113.7115776625443
 20
-133.1067762254039
 30
0.0
 10
113.6905625800843
 20
-133.3396646802068
 30
0.0
 10
113.5045274238808
 20
-133.4729898754859
 30
0.0
 10
113.3922173110617
 20
-133.5522270716467
 30
0.0
 10
113.2929985610865
 20
-133.5567056957775
 30
0.0
 10
113.2082492121493
 20
-133.5611843199083
 30
0.0
 10
113.2082492121493
 20
-133.5611843199083
 30
0.0
 10
113.2082492121493
 20
-133.3262288078143
 30
0.0
 10
113.2082492121493
 20
-133.3262288078143
 30
0.0
 10
113.2823187650822
 20
-133.3238172409746
 30
0.0
 10
113.5169297676277
 20
-133.3124484258733
 30
0.0
 10
113.5169297676277
 20
-133.0096245327198
 30
0.0
 10
113.5169297676277
 20
-132.8625189554997
 30
0.0
 10
113.4473388388257
 20
-132.6999104485959
 30
0.0
 10
113.2189290081536
 20
-132.6999104485959
 30
0.0
 10
113.1024847807522
 20
-132.6999104485959
 30
0.0
 10
113.0539089344101
 20
-132.7405625753218
 30
0.0
 10
113.0222140559458
 20
-132.7746690206258
 30
0.0
 10
112.948144503013
 20
-132.853561707238
 30
0.0
 10
112.9353976497175
 20
-132.9779296542555
 30
0.0
 10
112.9353976497175
 20
-133.0368407870533
 30
0.0
 10
112.9353976497175
 20
-133.0571668504163
 30
0.0
 10
112.9374647070087
 20
-133.0954074103026
 30
0.0
 10
112.941598821591
 20
-133.1250352314757
 30
0.0
 10
112.941598821591
 20
-133.1250352314757
 30
0.0
 10
112.7469509266744
 20
-133.1250352314757
 30
0.0
 10
112.7469509266744
 20
-133.1250352314757
 30
0.0
 10
112.7534966080964
 20
-133.0843831047497
 30
0.0
 10
112.7555636653875
 20
-133.0389078443444
 30
0.0
 10
112.7555636653875
 20
-133.0323621629225
 30
0.0
 10
112.7555636653875
 20
-132.9620822150234
 30
0.0
 10
112.7342040733789
 20
-132.7495198235835
 30
0.0
 10
112.4975260135423
 20
-132.7495198235835
 30
0.0
 10
112.3197590865034
 20
-132.7495198235835
 30
0.0
 10
112.2646375587394
 20
-132.8897352098331
 30
0.0
 10
112.2646375587394
 20
-133.0072129658801
 30
0.0
 10
112.2646375587394
 20
-133.2900553052192
 30
0.0
 10
112.4975260135423
 20
-133.2990125534808
 30
0.0
 10
112.5691839996355
 20
-133.3034911776116
 30
0.0
 10
112.5691839996355
 20
-133.3034911776116
 30
0.0
 10
112.5691839996355
 20
-133.5205321931824
 30
0.0
 10
112.5691839996355
 20
-133.5205321931824
 30
0.0
 10
112.4444715430694
 20
-133.5115749449207
 30
0.0
 10
112.0679226065316
 20
-133.4822916332961
 30
0.0
 10
112.0679226065316
 20
-132.9937770934877
 30
0.0
 10
112.0679226065316
 20
-132.7539984477143
 30
0.0
 10
112.1950466299374
 20
-132.4963053054176
 30
0.0
 10
112.4909803321203
 20
-132.4963053054176
 30
0.0
 10
112.6773599978723
 20
-132.4963053054176
 30
0.0
 10
112.7596977799698
 20
-132.598280131781
 30
0.0
 10
112.8210204796073
 20
-132.7043890727267
 30
0.0
 10
112.8485812434892
 20
-132.6389322585069
 30
0.0
 10
112.9288519682956
 20
-132.4442843635903
 30
0.0
 10
113.2061821548582
 20
-132.4442843635903
 30
0.0
 10
113.5444905315097
 20
-132.4442843635903
 30
0.0
 10
113.7115776625443
 20
-132.7088676968575
 30
0.0
 10
113.7115776625443
 20
-133.005145908589
 30
0.0
  0
HATCH
  5
B5
330
B0
100
AcDbEntity
  8
_U+30EC_U+30A4_U+30E4_U+30FC 1
 62
   179
420
  2234388
100
AcDbHatch
 10
0.0
 20
0.0
 30
0.0
210
0.0
220
0.0
230
1.0
  2
SOLID
 70
     1
 71
     0
 91
        1
 92
        1
 93
        1
 72
     4
 94
        3
 73
     0
 74
     1
 95
       62
 96
       58
 40
0.0
 40
0.0
 40
0.0
 40
0.0
 40
1.0
 40
1.0
 40
1.0
 40
2.0
 40
2.0
 40
2.0
 40
3.0
 40
3.0
 40
3.0
 40
4.0
 40
4.0
 40
4.0
 40
5.0
 40
5.0
 40
5.0
 40
6.0
 40
6.0
 40
6.0
 40
7.0
 40
7.0
 40
7.0
 40
8.0
 40
8.0
 40
8.0
 40
9.0
 40
9.0
 40
9.0
 40
10.0
 40
10.0
 40
10.0
 40
11.0
 40
11.0
 40
11.0
 40
12.0
 40
12.0
 40
12.0
 40
13.0
 40
13.0
 40
13.0
 40
14.0
 40
14.0
 40
14.0
 40
15.0
 40
15.0
 40
15.0
 40
16.0
 40
16.0
 40
16.0
 40
17.0
 40
17.0
 40
17.0
 40
18.0
 40
18.0
 40
18.0
 40
19.0
 40
19.0
 40
19.0
 40
19.0
 10
113.7115776625443
 20
-133.005145908589
 10
113.7115776625443
 20
-133.1067762254039
 10
113.6905625800843
 20
-133.3396646802068
 10
113.5045274238808
 20
-133.4729898754859
 10
113.3922173110617
 20
-133.5522270716467
 10
113.2929985610865
 20
-133.5567056957775
 10
113.2082492121493
 20
-133.5611843199083
 10
113.2082492121493
 20
-133.5611843199083
 10
113.2082492121493
 20
-133.3262288078143
 10
113.2082492121493
 20
-133.3262288078143
 10
113.2823187650822
 20
-133.3238172409746
 10
113.5169297676277
 20
-133.3124484258733
 10
113.5169297676277
 20
-133.0096245327198
 10
113.5169297676277
 20
-132.8625189554997
 10
113.4473388388257
 20
-132.6999104485959
 10
113.2189290081536
 20
-132.6999104485959
 10
113.1024847807522
 20
-132.6999104485959
 10
113.0539089344101
 20
-132.7405625753218
 10
113.0222140559458
 20
-132.7746690206258
 10
112.948144503013
 20
-132.853561707238
 10
112.9353976497175
 20
-132.9779296542555
 10
112.9353976497175
 20
-133.0368407870533
 10
112.9353976497175
 20
-133.0571668504163
 10
112.9374647070087
 20
-133.0954074103026
 10
112.941598821591
 20
-133.1250352314757
 10
112.941598821591
 20
-133.1250352314757
 10
112.7469509266744
 20
-133.1250352314757
 10
112.7469509266744
 20
-133.1250352314757
 10
112.7534966080964
 20
-133.0843831047497
 10
112.7555636653875
 20
-133.0389078443444
 10
112.7555636653875
 20
-133.0323621629225
 10
112.7555636653875
 20
-132.9620822150234
 10
112.7342040733789
 20
-132.7495198235835
 10
112.4975260135423
 20
-132.7495198235835
 10
112.3197590865034
 20
-132.7495198235835
 10
112.2646375587394
 20
-132.8897352098331
 10
112.2646375587394
 20
-133.0072129658801
 10
112.2646375587394
 20
-133.2900553052192
 10
112.4975260135423
 20
-133.2990125534808
 10
112.5691839996355
 20
-133.3034911776116
 10
112.5691839996355
 20
-133.3034911776116
 10
112.5691839996355
 20
-133.5205321931824
 10
112.5691839996355
 20
-133.5205321931824
 10
112.4444715430694
 20
-133.5115749449207
 10
112.0679226065316
 20
-133.4822916332961
 10
112.0679226065316
 20
-132.9937770934877
 10
112.0679226065316
 20
-132.7539984477143
 10
112.1950466299374
 20
-132.4963053054176
 10
112.4909803321203
 20
-132.4963053054176
 10
112.6773599978723
 20
-132.4963053054176
 10
112.7596977799698
 20
-132.598280131781
 10
112.8210204796073
 20
-132.7043890727267
 10
112.8485812434892
 20
-132.6389322585069
 10
112.9288519682956
 20
-132.4442843635903
 10
113.2061821548582
 20
-132.4442843635903
 10
113.5444905315097
 20
-132.4442843635903
 10
113.7115776625443
 20
-132.7088676968575
 10
113.7115776625443
 20
-133.005145908589
 97
        0
 97
        0
 75
     2
 76
     1
 98
        0
  0
ENDBLK
  5
B3
330
B0
100
AcDbEntity
  8
0
100
AcDbBlockEnd
  0
BLOCK
  5
B8
330
B6
100
AcDbEntity
  8
0
100
AcDbBlockBegin
  2
block 6
 70
     0
 10
0.0
 20
0.0
 30
0.0
  3
block 6
  1

  0
SPLINE
  5
BA
330
B6
100
AcDbEntity
  8
_U+30EC_U+30A4_U+30E4_U+30FC 1
370
     0
100
AcDbSpline
210
0.0
220
0.0
230
1.0
 70
    11
 71
     3
 72
    26
 73
    22
 74
     0
 42
0.0000000001
 43
0.0000000001
 12
1.0
 22
0.0
 32
0.0
 13
1.0
 23
0.0
 33
0.0
 40
0.0
 40
0.0
 40
0.0
 40
0.0
 40
1.0
 40
1.0
 40
1.0
 40
2.0
 40
2.0
 40
2.0
 40
3.0
 40
3.0
 40
3.0
 40
4.0
 40
4.0
 40
4.0
 40
5.0
 40
5.0
 40
5.0
 40
6.0
 40
6.0
 40
6.0
 40
7.0
 40
7.0
 40
7.0
 40
7.0
 10
91.86105954734724
 20
-137.1433946054711
 30
0.0
 10
91.86105954734724
 20
-137.1433946054711
 30
0.0
 10
91.86105954734724
 20
-136.0392415024485
 30
0.0
 10
91.86105954734724
 20
-136.0392415024485
 30
0.0
 10
91.86105954734724
 20
-136.0392415024485
 30
0.0
 10
91.50828176965766
 20
-136.0392415024485
 30
0.0
 10
91.50828176965766
 20
-136.0392415024485
 30
0.0
 10
91.50828176965766
 20
-136.0392415024485
 30
0.0
 10
91.50828176965766
 20
-135.8911023965828
 30
0.0
 10
91.50828176965766
 20
-135.8911023965828
 30
0.0
 10
91.86347111418691
 20
-135.8762884859962
 30
0.0
 10
91.91308048917452
 20
-135.7133354695439
 30
0.0
 10
91.94477536763881
 20
-135.5989582994336
 30
0.0
 10
91.94477536763881
 20
-135.5989582994336
 30
0.0
 10
92.10083819312062
 20
-135.5989582994336
 30
0.0
 10
92.10083819312062
 20
-135.5989582994336
 30
0.0
 10
92.10083819312062
 20
-135.5989582994336
 30
0.0
 10
92.10083819312062
 20
-137.1433946054711
 30
0.0
 10
92.10083819312062
 20
-137.1433946054711
 30
0.0
 10
92.10083819312062
 20
-137.1433946054711
 30
0.0
 10
91.86105954734724
 20
-137.1433946054711
 30
0.0
 10
91.86105954734724
 20
-137.1433946054711
 30
0.0
  0
HATCH
  5
BB
330
B6
100
AcDbEntity
  8
_U+30EC_U+30A4_U+30E4_U+30FC 1
 62
   179
420
  2234388
100
AcDbHatch
 10
0.0
 20
0.0
 30
0.0
210
0.0
220
0.0
230
1.0
  2
SOLID
 70
     1
 71
     0
 91
        1
 92
        1
 93
        1
 72
     4
 94
        3
 73
     0
 74
     1
 95
       26
 96
       22
 40
0.0
 40
0.0
 40
0.0
 40
0.0
 40
1.0
 40
1.0
 40
1.0
 40
2.0
 40
2.0
 40
2.0
 40
3.0
 40
3.0
 40
3.0
 40
4.0
 40
4.0
 40
4.0
 40
5.0
 40
5.0
 40
5.0
 40
6.0
 40
6.0
 40
6.0
 40
7.0
 40
7.0
 40
7.0
 40
7.0
 10
91.86105954734724
 20
-137.1433946054711
 10
91.86105954734724
 20
-137.1433946054711
 10
91.86105954734724
 20
-136.0392415024485
 10
91.86105954734724
 20
-136.0392415024485
 10
91.86105954734724
 20
-136.0392415024485
 10
91.50828176965766
 20
-136.0392415024485
 10
91.50828176965766
 20
-136.0392415024485
 10
91.50828176965766
 20
-136.0392415024485
 10
91.50828176965766
 20
-135.8911023965828
 10
91.50828176965766
 20
-135.8911023965828
 10
91.86347111418691
 20
-135.8762884859962
 10
91.91308048917452
 20
-135.7133354695439
 10
91.94477536763881
 20
-135.5989582994336
 10
91.94477536763881
 20
-135.5989582994336
 10
92.10083819312062
 20
-135.5989582994336
 10
92.10083819312062
 20
-135.5989582994336
 10
92.10083819312062
 20
-135.5989582994336
 10
92.10083819312062
 20
-137.1433946054711
 10
92.10083819312062
 20
-137.1433946054711
 10
92.10083819312062
 20
-137.1433946054711
 10
91.86105954734724
 20
-137.1433946054711
 10
91.86105954734724
 20
-137.1433946054711
 97
        0
 97
        0
 75
     2
 76
     1
 98
        0
  0
SPLINE
  5
BC
330
B6
100
AcDbEntity
  8
_U+30EC_U+30A4_U+30E4_U+30FC 1
370
     0
100
AcDbSpline
210
0.0
220
0.0
230
1.0
 70
    11
 71
     3
 72
    29
 73
    25
 74
     0
 42
0.0000000001
 43
0.0000000001
 12
1.0
 22
0.0
 32
0.0
 13
1.0
 23
0.0
 33
0.0
 40
0.0
 40
0.0
 40
0.0
 40
0.0
 40
1.0
 40
1.0
 40
1.0
 40
2.0
 40
2.0
 40
2.0
 40
3.0
 40
3.0
 40
3.0
 40
4.0
 40
4.0
 40
4.0
 40
5.0
 40
5.0
 40
5.0
 40
6.0
 40
6.0
 40
6.0
 40
7.0
 40
7.0
 40
7.0
 40
8.0
 40
8.0
 40
8.0
 40
8.0
 10
93.59600963371906
 20
-136.9656276784322
 30
0.0
 10
93.48059893496318
 20
-137.1750894839354
 30
0.0
 10
93.29525279785675
 20
-137.1940375091043
 30
0.0
 10
93.17088485083923
 20
-137.1940375091043
 30
0.0
 10
92.99897458612526
 20
-137.1940375091043
 30
0.0
 10
92.8477348943228
 20
-137.1475287200534
 30
0.0
 10
92.7457600679594
 20
-136.9656276784322
 30
0.0
 10
92.63517250288288
 20
-136.7709797835156
 30
0.0
 10
92.61484643951991
 20
-136.5339572141304
 30
0.0
 10
92.61484643951991
 20
-136.3713487072266
 30
0.0
 10
92.61484643951991
 20
-136.2273437159432
 30
0.0
 10
92.6327609360432
 20
-135.9755072359714
 30
0.0
 10
92.7457600679594
 20
-135.7767252264725
 30
0.0
 10
92.86117076671526
 20
-135.5738091023913
 30
0.0
 10
93.03308103142923
 20
-135.5503824530916
 30
0.0
 10
93.17088485083923
 20
-135.5503824530916
 30
0.0
 10
93.34038354871352
 20
-135.5503824530916
 30
0.0
 10
93.49437931690419
 20
-135.5948241848513
 30
0.0
 10
93.59600963371906
 20
-135.7767252264725
 30
0.0
 10
93.70211857466475
 20
-135.969306064098
 30
0.0
 10
93.72692326215855
 20
-136.19771589477
 30
0.0
 10
93.72692326215855
 20
-136.3713487072266
 30
0.0
 10
93.72692326215855
 20
-136.5425699528435
 30
0.0
 10
93.70453014150442
 20
-136.7730468408068
 30
0.0
 10
93.59600963371906
 20
-136.9656276784322
 30
0.0
  0
SPLINE
  5
BD
330
B6
100
AcDbEntity
  8
_U+30EC_U+30A4_U+30E4_U+30FC 1
370
     0
100
AcDbSpline
210
0.0
220
0.0
230
1.0
 70
    11
 71
     3
 72
    17
 73
    13
 74
     0
 42
0.0000000001
 43
0.0000000001
 12
1.0
 22
0.0
 32
0.0
 13
1.0
 23
0.0
 33
0.0
 40
0.0
 40
0.0
 40
0.0
 40
0.0
 40
1.0
 40
1.0
 40
1.0
 40
2.0
 40
2.0
 40
2.0
 40
3.0
 40
3.0
 40
3.0
 40
4.0
 40
4.0
 40
4.0
 40
4.0
 10
93.17088485083923
 20
-135.7429632907171
 30
0.0
 10
92.90423446028089
 20
-135.7429632907171
 30
0.0
 10
92.85428057574477
 20
-136.0264946491531
 30
0.0
 10
92.85428057574477
 20
-136.3713487072266
 30
0.0
 10
92.85428057574477
 20
-136.6907090587093
 30
0.0
 10
92.89286564517957
 20
-136.9993896141877
 30
0.0
 10
93.17088485083923
 20
-136.9993896141877
 30
0.0
 10
93.43546818410641
 20
-136.9993896141877
 30
0.0
 10
93.48748912593369
 20
-136.7182698225913
 30
0.0
 10
93.48748912593369
 20
-136.3713487072266
 30
0.0
 10
93.48748912593369
 20
-136.0516438461954
 30
0.0
 10
93.44683699920773
 20
-135.7429632907171
 30
0.0
 10
93.17088485083923
 20
-135.7429632907171
 30
0.0
  0
HATCH
  5
BE
330
B6
100
AcDbEntity
  8
_U+30EC_U+30A4_U+30E4_U+30FC 1
 62
   179
420
  2234388
100
AcDbHatch
 10
0.0
 20
0.0
 30
0.0
210
0.0
220
0.0
230
1.0
  2
SOLID
 70
     1
 71
     0
 91
        2
 92
        1
 93
        1
 72
     4
 94
        3
 73
     0
 74
     1
 95
       29
 96
       25
 40
0.0
 40
0.0
 40
0.0
 40
0.0
 40
1.0
 40
1.0
 40
1.0
 40
2.0
 40
2.0
 40
2.0
 40
3.0
 40
3.0
 40
3.0
 40
4.0
 40
4.0
 40
4.0
 40
5.0
 40
5.0
 40
5.0
 40
6.0
 40
6.0
 40
6.0
 40
7.0
 40
7.0
 40
7.0
 40
8.0
 40
8.0
 40
8.0
 40
8.0
 10
93.59600963371906
 20
-136.9656276784322
 10
93.48059893496318
 20
-137.1750894839354
 10
93.29525279785675
 20
-137.1940375091043
 10
93.17088485083923
 20
-137.1940375091043
 10
92.99897458612526
 20
-137.1940375091043
 10
92.8477348943228
 20
-137.1475287200534
 10
92.7457600679594
 20
-136.9656276784322
 10
92.63517250288288
 20
-136.7709797835156
 10
92.61484643951991
 20
-136.5339572141304
 10
92.61484643951991
 20
-136.3713487072266
 10
92.61484643951991
 20
-136.2273437159432
 10
92.6327609360432
 20
-135.9755072359714
 10
92.7457600679594
 20
-135.7767252264725
 10
92.86117076671526
 20
-135.5738091023913
 10
93.03308103142923
 20
-135.5503824530916
 10
93.17088485083923
 20
-135.5503824530916
 10
93.34038354871352
 20
-135.5503824530916
 10
93.49437931690419
 20
-135.5948241848513
 10
93.59600963371906
 20
-135.7767252264725
 10
93.70211857466475
 20
-135.969306064098
 10
93.72692326215855
 20
-136.19771589477
 10
93.72692326215855
 20
-136.3713487072266
 10
93.72692326215855
 20
-136.5425699528435
 10
93.70453014150442
 20
-136.7730468408068
 10
93.59600963371906
 20
-136.9656276784322
 97
        0
 97
        0
 92
        1
 93
        1
 72
     4
 94
        3
 73
     0
 74
     1
 95
       17
 96
       13
 40
0.0
 40
0.0
 40
0.0
 40
0.0
 40
1.0
 40
1.0
 40
1.0
 40
2.0
 40
2.0
 40
2.0
 40
3.0
 40
3.0
 40
3.0
 40
4.0
 40
4.0
 40
4.0
 40
4.0
 10
93.17088485083923
 20
-135.7429632907171
 10
92.90423446028089
 20
-135.7429632907171
 10
92.85428057574477
 20
-136.0264946491531
 10
92.85428057574477
 20
-136.3713487072266
 10
92.85428057574477
 20
-136.6907090587093
 10
92.89286564517957
 20
-136.9993896141877
 10
93.17088485083923
 20
-136.9993896141877
 10
93.43546818410641
 20
-136.9993896141877
 10
93.48748912593369
 20
-136.7182698225913
 10
93.48748912593369
 20
-136.3713487072266
 10
93.48748912593369
 20
-136.0516438461954
 10
93.44683699920773
 20
-135.7429632907171
 10
93.17088485083923
 20
-135.7429632907171
 97
        0
 97
        0
 75
     2
 76
     1
 98
        0
  0
ENDBLK
  5
B9
330
B6
100
AcDbEntity
  8
0
100
AcDbBlockEnd
  0
BLOCK
  5
C1
330
BF
100
AcDbEntity
  8
0
100
AcDbBlockBegin
  2
block 7
 70
     0
 10
0.0
 20
0.0
 30
0.0
  3
block 7
  1

  0
SPLINE
  5
C3
330
BF
100
AcDbEntity
  8
_U+30EC_U+30A4_U+30E4_U+30FC 1
370
     0
100
AcDbSpline
210
0.0
220
0.0
230
1.0
 70
    11
 71
     3
 72
    44
 73
    40
 74
     0
 42
0.0000000001
 43
0.0000000001
 12
1.0
 22
0.0
 32
0.0
 13
1.0
 23
0.0
 33
0.0
 40
0.0
 40
0.0
 40
0.0
 40
0.0
 40
1.0
 40
1.0
 40
1.0
 40
2.0
 40
2.0
 40
2.0
 40
3.0
 40
3.0
 40
3.0
 40
4.0
 40
4.0
 40
4.0
 40
5.0
 40
5.0
 40
5.0
 40
6.0
 40
6.0
 40
6.0
 40
7.0
 40
7.0
 40
7.0
 40
8.0
 40
8.0
 40
8.0
 40
9.0
 40
9.0
 40
9.0
 40
10.0
 40
10.0
 40
10.0
 40
11.0
 40
11.0
 40
11.0
 40
12.0
 40
12.0
 40
12.0
 40
13.0
 40
13.0
 40
13.0
 40
13.0
 10
98.9827609344557
 20
-120.3600951847537
 30
0.0
 10
98.74987247965281
 20
-120.5187418318495
 30
0.0
 10
98.65030922012909
 20
-120.5928113847824
 30
0.0
 10
98.59828827830182
 20
-120.7366441212915
 30
0.0
 10
98.59828827830182
 20
-120.7366441212915
 30
0.0
 10
99.43062334753819
 20
-120.7366441212915
 30
0.0
 10
99.43062334753819
 20
-120.7366441212915
 30
0.0
 10
99.43062334753819
 20
-120.7366441212915
 30
0.0
 10
99.43062334753819
 20
-120.9417995574382
 30
0.0
 10
99.43062334753819
 20
-120.9417995574382
 30
0.0
 10
99.43062334753819
 20
-120.9417995574382
 30
0.0
 10
98.33163788774348
 20
-120.9417995574382
 30
0.0
 10
98.33163788774348
 20
-120.9417995574382
 30
0.0
 10
98.36574433304746
 20
-120.5841986460692
 30
0.0
 10
98.43567977139803
 20
-120.5059949785541
 30
0.0
 10
98.84702417233686
 20
-120.2076497095314
 30
0.0
 10
99.1205647538657
 20
-120.0088677000325
 30
0.0
 10
99.19084470176479
 20
-119.9411715737474
 30
0.0
 10
99.19084470176479
 20
-119.8037122638859
 30
0.0
 10
99.19084470176479
 20
-119.6852009791933
 30
0.0
 10
99.11401907244372
 20
-119.5541150959795
 30
0.0
 10
98.90352373829495
 20
-119.5541150959795
 30
0.0
 10
98.62550453263529
 20
-119.5541150959795
 30
0.0
 10
98.61654728437365
 20
-119.7845919839427
 30
0.0
 10
98.61206866024283
 20
-119.9010362113442
 30
0.0
 10
98.61206866024283
 20
-119.9010362113442
 30
0.0
 10
98.37229001446943
 20
-119.9010362113442
 30
0.0
 10
98.37229001446943
 20
-119.9010362113442
 30
0.0
 10
98.38124726273108
 20
-119.7740844427127
 30
0.0
 10
98.3926160778324
 20
-119.6619465846678
 30
0.0
 10
98.47874346496366
 20
-119.5434352999753
 30
0.0
 10
98.59622122101067
 20
-119.3827215955884
 30
0.0
 10
98.7950032305096
 20
-119.3487874050586
 30
0.0
 10
98.91937117752711
 20
-119.3487874050586
 30
0.0
 10
99.21564938925859
 20
-119.3487874050586
 30
0.0
 10
99.43716902896016
 20
-119.5329277587452
 30
0.0
 10
99.43716902896016
 20
-119.805779321177
 30
0.0
 10
99.43716902896016
 20
-120.0341891518491
 30
0.0
 10
99.31280108194264
 20
-120.1337524113728
 30
0.0
 10
98.9827609344557
 20
-120.3600951847537
 30
0.0
  0
HATCH
  5
C4
330
BF
100
AcDbEntity
  8
_U+30EC_U+30A4_U+30E4_U+30FC 1
 62
   179
420
  2234388
100
AcDbHatch
 10
0.0
 20
0.0
 30
0.0
210
0.0
220
0.0
230
1.0
  2
SOLID
 70
     1
 71
     0
 91
        1
 92
        1
 93
        1
 72
     4
 94
        3
 73
     0
 74
     1
 95
       44
 96
       40
 40
0.0
 40
0.0
 40
0.0
 40
0.0
 40
1.0
 40
1.0
 40
1.0
 40
2.0
 40
2.0
 40
2.0
 40
3.0
 40
3.0
 40
3.0
 40
4.0
 40
4.0
 40
4.0
 40
5.0
 40
5.0
 40
5.0
 40
6.0
 40
6.0
 40
6.0
 40
7.0
 40
7.0
 40
7.0
 40
8.0
 40
8.0
 40
8.0
 40
9.0
 40
9.0
 40
9.0
 40
10.0
 40
10.0
 40
10.0
 40
11.0
 40
11.0
 40
11.0
 40
12.0
 40
12.0
 40
12.0
 40
13.0
 40
13.0
 40
13.0
 40
13.0
 10
98.9827609344557
 20
-120.3600951847537
 10
98.74987247965281
 20
-120.5187418318495
 10
98.65030922012909
 20
-120.5928113847824
 10
98.59828827830182
 20
-120.7366441212915
 10
98.59828827830182
 20
-120.7366441212915
 10
99.43062334753819
 20
-120.7366441212915
 10
99.43062334753819
 20
-120.7366441212915
 10
99.43062334753819
 20
-120.7366441212915
 10
99.43062334753819
 20
-120.9417995574382
 10
99.43062334753819
 20
-120.9417995574382
 10
99.43062334753819
 20
-120.9417995574382
 10
98.33163788774348
 20
-120.9417995574382
 10
98.33163788774348
 20
-120.9417995574382
 10
98.36574433304746
 20
-120.5841986460692
 10
98.43567977139803
 20
-120.5059949785541
 10
98.84702417233686
 20
-120.2076497095314
 10
99.1205647538657
 20
-120.0088677000325
 10
99.19084470176479
 20
-119.9411715737474
 10
99.19084470176479
 20
-119.8037122638859
 10
99.19084470176479
 20
-119.6852009791933
 10
99.11401907244372
 20
-119.5541150959795
 10
98.90352373829495
 20
-119.5541150959795
 10
98.62550453263529
 20
-119.5541150959795
 10
98.61654728437365
 20
-119.7845919839427
 10
98.61206866024283
 20
-119.9010362113442
 10
98.61206866024283
 20
-119.9010362113442
 10
98.37229001446943
 20
-119.9010362113442
 10
98.37229001446943
 20
-119.9010362113442
 10
98.38124726273108
 20
-119.7740844427127
 10
98.3926160778324
 20
-119.6619465846678
 10
98.47874346496366
 20
-119.5434352999753
 10
98.59622122101067
 20
-119.3827215955884
 10
98.7950032305096
 20
-119.3487874050586
 10
98.91937117752711
 20
-119.3487874050586
 10
99.21564938925859
 20
-119.3487874050586
 10
99.43716902896016
 20
-119.5329277587452
 10
99.43716902896016
 20
-119.805779321177
 10
99.43716902896016
 20
-120.0341891518491
 10
99.31280108194264
 20
-120.1337524113728
 10
98.9827609344557
 20
-120.3600951847537
 97
        0
 97
        0
 75
     2
 76
     1
 98
        0
  0
SPLINE
  5
C5
330
BF
100
AcDbEntity
  8
_U+30EC_U+30A4_U+30E4_U+30FC 1
370
     0
100
AcDbSpline
210
0.0
220
0.0
230
1.0
 70
    11
 71
     3
 72
    62
 73
    58
 74
     0
 42
0.0000000001
 43
0.0000000001
 12
1.0
 22
0.0
 32
0.0
 13
1.0
 23
0.0
 33
0.0
 40
0.0
 40
0.0
 40
0.0
 40
0.0
 40
1.0
 40
1.0
 40
1.0
 40
2.0
 40
2.0
 40
2.0
 40
3.0
 40
3.0
 40
3.0
 40
4.0
 40
4.0
 40
4.0
 40
5.0
 40
5.0
 40
5.0
 40
6.0
 40
6.0
 40
6.0
 40
7.0
 40
7.0
 40
7.0
 40
8.0
 40
8.0
 40
8.0
 40
9.0
 40
9.0
 40
9.0
 40
10.0
 40
10.0
 40
10.0
 40
11.0
 40
11.0
 40
11.0
 40
12.0
 40
12.0
 40
12.0
 40
13.0
 40
13.0
 40
13.0
 40
14.0
 40
14.0
 40
14.0
 40
15.0
 40
15.0
 40
15.0
 40
16.0
 40
16.0
 40
16.0
 40
17.0
 40
17.0
 40
17.0
 40
18.0
 40
18.0
 40
18.0
 40
19.0
 40
19.0
 40
19.0
 40
19.0
 10
100.1320447883351
 20
-120.9926147158456
 30
0.0
 10
100.0304144715202
 20
-120.9926147158456
 30
0.0
 10
99.79752601671728
 20
-120.9714273786113
 30
0.0
 10
99.66420082143811
 20
-120.7852199676336
 30
0.0
 10
99.58496362527737
 20
-120.6730821095887
 30
0.0
 10
99.58048500114656
 20
-120.5736911048392
 30
0.0
 10
99.57600637701573
 20
-120.4891140106763
 30
0.0
 10
99.57600637701573
 20
-120.4891140106763
 30
0.0
 10
99.81096188910976
 20
-120.4891140106763
 30
0.0
 10
99.81096188910976
 20
-120.4891140106763
 30
0.0
 10
99.81337345594945
 20
-120.5631835636092
 30
0.0
 10
99.82474227105077
 20
-120.797966820929
 30
0.0
 10
100.1275661642042
 20
-120.797966820929
 30
0.0
 10
100.2746717414244
 20
-120.797966820929
 30
0.0
 10
100.4372802483282
 20
-120.7282036373527
 30
0.0
 10
100.4372802483282
 20
-120.4996215519063
 30
0.0
 10
100.4372802483282
 20
-120.3833495792792
 30
0.0
 10
100.3966281216022
 20
-120.3346014781629
 30
0.0
 10
100.3628661858468
 20
-120.3029065996986
 30
0.0
 10
100.283628989686
 20
-120.2288370467657
 30
0.0
 10
100.1592610426685
 20
-120.2162624482445
 30
0.0
 10
100.1003499098707
 20
-120.2162624482445
 30
0.0
 10
100.0800238465078
 20
-120.2162624482445
 30
0.0
 10
100.0417832866215
 20
-120.2183295055357
 30
0.0
 10
100.0121554654484
 20
-120.222463620118
 30
0.0
 10
100.0121554654484
 20
-120.222463620118
 30
0.0
 10
100.0121554654484
 20
-120.0278157252014
 30
0.0
 10
100.0121554654484
 20
-120.0278157252014
 30
0.0
 10
100.0528075921743
 20
-120.0341891518491
 30
0.0
 10
100.0982828525796
 20
-120.0364284639145
 30
0.0
 10
100.1048285340016
 20
-120.0364284639145
 30
0.0
 10
100.1751084819007
 20
-120.0364284639145
 30
0.0
 10
100.3876708733406
 20
-120.0152411266802
 30
0.0
 10
100.3876708733406
 20
-119.778218557295
 30
0.0
 10
100.3876708733406
 20
-119.6006238850304
 30
0.0
 10
100.2474554870909
 20
-119.5455023572664
 30
0.0
 10
100.1299777310439
 20
-119.5455023572664
 30
0.0
 10
99.84713539170488
 20
-119.5455023572664
 30
0.0
 10
99.83817814344324
 20
-119.778218557295
 30
0.0
 10
99.83369951931242
 20
-119.8502210529368
 30
0.0
 10
99.83369951931242
 20
-119.8502210529368
 30
0.0
 10
99.61665850374168
 20
-119.8502210529368
 30
0.0
 10
99.61665850374168
 20
-119.8502210529368
 30
0.0
 10
99.62561575200333
 20
-119.7253363415964
 30
0.0
 10
99.65489906362795
 20
-119.3487874050586
 30
0.0
 10
100.1434136034364
 20
-119.3487874050586
 30
0.0
 10
100.3831922492098
 20
-119.3487874050586
 30
0.0
 10
100.6408853915064
 20
-119.4757391736901
 30
0.0
 10
100.6408853915064
 20
-119.7718451306473
 30
0.0
 10
100.6408853915064
 20
-119.9580525416251
 30
0.0
 10
100.5389105651431
 20
-120.0405625784968
 30
0.0
 10
100.4328016241974
 20
-120.1018852781343
 30
0.0
 10
100.4982584384171
 20
-120.1294460420163
 30
0.0
 10
100.6929063333337
 20
-120.2098890215968
 30
0.0
 10
100.6929063333337
 20
-120.4870469533852
 30
0.0
 10
100.6929063333337
 20
-120.825527584811
 30
0.0
 10
100.4283230000665
 20
-120.9926147158456
 30
0.0
 10
100.1320447883351
 20
-120.9926147158456
 30
0.0
  0
HATCH
  5
C6
330
BF
100
AcDbEntity
  8
_U+30EC_U+30A4_U+30E4_U+30FC 1
 62
   179
420
  2234388
100
AcDbHatch
 10
0.0
 20
0.0
 30
0.0
210
0.0
220
0.0
230
1.0
  2
SOLID
 70
     1
 71
     0
 91
        1
 92
        1
 93
        1
 72
     4
 94
        3
 73
     0
 74
     1
 95
       62
 96
       58
 40
0.0
 40
0.0
 40
0.0
 40
0.0
 40
1.0
 40
1.0
 40
1.0
 40
2.0
 40
2.0
 40
2.0
 40
3.0
 40
3.0
 40
3.0
 40
4.0
 40
4.0
 40
4.0
 40
5.0
 40
5.0
 40
5.0
 40
6.0
 40
6.0
 40
6.0
 40
7.0
 40
7.0
 40
7.0
 40
8.0
 40
8.0
 40
8.0
 40
9.0
 40
9.0
 40
9.0
 40
10.0
 40
10.0
 40
10.0
 40
11.0
 40
11.0
 40
11.0
 40
12.0
 40
12.0
 40
12.0
 40
13.0
 40
13.0
 40
13.0
 40
14.0
 40
14.0
 40
14.0
 40
15.0
 40
15.0
 40
15.0
 40
16.0
 40
16.0
 40
16.0
 40
17.0
 40
17.0
 40
17.0
 40
18.0
 40
18.0
 40
18.0
 40
19.0
 40
19.0
 40
19.0
 40
19.0
 10
100.1320447883351
 20
-120.9926147158456
 10
100.0304144715202
 20
-120.9926147158456
 10
99.79752601671728
 20
-120.9714273786113
 10
99.66420082143811
 20
-120.7852199676336
 10
99.58496362527737
 20
-120.6730821095887
 10
99.58048500114656
 20
-120.5736911048392
 10
99.57600637701573
 20
-120.4891140106763
 10
99.57600637701573
 20
-120.4891140106763
 10
99.81096188910976
 20
-120.4891140106763
 10
99.81096188910976
 20
-120.4891140106763
 10
99.81337345594945
 20
-120.5631835636092
 10
99.82474227105077
 20
-120.797966820929
 10
100.1275661642042
 20
-120.797966820929
 10
100.2746717414244
 20
-120.797966820929
 10
100.4372802483282
 20
-120.7282036373527
 10
100.4372802483282
 20
-120.4996215519063
 10
100.4372802483282
 20
-120.3833495792792
 10
100.3966281216022
 20
-120.3346014781629
 10
100.3628661858468
 20
-120.3029065996986
 10
100.283628989686
 20
-120.2288370467657
 10
100.1592610426685
 20
-120.2162624482445
 10
100.1003499098707
 20
-120.2162624482445
 10
100.0800238465078
 20
-120.2162624482445
 10
100.0417832866215
 20
-120.2183295055357
 10
100.0121554654484
 20
-120.222463620118
 10
100.0121554654484
 20
-120.222463620118
 10
100.0121554654484
 20
-120.0278157252014
 10
100.0121554654484
 20
-120.0278157252014
 10
100.0528075921743
 20
-120.0341891518491
 10
100.0982828525796
 20
-120.0364284639145
 10
100.1048285340016
 20
-120.0364284639145
 10
100.1751084819007
 20
-120.0364284639145
 10
100.3876708733406
 20
-120.0152411266802
 10
100.3876708733406
 20
-119.778218557295
 10
100.3876708733406
 20
-119.6006238850304
 10
100.2474554870909
 20
-119.5455023572664
 10
100.1299777310439
 20
-119.5455023572664
 10
99.84713539170488
 20
-119.5455023572664
 10
99.83817814344324
 20
-119.778218557295
 10
99.83369951931242
 20
-119.8502210529368
 10
99.83369951931242
 20
-119.8502210529368
 10
99.61665850374168
 20
-119.8502210529368
 10
99.61665850374168
 20
-119.8502210529368
 10
99.62561575200333
 20
-119.7253363415964
 10
99.65489906362795
 20
-119.3487874050586
 10
100.1434136034364
 20
-119.3487874050586
 10
100.3831922492098
 20
-119.3487874050586
 10
100.6408853915064
 20
-119.4757391736901
 10
100.6408853915064
 20
-119.7718451306473
 10
100.6408853915064
 20
-119.9580525416251
 10
100.5389105651431
 20
-120.0405625784968
 10
100.4328016241974
 20
-120.1018852781343
 10
100.4982584384171
 20
-120.1294460420163
 10
100.6929063333337
 20
-120.2098890215968
 10
100.6929063333337
 20
-120.4870469533852
 10
100.6929063333337
 20
-120.825527584811
 10
100.4283230000665
 20
-120.9926147158456
 10
100.1320447883351
 20
-120.9926147158456
 97
        0
 97
        0
 75
     2
 76
     1
 98
        0
  0
ENDBLK
  5
C2
330
BF
100
AcDbEntity
  8
0
100
AcDbBlockEnd
  0
ENDSEC
  0
SECTION
  2
ENTITIES
  0
POLYLINE
  5
41
330
1F
100
AcDbEntity
  8
_U+30EC_U+30A4_U+30E4_U+30FC 1
  6
AI-Linetype-1
 62
   154
420
    23468
370
    25
100
AcDb2dPolyline
 66
     1
 10
0.0
 20
0.0
 30
0.0
  0
VERTEX
  5
42
330
41
100
AcDbEntity
  8
_U+30EC_U+30A4_U+30E4_U+30FC 1
  6
AI-Linetype-1
 62
   154
420
    23468
370
    25
100
AcDbVertex
100
AcDb2dVertex
 10
86.7631875087089
 20
-126.3886713572917
 30
0.0
  0
VERTEX
  5
43
330
41
100
AcDbEntity
  8
_U+30EC_U+30A4_U+30E4_U+30FC 1
  6
AI-Linetype-1
 62
   154
420
    23468
370
    25
100
AcDbVertex
100
AcDb2dVertex
 10
86.7631875087089
 20
-134.3890363552914
 30
0.0
  0
SEQEND
  5
45
330
41
100
AcDbEntity
  8
_U+30EC_U+30A4_U+30E4_U+30FC 1
  6
AI-Linetype-1
 62
   154
420
    23468
370
    25
  0
POLYLINE
  5
46
330
1F
100
AcDbEntity
  8
_U+30EC_U+30A4_U+30E4_U+30FC 1
 62
   179
420
  2234388
370
     9
100
AcDb2dPolyline
 66
     1
 10
0.0
 20
0.0
 30
0.0
  0
VERTEX
  5
47
330
46
100
AcDbEntity
  8
_U+30EC_U+30A4_U+30E4_U+30FC 1
 62
   179
420
  2234388
370
     9
100
AcDbVertex
100
AcDb2dVertex
 10
86.65343834484217
 20
-134.3890363552914
 30
0.0
  0
VERTEX
  5
48
330
46
100
AcDbEntity
  8
_U+30EC_U+30A4_U+30E4_U+30FC 1
 62
   179
420
  2234388
370
     9
100
AcDbVertex
100
AcDb2dVertex
 10
85.65370142590314
 20
-134.3890363552914
 30
0.0
  0
SEQEND
  5
49
330
46
100
AcDbEntity
  8
_U+30EC_U+30A4_U+30E4_U+30FC 1
 62
   179
420
  2234388
370
     9
  0
POLYLINE
  5
4A
330
1F
100
AcDbEntity
  8
_U+30EC_U+30A4_U+30E4_U+30FC 1
 62
   179
420
  2234388
370
     9
100
AcDb2dPolyline
 66
     1
 10
0.0
 20
0.0
 30
0.0
  0
VERTEX
  5
4B
330
4A
100
AcDbEntity
  8
_U+30EC_U+30A4_U+30E4_U+30FC 1
 62
   179
420
  2234388
370
     9
100
AcDbVertex
100
AcDb2dVertex
 10
86.65343834484217
 20
-134.3890363552914
 30
0.0
  0
VERTEX
  5
4C
330
4A
100
AcDbEntity
  8
_U+30EC_U+30A4_U+30E4_U+30FC 1
 62
   179
420
  2234388
370
     9
100
AcDbVertex
100
AcDb2dVertex
 10
76.99445553630709
 20
-136.9776844102
 30
0.0
  0
SEQEND
  5
4D
330
4A
100
AcDbEntity
  8
_U+30EC_U+30A4_U+30E4_U+30FC 1
 62
   179
420
  2234388
370
     9
  0
POLYLINE
  5
4E
330
1F
100
AcDbEntity
  8
_U+30EC_U+30A4_U+30E4_U+30FC 1
 62
   179
420
  2234388
370
     9
100
AcDb2dPolyline
 66
     1
 10
0.0
 20
0.0
 30
0.0
  0
VERTEX
  5
4F
330
4E
100
AcDbEntity
  8
_U+30EC_U+30A4_U+30E4_U+30FC 1
 62
   179
420
  2234388
370
     9
100
AcDbVertex
100
AcDb2dVertex
 10
86.65343834484217
 20
-134.3890363552914
 30
0.0
  0
VERTEX
  5
50
330
4E
100
AcDbEntity
  8
_U+30EC_U+30A4_U+30E4_U+30FC 1
 62
   179
420
  2234388
370
     9
100
AcDbVertex
100
AcDb2dVertex
 10
85.78751003360051
 20
-134.8885696885003
 30
0.0
  0
SEQEND
  5
51
330
4E
100
AcDbEntity
  8
_U+30EC_U+30A4_U+30E4_U+30FC 1
 62
   179
420
  2234388
370
     9
  0
INSERT
  5
53
330
1F
100
AcDbEntity
  8
_U+30EC_U+30A4_U+30E4_U+30FC 1
100
AcDbBlockReference
  2
block 2
 10
0.0
 20
0.0
 30
0.0
  0
INSERT
  5
7B
330
1F
100
AcDbEntity
  8
_U+30EC_U+30A4_U+30E4_U+30FC 1
100
AcDbBlockReference
  2
block 3
 10
0.0
 20
0.0
 30
0.0
  0
INSERT
  5
8E
330
1F
100
AcDbEntity
  8
_U+30EC_U+30A4_U+30E4_U+30FC 1
100
AcDbBlockReference
  2
block 4
 10
0.0
 20
0.0
 30
0.0
  0
INSERT
  5
B1
330
1F
100
AcDbEntity
  8
_U+30EC_U+30A4_U+30E4_U+30FC 1
100
AcDbBlockReference
  2
block 5
 10
0.0
 20
0.0
 30
0.0
  0
INSERT
  5
B7
330
1F
100
AcDbEntity
  8
_U+30EC_U+30A4_U+30E4_U+30FC 1
100
AcDbBlockReference
  2
block 6
 10
0.0
 20
0.0
 30
0.0
  0
INSERT
  5
C0
330
1F
100
AcDbEntity
  8
_U+30EC_U+30A4_U+30E4_U+30FC 1
100
AcDbBlockReference
  2
block 7
 10
0.0
 20
0.0
 30
0.0
  0
POLYLINE
  5
C7
330
1F
100
AcDbEntity
  8
_U+30EC_U+30A4_U+30E4_U+30FC 1
 62
   179
420
  2234388
370
    25
100
AcDb2dPolyline
 66
     1
 10
0.0
 20
0.0
 30
0.0
  0
VERTEX
  5
C8
330
C7
100
AcDbEntity
  8
_U+30EC_U+30A4_U+30E4_U+30FC 1
 62
   179
420
  2234388
370
    25
100
AcDbVertex
100
AcDb2dVertex
 10
87.46631108924443
 20
-126.2937388573153
 30
0.0
  0
VERTEX
  5
C9
330
C7
100
AcDbEntity
  8
_U+30EC_U+30A4_U+30E4_U+30FC 1
 62
   179
420
  2234388
370
    25
100
AcDbVertex
100
AcDb2dVertex
 10
110.4662905151035
 20
-126.2937388573153
 30
0.0
  0
SEQEND
  5
CA
330
C7
100
AcDbEntity
  8
_U+30EC_U+30A4_U+30E4_U+30FC 1
 62
   179
420
  2234388
370
    25
  0
POLYLINE
  5
CB
330
1F
100
AcDbEntity
  8
_U+30EC_U+30A4_U+30E4_U+30FC 1
 62
   179
420
  2234388
370
    25
100
AcDb2dPolyline
 66
     1
 10
0.0
 20
0.0
 30
0.0
  0
VERTEX
  5
CC
330
CB
100
AcDbEntity
  8
_U+30EC_U+30A4_U+30E4_U+30FC 1
 62
   179
420
  2234388
370
    25
100
AcDbVertex
100
AcDb2dVertex
 10
88.26662052590868
 20
-127.0936977460043
 30
0.0
  0
VERTEX
  5
CD
330
CB
100
AcDbEntity
  8
_U+30EC_U+30A4_U+30E4_U+30FC 1
 62
   179
420
  2234388
370
    25
100
AcDbVertex
100
AcDb2dVertex
 10
110.4662905151035
 20
-127.0936977460043
 30
0.0
  0
SEQEND
  5
CE
330
CB
100
AcDbEntity
  8
_U+30EC_U+30A4_U+30E4_U+30FC 1
 62
   179
420
  2234388
370
    25
  0
POLYLINE
  5
CF
330
1F
100
AcDbEntity
  8
_U+30EC_U+30A4_U+30E4_U+30FC 1
 62
   179
420
  2234388
370
    25
100
AcDb2dPolyline
 66
     1
 10
0.0
 20
0.0
 30
0.0
  0
VERTEX
  5
D0
330
CF
100
AcDbEntity
  8
_U+30EC_U+30A4_U+30E4_U+30FC 1
 62
   179
420
  2234388
370
    25
100
AcDbVertex
100
AcDb2dVertex
 10
110.4662905151035
 20
-126.2937388573153
 30
0.0
  0
VERTEX
  5
D1
330
CF
100
AcDbEntity
  8
_U+30EC_U+30A4_U+30E4_U+30FC 1
 62
   179
420
  2234388
370
    25
100
AcDbVertex
100
AcDb2dVertex
 10
110.4662905151035
 20
-127.0936977460043
 30
0.0
  0
SEQEND
  5
D2
330
CF
100
AcDbEntity
  8
_U+30EC_U+30A4_U+30E4_U+30FC 1
 62
   179
420
  2234388
370
    25
  0
POLYLINE
  5
D3
330
1F
100
AcDbEntity
  8
_U+30EC_U+30A4_U+30E4_U+30FC 1
 62
   179
420
  2234388
370
    25
100
AcDb2dPolyline
 66
     1
 10
0.0
 20
0.0
 30
0.0
  0
VERTEX
  5
D4
330
D3
100
AcDbEntity
  8
_U+30EC_U+30A4_U+30E4_U+30FC 1
 62
   179
420
  2234388
370
    25
100
AcDbVertex
100
AcDb2dVertex
 10
93.46614150436896
 20
-131.4944594115709
 30
0.0
  0
VERTEX
  5
D5
330
D3
100
AcDbEntity
  8
_U+30EC_U+30A4_U+30E4_U+30FC 1
 62
   179
420
  2234388
370
    25
100
AcDbVertex
100
AcDb2dVertex
 10
97.46657084675395
 20
-131.4944594115709
 30
0.0
  0
SEQEND
  5
D6
330
D3
100
AcDbEntity
  8
_U+30EC_U+30A4_U+30E4_U+30FC 1
 62
   179
420
  2234388
370
    25
  0
POLYLINE
  5
D7
330
1F
100
AcDbEntity
  8
_U+30EC_U+30A4_U+30E4_U+30FC 1
 62
   179
420
  2234388
370
    25
100
AcDb2dPolyline
 66
     1
 10
0.0
 20
0.0
 30
0.0
  0
VERTEX
  5
D8
330
D7
100
AcDbEntity
  8
_U+30EC_U+30A4_U+30E4_U+30FC 1
 62
   179
420
  2234388
370
    25
100
AcDbVertex
100
AcDb2dVertex
 10
87.46631108924443
 20
-134.4944463552652
 30
0.0
  0
VERTEX
  5
D9
330
D7
100
AcDbEntity
  8
_U+30EC_U+30A4_U+30E4_U+30FC 1
 62
   179
420
  2234388
370
    25
100
AcDbVertex
100
AcDb2dVertex
 10
97.46657084675395
 20
-134.4944463552652
 30
0.0
  0
SEQEND
  5
DA
330
D7
100
AcDbEntity
  8
_U+30EC_U+30A4_U+30E4_U+30FC 1
 62
   179
420
  2234388
370
    25
  0
POLYLINE
  5
DB
330
1F
100
AcDbEntity
  8
_U+30EC_U+30A4_U+30E4_U+30FC 1
 62
   179
420
  2234388
370
    25
100
AcDb2dPolyline
 66
     1
 10
0.0
 20
0.0
 30
0.0
  0
VERTEX
  5
DC
330
DB
100
AcDbEntity
  8
_U+30EC_U+30A4_U+30E4_U+30FC 1
 62
   179
420
  2234388
370
    25
100
AcDbVertex
100
AcDb2dVertex
 10
97.46657084675395
 20
-131.4944594115709
 30
0.0
  0
VERTEX
  5
DD
330
DB
100
AcDbEntity
  8
_U+30EC_U+30A4_U+30E4_U+30FC 1
 62
   179
420
  2234388
370
    25
100
AcDbVertex
100
AcDb2dVertex
 10
97.46657084675395
 20
-134.4944463552652
 30
0.0
  0
SEQEND
  5
DE
330
DB
100
AcDbEntity
  8
_U+30EC_U+30A4_U+30E4_U+30FC 1
 62
   179
420
  2234388
370
    25
  0
POLYLINE
  5
DF
330
1F
100
AcDbEntity
  8
_U+30EC_U+30A4_U+30E4_U+30FC 1
 62
   179
420
  2234388
370
    25
100
AcDb2dPolyline
 66
     1
 10
0.0
 20
0.0
 30
0.0
  0
VERTEX
  5
E0
330
DF
100
AcDbEntity
  8
_U+30EC_U+30A4_U+30E4_U+30FC 1
 62
   179
420
  2234388
370
    25
100
AcDbVertex
100
AcDb2dVertex
 10
93.46614150436896
 20
-131.4944594115709
 30
0.0
  0
VERTEX
  5
E1
330
DF
100
AcDbEntity
  8
_U+30EC_U+30A4_U+30E4_U+30FC 1
 62
   179
420
  2234388
370
    25
100
AcDbVertex
100
AcDb2dVertex
 10
93.46614150436896
 20
-132.2944183002595
 30
0.0
  0
SEQEND
  5
E2
330
DF
100
AcDbEntity
  8
_U+30EC_U+30A4_U+30E4_U+30FC 1
 62
   179
420
  2234388
370
    25
  0
POLYLINE
  5
E3
330
1F
100
AcDbEntity
  8
_U+30EC_U+30A4_U+30E4_U+30FC 1
 62
   179
420
  2234388
370
    25
100
AcDb2dPolyline
 66
     1
 10
0.0
 20
0.0
 30
0.0
  0
VERTEX
  5
E4
330
E3
100
AcDbEntity
  8
_U+30EC_U+30A4_U+30E4_U+30FC 1
 62
   179
420
  2234388
370
    25
100
AcDbVertex
100
AcDb2dVertex
 10
88.26662052590868
 20
-133.6945227443541
 30
0.0
  0
VERTEX
  5
E5
330
E3
100
AcDbEntity
  8
_U+30EC_U+30A4_U+30E4_U+30FC 1
 62
   179
420
  2234388
370
    25
100
AcDbVertex
100
AcDb2dVertex
 10
96.66661197827372
 20
-133.6945227443541
 30
0.0
  0
SEQEND
  5
E6
330
E3
100
AcDbEntity
  8
_U+30EC_U+30A4_U+30E4_U+30FC 1
 62
   179
420
  2234388
370
    25
  0
POLYLINE
  5
E7
330
1F
100
AcDbEntity
  8
_U+30EC_U+30A4_U+30E4_U+30FC 1
 62
   179
420
  2234388
370
    25
100
AcDb2dPolyline
 66
     1
 10
0.0
 20
0.0
 30
0.0
  0
VERTEX
  5
E8
330
E7
100
AcDbEntity
  8
_U+30EC_U+30A4_U+30E4_U+30FC 1
 62
   179
420
  2234388
370
    25
100
AcDbVertex
100
AcDb2dVertex
 10
96.66661197827372
 20
-132.2944183002595
 30
0.0
  0
VERTEX
  5
E9
330
E7
100
AcDbEntity
  8
_U+30EC_U+30A4_U+30E4_U+30FC 1
 62
   179
420
  2234388
370
    25
100
AcDbVertex
100
AcDb2dVertex
 10
96.66661197827372
 20
-133.6945227443541
 30
0.0
  0
SEQEND
  5
EA
330
E7
100
AcDbEntity
  8
_U+30EC_U+30A4_U+30E4_U+30FC 1
 62
   179
420
  2234388
370
    25
  0
POLYLINE
  5
EB
330
1F
100
AcDbEntity
  8
_U+30EC_U+30A4_U+30E4_U+30FC 1
 62
   179
420
  2234388
370
    25
100
AcDb2dPolyline
 66
     1
 10
0.0
 20
0.0
 30
0.0
  0
VERTEX
  5
EC
330
EB
100
AcDbEntity
  8
_U+30EC_U+30A4_U+30E4_U+30FC 1
 62
   179
420
  2234388
370
    25
100
AcDbVertex
100
AcDb2dVertex
 10
93.46614150436896
 20
-132.2944183002595
 30
0.0
  0
VERTEX
  5
ED
330
EB
100
AcDbEntity
  8
_U+30EC_U+30A4_U+30E4_U+30FC 1
 62
   179
420
  2234388
370
    25
100
AcDbVertex
100
AcDb2dVertex
 10
96.66661197827372
 20
-132.2944183002595
 30
0.0
  0
SEQEND
  5
EE
330
EB
100
AcDbEntity
  8
_U+30EC_U+30A4_U+30E4_U+30FC 1
 62
   179
420
  2234388
370
    25
  0
POLYLINE
  5
EF
330
1F
100
AcDbEntity
  8
_U+30EC_U+30A4_U+30E4_U+30FC 1
 62
   179
420
  2234388
370
    25
100
AcDb2dPolyline
 66
     1
 10
0.0
 20
0.0
 30
0.0
  0
VERTEX
  5
F0
330
EF
100
AcDbEntity
  8
_U+30EC_U+30A4_U+30E4_U+30FC 1
 62
   179
420
  2234388
370
    25
100
AcDbVertex
100
AcDb2dVertex
 10
87.46631108924443
 20
-126.2951499684264
 30
0.0
  0
VERTEX
  5
F1
330
EF
100
AcDbEntity
  8
_U+30EC_U+30A4_U+30E4_U+30FC 1
 62
   179
420
  2234388
370
    25
100
AcDbVertex
100
AcDb2dVertex
 10
87.46631108924443
 20
-134.4944463552652
 30
0.0
  0
SEQEND
  5
F2
330
EF
100
AcDbEntity
  8
_U+30EC_U+30A4_U+30E4_U+30FC 1
 62
   179
420
  2234388
370
    25
  0
POLYLINE
  5
F3
330
1F
100
AcDbEntity
  8
_U+30EC_U+30A4_U+30E4_U+30FC 1
 62
   179
420
  2234388
370
    25
100
AcDb2dPolyline
 66
     1
 10
0.0
 20
0.0
 30
0.0
  0
VERTEX
  5
F4
330
F3
100
AcDbEntity
  8
_U+30EC_U+30A4_U+30E4_U+30FC 1
 62
   179
420
  2234388
370
    25
100
AcDbVertex
100
AcDb2dVertex
 10
88.26662052590868
 20
-127.0950735793375
 30
0.0
  0
VERTEX
  5
F5
330
F3
100
AcDbEntity
  8
_U+30EC_U+30A4_U+30E4_U+30FC 1
 62
   179
420
  2234388
370
    25
100
AcDbVertex
100
AcDb2dVertex
 10
88.26662052590868
 20
-133.6945227443541
 30
0.0
  0
SEQEND
  5
F6
330
F3
100
AcDbEntity
  8
_U+30EC_U+30A4_U+30E4_U+30FC 1
 62
   179
420
  2234388
370
    25
  0
SPLINE
  5
F7
330
1F
100
AcDbEntity
  8
_U+30EC_U+30A4_U+30E4_U+30FC 1
 62
   179
420
  2234388
370
     9
100
AcDbSpline
210
0.0
220
0.0
230
1.0
 70
    11
 71
     3
 72
    17
 73
    13
 74
     0
 42
0.0000000001
 43
0.0000000001
 12
1.0
 22
0.0
 32
0.0
 13
1.0
 23
0.0
 33
0.0
 40
0.0
 40
0.0
 40
0.0
 40
0.0
 40
1.0
 40
1.0
 40
1.0
 40
2.0
 40
2.0
 40
2.0
 40
3.0
 40
3.0
 40
3.0
 40
4.0
 40
4.0
 40
4.0
 40
4.0
 10
114.5663090216144
 20
-126.2937388573153
 30
0.0
 10
114.5663090216144
 20
-126.2379294128849
 30
0.0
 10
114.5215062449796
 20
-126.1938321906737
 30
0.0
 10
114.4664023574966
 20
-126.1938321906737
 30
0.0
 10
114.4112631922366
 20
-126.1938321906737
 30
0.0
 10
114.3664956933787
 20
-126.2379294128849
 30
0.0
 10
114.3664956933787
 20
-126.2937388573153
 30
0.0
 10
114.3664956933787
 20
-126.3488780239684
 30
0.0
 10
114.4112631922366
 20
-126.3936808017348
 30
0.0
 10
114.4664023574966
 20
-126.3936808017348
 30
0.0
 10
114.5215062449796
 20
-126.3936808017348
 30
0.0
 10
114.5663090216144
 20
-126.3488780239684
 30
0.0
 10
114.5663090216144
 20
-126.2937388573153
 30
0.0
  0
SPLINE
  5
F8
330
1F
100
AcDbEntity
  8
_U+30EC_U+30A4_U+30E4_U+30FC 1
 62
   179
420
  2234388
370
     9
100
AcDbSpline
210
0.0
220
0.0
230
1.0
 70
    11
 71
     3
 72
    17
 73
    13
 74
     0
 42
0.0000000001
 43
0.0000000001
 12
1.0
 22
0.0
 32
0.0
 13
1.0
 23
0.0
 33
0.0
 40
0.0
 40
0.0
 40
0.0
 40
0.0
 40
1.0
 40
1.0
 40
1.0
 40
2.0
 40
2.0
 40
2.0
 40
3.0
 40
3.0
 40
3.0
 40
4.0
 40
4.0
 40
4.0
 40
4.0
 10
114.5663090216144
 20
-127.0936977460043
 30
0.0
 10
114.5663090216144
 20
-127.0385938571293
 30
0.0
 10
114.5215062449796
 20
-126.9937910793626
 30
0.0
 10
114.4664023574966
 20
-126.9937910793626
 30
0.0
 10
114.4112631922366
 20
-126.9937910793626
 30
0.0
 10
114.3664956933787
 20
-127.0385938571293
 30
0.0
 10
114.3664956933787
 20
-127.0936977460043
 30
0.0
 10
114.3664956933787
 20
-127.1488369126573
 30
0.0
 10
114.4112631922366
 20
-127.1936044126462
 30
0.0
 10
114.4664023574966
 20
-127.1936044126462
 30
0.0
 10
114.5215062449796
 20
-127.1936044126462
 30
0.0
 10
114.5663090216144
 20
-127.1488369126573
 30
0.0
 10
114.5663090216144
 20
-127.0936977460043
 30
0.0
  0
SPLINE
  5
F9
330
1F
100
AcDbEntity
  8
_U+30EC_U+30A4_U+30E4_U+30FC 1
 62
   179
420
  2234388
370
     9
100
AcDbSpline
210
0.0
220
0.0
230
1.0
 70
    11
 71
     3
 72
    17
 73
    13
 74
     0
 42
0.0000000001
 43
0.0000000001
 12
1.0
 22
0.0
 32
0.0
 13
1.0
 23
0.0
 33
0.0
 40
0.0
 40
0.0
 40
0.0
 40
0.0
 40
1.0
 40
1.0
 40
1.0
 40
2.0
 40
2.0
 40
2.0
 40
3.0
 40
3.0
 40
3.0
 40
4.0
 40
4.0
 40
4.0
 40
4.0
 10
110.566552750136
 20
-122.2933094138711
 30
0.0
 10
110.566552750136
 20
-122.2382055249961
 30
0.0
 10
110.5217499723699
 20
-122.1934027472294
 30
0.0
 10
110.4662905151035
 20
-122.1934027472294
 30
0.0
 10
110.4111866276204
 20
-122.1934027472294
 30
0.0
 10
110.3663838509856
 20
-122.2382055249961
 30
0.0
 10
110.3663838509856
 20
-122.2933094138711
 30
0.0
 10
110.3663838509856
 20
-122.3484485805241
 30
0.0
 10
110.4111866276204
 20
-122.3932160805127
 30
0.0
 10
110.4662905151035
 20
-122.3932160805127
 30
0.0
 10
110.5217499723699
 20
-122.3932160805127
 30
0.0
 10
110.566552750136
 20
-122.3484485805241
 30
0.0
 10
110.566552750136
 20
-122.2933094138711
 30
0.0
  0
SPLINE
  5
FA
330
1F
100
AcDbEntity
  8
_U+30EC_U+30A4_U+30E4_U+30FC 1
 62
   179
420
  2234388
370
     9
100
AcDbSpline
210
0.0
220
0.0
230
1.0
 70
    11
 71
     3
 72
    17
 73
    13
 74
     0
 42
0.0000000001
 43
0.0000000001
 12
1.0
 22
0.0
 32
0.0
 13
1.0
 23
0.0
 33
0.0
 40
0.0
 40
0.0
 40
0.0
 40
0.0
 40
1.0
 40
1.0
 40
1.0
 40
2.0
 40
2.0
 40
2.0
 40
3.0
 40
3.0
 40
3.0
 40
4.0
 40
4.0
 40
4.0
 40
4.0
 10
97.56647751087179
 20
-138.4949110764877
 30
0.0
 10
97.56647751087179
 20
-138.4391016320572
 30
0.0
 10
97.5217100120139
 20
-138.3942988542905
 30
0.0
 10
97.46657084675395
 20
-138.3942988542905
 30
0.0
 10
97.41146942009172
 20
-138.3942988542905
 30
0.0
 10
97.366666642325
 20
-138.4391016320572
 30
0.0
 10
97.366666642325
 20
-138.4949110764877
 30
0.0
 10
97.366666642325
 20
-138.5500149653626
 30
0.0
 10
97.41146942009172
 20
-138.5948177431293
 30
0.0
 10
97.46657084675395
 20
-138.5948177431293
 30
0.0
 10
97.5217100120139
 20
-138.5948177431293
 30
0.0
 10
97.56647751087179
 20
-138.5500149653626
 30
0.0
 10
97.56647751087179
 20
-138.4949110764877
 30
0.0
  0
SPLINE
  5
FB
330
1F
100
AcDbEntity
  8
_U+30EC_U+30A4_U+30E4_U+30FC 1
 62
   179
420
  2234388
370
     9
100
AcDbSpline
210
0.0
220
0.0
230
1.0
 70
    11
 71
     3
 72
    17
 73
    13
 74
     0
 42
0.0000000001
 43
0.0000000001
 12
1.0
 22
0.0
 32
0.0
 13
1.0
 23
0.0
 33
0.0
 40
0.0
 40
0.0
 40
0.0
 40
0.0
 40
1.0
 40
1.0
 40
1.0
 40
2.0
 40
2.0
 40
2.0
 40
3.0
 40
3.0
 40
3.0
 40
4.0
 40
4.0
 40
4.0
 40
4.0
 10
114.5663090216144
 20
-134.4944463552652
 30
0.0
 10
114.5663090216144
 20
-134.4393424663903
 30
0.0
 10
114.5215062449796
 20
-134.3945396886236
 30
0.0
 10
114.4664023574966
 20
-134.3945396886236
 30
0.0
 10
114.4112631922366
 20
-134.3945396886236
 30
0.0
 10
114.3664956933787
 20
-134.4393424663903
 30
0.0
 10
114.3664956933787
 20
-134.4944463552652
 30
0.0
 10
114.3664956933787
 20
-134.5495855219183
 30
0.0
 10
114.4112631922366
 20
-134.5943530219069
 30
0.0
 10
114.4664023574966
 20
-134.5943530219069
 30
0.0
 10
114.5215062449796
 20
-134.5943530219069
 30
0.0
 10
114.5663090216144
 20
-134.5495855219183
 30
0.0
 10
114.5663090216144
 20
-134.4944463552652
 30
0.0
  0
SPLINE
  5
FC
330
1F
100
AcDbEntity
  8
_U+30EC_U+30A4_U+30E4_U+30FC 1
 62
   179
420
  2234388
370
     9
100
AcDbSpline
210
0.0
220
0.0
230
1.0
 70
    11
 71
     3
 72
    17
 73
    13
 74
     0
 42
0.0000000001
 43
0.0000000001
 12
1.0
 22
0.0
 32
0.0
 13
1.0
 23
0.0
 33
0.0
 40
0.0
 40
0.0
 40
0.0
 40
0.0
 40
1.0
 40
1.0
 40
1.0
 40
2.0
 40
2.0
 40
2.0
 40
3.0
 40
3.0
 40
3.0
 40
4.0
 40
4.0
 40
4.0
 40
4.0
 10
114.5663090216144
 20
-131.4944594115709
 30
0.0
 10
114.5663090216144
 20
-131.439355522696
 30
0.0
 10
114.5215062449796
 20
-131.3945527449293
 30
0.0
 10
114.4664023574966
 20
-131.3945527449293
 30
0.0
 10
114.4112631922366
 20
-131.3945527449293
 30
0.0
 10
114.3664956933787
 20
-131.439355522696
 30
0.0
 10
114.3664956933787
 20
-131.4944594115709
 30
0.0
 10
114.3664956933787
 20
-131.549598578224
 30
0.0
 10
114.4112631922366
 20
-131.5943660782125
 30
0.0
 10
114.4664023574966
 20
-131.5943660782125
 30
0.0
 10
114.5215062449796
 20
-131.5943660782125
 30
0.0
 10
114.5663090216144
 20
-131.549598578224
 30
0.0
 10
114.5663090216144
 20
-131.4944594115709
 30
0.0
  0
SPLINE
  5
FD
330
1F
100
AcDbEntity
  8
_U+30EC_U+30A4_U+30E4_U+30FC 1
 62
   179
420
  2234388
370
     9
100
AcDbSpline
210
0.0
220
0.0
230
1.0
 70
    11
 71
     3
 72
    17
 73
    13
 74
     0
 42
0.0000000001
 43
0.0000000001
 12
1.0
 22
0.0
 32
0.0
 13
1.0
 23
0.0
 33
0.0
 40
0.0
 40
0.0
 40
0.0
 40
0.0
 40
1.0
 40
1.0
 40
1.0
 40
2.0
 40
2.0
 40
2.0
 40
3.0
 40
3.0
 40
3.0
 40
4.0
 40
4.0
 40
4.0
 40
4.0
 10
87.56656832154628
 20
-122.2933094138711
 30
0.0
 10
87.56656832154628
 20
-122.2382055249961
 30
0.0
 10
87.52180082268839
 20
-122.1934027472294
 30
0.0
 10
87.46631108924443
 20
-122.1934027472294
 30
0.0
 10
87.4112049921766
 20
-122.1934027472294
 30
0.0
 10
87.36640221554184
 20
-122.2382055249961
 30
0.0
 10
87.36640221554184
 20
-122.2933094138711
 30
0.0
 10
87.36640221554184
 20
-122.3484485805241
 30
0.0
 10
87.4112049921766
 20
-122.3932160805127
 30
0.0
 10
87.46631108924443
 20
-122.3932160805127
 30
0.0
 10
87.52180082268839
 20
-122.3932160805127
 30
0.0
 10
87.56656832154628
 20
-122.3484485805241
 30
0.0
 10
87.56656832154628
 20
-122.2933094138711
 30
0.0
  0
SPLINE
  5
FE
330
1F
100
AcDbEntity
  8
_U+30EC_U+30A4_U+30E4_U+30FC 1
 62
   179
420
  2234388
370
     9
100
AcDbSpline
210
0.0
220
0.0
230
1.0
 70
    11
 71
     3
 72
    17
 73
    13
 74
     0
 42
0.0000000001
 43
0.0000000001
 12
1.0
 22
0.0
 32
0.0
 13
1.0
 23
0.0
 33
0.0
 40
0.0
 40
0.0
 40
0.0
 40
0.0
 40
1.0
 40
1.0
 40
1.0
 40
2.0
 40
2.0
 40
2.0
 40
3.0
 40
3.0
 40
3.0
 40
4.0
 40
4.0
 40
4.0
 40
4.0
 10
87.56656832154628
 20
-138.4949110764877
 30
0.0
 10
87.56656832154628
 20
-138.4391016320572
 30
0.0
 10
87.52180082268839
 20
-138.3942988542905
 30
0.0
 10
87.46631108924443
 20
-138.3942988542905
 30
0.0
 10
87.4112049921766
 20
-138.3942988542905
 30
0.0
 10
87.36640221554184
 20
-138.4391016320572
 30
0.0
 10
87.36640221554184
 20
-138.4949110764877
 30
0.0
 10
87.36640221554184
 20
-138.5500149653626
 30
0.0
 10
87.4112049921766
 20
-138.5948177431293
 30
0.0
 10
87.46631108924443
 20
-138.5948177431293
 30
0.0
 10
87.52180082268839
 20
-138.5948177431293
 30
0.0
 10
87.56656832154628
 20
-138.5500149653626
 30
0.0
 10
87.56656832154628
 20
-138.4949110764877
 30
0.0
  0
POLYLINE
  5
FF
330
1F
100
AcDbEntity
  8
_U+30EC_U+30A4_U+30E4_U+30FC 1
 62
   179
420
  2234388
370
     9
100
AcDb2dPolyline
 66
     1
 10
0.0
 20
0.0
 30
0.0
  0
VERTEX
  5
100
330
FF
100
AcDbEntity
  8
_U+30EC_U+30A4_U+30E4_U+30FC 1
 62
   179
420
  2234388
370
     9
100
AcDbVertex
100
AcDb2dVertex
 10
114.4664023574966
 20
-126.2937388573153
 30
0.0
  0
VERTEX
  5
101
330
FF
100
AcDbEntity
  8
_U+30EC_U+30A4_U+30E4_U+30FC 1
 62
   179
420
  2234388
370
     9
100
AcDbVertex
100
AcDb2dVertex
 10
114.4664023574966
 20
-121.0358683030743
 30
0.0
  0
SEQEND
  5
102
330
FF
100
AcDbEntity
  8
_U+30EC_U+30A4_U+30E4_U+30FC 1
 62
   179
420
  2234388
370
     9
  0
POLYLINE
  5
103
330
1F
100
AcDbEntity
  8
_U+30EC_U+30A4_U+30E4_U+30FC 1
 62
   179
420
  2234388
370
     9
100
AcDb2dPolyline
 66
     1
 10
0.0
 20
0.0
 30
0.0
  0
VERTEX
  5
104
330
103
100
AcDbEntity
  8
_U+30EC_U+30A4_U+30E4_U+30FC 1
 62
   179
420
  2234388
370
     9
100
AcDbVertex
100
AcDb2dVertex
 10
114.4664023574966
 20
-126.2937388573153
 30
0.0
  0
VERTEX
  5
105
330
103
100
AcDbEntity
  8
_U+30EC_U+30A4_U+30E4_U+30FC 1
 62
   179
420
  2234388
370
     9
100
AcDbVertex
100
AcDb2dVertex
 10
114.4664023574966
 20
-127.0936977460043
 30
0.0
  0
SEQEND
  5
106
330
103
100
AcDbEntity
  8
_U+30EC_U+30A4_U+30E4_U+30FC 1
 62
   179
420
  2234388
370
     9
  0
POLYLINE
  5
107
330
1F
100
AcDbEntity
  8
_U+30EC_U+30A4_U+30E4_U+30FC 1
 62
   179
420
  2234388
370
     9
100
AcDb2dPolyline
 66
     1
 10
0.0
 20
0.0
 30
0.0
  0
VERTEX
  5
108
330
107
100
AcDbEntity
  8
_U+30EC_U+30A4_U+30E4_U+30FC 1
 62
   179
420
  2234388
370
     9
100
AcDbVertex
100
AcDb2dVertex
 10
113.0063638606375
 20
-126.2937388573153
 30
0.0
  0
VERTEX
  5
109
330
107
100
AcDbEntity
  8
_U+30EC_U+30A4_U+30E4_U+30FC 1
 62
   179
420
  2234388
370
     9
100
AcDbVertex
100
AcDb2dVertex
 10
115.4664920542044
 20
-126.2937388573153
 30
0.0
  0
SEQEND
  5
10A
330
107
100
AcDbEntity
  8
_U+30EC_U+30A4_U+30E4_U+30FC 1
 62
   179
420
  2234388
370
     9
  0
POLYLINE
  5
10B
330
1F
100
AcDbEntity
  8
_U+30EC_U+30A4_U+30E4_U+30FC 1
 62
   179
420
  2234388
370
     9
100
AcDb2dPolyline
 66
     1
 10
0.0
 20
0.0
 30
0.0
  0
VERTEX
  5
10C
330
10B
100
AcDbEntity
  8
_U+30EC_U+30A4_U+30E4_U+30FC 1
 62
   179
420
  2234388
370
     9
100
AcDbVertex
100
AcDb2dVertex
 10
113.0063638606375
 20
-127.0936977460043
 30
0.0
  0
VERTEX
  5
10D
330
10B
100
AcDbEntity
  8
_U+30EC_U+30A4_U+30E4_U+30FC 1
 62
   179
420
  2234388
370
     9
100
AcDbVertex
100
AcDb2dVertex
 10
115.4664920542044
 20
-127.0936977460043
 30
0.0
  0
SEQEND
  5
10E
330
10B
100
AcDbEntity
  8
_U+30EC_U+30A4_U+30E4_U+30FC 1
 62
   179
420
  2234388
370
     9
  0
POLYLINE
  5
10F
330
1F
100
AcDbEntity
  8
_U+30EC_U+30A4_U+30E4_U+30FC 1
 62
   179
420
  2234388
370
     9
100
AcDb2dPolyline
 66
     1
 10
0.0
 20
0.0
 30
0.0
  0
VERTEX
  5
110
330
10F
100
AcDbEntity
  8
_U+30EC_U+30A4_U+30E4_U+30FC 1
 62
   179
420
  2234388
370
     9
100
AcDbVertex
100
AcDb2dVertex
 10
114.4664023574966
 20
-131.4944594115709
 30
0.0
  0
VERTEX
  5
111
330
10F
100
AcDbEntity
  8
_U+30EC_U+30A4_U+30E4_U+30FC 1
 62
   179
420
  2234388
370
     9
100
AcDbVertex
100
AcDb2dVertex
 10
114.4664023574966
 20
-127.0950735793375
 30
0.0
  0
SEQEND
  5
112
330
10F
100
AcDbEntity
  8
_U+30EC_U+30A4_U+30E4_U+30FC 1
 62
   179
420
  2234388
370
     9
  0
POLYLINE
  5
113
330
1F
100
AcDbEntity
  8
_U+30EC_U+30A4_U+30E4_U+30FC 1
 62
   179
420
  2234388
370
     9
100
AcDb2dPolyline
 66
     1
 10
0.0
 20
0.0
 30
0.0
  0
VERTEX
  5
114
330
113
100
AcDbEntity
  8
_U+30EC_U+30A4_U+30E4_U+30FC 1
 62
   179
420
  2234388
370
     9
100
AcDbVertex
100
AcDb2dVertex
 10
100.0062885597381
 20
-131.4944594115709
 30
0.0
  0
VERTEX
  5
115
330
113
100
AcDbEntity
  8
_U+30EC_U+30A4_U+30E4_U+30FC 1
 62
   179
420
  2234388
370
     9
100
AcDbVertex
100
AcDb2dVertex
 10
115.4664920542044
 20
-131.4944594115709
 30
0.0
  0
SEQEND
  5
116
330
113
100
AcDbEntity
  8
_U+30EC_U+30A4_U+30E4_U+30FC 1
 62
   179
420
  2234388
370
     9
  0
POLYLINE
  5
117
330
1F
100
AcDbEntity
  8
_U+30EC_U+30A4_U+30E4_U+30FC 1
 62
   179
420
  2234388
370
     9
100
AcDb2dPolyline
 66
     1
 10
0.0
 20
0.0
 30
0.0
  0
VERTEX
  5
118
330
117
100
AcDbEntity
  8
_U+30EC_U+30A4_U+30E4_U+30FC 1
 62
   179
420
  2234388
370
     9
100
AcDbVertex
100
AcDb2dVertex
 10
114.4664023574966
 20
-131.4944594115709
 30
0.0
  0
VERTEX
  5
119
330
117
100
AcDbEntity
  8
_U+30EC_U+30A4_U+30E4_U+30FC 1
 62
   179
420
  2234388
370
     9
100
AcDbVertex
100
AcDb2dVertex
 10
114.4664023574966
 20
-134.4944463552652
 30
0.0
  0
SEQEND
  5
11A
330
117
100
AcDbEntity
  8
_U+30EC_U+30A4_U+30E4_U+30FC 1
 62
   179
420
  2234388
370
     9
  0
POLYLINE
  5
11B
330
1F
100
AcDbEntity
  8
_U+30EC_U+30A4_U+30E4_U+30FC 1
 62
   179
420
  2234388
370
     9
100
AcDb2dPolyline
 66
     1
 10
0.0
 20
0.0
 30
0.0
  0
VERTEX
  5
11C
330
11B
100
AcDbEntity
  8
_U+30EC_U+30A4_U+30E4_U+30FC 1
 62
   179
420
  2234388
370
     9
100
AcDbVertex
100
AcDb2dVertex
 10
100.0062885597381
 20
-134.4944463552652
 30
0.0
  0
VERTEX
  5
11D
330
11B
100
AcDbEntity
  8
_U+30EC_U+30A4_U+30E4_U+30FC 1
 62
   179
420
  2234388
370
     9
100
AcDbVertex
100
AcDb2dVertex
 10
115.4664920542044
 20
-134.4944463552652
 30
0.0
  0
SEQEND
  5
11E
330
11B
100
AcDbEntity
  8
_U+30EC_U+30A4_U+30E4_U+30FC 1
 62
   179
420
  2234388
370
     9
  0
POLYLINE
  5
11F
330
1F
100
AcDbEntity
  8
_U+30EC_U+30A4_U+30E4_U+30FC 1
 62
   179
420
  2234388
370
     9
100
AcDb2dPolyline
 66
     1
 10
0.0
 20
0.0
 30
0.0
  0
VERTEX
  5
120
330
11F
100
AcDbEntity
  8
_U+30EC_U+30A4_U+30E4_U+30FC 1
 62
   179
420
  2234388
370
     9
100
AcDbVertex
100
AcDb2dVertex
 10
87.46631108924443
 20
-138.4949110764877
 30
0.0
  0
VERTEX
  5
121
330
11F
100
AcDbEntity
  8
_U+30EC_U+30A4_U+30E4_U+30FC 1
 62
   179
420
  2234388
370
     9
100
AcDbVertex
100
AcDb2dVertex
 10
97.46657084675395
 20
-138.4949110764877
 30
0.0
  0
SEQEND
  5
122
330
11F
100
AcDbEntity
  8
_U+30EC_U+30A4_U+30E4_U+30FC 1
 62
   179
420
  2234388
370
     9
  0
POLYLINE
  5
123
330
1F
100
AcDbEntity
  8
_U+30EC_U+30A4_U+30E4_U+30FC 1
 62
   179
420
  2234388
370
     9
100
AcDb2dPolyline
 66
     1
 10
0.0
 20
0.0
 30
0.0
  0
VERTEX
  5
124
330
123
100
AcDbEntity
  8
_U+30EC_U+30A4_U+30E4_U+30FC 1
 62
   179
420
  2234388
370
     9
100
AcDbVertex
100
AcDb2dVertex
 10
87.46631108924443
 20
-137.0348696879633
 30
0.0
  0
VERTEX
  5
125
330
123
100
AcDbEntity
  8
_U+30EC_U+30A4_U+30E4_U+30FC 1
 62
   179
420
  2234388
370
     9
100
AcDbVertex
100
AcDb2dVertex
 10
87.46631108924443
 20
-139.4946832984596
 30
0.0
  0
SEQEND
  5
126
330
123
100
AcDbEntity
  8
_U+30EC_U+30A4_U+30E4_U+30FC 1
 62
   179
420
  2234388
370
     9
  0
POLYLINE
  5
127
330
1F
100
AcDbEntity
  8
_U+30EC_U+30A4_U+30E4_U+30FC 1
 62
   179
420
  2234388
370
     9
100
AcDb2dPolyline
 66
     1
 10
0.0
 20
0.0
 30
0.0
  0
VERTEX
  5
128
330
127
100
AcDbEntity
  8
_U+30EC_U+30A4_U+30E4_U+30FC 1
 62
   179
420
  2234388
370
     9
100
AcDbVertex
100
AcDb2dVertex
 10
97.46657084675395
 20
-137.0348696879633
 30
0.0
  0
VERTEX
  5
129
330
127
100
AcDbEntity
  8
_U+30EC_U+30A4_U+30E4_U+30FC 1
 62
   179
420
  2234388
370
     9
100
AcDbVertex
100
AcDb2dVertex
 10
97.46657084675395
 20
-139.4946832984596
 30
0.0
  0
SEQEND
  5
12A
330
127
100
AcDbEntity
  8
_U+30EC_U+30A4_U+30E4_U+30FC 1
 62
   179
420
  2234388
370
     9
  0
POLYLINE
  5
12B
330
1F
100
AcDbEntity
  8
_U+30EC_U+30A4_U+30E4_U+30FC 1
 62
   179
420
  2234388
370
     9
100
AcDb2dPolyline
 66
     1
 10
0.0
 20
0.0
 30
0.0
  0
VERTEX
  5
12C
330
12B
100
AcDbEntity
  8
_U+30EC_U+30A4_U+30E4_U+30FC 1
 62
   179
420
  2234388
370
     9
100
AcDbVertex
100
AcDb2dVertex
 10
87.46631108924443
 20
-122.2933094138711
 30
0.0
  0
VERTEX
  5
12D
330
12B
100
AcDbEntity
  8
_U+30EC_U+30A4_U+30E4_U+30FC 1
 62
   179
420
  2234388
370
     9
100
AcDbVertex
100
AcDb2dVertex
 10
110.4662905151035
 20
-122.2933094138711
 30
0.0
  0
SEQEND
  5
12E
330
12B
100
AcDbEntity
  8
_U+30EC_U+30A4_U+30E4_U+30FC 1
 62
   179
420
  2234388
370
     9
  0
POLYLINE
  5
12F
330
1F
100
AcDbEntity
  8
_U+30EC_U+30A4_U+30E4_U+30FC 1
 62
   179
420
  2234388
370
     9
100
AcDb2dPolyline
 66
     1
 10
0.0
 20
0.0
 30
0.0
  0
VERTEX
  5
130
330
12F
100
AcDbEntity
  8
_U+30EC_U+30A4_U+30E4_U+30FC 1
 62
   179
420
  2234388
370
     9
100
AcDbVertex
100
AcDb2dVertex
 10
87.46631108924443
 20
-123.7533508023951
 30
0.0
  0
VERTEX
  5
131
330
12F
100
AcDbEntity
  8
_U+30EC_U+30A4_U+30E4_U+30FC 1
 62
   179
420
  2234388
370
     9
100
AcDbVertex
100
AcDb2dVertex
 10
87.46631108924443
 20
-121.2935371918988
 30
0.0
  0
SEQEND
  5
132
330
12F
100
AcDbEntity
  8
_U+30EC_U+30A4_U+30E4_U+30FC 1
 62
   179
420
  2234388
370
     9
  0
POLYLINE
  5
133
330
1F
100
AcDbEntity
  8
_U+30EC_U+30A4_U+30E4_U+30FC 1
 62
   179
420
  2234388
370
     9
100
AcDb2dPolyline
 66
     1
 10
0.0
 20
0.0
 30
0.0
  0
VERTEX
  5
134
330
133
100
AcDbEntity
  8
_U+30EC_U+30A4_U+30E4_U+30FC 1
 62
   179
420
  2234388
370
     9
100
AcDbVertex
100
AcDb2dVertex
 10
110.4662905151035
 20
-123.7533508023951
 30
0.0
  0
VERTEX
  5
135
330
133
100
AcDbEntity
  8
_U+30EC_U+30A4_U+30E4_U+30FC 1
 62
   179
420
  2234388
370
     9
100
AcDbVertex
100
AcDb2dVertex
 10
110.4662905151035
 20
-121.2935371918988
 30
0.0
  0
SEQEND
  5
136
330
133
100
AcDbEntity
  8
_U+30EC_U+30A4_U+30E4_U+30FC 1
 62
   179
420
  2234388
370
     9
  0
ENDSEC
  0
SECTION
  2
OBJECTS
  0
DICTIONARY
  5
C
330
0
100
AcDbDictionary
281
     1
  3
ACAD_GROUP
350
D
  3
ACAD_LAYOUT
350
1A
  3
ACAD_MATERIAL
350
3B
  3
ACAD_MLEADERSTYLE
350
138
  3
ACAD_MLINESTYLE
350
17
  3
ACAD_PLOTSETTINGS
350
19
  3
ACAD_PLOTSTYLENAME
350
E
  3
ACAD_TABLESTYLE
350
137
  3
ACAD_VISUALSTYLE
350
2A
  0
SUN
  5
3F
330
29
100
AcDbSun
 90
        1
290
     0
 63
     7
421
 16777215
 40
1.0
291
     1
 91
  2455826
 92
 54000000
292
     0
 70
     2
 71
   256
280
     1
  0
DICTIONARY
  5
D
102
{ACAD_REACTORS
330
C
102
}
330
C
100
AcDbDictionary
281
     1
  0
DICTIONARY
  5
1A
102
{ACAD_REACTORS
330
C
102
}
330
C
100
AcDbDictionary
281
     1
  3
Layout1
350
1E
  3
Layout2
350
26
  3
Model
350
22
  0
DICTIONARY
  5
3B
102
{ACAD_REACTORS
330
C
102
}
330
C
100
AcDbDictionary
281
     1
  3
ByBlock
350
3D
  3
ByLayer
350
3C
  3
Global
350
3E
  0
DICTIONARY
  5
138
102
{ACAD_REACTORS
330
C
102
}
330
C
100
AcDbDictionary
281
     1
  0
DICTIONARY
  5
17
102
{ACAD_REACTORS
330
C
102
}
330
C
100
AcDbDictionary
281
     1
  3
Standard
350
18
  0
DICTIONARY
  5
19
102
{ACAD_REACTORS
330
C
102
}
330
C
100
AcDbDictionary
281
     1
  0
ACDBDICTIONARYWDFLT
  5
E
102
{ACAD_REACTORS
330
C
102
}
330
C
100
AcDbDictionary
281
     1
  3
Normal
350
F
100
AcDbDictionaryWithDefault
340
F
  0
DICTIONARY
  5
137
102
{ACAD_REACTORS
330
C
102
}
330
C
100
AcDbDictionary
281
     1
  0
DICTIONARY
  5
2A
102
{ACAD_REACTORS
330
C
102
}
330
C
100
AcDbDictionary
281
     1
  3
2dWireframe
350
2F
  3
3D Hidden
350
31
  3
3dWireframe
350
30
  3
Basic
350
32
  3
Brighten
350
36
  3
ColorChange
350
3A
  3
Conceptual
350
34
  3
Dim
350
35
  3
Facepattern
350
39
  3
Flat
350
2B
  3
FlatWithEdges
350
2C
  3
Gouraud
350
2D
  3
GouraudWithEdges
350
2E
  3
Linepattern
350
38
  3
Realistic
350
33
  3
Thicken
350
37
  0
LAYOUT
  5
1E
102
{ACAD_REACTORS
330
1A
102
}
330
1A
100
AcDbPlotSettings
  1

  2
none_device
  4

  6

 40
0.0
 41
0.0
 42
0.0
 43
0.0
 44
0.0
 45
0.0
 46
0.0
 47
0.0
 48
0.0
 49
0.0
140
0.0
141
0.0
142
1.0
143
1.0
 70
   688
 72
     0
 73
     0
 74
     5
  7

 75
    16
 76
     0
 77
     2
 78
   300
147
1.0
148
0.0
149
0.0
100
AcDbLayout
  1
Layout1
 70
     1
 71
     1
 10
0.0
 20
0.0
 11
12.0
 21
9.0
 12
0.0
 22
0.0
 32
0.0
 14
1.000000000000000E+20
 24
1.000000000000000E+20
 34
1.000000000000000E+20
 15
-1.000000000000000E+20
 25
-1.000000000000000E+20
 35
-1.000000000000000E+20
146
0.0
 13
0.0
 23
0.0
 33
0.0
 16
1.0
 26
0.0
 36
0.0
 17
0.0
 27
1.0
 37
0.0
 76
     0
330
1B
  0
LAYOUT
  5
26
102
{ACAD_REACTORS
330
1A
102
}
330
1A
100
AcDbPlotSettings
  1

  2
none_device
  4

  6

 40
0.0
 41
0.0
 42
0.0
 43
0.0
 44
0.0
 45
0.0
 46
0.0
 47
0.0
 48
0.0
 49
0.0
140
0.0
141
0.0
142
1.0
143
1.0
 70
   688
 72
     0
 73
     0
 74
     5
  7

 75
    16
 76
     0
 77
     2
 78
   300
147
1.0
148
0.0
149
0.0
100
AcDbLayout
  1
Layout2
 70
     1
 71
     2
 10
0.0
 20
0.0
 11
0.0
 21
0.0
 12
0.0
 22
0.0
 32
0.0
 14
0.0
 24
0.0
 34
0.0
 15
0.0
 25
0.0
 35
0.0
146
0.0
 13
0.0
 23
0.0
 33
0.0
 16
1.0
 26
0.0
 36
0.0
 17
0.0
 27
1.0
 37
0.0
 76
     0
330
23
  0
LAYOUT
  5
22
102
{ACAD_REACTORS
330
1A
102
}
330
1A
100
AcDbPlotSettings
  1

  2
none_device
  4

  6

 40
0.0
 41
0.0
 42
0.0
 43
0.0
 44
0.0
 45
0.0
 46
0.0
 47
0.0
 48
0.0
 49
0.0
140
0.0
141
0.0
142
1.0
143
1.0
 70
  1712
 72
     0
 73
     0
 74
     0
  7

 75
     0
 76
     0
 77
     2
 78
   300
147
1.0
148
0.0
149
0.0
100
AcDbLayout
  1
Model
 70
     1
 71
     0
 10
0.0
 20
0.0
 11
12.0
 21
9.0
 12
0.0
 22
0.0
 32
0.0
 14
1.000000000000000E+20
 24
1.000000000000000E+20
 34
1.000000000000000E+20
 15
-1.000000000000000E+20
 25
-1.000000000000000E+20
 35
-1.000000000000000E+20
146
0.0
 13
0.0
 23
0.0
 33
0.0
 16
1.0
 26
0.0
 36
0.0
 17
0.0
 27
1.0
 37
0.0
 76
     0
330
1F
331
29
  0
MATERIAL
  5
3D
102
{ACAD_REACTORS
330
3B
102
}
330
3B
100
AcDbMaterial
  1
ByBlock
 72
     1
 94
      127
  0
MATERIAL
  5
3C
102
{ACAD_REACTORS
330
3B
102
}
330
3B
100
AcDbMaterial
  1
ByLayer
 72
     1
 94
      127
  0
MATERIAL
  5
3E
102
{ACAD_REACTORS
330
3B
102
}
330
3B
100
AcDbMaterial
  1
Global
 72
     1
 94
      127
  0
MLINESTYLE
  5
18
102
{ACAD_REACTORS
330
17
102
}
330
17
100
AcDbMlineStyle
  2
Standard
 70
     0
  3

 62
   256
 51
90.0
 52
90.0
 71
     2
 49
0.5
 62
   256
  6
BYLAYER
 49
-0.5
 62
   256
  6
BYLAYER
  0
ACDBPLACEHOLDER
  5
F
102
{ACAD_REACTORS
330
E
102
}
330
E
  0
VISUALSTYLE
  5
2F
102
{ACAD_REACTORS
330
2A
102
}
330
2A
100
AcDbVisualStyle
  2
2dWireframe
 70
     4
177
     2
291
     0
 71
     0
176
     1
 72
     2
176
     1
 73
     0
176
     1
 90
        0
176
     1
 40
-0.6
176
     1
 41
-30.0
176
     1
 62
     5
 63
     7
421
 16777215
176
     1
 74
     1
176
     1
 91
        4
176
     1
 64
     7
176
     1
 65
   257
176
     1
 75
     1
176
     1
175
     1
176
     1
 42
1.0
176
     1
 92
        0
176
     1
 66
   257
176
     1
 43
1.0
176
     1
 76
     1
176
     1
 77
     6
176
     1
 78
     2
176
     1
 67
     7
176
     1
 79
     5
176
     1
170
     0
176
     1
171
     0
176
     1
290
     0
176
     1
 93
        1
176
     1
 44
0.0
176
     1
173
     0
176
     1
  0
VISUALSTYLE
  5
31
102
{ACAD_REACTORS
330
2A
102
}
330
2A
100
AcDbVisualStyle
  2
3D Hidden
 70
     6
177
     2
291
     0
 71
     1
176
     1
 72
     2
176
     1
 73
     2
176
     1
 90
        0
176
     1
 40
-0.6
176
     1
 41
-30.0
176
     1
 62
     5
 63
     7
421
 16777215
176
     1
 74
     2
176
     1
 91
        2
176
     1
 64
     7
176
     1
 65
   257
176
     1
 75
     2
176
     1
175
     1
176
     1
 42
40.0
176
     1
 92
        0
176
     1
 66
   257
176
     1
 43
1.0
176
     1
 76
     1
176
     1
 77
     6
176
     1
 78
     2
176
     1
 67
     7
176
     1
 79
     3
176
     1
170
     0
176
     1
171
     0
176
     1
290
     0
176
     1
 93
        1
176
     1
 44
0.0
176
     1
173
     0
176
     1
  0
VISUALSTYLE
  5
30
102
{ACAD_REACTORS
330
2A
102
}
330
2A
100
AcDbVisualStyle
  2
3dWireframe
 70
     5
177
     2
291
     0
 71
     0
176
     1
 72
     2
176
     1
 73
     0
176
     1
 90
        0
176
     1
 40
-0.6
176
     1
 41
-30.0
176
     1
 62
     5
 63
     7
421
 16777215
176
     1
 74
     1
176
     1
 91
        4
176
     1
 64
     7
176
     1
 65
   257
176
     1
 75
     1
176
     1
175
     1
176
     1
 42
1.0
176
     1
 92
        0
176
     1
 66
   257
176
     1
 43
1.0
176
     1
 76
     1
176
     1
 77
     6
176
     1
 78
     2
176
     1
 67
     7
176
     1
 79
     5
176
     1
170
     0
176
     1
171
     0
176
     1
290
     0
176
     1
 93
        1
176
     1
 44
0.0
176
     1
173
     0
176
     1
  0
VISUALSTYLE
  5
32
102
{ACAD_REACTORS
330
2A
102
}
330
2A
100
AcDbVisualStyle
  2
Basic
 70
     7
177
     2
291
     1
 71
     1
176
     1
 72
     0
176
     1
 73
     1
176
     1
 90
        0
176
     1
 40
-0.6
176
     1
 41
-30.0
176
     1
 62
     5
 63
     7
421
 16777215
176
     1
 74
     0
176
     1
 91
        4
176
     1
 64
     7
176
     1
 65
   257
176
     1
 75
     1
176
     1
175
     1
176
     1
 42
1.0
176
     1
 92
        8
176
     1
 66
     7
176
     1
 43
1.0
176
     1
 76
     1
176
     1
 77
     6
176
     1
 78
     2
176
     1
 67
     7
176
     1
 79
     5
176
     1
170
     0
176
     1
171
     0
176
     1
290
     0
176
     1
 93
        1
176
     1
 44
0.0
176
     1
173
     0
176
     1
  0
VISUALSTYLE
  5
36
102
{ACAD_REACTORS
330
2A
102
}
330
2A
100
AcDbVisualStyle
  2
Brighten
 70
    12
177
     2
291
     1
 71
     2
176
     1
 72
     2
176
     1
 73
     0
176
     1
 90
        0
176
     1
 40
-0.6
176
     1
 41
-30.0
176
     1
 62
     5
 63
     7
421
 16777215
176
     1
 74
     1
176
     1
 91
        4
176
     1
 64
     7
176
     1
 65
   257
176
     1
 75
     1
176
     1
175
     1
176
     1
 42
1.0
176
     1
 92
        8
176
     1
 66
     7
176
     1
 43
1.0
176
     1
 76
     1
176
     1
 77
     6
176
     1
 78
     2
176
     1
 67
     7
176
     1
 79
     5
176
     1
170
     0
176
     1
171
     0
176
     1
290
     0
176
     1
 93
        1
176
     1
 44
50.0
176
     1
173
     0
176
     1
  0
VISUALSTYLE
  5
3A
102
{ACAD_REACTORS
330
2A
102
}
330
2A
100
AcDbVisualStyle
  2
ColorChange
 70
    16
177
     2
291
     1
 71
     2
176
     1
 72
     2
176
     1
 73
     3
176
     1
 90
        0
176
     1
 40
-0.6
176
     1
 41
-30.0
176
     1
 62
     5
 63
     8
421
  8421504
176
     1
 74
     1
176
     1
 91
        4
176
     1
 64
     7
176
     1
 65
   257
176
     1
 75
     1
176
     1
175
     1
176
     1
 42
1.0
176
     1
 92
        8
176
     1
 66
     8
424
  8421504
176
     1
 43
1.0
176
     1
 76
     1
176
     1
 77
     6
176
     1
 78
     2
176
     1
 67
     7
176
     1
 79
     5
176
     1
170
     0
176
     1
171
     0
176
     1
290
     0
176
     1
 93
        1
176
     1
 44
0.0
176
     1
173
     0
176
     1
  0
VISUALSTYLE
  5
34
102
{ACAD_REACTORS
330
2A
102
}
330
2A
100
AcDbVisualStyle
  2
Conceptual
 70
     9
177
     2
291
     0
 71
     3
176
     1
 72
     2
176
     1
 73
     0
176
     1
 90
        0
176
     1
 40
-0.6
176
     1
 41
-30.0
176
     1
 62
     5
 63
     7
421
 16777215
176
     1
 74
     2
176
     1
 91
        2
176
     1
 64
     7
176
     1
 65
   257
176
     1
 75
     1
176
     1
175
     1
176
     1
 42
40.0
176
     1
 92
        8
176
     1
 66
     7
176
     1
 43
1.0
176
     1
 76
     1
176
     1
 77
     6
176
     1
 78
     2
176
     1
 67
     7
176
     1
 79
     3
176
     1
170
     0
176
     1
171
     0
176
     1
290
     0
176
     1
 93
        1
176
     1
 44
0.0
176
     1
173
     0
176
     1
  0
VISUALSTYLE
  5
35
102
{ACAD_REACTORS
330
2A
102
}
330
2A
100
AcDbVisualStyle
  2
Dim
 70
    11
177
     2
291
     1
 71
     2
176
     1
 72
     2
176
     1
 73
     0
176
     1
 90
        0
176
     1
 40
-0.6
176
     1
 41
-30.0
176
     1
 62
     5
 63
     7
421
 16777215
176
     1
 74
     1
176
     1
 91
        4
176
     1
 64
     7
176
     1
 65
   257
176
     1
 75
     1
176
     1
175
     1
176
     1
 42
1.0
176
     1
 92
        8
176
     1
 66
     7
176
     1
 43
1.0
176
     1
 76
     1
176
     1
 77
     6
176
     1
 78
     2
176
     1
 67
     7
176
     1
 79
     5
176
     1
170
     0
176
     1
171
     0
176
     1
290
     0
176
     1
 93
        1
176
     1
 44
-50.0
176
     1
173
     0
176
     1
  0
VISUALSTYLE
  5
39
102
{ACAD_REACTORS
330
2A
102
}
330
2A
100
AcDbVisualStyle
  2
Facepattern
 70
    15
177
     2
291
     1
 71
     2
176
     1
 72
     2
176
     1
 73
     0
176
     1
 90
        0
176
     1
 40
-0.6
176
     1
 41
-30.0
176
     1
 62
     5
 63
     7
421
 16777215
176
     1
 74
     1
176
     1
 91
        4
176
     1
 64
     7
176
     1
 65
   257
176
     1
 75
     1
176
     1
175
     1
176
     1
 42
1.0
176
     1
 92
        8
176
     1
 66
     7
176
     1
 43
1.0
176
     1
 76
     1
176
     1
 77
     6
176
     1
 78
     2
176
     1
 67
     7
176
     1
 79
     5
176
     1
170
     0
176
     1
171
     0
176
     1
290
     0
176
     1
 93
        1
176
     1
 44
0.0
176
     1
173
     0
176
     1
  0
VISUALSTYLE
  5
2B
102
{ACAD_REACTORS
330
2A
102
}
330
2A
100
AcDbVisualStyle
  2
Flat
 70
     0
177
     2
291
     1
 71
     2
176
     1
 72
     1
176
     1
 73
     1
176
     1
 90
        2
176
     1
 40
-0.6
176
     1
 41
30.0
176
     1
 62
     5
 63
     7
421
 16777215
176
     1
 74
     0
176
     1
 91
        4
176
     1
 64
     7
176
     1
 65
   257
176
     1
 75
     1
176
     1
175
     1
176
     1
 42
1.0
176
     1
 92
        8
176
     1
 66
     7
176
     1
 43
1.0
176
     1
 76
     1
176
     1
 77
     6
176
     1
 78
     2
176
     1
 67
     7
176
     1
 79
     5
176
     1
170
     0
176
     1
171
     0
176
     1
290
     0
176
     1
 93
       13
176
     1
 44
0.0
176
     1
173
     0
176
     1
  0
VISUALSTYLE
  5
2C
102
{ACAD_REACTORS
330
2A
102
}
330
2A
100
AcDbVisualStyle
  2
FlatWithEdges
 70
     1
177
     2
291
     1
 71
     2
176
     1
 72
     1
176
     1
 73
     1
176
     1
 90
        2
176
     1
 40
-0.6
176
     1
 41
30.0
176
     1
 62
     5
 63
     7
421
 16777215
176
     1
 74
     1
176
     1
 91
        4
176
     1
 64
     7
176
     1
 65
   257
176
     1
 75
     1
176
     1
175
     1
176
     1
 42
1.0
176
     1
 92
        0
176
     1
 66
   257
176
     1
 43
1.0
176
     1
 76
     1
176
     1
 77
     6
176
     1
 78
     2
176
     1
 67
     7
176
     1
 79
     5
176
     1
170
     0
176
     1
171
     0
176
     1
290
     0
176
     1
 93
       13
176
     1
 44
0.0
176
     1
173
     0
176
     1
  0
VISUALSTYLE
  5
2D
102
{ACAD_REACTORS
330
2A
102
}
330
2A
100
AcDbVisualStyle
  2
Gouraud
 70
     2
177
     2
291
     1
 71
     2
176
     1
 72
     2
176
     1
 73
     1
176
     1
 90
        2
176
     1
 40
-0.6
176
     1
 41
30.0
176
     1
 62
     5
 63
     7
421
 16777215
176
     1
 74
     0
176
     1
 91
        4
176
     1
 64
     7
176
     1
 65
   257
176
     1
 75
     1
176
     1
175
     1
176
     1
 42
1.0
176
     1
 92
        0
176
     1
 66
     7
176
     1
 43
1.0
176
     1
 76
     1
176
     1
 77
     6
176
     1
 78
     2
176
     1
 67
     7
176
     1
 79
     5
176
     1
170
     0
176
     1
171
     0
176
     1
290
     0
176
     1
 93
       13
176
     1
 44
0.0
176
     1
173
     0
176
     1
  0
VISUALSTYLE
  5
2E
102
{ACAD_REACTORS
330
2A
102
}
330
2A
100
AcDbVisualStyle
  2
GouraudWithEdges
 70
     3
177
     2
291
     1
 71
     2
176
     1
 72
     2
176
     1
 73
     1
176
     1
 90
        2
176
     1
 40
-0.6
176
     1
 41
30.0
176
     1
 62
     5
 63
     7
421
 16777215
176
     1
 74
     1
176
     1
 91
        4
176
     1
 64
     7
176
     1
 65
   257
176
     1
 75
     1
176
     1
175
     1
176
     1
 42
1.0
176
     1
 92
        0
176
     1
 66
   257
176
     1
 43
1.0
176
     1
 76
     1
176
     1
 77
     6
176
     1
 78
     2
176
     1
 67
     7
176
     1
 79
     5
176
     1
170
     0
176
     1
171
     0
176
     1
290
     0
176
     1
 93
       13
176
     1
 44
0.0
176
     1
173
     0
176
     1
  0
VISUALSTYLE
  5
38
102
{ACAD_REACTORS
330
2A
102
}
330
2A
100
AcDbVisualStyle
  2
Linepattern
 70
    14
177
     2
291
     1
 71
     2
176
     1
 72
     2
176
     1
 73
     0
176
     1
 90
        0
176
     1
 40
-0.6
176
     1
 41
-30.0
176
     1
 62
     5
 63
     7
421
 16777215
176
     1
 74
     1
176
     1
 91
        4
176
     1
 64
     7
176
     1
 65
   257
176
     1
 75
     7
176
     1
175
     7
176
     1
 42
1.0
176
     1
 92
        8
176
     1
 66
     7
176
     1
 43
1.0
176
     1
 76
     1
176
     1
 77
     6
176
     1
 78
     2
176
     1
 67
     7
176
     1
 79
     5
176
     1
170
     0
176
     1
171
     0
176
     1
290
     0
176
     1
 93
        1
176
     1
 44
0.0
176
     1
173
     0
176
     1
  0
VISUALSTYLE
  5
33
102
{ACAD_REACTORS
330
2A
102
}
330
2A
100
AcDbVisualStyle
  2
Realistic
 70
     8
177
     2
291
     0
 71
     2
176
     1
 72
     2
176
     1
 73
     0
176
     1
 90
        0
176
     1
 40
-0.6
176
     1
 41
-30.0
176
     1
 62
     5
 63
     7
421
 16777215
176
     1
 74
     1
176
     1
 91
        0
176
     1
 64
     7
176
     1
 65
   257
176
     1
 75
     1
176
     1
175
     1
176
     1
 42
1.0
176
     1
 92
        8
176
     1
 66
     8
424
  7895160
176
     1
 43
1.0
176
     1
 76
     1
176
     1
 77
     6
176
     1
 78
     2
176
     1
 67
     7
176
     1
 79
     5
176
     1
170
     0
176
     1
171
     0
176
     1
290
     0
176
     1
 93
       13
176
     1
 44
0.0
176
     1
173
     0
176
     1
  0
VISUALSTYLE
  5
37
102
{ACAD_REACTORS
330
2A
102
}
330
2A
100
AcDbVisualStyle
  2
Thicken
 70
    13
177
     2
291
     1
 71
     2
176
     1
 72
     2
176
     1
 73
     0
176
     1
 90
        0
176
     1
 40
-0.6
176
     1
 41
-30.0
176
     1
 62
     5
 63
     7
421
 16777215
176
     1
 74
     1
176
     1
 91
        4
176
     1
 64
     7
176
     1
 65
   257
176
     1
 75
     1
176
     1
175
     1
176
     1
 42
1.0
176
     1
 92
       12
176
     1
 66
     7
176
     1
 43
1.0
176
     1
 76
     1
176
     1
 77
     6
176
     1
 78
     2
176
     1
 67
     7
176
     1
 79
     5
176
     1
170
     0
176
     1
171
     0
176
     1
290
     0
176
     1
 93
        1
176
     1
 44
0.0
176
     1
173
     0
176
     1
  0
ENDSEC
  0
EOF
