  0
SECTION
  2
HEADER
  9
$ACADVER
  1
AC1024
  9
$ACADMAINTVER
 70
     6
  9
$DWGCODEPAGE
  3
UNDEFINED
  9
$INSBASE
 10
0.0
 20
0.0
 30
0.0
  9
$EXTMIN
 10
1.000000000000000E+20
 20
1.000000000000000E+20
 30
1.000000000000000E+20
  9
$EXTMAX
 10
-1.000000000000000E+20
 20
-1.000000000000000E+20
 30
-1.000000000000000E+20
  9
$LIMMIN
 10
0.0
 20
0.0
  9
$LIMMAX
 10
12.0
 20
9.0
  9
$ORTHOMODE
 70
     0
  9
$REGENMODE
 70
     1
  9
$FILLMODE
 70
     1
  9
$QTEXTMODE
 70
     0
  9
$MIRRTEXT
 70
     1
  9
$LTSCALE
 40
1.0
  9
$ATTMODE
 70
     1
  9
$TEXTSIZE
 40
0.2
  9
$TRACEWID
 40
0.05
  9
$TEXTSTYLE
  7
Standard
  9
$CLAYER
  8
0
  9
$CELTYPE
  6
ByLayer
  9
$CECOLOR
 62
   256
  9
$CELTSCALE
 40
1.0
  9
$DISPSILH
 70
     0
  9
$DIMSCALE
 40
1.0
  9
$DIMASZ
 40
0.18
  9
$DIMEXO
 40
0.0625
  9
$DIMDLI
 40
0.38
  9
$DIMRND
 40
0.0
  9
$DIMDLE
 40
0.0
  9
$DIMEXE
 40
0.18
  9
$DIMTP
 40
0.0
  9
$DIMTM
 40
0.0
  9
$DIMTXT
 40
0.18
  9
$DIMCEN
 40
0.09
  9
$DIMTSZ
 40
0.0
  9
$DIMTOL
 70
     0
  9
$DIMLIM
 70
     0
  9
$DIMTIH
 70
     1
  9
$DIMTOH
 70
     1
  9
$DIMSE1
 70
     0
  9
$DIMSE2
 70
     0
  9
$DIMTAD
 70
     0
  9
$DIMZIN
 70
     0
  9
$DIMBLK
  1

  9
$DIMASO
 70
     1
  9
$DIMSHO
 70
     1
  9
$DIMPOST
  1

  9
$DIMAPOST
  1

  9
$DIMALT
 70
     0
  9
$DIMALTD
 70
     2
  9
$DIMALTF
 40
25.4
  9
$DIMLFAC
 40
1.0
  9
$DIMTOFL
 70
     0
  9
$DIMTVP
 40
0.0
  9
$DIMTIX
 70
     0
  9
$DIMSOXD
 70
     0
  9
$DIMSAH
 70
     0
  9
$DIMBLK1
  1

  9
$DIMBLK2
  1

  9
$DIMSTYLE
  2
Standard
  9
$DIMCLRD
 70
     0
  9
$DIMCLRE
 70
     0
  9
$DIMCLRT
 70
     0
  9
$DIMTFAC
 40
1.0
  9
$DIMGAP
 40
0.09
  9
$DIMJUST
 70
     0
  9
$DIMSD1
 70
     0
  9
$DIMSD2
 70
     0
  9
$DIMTOLJ
 70
     1
  9
$DIMTZIN
 70
     0
  9
$DIMALTZ
 70
     0
  9
$DIMALTTZ
 70
     0
  9
$DIMUPT
 70
     0
  9
$DIMDEC
 70
     4
  9
$DIMTDEC
 70
     4
  9
$DIMALTU
 70
     2
  9
$DIMALTTD
 70
     2
  9
$DIMTXSTY
  7
Standard
  9
$DIMAUNIT
 70
     0
  9
$DIMADEC
 70
     0
  9
$DIMALTRND
 40
0.0
  9
$DIMAZIN
 70
     0
  9
$DIMDSEP
 70
    46
  9
$DIMATFIT
 70
     3
  9
$DIMFRAC
 70
     0
  9
$DIMLDRBLK
  1

  9
$DIMLUNIT
 70
     2
  9
$DIMLWD
 70
    -2
  9
$DIMLWE
 70
    -2
  9
$DIMTMOVE
 70
     0
  9
$DIMFXL
 40
1.0
  9
$DIMFXLON
 70
     0
  9
$DIMJOGANG
 40
0.7853981633974483
  9
$DIMTFILL
 70
     0
  9
$DIMTFILLCLR
 70
     0
  9
$DIMARCSYM
 70
     0
  9
$DIMLTYPE
  6

  9
$DIMLTEX1
  6

  9
$DIMLTEX2
  6

  9
$DIMTXTDIRECTION
 70
     0
  9
$LUNITS
 70
     2
  9
$LUPREC
 70
     4
  9
$SKETCHINC
 40
0.1
  9
$FILLETRAD
 40
0.5
  9
$AUNITS
 70
     0
  9
$AUPREC
 70
     0
  9
$MENU
  1
.
  9
$ELEVATION
 40
0.0
  9
$PELEVATION
 40
0.0
  9
$THICKNESS
 40
0.0
  9
$LIMCHECK
 70
     0
  9
$CHAMFERA
 40
0.5
  9
$CHAMFERB
 40
0.5
  9
$CHAMFERC
 40
1.0
  9
$CHAMFERD
 40
0.0
  9
$SKPOLY
 70
     0
  9
$TDCREATE
 40
2457917.589166667
  9
$TDUCREATE
 40
2457917.214166667
  9
$TDUPDATE
 40
2457917.589166667
  9
$TDUUPDATE
 40
2457917.214166667
  9
$TDINDWG
 40
0.0000000116
  9
$TDUSRTIMER
 40
0.0000000116
  9
$USRTIMER
 70
     1
  9
$ANGBASE
 50
0.0
  9
$ANGDIR
 70
     0
  9
$PDMODE
 70
     0
  9
$PDSIZE
 40
0.0
  9
$PLINEWID
 40
0.0
  9
$SPLFRAME
 70
     0
  9
$SPLINETYPE
 70
     6
  9
$SPLINESEGS
 70
     8
  9
$HANDSEED
  5
E7
  9
$SURFTAB1
 70
     6
  9
$SURFTAB2
 70
     6
  9
$SURFTYPE
 70
     6
  9
$SURFU
 70
     6
  9
$SURFV
 70
     6
  9
$UCSBASE
  2

  9
$UCSNAME
  2

  9
$UCSORG
 10
0.0
 20
0.0
 30
0.0
  9
$UCSXDIR
 10
1.0
 20
0.0
 30
0.0
  9
$UCSYDIR
 10
0.0
 20
1.0
 30
0.0
  9
$UCSORTHOREF
  2

  9
$UCSORTHOVIEW
 70
     0
  9
$UCSORGTOP
 10
0.0
 20
0.0
 30
0.0
  9
$UCSORGBOTTOM
 10
0.0
 20
0.0
 30
0.0
  9
$UCSORGLEFT
 10
0.0
 20
0.0
 30
0.0
  9
$UCSORGRIGHT
 10
0.0
 20
0.0
 30
0.0
  9
$UCSORGFRONT
 10
0.0
 20
0.0
 30
0.0
  9
$UCSORGBACK
 10
0.0
 20
0.0
 30
0.0
  9
$PUCSBASE
  2

  9
$PUCSNAME
  2

  9
$PUCSORG
 10
0.0
 20
0.0
 30
0.0
  9
$PUCSXDIR
 10
1.0
 20
0.0
 30
0.0
  9
$PUCSYDIR
 10
0.0
 20
1.0
 30
0.0
  9
$PUCSORTHOREF
  2

  9
$PUCSORTHOVIEW
 70
     0
  9
$PUCSORGTOP
 10
0.0
 20
0.0
 30
0.0
  9
$PUCSORGBOTTOM
 10
0.0
 20
0.0
 30
0.0
  9
$PUCSORGLEFT
 10
0.0
 20
0.0
 30
0.0
  9
$PUCSORGRIGHT
 10
0.0
 20
0.0
 30
0.0
  9
$PUCSORGFRONT
 10
0.0
 20
0.0
 30
0.0
  9
$PUCSORGBACK
 10
0.0
 20
0.0
 30
0.0
  9
$USERI1
 70
     0
  9
$USERI2
 70
     0
  9
$USERI3
 70
     0
  9
$USERI4
 70
     0
  9
$USERI5
 70
     0
  9
$USERR1
 40
0.0
  9
$USERR2
 40
0.0
  9
$USERR3
 40
0.0
  9
$USERR4
 40
0.0
  9
$USERR5
 40
0.0
  9
$WORLDVIEW
 70
     1
  9
$SHADEDGE
 70
     3
  9
$SHADEDIF
 70
    70
  9
$TILEMODE
 70
     1
  9
$MAXACTVP
 70
    64
  9
$PINSBASE
 10
0.0
 20
0.0
 30
0.0
  9
$PLIMCHECK
 70
     0
  9
$PEXTMIN
 10
1.000000000000000E+20
 20
1.000000000000000E+20
 30
1.000000000000000E+20
  9
$PEXTMAX
 10
-1.000000000000000E+20
 20
-1.000000000000000E+20
 30
-1.000000000000000E+20
  9
$PLIMMIN
 10
0.0
 20
0.0
  9
$PLIMMAX
 10
12.0
 20
9.0
  9
$UNITMODE
 70
     0
  9
$VISRETAIN
 70
     1
  9
$PLINEGEN
 70
     0
  9
$PSLTSCALE
 70
     1
  9
$TREEDEPTH
 70
  3020
  9
$CMLSTYLE
  2
Standard
  9
$CMLJUST
 70
     0
  9
$CMLSCALE
 40
1.0
  9
$PROXYGRAPHICS
 70
     1
  9
$MEASUREMENT
 70
     0
  9
$CELWEIGHT
370
    -1
  9
$ENDCAPS
280
     0
  9
$JOINSTYLE
280
     0
  9
$LWDISPLAY
290
     1
  9
$INSUNITS
 70
     1
  9
$HYPERLINKBASE
  1

  9
$STYLESHEET
  1

  9
$XEDIT
290
     1
  9
$CEPSNTYPE
380
     0
  9
$PSTYLEMODE
290
     1
  9
$FINGERPRINTGUID
  2
{5E45EBB2-A561-2BF7-0845-27F3CE25D80A}
  9
$VERSIONGUID
  2
{FAEB1C32-E019-11D5-929B-00C0DF256EC4}
  9
$EXTNAMES
290
     1
  9
$PSVPSCALE
 40
0.0
  9
$OLESTARTUP
290
     0
  9
$SORTENTS
280
   127
  9
$INDEXCTL
280
     0
  9
$HIDETEXT
280
     1
  9
$XCLIPFRAME
280
     2
  9
$HALOGAP
280
     0
  9
$OBSCOLOR
 70
   257
  9
$OBSLTYPE
280
     0
  9
$INTERSECTIONDISPLAY
280
     0
  9
$INTERSECTIONCOLOR
 70
   257
  9
$DIMASSOC
280
     2
  9
$PROJECTNAME
  1

  9
$CAMERADISPLAY
290
     0
  9
$LENSLENGTH
 40
50.0
  9
$CAMERAHEIGHT
 40
0.0
  9
$STEPSPERSEC
 40
2.0
  9
$STEPSIZE
 40
6.0
  9
$3DDWFPREC
 40
2.0
  9
$PSOLWIDTH
 40
0.25
  9
$PSOLHEIGHT
 40
4.0
  9
$LOFTANG1
 40
1.570796326794897
  9
$LOFTANG2
 40
1.570796326794897
  9
$LOFTMAG1
 40
0.0
  9
$LOFTMAG2
 40
0.0
  9
$LOFTPARAM
 70
     7
  9
$LOFTNORMALS
280
     1
  9
$LATITUDE
 40
37.795
  9
$LONGITUDE
 40
-122.394
  9
$NORTHDIRECTION
 40
0.0
  9
$TIMEZONE
 70
 -8000
  9
$LIGHTGLYPHDISPLAY
280
     1
  9
$TILEMODELIGHTSYNCH
280
     1
  9
$CMATERIAL
347
3C
  9
$SOLIDHIST
280
     1
  9
$SHOWHIST
280
     1
  9
$DWFFRAME
280
     2
  9
$DGNFRAME
280
     2
  9
$REALWORLDSCALE
290
     1
  9
$INTERFERECOLOR
 62
   256
  9
$CSHADOW
280
     0
  9
$SHADOWPLANELOCATION
 40
0.0
  0
ENDSEC
  0
SECTION
  2
CLASSES
  0
CLASS
  1
ACDBDICTIONARYWDFLT
  2
AcDbDictionaryWithDefault
  3
ObjectDBX Classes
 90
        0
 91
        4
280
     0
281
     0
  0
CLASS
  1
VISUALSTYLE
  2
AcDbVisualStyle
  3
ObjectDBX Classes
 90
     4095
 91
        4
280
     0
281
     0
  0
CLASS
  1
MATERIAL
  2
AcDbMaterial
  3
ObjectDBX Classes
 90
     1153
 91
        4
280
     0
281
     0
  0
CLASS
  1
SUN
  2
AcDbSun
  3
SCENEOE
 90
     1024
 91
        4
280
     0
281
     0
  0
ENDSEC
  0
SECTION
  2
TABLES
  0
TABLE
  2
VPORT
  5
8
330
0
100
AcDbSymbolTable
 70
     1
  0
VPORT
  5
29
330
8
100
AcDbSymbolTableRecord
100
AcDbViewportTableRecord
  2
*Active
 70
     0
 10
0.0
 20
0.0
 11
1.0
 21
1.0
 12
0.0
 22
0.0
 13
0.0
 23
0.0
 14
0.5
 24
0.5
 15
0.5
 25
0.5
 16
0.0
 26
0.0
 36
1.0
 17
63.499999984125
 27
-89.00059456108309
 37
0.0
 40
178.0011891221662
 41
0.7134783795241226
 42
50.0
 43
0.0
 44
0.0
 50
0.0
 51
0.0
 71
     0
 72
   100
 73
     1
 74
     3
 75
     0
 76
     0
 77
     0
 78
     0
281
     0
 65
     1
110
0.0
120
0.0
130
0.0
111
1.0
121
0.0
131
0.0
112
0.0
122
1.0
132
0.0
 79
     0
146
0.0
 60
     3
 61
     5
292
     1
282
     1
141
0.0
142
0.0
 63
   250
361
3F
  0
ENDTAB
  0
TABLE
  2
LTYPE
  5
5
330
0
100
AcDbSymbolTable
 70
     1
  0
LTYPE
  5
14
330
5
100
AcDbSymbolTableRecord
100
AcDbLinetypeTableRecord
  2
ByBlock
 70
     0
  3

 72
    65
 73
     0
 40
0.0
  0
LTYPE
  5
15
330
5
100
AcDbSymbolTableRecord
100
AcDbLinetypeTableRecord
  2
ByLayer
 70
     0
  3

 72
    65
 73
     0
 40
0.0
  0
LTYPE
  5
16
330
5
100
AcDbSymbolTableRecord
100
AcDbLinetypeTableRecord
  2
Continuous
 70
     0
  3
Solid line
 72
    65
 73
     0
 40
0.0
  0
ENDTAB
  0
TABLE
  2
LAYER
  5
2
330
0
100
AcDbSymbolTable
 70
     2
  0
LAYER
  5
10
330
2
100
AcDbSymbolTableRecord
100
AcDbLayerTableRecord
  2
0
 70
     0
 62
     7
  6
Continuous
370
    -3
390
F
347
3E
  0
LAYER
  5
40
330
2
100
AcDbSymbolTableRecord
100
AcDbLayerTableRecord
  2
_U+30EC_U+30A4_U+30E4_U+30FC 1
 70
     0
 62
     7
  6
Continuous
370
    -3
390
F
347
3E
  0
ENDTAB
  0
TABLE
  2
STYLE
  5
3
330
0
100
AcDbSymbolTable
 70
     1
  0
STYLE
  5
11
330
3
100
AcDbSymbolTableRecord
100
AcDbTextStyleTableRecord
  2
Standard
 70
     0
 40
0.0
 41
1.0
 50
0.0
 71
     0
 42
0.2
  3
txt
  4

  0
ENDTAB
  0
TABLE
  2
VIEW
  5
6
330
0
100
AcDbSymbolTable
 70
     0
  0
ENDTAB
  0
TABLE
  2
UCS
  5
7
330
0
100
AcDbSymbolTable
 70
     0
  0
ENDTAB
  0
TABLE
  2
APPID
  5
9
330
0
100
AcDbSymbolTable
 70
     1
  0
APPID
  5
12
330
9
100
AcDbSymbolTableRecord
100
AcDbRegAppTableRecord
  2
ACAD
 70
     0
  0
ENDTAB
  0
TABLE
  2
DIMSTYLE
  5
A
330
0
100
AcDbSymbolTable
 70
     1
100
AcDbDimStyleTable
  0
DIMSTYLE
105
27
330
A
100
AcDbSymbolTableRecord
100
AcDbDimStyleTableRecord
  2
Standard
 70
     0
178
     0
340
11
  0
ENDTAB
  0
TABLE
  2
BLOCK_RECORD
  5
1
330
0
100
AcDbSymbolTable
 70
     6
  0
BLOCK_RECORD
  5
1F
330
1
100
AcDbSymbolTableRecord
100
AcDbBlockTableRecord
  2
*Model_Space
340
22
 70
     0
280
     1
281
     0
  0
BLOCK_RECORD
  5
1B
330
1
100
AcDbSymbolTableRecord
100
AcDbBlockTableRecord
  2
*Paper_Space
340
1E
 70
     0
280
     1
281
     0
  0
BLOCK_RECORD
  5
23
330
1
100
AcDbSymbolTableRecord
100
AcDbBlockTableRecord
  2
*Paper_Space0
340
26
 70
     0
280
     1
281
     0
  0
BLOCK_RECORD
  5
89
330
1
100
AcDbSymbolTableRecord
100
AcDbBlockTableRecord
  2
block 2
340
0
102
{BLKREFS
331
8A
102
}
 70
     0
280
     1
281
     0
  0
BLOCK_RECORD
  5
A4
330
1
100
AcDbSymbolTableRecord
100
AcDbBlockTableRecord
  2
block 3
340
0
102
{BLKREFS
331
A5
102
}
 70
     0
280
     1
281
     0
  0
BLOCK_RECORD
  5
B6
330
1
100
AcDbSymbolTableRecord
100
AcDbBlockTableRecord
  2
block 4
340
0
102
{BLKREFS
331
B7
102
}
 70
     0
280
     1
281
     0
  0
BLOCK_RECORD
  5
CA
330
1
100
AcDbSymbolTableRecord
100
AcDbBlockTableRecord
  2
block 5
340
0
102
{BLKREFS
331
CB
102
}
 70
     0
280
     1
281
     0
  0
BLOCK_RECORD
  5
DD
330
1
100
AcDbSymbolTableRecord
100
AcDbBlockTableRecord
  2
block 6
340
0
102
{BLKREFS
331
DE
102
}
 70
     0
280
     1
281
     0
  0
ENDTAB
  0
ENDSEC
  0
SECTION
  2
BLOCKS
  0
BLOCK
  5
20
330
1F
100
AcDbEntity
  8
0
100
AcDbBlockBegin
  2
*Model_Space
 70
     0
 10
0.0
 20
0.0
 30
0.0
  3
*Model_Space
  1

  0
ENDBLK
  5
21
330
1F
100
AcDbEntity
  8
0
100
AcDbBlockEnd
  0
BLOCK
  5
1C
330
1B
100
AcDbEntity
 67
     1
  8
0
100
AcDbBlockBegin
  2
*Paper_Space
 70
     0
 10
0.0
 20
0.0
 30
0.0
  3
*Paper_Space
  1

  0
ENDBLK
  5
1D
330
1B
100
AcDbEntity
 67
     1
  8
0
100
AcDbBlockEnd
  0
BLOCK
  5
24
330
23
100
AcDbEntity
  8
0
100
AcDbBlockBegin
  2
*Paper_Space0
 70
     0
 10
0.0
 20
0.0
 30
0.0
  3
*Paper_Space0
  1

  0
ENDBLK
  5
25
330
23
100
AcDbEntity
  8
0
100
AcDbBlockEnd
  0
BLOCK
  5
8B
330
89
100
AcDbEntity
  8
0
100
AcDbBlockBegin
  2
block 2
 70
     0
 10
0.0
 20
0.0
 30
0.0
  3
block 2
  1

  0
SPLINE
  5
8D
330
89
100
AcDbEntity
  8
_U+30EC_U+30A4_U+30E4_U+30FC 1
370
     0
100
AcDbSpline
210
0.0
220
0.0
230
1.0
 70
    11
 71
     3
 72
    29
 73
    25
 74
     0
 42
0.0000000001
 43
0.0000000001
 12
1.0
 22
0.0
 32
0.0
 13
1.0
 23
0.0
 33
0.0
 40
0.0
 40
0.0
 40
0.0
 40
0.0
 40
1.0
 40
1.0
 40
1.0
 40
2.0
 40
2.0
 40
2.0
 40
3.0
 40
3.0
 40
3.0
 40
4.0
 40
4.0
 40
4.0
 40
5.0
 40
5.0
 40
5.0
 40
6.0
 40
6.0
 40
6.0
 40
7.0
 40
7.0
 40
7.0
 40
8.0
 40
8.0
 40
8.0
 40
8.0
 10
73.75846081055344
 20
-79.94585230206215
 30
0.0
 10
73.96792261605664
 20
-80.06126300081802
 30
0.0
 10
73.98687064122551
 20
-80.24660913792447
 30
0.0
 10
73.98687064122551
 20
-80.37097708494198
 30
0.0
 10
73.98687064122551
 20
-80.54254284010743
 30
0.0
 10
73.94036185217463
 20
-80.69412704145842
 30
0.0
 10
73.75846081055344
 20
-80.79575735827329
 30
0.0
 10
73.56381291563683
 20
-80.90668943289833
 30
0.0
 10
73.32679034625164
 20
-80.9270154962613
 30
0.0
 10
73.16418183934785
 20
-80.9270154962613
 30
0.0
 10
73.02017684806441
 20
-80.9270154962613
 30
0.0
 10
72.76834036809264
 20
-80.90875649018948
 30
0.0
 10
72.56955835859372
 20
-80.79575735827329
 30
0.0
 10
72.36664223451251
 20
-80.68069116906594
 30
0.0
 10
72.34321558521282
 20
-80.50878090435198
 30
0.0
 10
72.34321558521282
 20
-80.37097708494198
 30
0.0
 10
72.34321558521282
 20
-80.20113387751917
 30
0.0
 10
72.38765731697254
 20
-80.04748261887703
 30
0.0
 10
72.56955835859372
 20
-79.94585230206215
 30
0.0
 10
72.7621391962192
 20
-79.83939885156794
 30
0.0
 10
72.99054902689126
 20
-79.81459416407414
 30
0.0
 10
73.16418183934785
 20
-79.81459416407414
 30
0.0
 10
73.33540308496477
 20
-79.81459416407414
 30
0.0
 10
73.56587997292797
 20
-79.83733179427678
 30
0.0
 10
73.75846081055344
 20
-79.94585230206215
 30
0.0
  0
SPLINE
  5
8E
330
89
100
AcDbEntity
  8
_U+30EC_U+30A4_U+30E4_U+30FC 1
370
     0
100
AcDbSpline
210
0.0
220
0.0
230
1.0
 70
    11
 71
     3
 72
    17
 73
    13
 74
     0
 42
0.0000000001
 43
0.0000000001
 12
1.0
 22
0.0
 32
0.0
 13
1.0
 23
0.0
 33
0.0
 40
0.0
 40
0.0
 40
0.0
 40
0.0
 40
1.0
 40
1.0
 40
1.0
 40
2.0
 40
2.0
 40
2.0
 40
3.0
 40
3.0
 40
3.0
 40
4.0
 40
4.0
 40
4.0
 40
4.0
 10
72.53579642283827
 20
-80.37097708494198
 30
0.0
 10
72.53579642283827
 20
-80.63762747550032
 30
0.0
 10
72.81932778127434
 20
-80.68723685048792
 30
0.0
 10
73.16418183934785
 20
-80.68723685048792
 30
0.0
 10
73.4835421908305
 20
-80.68723685048792
 30
0.0
 10
73.7922227463089
 20
-80.64899629060164
 30
0.0
 10
73.7922227463089
 20
-80.37097708494198
 30
0.0
 10
73.7922227463089
 20
-80.10639375167479
 30
0.0
 10
73.5111029547125
 20
-80.05437280984752
 30
0.0
 10
73.16418183934785
 20
-80.05437280984752
 30
0.0
 10
72.84447697831666
 20
-80.05437280984752
 30
0.0
 10
72.53579642283827
 20
-80.09502493657347
 30
0.0
 10
72.53579642283827
 20
-80.37097708494198
 30
0.0
  0
HATCH
  5
8F
330
89
100
AcDbEntity
  8
_U+30EC_U+30A4_U+30E4_U+30FC 1
 62
   179
420
  2234388
100
AcDbHatch
 10
0.0
 20
0.0
 30
0.0
210
0.0
220
0.0
230
1.0
  2
SOLID
 70
     1
 71
     0
 91
        2
 92
        1
 93
        1
 72
     4
 94
        3
 73
     0
 74
     1
 95
       29
 96
       25
 40
0.0
 40
0.0
 40
0.0
 40
0.0
 40
1.0
 40
1.0
 40
1.0
 40
2.0
 40
2.0
 40
2.0
 40
3.0
 40
3.0
 40
3.0
 40
4.0
 40
4.0
 40
4.0
 40
5.0
 40
5.0
 40
5.0
 40
6.0
 40
6.0
 40
6.0
 40
7.0
 40
7.0
 40
7.0
 40
8.0
 40
8.0
 40
8.0
 40
8.0
 10
73.75846081055344
 20
-79.94585230206215
 10
73.96792261605664
 20
-80.06126300081802
 10
73.98687064122551
 20
-80.24660913792447
 10
73.98687064122551
 20
-80.37097708494198
 10
73.98687064122551
 20
-80.54254284010743
 10
73.94036185217463
 20
-80.69412704145842
 10
73.75846081055344
 20
-80.79575735827329
 10
73.56381291563683
 20
-80.90668943289833
 10
73.32679034625164
 20
-80.9270154962613
 10
73.16418183934785
 20
-80.9270154962613
 10
73.02017684806441
 20
-80.9270154962613
 10
72.76834036809264
 20
-80.90875649018948
 10
72.56955835859372
 20
-80.79575735827329
 10
72.36664223451251
 20
-80.68069116906594
 10
72.34321558521282
 20
-80.50878090435198
 10
72.34321558521282
 20
-80.37097708494198
 10
72.34321558521282
 20
-80.20113387751917
 10
72.38765731697254
 20
-80.04748261887703
 10
72.56955835859372
 20
-79.94585230206215
 10
72.7621391962192
 20
-79.83939885156794
 10
72.99054902689126
 20
-79.81459416407414
 10
73.16418183934785
 20
-79.81459416407414
 10
73.33540308496477
 20
-79.81459416407414
 10
73.56587997292797
 20
-79.83733179427678
 10
73.75846081055344
 20
-79.94585230206215
 97
        0
 97
        0
 92
        1
 93
        1
 72
     4
 94
        3
 73
     0
 74
     1
 95
       17
 96
       13
 40
0.0
 40
0.0
 40
0.0
 40
0.0
 40
1.0
 40
1.0
 40
1.0
 40
2.0
 40
2.0
 40
2.0
 40
3.0
 40
3.0
 40
3.0
 40
4.0
 40
4.0
 40
4.0
 40
4.0
 10
72.53579642283827
 20
-80.37097708494198
 10
72.53579642283827
 20
-80.63762747550032
 10
72.81932778127434
 20
-80.68723685048792
 10
73.16418183934785
 20
-80.68723685048792
 10
73.4835421908305
 20
-80.68723685048792
 10
73.7922227463089
 20
-80.64899629060164
 10
73.7922227463089
 20
-80.37097708494198
 10
73.7922227463089
 20
-80.10639375167479
 10
73.5111029547125
 20
-80.05437280984752
 10
73.16418183934785
 20
-80.05437280984752
 10
72.84447697831666
 20
-80.05437280984752
 10
72.53579642283827
 20
-80.09502493657347
 10
72.53579642283827
 20
-80.37097708494198
 97
        0
 97
        0
 75
     2
 76
     1
 98
        0
  0
POLYLINE
  5
90
330
89
100
AcDbEntity
  8
_U+30EC_U+30A4_U+30E4_U+30FC 1
370
     0
100
AcDb2dPolyline
 66
     1
 10
0.0
 20
0.0
 30
0.0
  0
VERTEX
  5
91
330
90
100
AcDbEntity
  8
_U+30EC_U+30A4_U+30E4_U+30FC 1
370
     0
100
AcDbVertex
100
AcDb2dVertex
 10
73.93622773759233
 20
-79.58342825701386
 30
0.0
  0
VERTEX
  5
92
330
90
100
AcDbEntity
  8
_U+30EC_U+30A4_U+30E4_U+30FC 1
370
     0
100
AcDbVertex
100
AcDb2dVertex
 10
73.68439125762058
 20
-79.58342825701386
 30
0.0
  0
VERTEX
  5
93
330
90
100
AcDbEntity
  8
_U+30EC_U+30A4_U+30E4_U+30FC 1
370
     0
100
AcDbVertex
100
AcDb2dVertex
 10
73.68439125762058
 20
-79.31436629961586
 30
0.0
  0
VERTEX
  5
94
330
90
100
AcDbEntity
  8
_U+30EC_U+30A4_U+30E4_U+30FC 1
370
     0
100
AcDbVertex
100
AcDb2dVertex
 10
73.93622773759233
 20
-79.31436629961586
 30
0.0
  0
VERTEX
  5
95
330
90
100
AcDbEntity
  8
_U+30EC_U+30A4_U+30E4_U+30FC 1
370
     0
100
AcDbVertex
100
AcDb2dVertex
 10
73.93622773759233
 20
-79.58342825701386
 30
0.0
  0
SEQEND
  5
96
330
90
100
AcDbEntity
  8
_U+30EC_U+30A4_U+30E4_U+30FC 1
370
     0
  0
HATCH
  5
97
330
89
100
AcDbEntity
  8
_U+30EC_U+30A4_U+30E4_U+30FC 1
 62
   179
420
  2234388
100
AcDbHatch
 10
0.0
 20
0.0
 30
0.0
210
0.0
220
0.0
230
1.0
  2
SOLID
 70
     1
 71
     0
 91
        1
 92
        1
 93
        4
 72
     1
 10
73.93622773759233
 20
-79.58342825701386
 11
73.68439125762058
 21
-79.58342825701386
 72
     1
 10
73.68439125762058
 20
-79.58342825701386
 11
73.68439125762058
 21
-79.31436629961586
 72
     1
 10
73.68439125762058
 20
-79.31436629961586
 11
73.93622773759233
 21
-79.31436629961586
 72
     1
 10
73.93622773759233
 20
-79.31436629961586
 11
73.93622773759233
 21
-79.58342825701386
 97
        0
 75
     2
 76
     1
 98
        0
  0
SPLINE
  5
98
330
89
100
AcDbEntity
  8
_U+30EC_U+30A4_U+30E4_U+30FC 1
370
     0
100
AcDbSpline
210
0.0
220
0.0
230
1.0
 70
    11
 71
     3
 72
    29
 73
    25
 74
     0
 42
0.0000000001
 43
0.0000000001
 12
1.0
 22
0.0
 32
0.0
 13
1.0
 23
0.0
 33
0.0
 40
0.0
 40
0.0
 40
0.0
 40
0.0
 40
1.0
 40
1.0
 40
1.0
 40
2.0
 40
2.0
 40
2.0
 40
3.0
 40
3.0
 40
3.0
 40
4.0
 40
4.0
 40
4.0
 40
5.0
 40
5.0
 40
5.0
 40
6.0
 40
6.0
 40
6.0
 40
7.0
 40
7.0
 40
7.0
 40
8.0
 40
8.0
 40
8.0
 40
8.0
 10
73.98687064122551
 20
-78.52716198123626
 30
0.0
 10
73.98687064122551
 20
-78.81207137786643
 30
0.0
 10
73.84941133136404
 20
-79.0832003925556
 30
0.0
 10
73.50042315870823
 20
-79.0832003925556
 30
0.0
 10
73.24445256415417
 20
-79.0832003925556
 30
0.0
 10
73.14936792876128
 20
-78.9316161912046
 30
0.0
 10
73.08804522912382
 20
-78.8186170592884
 30
0.0
 10
73.02878958677753
 20
-78.95194225456757
 30
0.0
 10
72.91441241666723
 20
-79.033591017568
 30
0.0
 10
72.75352645750607
 20
-79.033591017568
 30
0.0
 10
72.47860783778313
 20
-79.033591017568
 30
0.0
 10
72.34321558521282
 20
-78.82102862612808
 30
0.0
 10
72.34321558521282
 20
-78.52716198123626
 30
0.0
 10
72.34321558521282
 20
-78.22399357853428
 30
0.0
 10
72.48722057649626
 20
-78.02073294490454
 30
0.0
 10
72.75352645750607
 20
-78.02073294490454
 30
0.0
 10
72.91441241666723
 20
-78.02073294490454
 30
0.0
 10
73.02878958677753
 20
-78.10410425564758
 30
0.0
 10
73.08804522912382
 20
-78.23777396047528
 30
0.0
 10
73.138688132757
 20
-78.14268932508239
 30
0.0
 10
73.23377276814989
 20
-77.9731906272081
 30
0.0
 10
73.49628904412593
 20
-77.9731906272081
 30
0.0
 10
73.87077092337259
 20
-77.9731906272081
 30
0.0
 10
73.98687064122551
 20
-78.27153589623073
 30
0.0
 10
73.98687064122551
 20
-78.52716198123626
 30
0.0
  0
SPLINE
  5
99
330
89
100
AcDbEntity
  8
_U+30EC_U+30A4_U+30E4_U+30FC 1
370
     0
100
AcDbSpline
210
0.0
220
0.0
230
1.0
 70
    11
 71
     3
 72
    17
 73
    13
 74
     0
 42
0.0000000001
 43
0.0000000001
 12
1.0
 22
0.0
 32
0.0
 13
1.0
 23
0.0
 33
0.0
 40
0.0
 40
0.0
 40
0.0
 40
0.0
 40
1.0
 40
1.0
 40
1.0
 40
2.0
 40
2.0
 40
2.0
 40
3.0
 40
3.0
 40
3.0
 40
4.0
 40
4.0
 40
4.0
 40
4.0
 10
72.53579642283827
 20
-78.52716198123626
 30
0.0
 10
72.53579642283827
 20
-78.70320636053253
 30
0.0
 10
72.63088105823117
 20
-78.7938123717946
 30
0.0
 10
72.7662733108015
 20
-78.7938123717946
 30
0.0
 10
72.88891871007638
 20
-78.7938123717946
 30
0.0
 10
73.00742999476898
 20
-78.71698674247354
 30
0.0
 10
73.00742999476898
 20
-78.52716198123626
 30
0.0
 10
73.00742999476898
 20
-78.33699271045047
 30
0.0
 10
72.88891871007638
 20
-78.26016708112941
 30
0.0
 10
72.7662733108015
 20
-78.26016708112941
 30
0.0
 10
72.63088105823117
 20
-78.26016708112941
 30
0.0
 10
72.53579642283827
 20
-78.35284014968262
 30
0.0
 10
72.53579642283827
 20
-78.52716198123626
 30
0.0
  0
SPLINE
  5
9A
330
89
100
AcDbEntity
  8
_U+30EC_U+30A4_U+30E4_U+30FC 1
370
     0
100
AcDbSpline
210
0.0
220
0.0
230
1.0
 70
    11
 71
     3
 72
    17
 73
    13
 74
     0
 42
0.0000000001
 43
0.0000000001
 12
1.0
 22
0.0
 32
0.0
 13
1.0
 23
0.0
 33
0.0
 40
0.0
 40
0.0
 40
0.0
 40
0.0
 40
1.0
 40
1.0
 40
1.0
 40
2.0
 40
2.0
 40
2.0
 40
3.0
 40
3.0
 40
3.0
 40
4.0
 40
4.0
 40
4.0
 40
4.0
 10
73.19587671781214
 20
-78.52716198123626
 30
0.0
 10
73.19587671781214
 20
-78.68081323987842
 30
0.0
 10
73.28269312404043
 20
-78.8434217467822
 30
0.0
 10
73.48560924812166
 20
-78.8434217467822
 30
0.0
 10
73.69093693904254
 20
-78.8434217467822
 30
0.0
 10
73.7922227463089
 20
-78.70802949421189
 30
0.0
 10
73.7922227463089
 20
-78.52716198123626
 30
0.0
 10
73.7922227463089
 20
-78.32803546218882
 30
0.0
 10
73.669577347034
 20
-78.21055770614181
 30
0.0
 10
73.4918104199951
 20
-78.21055770614181
 30
0.0
 10
73.26994627074502
 20
-78.21055770614181
 30
0.0
 10
73.19587671781214
 20
-78.38453502814693
 30
0.0
 10
73.19587671781214
 20
-78.52716198123626
 30
0.0
  0
HATCH
  5
9B
330
89
100
AcDbEntity
  8
_U+30EC_U+30A4_U+30E4_U+30FC 1
 62
   179
420
  2234388
100
AcDbHatch
 10
0.0
 20
0.0
 30
0.0
210
0.0
220
0.0
230
1.0
  2
SOLID
 70
     1
 71
     0
 91
        3
 92
        1
 93
        1
 72
     4
 94
        3
 73
     0
 74
     1
 95
       29
 96
       25
 40
0.0
 40
0.0
 40
0.0
 40
0.0
 40
1.0
 40
1.0
 40
1.0
 40
2.0
 40
2.0
 40
2.0
 40
3.0
 40
3.0
 40
3.0
 40
4.0
 40
4.0
 40
4.0
 40
5.0
 40
5.0
 40
5.0
 40
6.0
 40
6.0
 40
6.0
 40
7.0
 40
7.0
 40
7.0
 40
8.0
 40
8.0
 40
8.0
 40
8.0
 10
73.98687064122551
 20
-78.52716198123626
 10
73.98687064122551
 20
-78.81207137786643
 10
73.84941133136404
 20
-79.0832003925556
 10
73.50042315870823
 20
-79.0832003925556
 10
73.24445256415417
 20
-79.0832003925556
 10
73.14936792876128
 20
-78.9316161912046
 10
73.08804522912382
 20
-78.8186170592884
 10
73.02878958677753
 20
-78.95194225456757
 10
72.91441241666723
 20
-79.033591017568
 10
72.75352645750607
 20
-79.033591017568
 10
72.47860783778313
 20
-79.033591017568
 10
72.34321558521282
 20
-78.82102862612808
 10
72.34321558521282
 20
-78.52716198123626
 10
72.34321558521282
 20
-78.22399357853428
 10
72.48722057649626
 20
-78.02073294490454
 10
72.75352645750607
 20
-78.02073294490454
 10
72.91441241666723
 20
-78.02073294490454
 10
73.02878958677753
 20
-78.10410425564758
 10
73.08804522912382
 20
-78.23777396047528
 10
73.138688132757
 20
-78.14268932508239
 10
73.23377276814989
 20
-77.9731906272081
 10
73.49628904412593
 20
-77.9731906272081
 10
73.87077092337259
 20
-77.9731906272081
 10
73.98687064122551
 20
-78.27153589623073
 10
73.98687064122551
 20
-78.52716198123626
 97
        0
 97
        0
 92
        1
 93
        1
 72
     4
 94
        3
 73
     0
 74
     1
 95
       17
 96
       13
 40
0.0
 40
0.0
 40
0.0
 40
0.0
 40
1.0
 40
1.0
 40
1.0
 40
2.0
 40
2.0
 40
2.0
 40
3.0
 40
3.0
 40
3.0
 40
4.0
 40
4.0
 40
4.0
 40
4.0
 10
72.53579642283827
 20
-78.52716198123626
 10
72.53579642283827
 20
-78.70320636053253
 10
72.63088105823117
 20
-78.7938123717946
 10
72.7662733108015
 20
-78.7938123717946
 10
72.88891871007638
 20
-78.7938123717946
 10
73.00742999476898
 20
-78.71698674247354
 10
73.00742999476898
 20
-78.52716198123626
 10
73.00742999476898
 20
-78.33699271045047
 10
72.88891871007638
 20
-78.26016708112941
 10
72.7662733108015
 20
-78.26016708112941
 10
72.63088105823117
 20
-78.26016708112941
 10
72.53579642283827
 20
-78.35284014968262
 10
72.53579642283827
 20
-78.52716198123626
 97
        0
 97
        0
 92
        1
 93
        1
 72
     4
 94
        3
 73
     0
 74
     1
 95
       17
 96
       13
 40
0.0
 40
0.0
 40
0.0
 40
0.0
 40
1.0
 40
1.0
 40
1.0
 40
2.0
 40
2.0
 40
2.0
 40
3.0
 40
3.0
 40
3.0
 40
4.0
 40
4.0
 40
4.0
 40
4.0
 10
73.19587671781214
 20
-78.52716198123626
 10
73.19587671781214
 20
-78.68081323987842
 10
73.28269312404043
 20
-78.8434217467822
 10
73.48560924812166
 20
-78.8434217467822
 10
73.69093693904254
 20
-78.8434217467822
 10
73.7922227463089
 20
-78.70802949421189
 10
73.7922227463089
 20
-78.52716198123626
 10
73.7922227463089
 20
-78.32803546218882
 10
73.669577347034
 20
-78.21055770614181
 10
73.4918104199951
 20
-78.21055770614181
 10
73.26994627074502
 20
-78.21055770614181
 10
73.19587671781214
 20
-78.38453502814693
 10
73.19587671781214
 20
-78.52716198123626
 97
        0
 97
        0
 75
     2
 76
     1
 98
        0
  0
ENDBLK
  5
8C
330
89
100
AcDbEntity
  8
0
100
AcDbBlockEnd
  0
BLOCK
  5
A6
330
A4
100
AcDbEntity
  8
0
100
AcDbBlockBegin
  2
block 3
 70
     0
 10
0.0
 20
0.0
 30
0.0
  3
block 3
  1

  0
SPLINE
  5
A8
330
A4
100
AcDbEntity
  8
_U+30EC_U+30A4_U+30E4_U+30FC 1
370
     0
100
AcDbSpline
210
0.0
220
0.0
230
1.0
 70
    11
 71
     3
 72
    62
 73
    58
 74
     0
 42
0.0000000001
 43
0.0000000001
 12
1.0
 22
0.0
 32
0.0
 13
1.0
 23
0.0
 33
0.0
 40
0.0
 40
0.0
 40
0.0
 40
0.0
 40
1.0
 40
1.0
 40
1.0
 40
2.0
 40
2.0
 40
2.0
 40
3.0
 40
3.0
 40
3.0
 40
4.0
 40
4.0
 40
4.0
 40
5.0
 40
5.0
 40
5.0
 40
6.0
 40
6.0
 40
6.0
 40
7.0
 40
7.0
 40
7.0
 40
8.0
 40
8.0
 40
8.0
 40
9.0
 40
9.0
 40
9.0
 40
10.0
 40
10.0
 40
10.0
 40
11.0
 40
11.0
 40
11.0
 40
12.0
 40
12.0
 40
12.0
 40
13.0
 40
13.0
 40
13.0
 40
14.0
 40
14.0
 40
14.0
 40
15.0
 40
15.0
 40
15.0
 40
16.0
 40
16.0
 40
16.0
 40
17.0
 40
17.0
 40
17.0
 40
18.0
 40
18.0
 40
18.0
 40
19.0
 40
19.0
 40
19.0
 40
19.0
 10
73.98687064122551
 20
-97.75837399899791
 30
0.0
 10
73.98687064122551
 20
-97.86000431581279
 30
0.0
 10
73.96585555876548
 20
-98.09289277061568
 30
0.0
 10
73.779820402562
 20
-98.22621796589483
 30
0.0
 10
73.66751028974285
 20
-98.30545516205558
 30
0.0
 10
73.56829153976766
 20
-98.3099337861864
 30
0.0
 10
73.4835421908305
 20
-98.31441241031723
 30
0.0
 10
73.4835421908305
 20
-98.31441241031723
 30
0.0
 10
73.4835421908305
 20
-98.0794568982232
 30
0.0
 10
73.4835421908305
 20
-98.0794568982232
 30
0.0
 10
73.55761174376337
 20
-98.07704533138352
 30
0.0
 10
73.7922227463089
 20
-98.0656765162822
 30
0.0
 10
73.7922227463089
 20
-97.76285262312874
 30
0.0
 10
73.7922227463089
 20
-97.61574704590856
 30
0.0
 10
73.72263181750685
 20
-97.45313853900477
 30
0.0
 10
73.49422198683479
 20
-97.45313853900477
 30
0.0
 10
73.37777775943334
 20
-97.45313853900477
 30
0.0
 10
73.32920191309131
 20
-97.49379066573073
 30
0.0
 10
73.29750703462702
 20
-97.52789711103469
 30
0.0
 10
73.22343748169415
 20
-97.60678979764691
 30
0.0
 10
73.21069062839872
 20
-97.73115774466444
 30
0.0
 10
73.21069062839872
 20
-97.7900688774622
 30
0.0
 10
73.21069062839872
 20
-97.81039494082518
 30
0.0
 10
73.21275768568987
 20
-97.84863550071145
 30
0.0
 10
73.21689180027217
 20
-97.8782633218846
 30
0.0
 10
73.21689180027217
 20
-97.8782633218846
 30
0.0
 10
73.02224390535555
 20
-97.8782633218846
 30
0.0
 10
73.02224390535555
 20
-97.8782633218846
 30
0.0
 10
73.02878958677753
 20
-97.83761119515866
 30
0.0
 10
73.03085664406868
 20
-97.79213593475336
 30
0.0
 10
73.03085664406868
 20
-97.78559025333138
 30
0.0
 10
73.03085664406868
 20
-97.71531030543228
 30
0.0
 10
73.00949705206013
 20
-97.50274791399238
 30
0.0
 10
72.77281899222346
 20
-97.50274791399238
 30
0.0
 10
72.59505206518457
 20
-97.50274791399238
 30
0.0
 10
72.53993053742057
 20
-97.64296330024204
 30
0.0
 10
72.53993053742057
 20
-97.76044105628907
 30
0.0
 10
72.53993053742057
 20
-98.04328339562807
 30
0.0
 10
72.77281899222346
 20
-98.05224064388972
 30
0.0
 10
72.84447697831666
 20
-98.05671926802054
 30
0.0
 10
72.84447697831666
 20
-98.05671926802054
 30
0.0
 10
72.84447697831666
 20
-98.27376028359129
 30
0.0
 10
72.84447697831666
 20
-98.27376028359129
 30
0.0
 10
72.71976452175062
 20
-98.26480303532963
 30
0.0
 10
72.34321558521282
 20
-98.23551972370501
 30
0.0
 10
72.34321558521282
 20
-97.74700518389659
 30
0.0
 10
72.34321558521282
 20
-97.50722653812319
 30
0.0
 10
72.47033960861853
 20
-97.2495333958265
 30
0.0
 10
72.7662733108015
 20
-97.2495333958265
 30
0.0
 10
72.95265297655351
 20
-97.2495333958265
 30
0.0
 10
73.03499075865098
 20
-97.3515082221899
 30
0.0
 10
73.09631345828842
 20
-97.4576171631356
 30
0.0
 10
73.12387422217043
 20
-97.39216034891585
 30
0.0
 10
73.20414494697674
 20
-97.19751245399924
 30
0.0
 10
73.48147513353936
 20
-97.19751245399924
 30
0.0
 10
73.81978351019089
 20
-97.19751245399924
 30
0.0
 10
73.98687064122551
 20
-97.46209578726642
 30
0.0
 10
73.98687064122551
 20
-97.75837399899791
 30
0.0
  0
HATCH
  5
A9
330
A4
100
AcDbEntity
  8
_U+30EC_U+30A4_U+30E4_U+30FC 1
 62
   179
420
  2234388
100
AcDbHatch
 10
0.0
 20
0.0
 30
0.0
210
0.0
220
0.0
230
1.0
  2
SOLID
 70
     1
 71
     0
 91
        1
 92
        1
 93
        1
 72
     4
 94
        3
 73
     0
 74
     1
 95
       62
 96
       58
 40
0.0
 40
0.0
 40
0.0
 40
0.0
 40
1.0
 40
1.0
 40
1.0
 40
2.0
 40
2.0
 40
2.0
 40
3.0
 40
3.0
 40
3.0
 40
4.0
 40
4.0
 40
4.0
 40
5.0
 40
5.0
 40
5.0
 40
6.0
 40
6.0
 40
6.0
 40
7.0
 40
7.0
 40
7.0
 40
8.0
 40
8.0
 40
8.0
 40
9.0
 40
9.0
 40
9.0
 40
10.0
 40
10.0
 40
10.0
 40
11.0
 40
11.0
 40
11.0
 40
12.0
 40
12.0
 40
12.0
 40
13.0
 40
13.0
 40
13.0
 40
14.0
 40
14.0
 40
14.0
 40
15.0
 40
15.0
 40
15.0
 40
16.0
 40
16.0
 40
16.0
 40
17.0
 40
17.0
 40
17.0
 40
18.0
 40
18.0
 40
18.0
 40
19.0
 40
19.0
 40
19.0
 40
19.0
 10
73.98687064122551
 20
-97.75837399899791
 10
73.98687064122551
 20
-97.86000431581279
 10
73.96585555876548
 20
-98.09289277061568
 10
73.779820402562
 20
-98.22621796589483
 10
73.66751028974285
 20
-98.30545516205558
 10
73.56829153976766
 20
-98.3099337861864
 10
73.4835421908305
 20
-98.31441241031723
 10
73.4835421908305
 20
-98.31441241031723
 10
73.4835421908305
 20
-98.0794568982232
 10
73.4835421908305
 20
-98.0794568982232
 10
73.55761174376337
 20
-98.07704533138352
 10
73.7922227463089
 20
-98.0656765162822
 10
73.7922227463089
 20
-97.76285262312874
 10
73.7922227463089
 20
-97.61574704590856
 10
73.72263181750685
 20
-97.45313853900477
 10
73.49422198683479
 20
-97.45313853900477
 10
73.37777775943334
 20
-97.45313853900477
 10
73.32920191309131
 20
-97.49379066573073
 10
73.29750703462702
 20
-97.52789711103469
 10
73.22343748169415
 20
-97.60678979764691
 10
73.21069062839872
 20
-97.73115774466444
 10
73.21069062839872
 20
-97.7900688774622
 10
73.21069062839872
 20
-97.81039494082518
 10
73.21275768568987
 20
-97.84863550071145
 10
73.21689180027217
 20
-97.8782633218846
 10
73.21689180027217
 20
-97.8782633218846
 10
73.02224390535555
 20
-97.8782633218846
 10
73.02224390535555
 20
-97.8782633218846
 10
73.02878958677753
 20
-97.83761119515866
 10
73.03085664406868
 20
-97.79213593475336
 10
73.03085664406868
 20
-97.78559025333138
 10
73.03085664406868
 20
-97.71531030543228
 10
73.00949705206013
 20
-97.50274791399238
 10
72.77281899222346
 20
-97.50274791399238
 10
72.59505206518457
 20
-97.50274791399238
 10
72.53993053742057
 20
-97.64296330024204
 10
72.53993053742057
 20
-97.76044105628907
 10
72.53993053742057
 20
-98.04328339562807
 10
72.77281899222346
 20
-98.05224064388972
 10
72.84447697831666
 20
-98.05671926802054
 10
72.84447697831666
 20
-98.05671926802054
 10
72.84447697831666
 20
-98.27376028359129
 10
72.84447697831666
 20
-98.27376028359129
 10
72.71976452175062
 20
-98.26480303532963
 10
72.34321558521282
 20
-98.23551972370501
 10
72.34321558521282
 20
-97.74700518389659
 10
72.34321558521282
 20
-97.50722653812319
 10
72.47033960861853
 20
-97.2495333958265
 10
72.7662733108015
 20
-97.2495333958265
 10
72.95265297655351
 20
-97.2495333958265
 10
73.03499075865098
 20
-97.3515082221899
 10
73.09631345828842
 20
-97.4576171631356
 10
73.12387422217043
 20
-97.39216034891585
 10
73.20414494697674
 20
-97.19751245399924
 10
73.48147513353936
 20
-97.19751245399924
 10
73.81978351019089
 20
-97.19751245399924
 10
73.98687064122551
 20
-97.46209578726642
 10
73.98687064122551
 20
-97.75837399899791
 97
        0
 97
        0
 75
     2
 76
     1
 98
        0
  0
ENDBLK
  5
A7
330
A4
100
AcDbEntity
  8
0
100
AcDbBlockEnd
  0
BLOCK
  5
B8
330
B6
100
AcDbEntity
  8
0
100
AcDbBlockBegin
  2
block 4
 70
     0
 10
0.0
 20
0.0
 30
0.0
  3
block 4
  1

  0
SPLINE
  5
BA
330
B6
100
AcDbEntity
  8
_U+30EC_U+30A4_U+30E4_U+30FC 1
370
     0
100
AcDbSpline
210
0.0
220
0.0
230
1.0
 70
    11
 71
     3
 72
    44
 73
    40
 74
     0
 42
0.0000000001
 43
0.0000000001
 12
1.0
 22
0.0
 32
0.0
 13
1.0
 23
0.0
 33
0.0
 40
0.0
 40
0.0
 40
0.0
 40
0.0
 40
1.0
 40
1.0
 40
1.0
 40
2.0
 40
2.0
 40
2.0
 40
3.0
 40
3.0
 40
3.0
 40
4.0
 40
4.0
 40
4.0
 40
5.0
 40
5.0
 40
5.0
 40
6.0
 40
6.0
 40
6.0
 40
7.0
 40
7.0
 40
7.0
 40
8.0
 40
8.0
 40
8.0
 40
9.0
 40
9.0
 40
9.0
 40
10.0
 40
10.0
 40
10.0
 40
11.0
 40
11.0
 40
11.0
 40
12.0
 40
12.0
 40
12.0
 40
13.0
 40
13.0
 40
13.0
 40
13.0
 10
60.25816513250491
 20
-76.51608749172168
 30
0.0
 10
60.02527667770202
 20
-76.67473413881743
 30
0.0
 10
59.9257134181783
 20
-76.7488036917503
 30
0.0
 10
59.87403698589955
 20
-76.89263642825948
 30
0.0
 10
59.87403698589955
 20
-76.89263642825948
 30
0.0
 10
60.70568303603886
 20
-76.89263642825948
 30
0.0
 10
60.70568303603886
 20
-76.89263642825948
 30
0.0
 10
60.70568303603886
 20
-76.89263642825948
 30
0.0
 10
60.70568303603886
 20
-77.0977918644061
 30
0.0
 10
60.70568303603886
 20
-77.0977918644061
 30
0.0
 10
60.70568303603886
 20
-77.0977918644061
 30
0.0
 10
59.60704208579268
 20
-77.0977918644061
 30
0.0
 10
59.60704208579268
 20
-77.0977918644061
 30
0.0
 10
59.64114853109666
 20
-76.74019095303717
 30
0.0
 10
59.71108396944723
 20
-76.661987285522
 30
0.0
 10
60.12242837038606
 20
-76.36364201649937
 30
0.0
 10
60.3959689519149
 20
-76.16486000700046
 30
0.0
 10
60.466248899814
 20
-76.0971638807153
 30
0.0
 10
60.466248899814
 20
-75.95970457085383
 30
0.0
 10
60.466248899814
 20
-75.84119328616123
 30
0.0
 10
60.38942327049293
 20
-75.71010740294747
 30
0.0
 10
60.17892793634416
 20
-75.71010740294747
 30
0.0
 10
59.9009087306845
 20
-75.71010740294747
 30
0.0
 10
59.89195148242285
 20
-75.94058429091069
 30
0.0
 10
59.88747285829202
 20
-76.05702851831214
 30
0.0
 10
59.88747285829202
 20
-76.05702851831214
 30
0.0
 10
59.64769421251864
 20
-76.05702851831214
 30
0.0
 10
59.64769421251864
 20
-76.05702851831214
 30
0.0
 10
59.65699597032881
 20
-75.93007674968068
 30
0.0
 10
59.66802027588161
 20
-75.81793889163579
 30
0.0
 10
59.75414766301285
 20
-75.6994276069432
 30
0.0
 10
59.87162541905987
 20
-75.5387139025563
 30
0.0
 10
60.07040742855879
 20
-75.50477971202659
 30
0.0
 10
60.19477537557631
 20
-75.50477971202659
 30
0.0
 10
60.4910535873078
 20
-75.50477971202659
 30
0.0
 10
60.71257322700936
 20
-75.68892006571319
 30
0.0
 10
60.71257322700936
 20
-75.96177162814497
 30
0.0
 10
60.71257322700936
 20
-76.19018145881704
 30
0.0
 10
60.58820527999184
 20
-76.28974471834076
 30
0.0
 10
60.25816513250491
 20
-76.51608749172168
 30
0.0
  0
HATCH
  5
BB
330
B6
100
AcDbEntity
  8
_U+30EC_U+30A4_U+30E4_U+30FC 1
 62
   179
420
  2234388
100
AcDbHatch
 10
0.0
 20
0.0
 30
0.0
210
0.0
220
0.0
230
1.0
  2
SOLID
 70
     1
 71
     0
 91
        1
 92
        1
 93
        1
 72
     4
 94
        3
 73
     0
 74
     1
 95
       44
 96
       40
 40
0.0
 40
0.0
 40
0.0
 40
0.0
 40
1.0
 40
1.0
 40
1.0
 40
2.0
 40
2.0
 40
2.0
 40
3.0
 40
3.0
 40
3.0
 40
4.0
 40
4.0
 40
4.0
 40
5.0
 40
5.0
 40
5.0
 40
6.0
 40
6.0
 40
6.0
 40
7.0
 40
7.0
 40
7.0
 40
8.0
 40
8.0
 40
8.0
 40
9.0
 40
9.0
 40
9.0
 40
10.0
 40
10.0
 40
10.0
 40
11.0
 40
11.0
 40
11.0
 40
12.0
 40
12.0
 40
12.0
 40
13.0
 40
13.0
 40
13.0
 40
13.0
 10
60.25816513250491
 20
-76.51608749172168
 10
60.02527667770202
 20
-76.67473413881743
 10
59.9257134181783
 20
-76.7488036917503
 10
59.87403698589955
 20
-76.89263642825948
 10
59.87403698589955
 20
-76.89263642825948
 10
60.70568303603886
 20
-76.89263642825948
 10
60.70568303603886
 20
-76.89263642825948
 10
60.70568303603886
 20
-76.89263642825948
 10
60.70568303603886
 20
-77.0977918644061
 10
60.70568303603886
 20
-77.0977918644061
 10
60.70568303603886
 20
-77.0977918644061
 10
59.60704208579268
 20
-77.0977918644061
 10
59.60704208579268
 20
-77.0977918644061
 10
59.64114853109666
 20
-76.74019095303717
 10
59.71108396944723
 20
-76.661987285522
 10
60.12242837038606
 20
-76.36364201649937
 10
60.3959689519149
 20
-76.16486000700046
 10
60.466248899814
 20
-76.0971638807153
 10
60.466248899814
 20
-75.95970457085383
 10
60.466248899814
 20
-75.84119328616123
 10
60.38942327049293
 20
-75.71010740294747
 10
60.17892793634416
 20
-75.71010740294747
 10
59.9009087306845
 20
-75.71010740294747
 10
59.89195148242285
 20
-75.94058429091069
 10
59.88747285829202
 20
-76.05702851831214
 10
59.88747285829202
 20
-76.05702851831214
 10
59.64769421251864
 20
-76.05702851831214
 10
59.64769421251864
 20
-76.05702851831214
 10
59.65699597032881
 20
-75.93007674968068
 10
59.66802027588161
 20
-75.81793889163579
 10
59.75414766301285
 20
-75.6994276069432
 10
59.87162541905987
 20
-75.5387139025563
 10
60.07040742855879
 20
-75.50477971202659
 10
60.19477537557631
 20
-75.50477971202659
 10
60.4910535873078
 20
-75.50477971202659
 10
60.71257322700936
 20
-75.68892006571319
 10
60.71257322700936
 20
-75.96177162814497
 10
60.71257322700936
 20
-76.19018145881704
 10
60.58820527999184
 20
-76.28974471834076
 10
60.25816513250491
 20
-76.51608749172168
 97
        0
 97
        0
 75
     2
 76
     1
 98
        0
  0
SPLINE
  5
BC
330
B6
100
AcDbEntity
  8
_U+30EC_U+30A4_U+30E4_U+30FC 1
370
     0
100
AcDbSpline
210
0.0
220
0.0
230
1.0
 70
    11
 71
     3
 72
    26
 73
    22
 74
     0
 42
0.0000000001
 43
0.0000000001
 12
1.0
 22
0.0
 32
0.0
 13
1.0
 23
0.0
 33
0.0
 40
0.0
 40
0.0
 40
0.0
 40
0.0
 40
1.0
 40
1.0
 40
1.0
 40
2.0
 40
2.0
 40
2.0
 40
3.0
 40
3.0
 40
3.0
 40
4.0
 40
4.0
 40
4.0
 40
5.0
 40
5.0
 40
5.0
 40
6.0
 40
6.0
 40
6.0
 40
7.0
 40
7.0
 40
7.0
 40
7.0
 10
61.36438529281863
 20
-77.0977918644061
 30
0.0
 10
61.36438529281863
 20
-77.0977918644061
 30
0.0
 10
61.36438529281863
 20
-75.99346650660928
 30
0.0
 10
61.36438529281863
 20
-75.99346650660928
 30
0.0
 10
61.36438529281863
 20
-75.99346650660928
 30
0.0
 10
61.01195202467757
 20
-75.99346650660928
 30
0.0
 10
61.01195202467757
 20
-75.99346650660928
 30
0.0
 10
61.01195202467757
 20
-75.99346650660928
 30
0.0
 10
61.01195202467757
 20
-75.8454996555178
 30
0.0
 10
61.01195202467757
 20
-75.8454996555178
 30
0.0
 10
61.3667968596583
 20
-75.83068574493122
 30
0.0
 10
61.4164062346459
 20
-75.66773272847891
 30
0.0
 10
61.4481011131102
 20
-75.55352781314288
 30
0.0
 10
61.4481011131102
 20
-75.55352781314288
 30
0.0
 10
61.60416393859202
 20
-75.55352781314288
 30
0.0
 10
61.60416393859202
 20
-75.55352781314288
 30
0.0
 10
61.60416393859202
 20
-75.55352781314288
 30
0.0
 10
61.60416393859202
 20
-77.0977918644061
 30
0.0
 10
61.60416393859202
 20
-77.0977918644061
 30
0.0
 10
61.60416393859202
 20
-77.0977918644061
 30
0.0
 10
61.36438529281863
 20
-77.0977918644061
 30
0.0
 10
61.36438529281863
 20
-77.0977918644061
 30
0.0
  0
HATCH
  5
BD
330
B6
100
AcDbEntity
  8
_U+30EC_U+30A4_U+30E4_U+30FC 1
 62
   179
420
  2234388
100
AcDbHatch
 10
0.0
 20
0.0
 30
0.0
210
0.0
220
0.0
230
1.0
  2
SOLID
 70
     1
 71
     0
 91
        1
 92
        1
 93
        1
 72
     4
 94
        3
 73
     0
 74
     1
 95
       26
 96
       22
 40
0.0
 40
0.0
 40
0.0
 40
0.0
 40
1.0
 40
1.0
 40
1.0
 40
2.0
 40
2.0
 40
2.0
 40
3.0
 40
3.0
 40
3.0
 40
4.0
 40
4.0
 40
4.0
 40
5.0
 40
5.0
 40
5.0
 40
6.0
 40
6.0
 40
6.0
 40
7.0
 40
7.0
 40
7.0
 40
7.0
 10
61.36438529281863
 20
-77.0977918644061
 10
61.36438529281863
 20
-77.0977918644061
 10
61.36438529281863
 20
-75.99346650660928
 10
61.36438529281863
 20
-75.99346650660928
 10
61.36438529281863
 20
-75.99346650660928
 10
61.01195202467757
 20
-75.99346650660928
 10
61.01195202467757
 20
-75.99346650660928
 10
61.01195202467757
 20
-75.99346650660928
 10
61.01195202467757
 20
-75.8454996555178
 10
61.01195202467757
 20
-75.8454996555178
 10
61.3667968596583
 20
-75.83068574493122
 10
61.4164062346459
 20
-75.66773272847891
 10
61.4481011131102
 20
-75.55352781314288
 10
61.4481011131102
 20
-75.55352781314288
 10
61.60416393859202
 20
-75.55352781314288
 10
61.60416393859202
 20
-75.55352781314288
 10
61.60416393859202
 20
-75.55352781314288
 10
61.60416393859202
 20
-77.0977918644061
 10
61.60416393859202
 20
-77.0977918644061
 10
61.60416393859202
 20
-77.0977918644061
 10
61.36438529281863
 20
-77.0977918644061
 10
61.36438529281863
 20
-77.0977918644061
 97
        0
 97
        0
 75
     2
 76
     1
 98
        0
  0
ENDBLK
  5
B9
330
B6
100
AcDbEntity
  8
0
100
AcDbBlockEnd
  0
BLOCK
  5
CC
330
CA
100
AcDbEntity
  8
0
100
AcDbBlockBegin
  2
block 5
 70
     0
 10
0.0
 20
0.0
 30
0.0
  3
block 5
  1

  0
SPLINE
  5
CE
330
CA
100
AcDbEntity
  8
_U+30EC_U+30A4_U+30E4_U+30FC 1
370
     0
100
AcDbSpline
210
0.0
220
0.0
230
1.0
 70
    11
 71
     3
 72
    32
 73
    28
 74
     0
 42
0.0000000001
 43
0.0000000001
 12
1.0
 22
0.0
 32
0.0
 13
1.0
 23
0.0
 33
0.0
 40
0.0
 40
0.0
 40
0.0
 40
0.0
 40
1.0
 40
1.0
 40
1.0
 40
2.0
 40
2.0
 40
2.0
 40
3.0
 40
3.0
 40
3.0
 40
4.0
 40
4.0
 40
4.0
 40
5.0
 40
5.0
 40
5.0
 40
6.0
 40
6.0
 40
6.0
 40
7.0
 40
7.0
 40
7.0
 40
8.0
 40
8.0
 40
8.0
 40
9.0
 40
9.0
 40
9.0
 40
9.0
 10
53.292354316104
 20
-101.9482991281588
 30
0.0
 10
52.74062227414124
 20
-101.9482991281588
 30
0.0
 10
52.73166502587959
 20
-101.3943277741306
 30
0.0
 10
52.73166502587959
 20
-101.1803873444966
 30
0.0
 10
52.73166502587959
 20
-100.9499104565334
 30
0.0
 10
52.75199108924256
 20
-100.3025770148549
 30
0.0
 10
53.33300644282995
 20
-100.3025770148549
 30
0.0
 10
53.51852483471065
 20
-100.3025770148549
 30
0.0
 10
53.78069660113816
 20
-100.3725124532055
 30
0.0
 10
53.82134872786411
 20
-100.7046196579836
 30
0.0
 10
53.82134872786411
 20
-100.7046196579836
 30
0.0
 10
53.5931111519663
 20
-100.7046196579836
 30
0.0
 10
53.5931111519663
 20
-100.7046196579836
 30
0.0
 10
53.58174233686498
 20
-100.6474310729284
 30
0.0
 10
53.54780814633527
 20
-100.4992919670627
 30
0.0
 10
53.33076713076454
 20
-100.4992919670627
 30
0.0
 10
53.01881373457516
 20
-100.4992919670627
 30
0.0
 10
52.9759222957838
 20
-100.8272650572585
 30
0.0
 10
52.96231416861706
 20
-101.0322482386308
 30
0.0
 10
53.06170517336652
 20
-100.9540445711157
 30
0.0
 10
53.13405217855676
 20
-100.8947889287694
 30
0.0
 10
53.32852781869912
 20
-100.8947889287694
 30
0.0
 10
53.52076414677606
 20
-100.8947889287694
 30
0.0
 10
53.84408635806676
 20
-101.0029649270062
 30
0.0
 10
53.84408635806676
 20
-101.4091416847172
 30
0.0
 10
53.84408635806676
 20
-101.7285020361998
 30
0.0
 10
53.63152396662684
 20
-101.9482991281588
 30
0.0
 10
53.292354316104
 20
-101.9482991281588
 30
0.0
  0
SPLINE
  5
CF
330
CA
100
AcDbEntity
  8
_U+30EC_U+30A4_U+30E4_U+30FC 1
370
     0
100
AcDbSpline
210
0.0
220
0.0
230
1.0
 70
    11
 71
     3
 72
    17
 73
    13
 74
     0
 42
0.0000000001
 43
0.0000000001
 12
1.0
 22
0.0
 32
0.0
 13
1.0
 23
0.0
 33
0.0
 40
0.0
 40
0.0
 40
0.0
 40
0.0
 40
1.0
 40
1.0
 40
1.0
 40
2.0
 40
2.0
 40
2.0
 40
3.0
 40
3.0
 40
3.0
 40
4.0
 40
4.0
 40
4.0
 40
4.0
 10
53.31044106740156
 20
-101.089436823686
 30
0.0
 10
53.03001029490222
 20
-101.089436823686
 30
0.0
 10
52.98935816817627
 20
-101.3009656864803
 30
0.0
 10
52.98935816817627
 20
-101.4174099138818
 30
0.0
 10
52.98935816817627
 20
-101.5931097836295
 30
0.0
 10
53.09116073976541
 20
-101.7560628000818
 30
0.0
 10
53.28787569197317
 20
-101.7560628000818
 30
0.0
 10
53.41672226312151
 20
-101.7560628000818
 30
0.0
 10
53.60430771229337
 20
-101.6968071577355
 30
0.0
 10
53.60430771229337
 20
-101.4112087420083
 30
0.0
 10
53.60430771229337
 20
-101.1869330259185
 30
0.0
 10
53.45513507778205
 20
-101.089436823686
 30
0.0
 10
53.31044106740156
 20
-101.089436823686
 30
0.0
  0
HATCH
  5
D0
330
CA
100
AcDbEntity
  8
_U+30EC_U+30A4_U+30E4_U+30FC 1
 62
   179
420
  2234388
100
AcDbHatch
 10
0.0
 20
0.0
 30
0.0
210
0.0
220
0.0
230
1.0
  2
SOLID
 70
     1
 71
     0
 91
        2
 92
        1
 93
        1
 72
     4
 94
        3
 73
     0
 74
     1
 95
       32
 96
       28
 40
0.0
 40
0.0
 40
0.0
 40
0.0
 40
1.0
 40
1.0
 40
1.0
 40
2.0
 40
2.0
 40
2.0
 40
3.0
 40
3.0
 40
3.0
 40
4.0
 40
4.0
 40
4.0
 40
5.0
 40
5.0
 40
5.0
 40
6.0
 40
6.0
 40
6.0
 40
7.0
 40
7.0
 40
7.0
 40
8.0
 40
8.0
 40
8.0
 40
9.0
 40
9.0
 40
9.0
 40
9.0
 10
53.292354316104
 20
-101.9482991281588
 10
52.74062227414124
 20
-101.9482991281588
 10
52.73166502587959
 20
-101.3943277741306
 10
52.73166502587959
 20
-101.1803873444966
 10
52.73166502587959
 20
-100.9499104565334
 10
52.75199108924256
 20
-100.3025770148549
 10
53.33300644282995
 20
-100.3025770148549
 10
53.51852483471065
 20
-100.3025770148549
 10
53.78069660113816
 20
-100.3725124532055
 10
53.82134872786411
 20
-100.7046196579836
 10
53.82134872786411
 20
-100.7046196579836
 10
53.5931111519663
 20
-100.7046196579836
 10
53.5931111519663
 20
-100.7046196579836
 10
53.58174233686498
 20
-100.6474310729284
 10
53.54780814633527
 20
-100.4992919670627
 10
53.33076713076454
 20
-100.4992919670627
 10
53.01881373457516
 20
-100.4992919670627
 10
52.9759222957838
 20
-100.8272650572585
 10
52.96231416861706
 20
-101.0322482386308
 10
53.06170517336652
 20
-100.9540445711157
 10
53.13405217855676
 20
-100.8947889287694
 10
53.32852781869912
 20
-100.8947889287694
 10
53.52076414677606
 20
-100.8947889287694
 10
53.84408635806676
 20
-101.0029649270062
 10
53.84408635806676
 20
-101.4091416847172
 10
53.84408635806676
 20
-101.7285020361998
 10
53.63152396662684
 20
-101.9482991281588
 10
53.292354316104
 20
-101.9482991281588
 97
        0
 97
        0
 92
        1
 93
        1
 72
     4
 94
        3
 73
     0
 74
     1
 95
       17
 96
       13
 40
0.0
 40
0.0
 40
0.0
 40
0.0
 40
1.0
 40
1.0
 40
1.0
 40
2.0
 40
2.0
 40
2.0
 40
3.0
 40
3.0
 40
3.0
 40
4.0
 40
4.0
 40
4.0
 40
4.0
 10
53.31044106740156
 20
-101.089436823686
 10
53.03001029490222
 20
-101.089436823686
 10
52.98935816817627
 20
-101.3009656864803
 10
52.98935816817627
 20
-101.4174099138818
 10
52.98935816817627
 20
-101.5931097836295
 10
53.09116073976541
 20
-101.7560628000818
 10
53.28787569197317
 20
-101.7560628000818
 10
53.41672226312151
 20
-101.7560628000818
 10
53.60430771229337
 20
-101.6968071577355
 10
53.60430771229337
 20
-101.4112087420083
 10
53.60430771229337
 20
-101.1869330259185
 10
53.45513507778205
 20
-101.089436823686
 10
53.31044106740156
 20
-101.089436823686
 97
        0
 97
        0
 75
     2
 76
     1
 98
        0
  0
ENDBLK
  5
CD
330
CA
100
AcDbEntity
  8
0
100
AcDbBlockEnd
  0
BLOCK
  5
DF
330
DD
100
AcDbEntity
  8
0
100
AcDbBlockBegin
  2
block 6
 70
     0
 10
0.0
 20
0.0
 30
0.0
  3
block 6
  1

  0
SPLINE
  5
E1
330
DD
100
AcDbEntity
  8
_U+30EC_U+30A4_U+30E4_U+30FC 1
370
     0
100
AcDbSpline
210
0.0
220
0.0
230
1.0
 70
    11
 71
     3
 72
    26
 73
    22
 74
     0
 42
0.0000000001
 43
0.0000000001
 12
1.0
 22
0.0
 32
0.0
 13
1.0
 23
0.0
 33
0.0
 40
0.0
 40
0.0
 40
0.0
 40
0.0
 40
1.0
 40
1.0
 40
1.0
 40
2.0
 40
2.0
 40
2.0
 40
3.0
 40
3.0
 40
3.0
 40
4.0
 40
4.0
 40
4.0
 40
5.0
 40
5.0
 40
5.0
 40
6.0
 40
6.0
 40
6.0
 40
7.0
 40
7.0
 40
7.0
 40
7.0
 10
73.93622773759233
 20
-90.43031139232298
 30
0.0
 10
73.93622773759233
 20
-90.43031139232298
 30
0.0
 10
72.83207463456976
 20
-90.43031139232298
 30
0.0
 10
72.83207463456976
 20
-90.43031139232298
 30
0.0
 10
72.83207463456976
 20
-90.43031139232298
 30
0.0
 10
72.83207463456976
 20
-90.78274466046405
 30
0.0
 10
72.83207463456976
 20
-90.78274466046405
 30
0.0
 10
72.83207463456976
 20
-90.78274466046405
 30
0.0
 10
72.68393552870403
 20
-90.78274466046405
 30
0.0
 10
72.68393552870403
 20
-90.78274466046405
 30
0.0
 10
72.66912161811744
 20
-90.42789982548331
 30
0.0
 10
72.50616860166512
 20
-90.37829045049571
 30
0.0
 10
72.39179143155484
 20
-90.3465955720314
 30
0.0
 10
72.39179143155484
 20
-90.3465955720314
 30
0.0
 10
72.39179143155484
 20
-90.1905327465496
 30
0.0
 10
72.39179143155484
 20
-90.1905327465496
 30
0.0
 10
72.39179143155484
 20
-90.1905327465496
 30
0.0
 10
73.93622773759233
 20
-90.1905327465496
 30
0.0
 10
73.93622773759233
 20
-90.1905327465496
 30
0.0
 10
73.93622773759233
 20
-90.1905327465496
 30
0.0
 10
73.93622773759233
 20
-90.43031139232298
 30
0.0
 10
73.93622773759233
 20
-90.43031139232298
 30
0.0
  0
HATCH
  5
E2
330
DD
100
AcDbEntity
  8
_U+30EC_U+30A4_U+30E4_U+30FC 1
 62
   179
420
  2234388
100
AcDbHatch
 10
0.0
 20
0.0
 30
0.0
210
0.0
220
0.0
230
1.0
  2
SOLID
 70
     1
 71
     0
 91
        1
 92
        1
 93
        1
 72
     4
 94
        3
 73
     0
 74
     1
 95
       26
 96
       22
 40
0.0
 40
0.0
 40
0.0
 40
0.0
 40
1.0
 40
1.0
 40
1.0
 40
2.0
 40
2.0
 40
2.0
 40
3.0
 40
3.0
 40
3.0
 40
4.0
 40
4.0
 40
4.0
 40
5.0
 40
5.0
 40
5.0
 40
6.0
 40
6.0
 40
6.0
 40
7.0
 40
7.0
 40
7.0
 40
7.0
 10
73.93622773759233
 20
-90.43031139232298
 10
73.93622773759233
 20
-90.43031139232298
 10
72.83207463456976
 20
-90.43031139232298
 10
72.83207463456976
 20
-90.43031139232298
 10
72.83207463456976
 20
-90.43031139232298
 10
72.83207463456976
 20
-90.78274466046405
 10
72.83207463456976
 20
-90.78274466046405
 10
72.83207463456976
 20
-90.78274466046405
 10
72.68393552870403
 20
-90.78274466046405
 10
72.68393552870403
 20
-90.78274466046405
 10
72.66912161811744
 20
-90.42789982548331
 10
72.50616860166512
 20
-90.37829045049571
 10
72.39179143155484
 20
-90.3465955720314
 10
72.39179143155484
 20
-90.3465955720314
 10
72.39179143155484
 20
-90.1905327465496
 10
72.39179143155484
 20
-90.1905327465496
 10
72.39179143155484
 20
-90.1905327465496
 10
73.93622773759233
 20
-90.1905327465496
 10
73.93622773759233
 20
-90.1905327465496
 10
73.93622773759233
 20
-90.1905327465496
 10
73.93622773759233
 20
-90.43031139232298
 10
73.93622773759233
 20
-90.43031139232298
 97
        0
 97
        0
 75
     2
 76
     1
 98
        0
  0
SPLINE
  5
E3
330
DD
100
AcDbEntity
  8
_U+30EC_U+30A4_U+30E4_U+30FC 1
370
     0
100
AcDbSpline
210
0.0
220
0.0
230
1.0
 70
    11
 71
     3
 72
    62
 73
    58
 74
     0
 42
0.0000000001
 43
0.0000000001
 12
1.0
 22
0.0
 32
0.0
 13
1.0
 23
0.0
 33
0.0
 40
0.0
 40
0.0
 40
0.0
 40
0.0
 40
1.0
 40
1.0
 40
1.0
 40
2.0
 40
2.0
 40
2.0
 40
3.0
 40
3.0
 40
3.0
 40
4.0
 40
4.0
 40
4.0
 40
5.0
 40
5.0
 40
5.0
 40
6.0
 40
6.0
 40
6.0
 40
7.0
 40
7.0
 40
7.0
 40
8.0
 40
8.0
 40
8.0
 40
9.0
 40
9.0
 40
9.0
 40
10.0
 40
10.0
 40
10.0
 40
11.0
 40
11.0
 40
11.0
 40
12.0
 40
12.0
 40
12.0
 40
13.0
 40
13.0
 40
13.0
 40
14.0
 40
14.0
 40
14.0
 40
15.0
 40
15.0
 40
15.0
 40
16.0
 40
16.0
 40
16.0
 40
17.0
 40
17.0
 40
17.0
 40
18.0
 40
18.0
 40
18.0
 40
19.0
 40
19.0
 40
19.0
 40
19.0
 10
73.98687064122551
 20
-89.12944333709264
 30
0.0
 10
73.98687064122551
 20
-89.23107365390752
 30
0.0
 10
73.96585555876548
 20
-89.4639621087104
 30
0.0
 10
73.779820402562
 20
-89.59728730398957
 30
0.0
 10
73.66751028974285
 20
-89.67652450015032
 30
0.0
 10
73.56829153976766
 20
-89.68100312428115
 30
0.0
 10
73.4835421908305
 20
-89.68548174841197
 30
0.0
 10
73.4835421908305
 20
-89.68548174841197
 30
0.0
 10
73.4835421908305
 20
-89.45052623631793
 30
0.0
 10
73.4835421908305
 20
-89.45052623631793
 30
0.0
 10
73.55761174376337
 20
-89.44811466947826
 30
0.0
 10
73.7922227463089
 20
-89.43674585437692
 30
0.0
 10
73.7922227463089
 20
-89.13392196122346
 30
0.0
 10
73.7922227463089
 20
-88.9868163840033
 30
0.0
 10
73.72263181750685
 20
-88.82420787709951
 30
0.0
 10
73.49422198683479
 20
-88.82420787709951
 30
0.0
 10
73.37777775943334
 20
-88.82420787709951
 30
0.0
 10
73.32920191309131
 20
-88.86486000382546
 30
0.0
 10
73.29750703462702
 20
-88.8986219395809
 30
0.0
 10
73.22343748169415
 20
-88.97785913574165
 30
0.0
 10
73.21069062839872
 20
-89.10222708275917
 30
0.0
 10
73.21069062839872
 20
-89.16113821555695
 30
0.0
 10
73.21069062839872
 20
-89.18146427891992
 30
0.0
 10
73.21275768568987
 20
-89.2197048388062
 30
0.0
 10
73.21689180027217
 20
-89.24933265997933
 30
0.0
 10
73.21689180027217
 20
-89.24933265997933
 30
0.0
 10
73.02224390535555
 20
-89.24933265997933
 30
0.0
 10
73.02224390535555
 20
-89.24933265997933
 30
0.0
 10
73.02878958677753
 20
-89.20868053325339
 30
0.0
 10
73.03085664406868
 20
-89.16320527284809
 30
0.0
 10
73.03085664406868
 20
-89.15665959142612
 30
0.0
 10
73.03085664406868
 20
-89.08637964352702
 30
0.0
 10
73.00949705206013
 20
-88.87381725208711
 30
0.0
 10
72.77281899222346
 20
-88.87381725208711
 30
0.0
 10
72.59505206518457
 20
-88.87381725208711
 30
0.0
 10
72.53993053742057
 20
-89.01403263833677
 30
0.0
 10
72.53993053742057
 20
-89.1315103943838
 30
0.0
 10
72.53993053742057
 20
-89.41435273372281
 30
0.0
 10
72.77281899222346
 20
-89.42330998198446
 30
0.0
 10
72.84447697831666
 20
-89.42778860611529
 30
0.0
 10
72.84447697831666
 20
-89.42778860611529
 30
0.0
 10
72.84447697831666
 20
-89.64482962168601
 30
0.0
 10
72.84447697831666
 20
-89.64482962168601
 30
0.0
 10
72.71976452175062
 20
-89.63587237342436
 30
0.0
 10
72.34321558521282
 20
-89.60658906179975
 30
0.0
 10
72.34321558521282
 20
-89.11807452199132
 30
0.0
 10
72.34321558521282
 20
-88.87829587621793
 30
0.0
 10
72.47033960861853
 20
-88.62060273392125
 30
0.0
 10
72.7662733108015
 20
-88.62060273392125
 30
0.0
 10
72.95265297655351
 20
-88.62060273392125
 30
0.0
 10
73.03499075865098
 20
-88.72257756028463
 30
0.0
 10
73.09631345828842
 20
-88.82868650123034
 30
0.0
 10
73.12387422217043
 20
-88.76322968701058
 30
0.0
 10
73.20414494697674
 20
-88.56858179209397
 30
0.0
 10
73.48147513353936
 20
-88.56858179209397
 30
0.0
 10
73.81978351019089
 20
-88.56858179209397
 30
0.0
 10
73.98687064122551
 20
-88.83316512536116
 30
0.0
 10
73.98687064122551
 20
-89.12944333709264
 30
0.0
  0
HATCH
  5
E4
330
DD
100
AcDbEntity
  8
_U+30EC_U+30A4_U+30E4_U+30FC 1
 62
   179
420
  2234388
100
AcDbHatch
 10
0.0
 20
0.0
 30
0.0
210
0.0
220
0.0
230
1.0
  2
SOLID
 70
     1
 71
     0
 91
        1
 92
        1
 93
        1
 72
     4
 94
        3
 73
     0
 74
     1
 95
       62
 96
       58
 40
0.0
 40
0.0
 40
0.0
 40
0.0
 40
1.0
 40
1.0
 40
1.0
 40
2.0
 40
2.0
 40
2.0
 40
3.0
 40
3.0
 40
3.0
 40
4.0
 40
4.0
 40
4.0
 40
5.0
 40
5.0
 40
5.0
 40
6.0
 40
6.0
 40
6.0
 40
7.0
 40
7.0
 40
7.0
 40
8.0
 40
8.0
 40
8.0
 40
9.0
 40
9.0
 40
9.0
 40
10.0
 40
10.0
 40
10.0
 40
11.0
 40
11.0
 40
11.0
 40
12.0
 40
12.0
 40
12.0
 40
13.0
 40
13.0
 40
13.0
 40
14.0
 40
14.0
 40
14.0
 40
15.0
 40
15.0
 40
15.0
 40
16.0
 40
16.0
 40
16.0
 40
17.0
 40
17.0
 40
17.0
 40
18.0
 40
18.0
 40
18.0
 40
19.0
 40
19.0
 40
19.0
 40
19.0
 10
73.98687064122551
 20
-89.12944333709264
 10
73.98687064122551
 20
-89.23107365390752
 10
73.96585555876548
 20
-89.4639621087104
 10
73.779820402562
 20
-89.59728730398957
 10
73.66751028974285
 20
-89.67652450015032
 10
73.56829153976766
 20
-89.68100312428115
 10
73.4835421908305
 20
-89.68548174841197
 10
73.4835421908305
 20
-89.68548174841197
 10
73.4835421908305
 20
-89.45052623631793
 10
73.4835421908305
 20
-89.45052623631793
 10
73.55761174376337
 20
-89.44811466947826
 10
73.7922227463089
 20
-89.43674585437692
 10
73.7922227463089
 20
-89.13392196122346
 10
73.7922227463089
 20
-88.9868163840033
 10
73.72263181750685
 20
-88.82420787709951
 10
73.49422198683479
 20
-88.82420787709951
 10
73.37777775943334
 20
-88.82420787709951
 10
73.32920191309131
 20
-88.86486000382546
 10
73.29750703462702
 20
-88.8986219395809
 10
73.22343748169415
 20
-88.97785913574165
 10
73.21069062839872
 20
-89.10222708275917
 10
73.21069062839872
 20
-89.16113821555695
 10
73.21069062839872
 20
-89.18146427891992
 10
73.21275768568987
 20
-89.2197048388062
 10
73.21689180027217
 20
-89.24933265997933
 10
73.21689180027217
 20
-89.24933265997933
 10
73.02224390535555
 20
-89.24933265997933
 10
73.02224390535555
 20
-89.24933265997933
 10
73.02878958677753
 20
-89.20868053325339
 10
73.03085664406868
 20
-89.16320527284809
 10
73.03085664406868
 20
-89.15665959142612
 10
73.03085664406868
 20
-89.08637964352702
 10
73.00949705206013
 20
-88.87381725208711
 10
72.77281899222346
 20
-88.87381725208711
 10
72.59505206518457
 20
-88.87381725208711
 10
72.53993053742057
 20
-89.01403263833677
 10
72.53993053742057
 20
-89.1315103943838
 10
72.53993053742057
 20
-89.41435273372281
 10
72.77281899222346
 20
-89.42330998198446
 10
72.84447697831666
 20
-89.42778860611529
 10
72.84447697831666
 20
-89.42778860611529
 10
72.84447697831666
 20
-89.64482962168601
 10
72.84447697831666
 20
-89.64482962168601
 10
72.71976452175062
 20
-89.63587237342436
 10
72.34321558521282
 20
-89.60658906179975
 10
72.34321558521282
 20
-89.11807452199132
 10
72.34321558521282
 20
-88.87829587621793
 10
72.47033960861853
 20
-88.62060273392125
 10
72.7662733108015
 20
-88.62060273392125
 10
72.95265297655351
 20
-88.62060273392125
 10
73.03499075865098
 20
-88.72257756028463
 10
73.09631345828842
 20
-88.82868650123034
 10
73.12387422217043
 20
-88.76322968701058
 10
73.20414494697674
 20
-88.56858179209397
 10
73.48147513353936
 20
-88.56858179209397
 10
73.81978351019089
 20
-88.56858179209397
 10
73.98687064122551
 20
-88.83316512536116
 10
73.98687064122551
 20
-89.12944333709264
 97
        0
 97
        0
 75
     2
 76
     1
 98
        0
  0
ENDBLK
  5
E0
330
DD
100
AcDbEntity
  8
0
100
AcDbBlockEnd
  0
ENDSEC
  0
SECTION
  2
ENTITIES
  0
POLYLINE
  5
41
330
1F
100
AcDbEntity
  8
_U+30EC_U+30A4_U+30E4_U+30FC 1
 62
   179
420
  2234388
370
    25
100
AcDb2dPolyline
 66
     1
 10
0.0
 20
0.0
 30
0.0
  0
VERTEX
  5
42
330
41
100
AcDbEntity
  8
_U+30EC_U+30A4_U+30E4_U+30FC 1
 62
   179
420
  2234388
370
    25
100
AcDbVertex
100
AcDb2dVertex
 10
50.28804760593391
 20
-82.4492466460543
 30
0.0
  0
VERTEX
  5
43
330
41
100
AcDbEntity
  8
_U+30EC_U+30A4_U+30E4_U+30FC 1
 62
   179
420
  2234388
370
    25
100
AcDbVertex
100
AcDb2dVertex
 10
71.28799095906962
 20
-82.4492466460543
 30
0.0
  0
SEQEND
  5
44
330
41
100
AcDbEntity
  8
_U+30EC_U+30A4_U+30E4_U+30FC 1
 62
   179
420
  2234388
370
    25
  0
POLYLINE
  5
45
330
1F
100
AcDbEntity
  8
_U+30EC_U+30A4_U+30E4_U+30FC 1
 62
   179
420
  2234388
370
    25
100
AcDb2dPolyline
 66
     1
 10
0.0
 20
0.0
 30
0.0
  0
VERTEX
  5
46
330
45
100
AcDbEntity
  8
_U+30EC_U+30A4_U+30E4_U+30FC 1
 62
   179
420
  2234388
370
    25
100
AcDbVertex
100
AcDb2dVertex
 10
51.08800647441415
 20
-83.24917025696541
 30
0.0
  0
VERTEX
  5
47
330
45
100
AcDbEntity
  8
_U+30EC_U+30A4_U+30E4_U+30FC 1
 62
   179
420
  2234388
370
    25
100
AcDbVertex
100
AcDb2dVertex
 10
71.28799095906962
 20
-83.24917025696541
 30
0.0
  0
SEQEND
  5
48
330
45
100
AcDbEntity
  8
_U+30EC_U+30A4_U+30E4_U+30FC 1
 62
   179
420
  2234388
370
    25
  0
POLYLINE
  5
49
330
1F
100
AcDbEntity
  8
_U+30EC_U+30A4_U+30E4_U+30FC 1
 62
   179
420
  2234388
370
    25
100
AcDb2dPolyline
 66
     1
 10
0.0
 20
0.0
 30
0.0
  0
VERTEX
  5
4A
330
49
100
AcDbEntity
  8
_U+30EC_U+30A4_U+30E4_U+30FC 1
 62
   179
420
  2234388
370
    25
100
AcDbVertex
100
AcDb2dVertex
 10
71.28799095906962
 20
-82.4492466460543
 30
0.0
  0
VERTEX
  5
4B
330
49
100
AcDbEntity
  8
_U+30EC_U+30A4_U+30E4_U+30FC 1
 62
   179
420
  2234388
370
    25
100
AcDbVertex
100
AcDb2dVertex
 10
71.28799095906962
 20
-83.24917025696541
 30
0.0
  0
SEQEND
  5
4C
330
49
100
AcDbEntity
  8
_U+30EC_U+30A4_U+30E4_U+30FC 1
 62
   179
420
  2234388
370
    25
  0
POLYLINE
  5
4D
330
1F
100
AcDbEntity
  8
_U+30EC_U+30A4_U+30E4_U+30FC 1
 62
   179
420
  2234388
370
    25
100
AcDb2dPolyline
 66
     1
 10
0.0
 20
0.0
 30
0.0
  0
VERTEX
  5
4E
330
4D
100
AcDbEntity
  8
_U+30EC_U+30A4_U+30E4_U+30FC 1
 62
   179
420
  2234388
370
    25
100
AcDbVertex
100
AcDb2dVertex
 10
50.28804760593391
 20
-82.4492466460543
 30
0.0
  0
VERTEX
  5
4F
330
4D
100
AcDbEntity
  8
_U+30EC_U+30A4_U+30E4_U+30FC 1
 62
   179
420
  2234388
370
    25
100
AcDbVertex
100
AcDb2dVertex
 10
50.28804760593391
 20
-99.24940636407662
 30
0.0
  0
SEQEND
  5
50
330
4D
100
AcDbEntity
  8
_U+30EC_U+30A4_U+30E4_U+30FC 1
 62
   179
420
  2234388
370
    25
  0
POLYLINE
  5
51
330
1F
100
AcDbEntity
  8
_U+30EC_U+30A4_U+30E4_U+30FC 1
 62
   179
420
  2234388
370
    25
100
AcDb2dPolyline
 66
     1
 10
0.0
 20
0.0
 30
0.0
  0
VERTEX
  5
52
330
51
100
AcDbEntity
  8
_U+30EC_U+30A4_U+30E4_U+30FC 1
 62
   179
420
  2234388
370
    25
100
AcDbVertex
100
AcDb2dVertex
 10
51.08800647441415
 20
-83.24917025696541
 30
0.0
  0
VERTEX
  5
53
330
51
100
AcDbEntity
  8
_U+30EC_U+30A4_U+30E4_U+30FC 1
 62
   179
420
  2234388
370
    25
100
AcDbVertex
100
AcDb2dVertex
 10
51.08800647441415
 20
-98.44944747538736
 30
0.0
  0
SEQEND
  5
54
330
51
100
AcDbEntity
  8
_U+30EC_U+30A4_U+30E4_U+30FC 1
 62
   179
420
  2234388
370
    25
  0
POLYLINE
  5
55
330
1F
100
AcDbEntity
  8
_U+30EC_U+30A4_U+30E4_U+30FC 1
 62
   179
420
  2234388
370
    25
100
AcDb2dPolyline
 66
     1
 10
0.0
 20
0.0
 30
0.0
  0
VERTEX
  5
56
330
55
100
AcDbEntity
  8
_U+30EC_U+30A4_U+30E4_U+30FC 1
 62
   179
420
  2234388
370
    25
100
AcDbVertex
100
AcDb2dVertex
 10
54.28576055949931
 20
-96.24941942038228
 30
0.0
  0
VERTEX
  5
57
330
55
100
AcDbEntity
  8
_U+30EC_U+30A4_U+30E4_U+30FC 1
 62
   179
420
  2234388
370
    25
100
AcDbVertex
100
AcDb2dVertex
 10
56.28802134175071
 20
-96.24941942038228
 30
0.0
  0
SEQEND
  5
58
330
55
100
AcDbEntity
  8
_U+30EC_U+30A4_U+30E4_U+30FC 1
 62
   179
420
  2234388
370
    25
  0
POLYLINE
  5
59
330
1F
100
AcDbEntity
  8
_U+30EC_U+30A4_U+30E4_U+30FC 1
 62
   179
420
  2234388
370
    25
100
AcDb2dPolyline
 66
     1
 10
0.0
 20
0.0
 30
0.0
  0
VERTEX
  5
5A
330
59
100
AcDbEntity
  8
_U+30EC_U+30A4_U+30E4_U+30FC 1
 62
   179
420
  2234388
370
    25
100
AcDbVertex
100
AcDb2dVertex
 10
50.28804760593391
 20
-99.24940636407662
 30
0.0
  0
VERTEX
  5
5B
330
59
100
AcDbEntity
  8
_U+30EC_U+30A4_U+30E4_U+30FC 1
 62
   179
420
  2234388
370
    25
100
AcDbVertex
100
AcDb2dVertex
 10
56.28802134175071
 20
-99.24940636407662
 30
0.0
  0
SEQEND
  5
5C
330
59
100
AcDbEntity
  8
_U+30EC_U+30A4_U+30E4_U+30FC 1
 62
   179
420
  2234388
370
    25
  0
POLYLINE
  5
5D
330
1F
100
AcDbEntity
  8
_U+30EC_U+30A4_U+30E4_U+30FC 1
 62
   179
420
  2234388
370
    25
100
AcDb2dPolyline
 66
     1
 10
0.0
 20
0.0
 30
0.0
  0
VERTEX
  5
5E
330
5D
100
AcDbEntity
  8
_U+30EC_U+30A4_U+30E4_U+30FC 1
 62
   179
420
  2234388
370
    25
100
AcDbVertex
100
AcDb2dVertex
 10
56.28802134175071
 20
-96.24941942038228
 30
0.0
  0
VERTEX
  5
5F
330
5D
100
AcDbEntity
  8
_U+30EC_U+30A4_U+30E4_U+30FC 1
 62
   179
420
  2234388
370
    25
100
AcDbVertex
100
AcDb2dVertex
 10
56.28802134175071
 20
-99.24940636407662
 30
0.0
  0
SEQEND
  5
60
330
5D
100
AcDbEntity
  8
_U+30EC_U+30A4_U+30E4_U+30FC 1
 62
   179
420
  2234388
370
    25
  0
POLYLINE
  5
61
330
1F
100
AcDbEntity
  8
_U+30EC_U+30A4_U+30E4_U+30FC 1
 62
   179
420
  2234388
370
    25
100
AcDb2dPolyline
 66
     1
 10
0.0
 20
0.0
 30
0.0
  0
VERTEX
  5
62
330
61
100
AcDbEntity
  8
_U+30EC_U+30A4_U+30E4_U+30FC 1
 62
   179
420
  2234388
370
    25
100
AcDbVertex
100
AcDb2dVertex
 10
54.28576055949931
 20
-96.24941942038228
 30
0.0
  0
VERTEX
  5
63
330
61
100
AcDbEntity
  8
_U+30EC_U+30A4_U+30E4_U+30FC 1
 62
   179
420
  2234388
370
    25
100
AcDbVertex
100
AcDb2dVertex
 10
54.28576055949931
 20
-97.0493783090709
 30
0.0
  0
SEQEND
  5
64
330
61
100
AcDbEntity
  8
_U+30EC_U+30A4_U+30E4_U+30FC 1
 62
   179
420
  2234388
370
    25
  0
POLYLINE
  5
65
330
1F
100
AcDbEntity
  8
_U+30EC_U+30A4_U+30E4_U+30FC 1
 62
   179
420
  2234388
370
    25
100
AcDb2dPolyline
 66
     1
 10
0.0
 20
0.0
 30
0.0
  0
VERTEX
  5
66
330
65
100
AcDbEntity
  8
_U+30EC_U+30A4_U+30E4_U+30FC 1
 62
   179
420
  2234388
370
    25
100
AcDbVertex
100
AcDb2dVertex
 10
51.08800647441415
 20
-98.44944747538736
 30
0.0
  0
VERTEX
  5
67
330
65
100
AcDbEntity
  8
_U+30EC_U+30A4_U+30E4_U+30FC 1
 62
   179
420
  2234388
370
    25
100
AcDbVertex
100
AcDb2dVertex
 10
55.48809775104736
 20
-98.44944747538736
 30
0.0
  0
SEQEND
  5
68
330
65
100
AcDbEntity
  8
_U+30EC_U+30A4_U+30E4_U+30FC 1
 62
   179
420
  2234388
370
    25
  0
POLYLINE
  5
69
330
1F
100
AcDbEntity
  8
_U+30EC_U+30A4_U+30E4_U+30FC 1
 62
   179
420
  2234388
370
    25
100
AcDb2dPolyline
 66
     1
 10
0.0
 20
0.0
 30
0.0
  0
VERTEX
  5
6A
330
69
100
AcDbEntity
  8
_U+30EC_U+30A4_U+30E4_U+30FC 1
 62
   179
420
  2234388
370
    25
100
AcDbVertex
100
AcDb2dVertex
 10
55.48809775104736
 20
-97.0493783090709
 30
0.0
  0
VERTEX
  5
6B
330
69
100
AcDbEntity
  8
_U+30EC_U+30A4_U+30E4_U+30FC 1
 62
   179
420
  2234388
370
    25
100
AcDbVertex
100
AcDb2dVertex
 10
55.48809775104736
 20
-98.44944747538736
 30
0.0
  0
SEQEND
  5
6C
330
69
100
AcDbEntity
  8
_U+30EC_U+30A4_U+30E4_U+30FC 1
 62
   179
420
  2234388
370
    25
  0
POLYLINE
  5
6D
330
1F
100
AcDbEntity
  8
_U+30EC_U+30A4_U+30E4_U+30FC 1
 62
   179
420
  2234388
370
    25
100
AcDb2dPolyline
 66
     1
 10
0.0
 20
0.0
 30
0.0
  0
VERTEX
  5
6E
330
6D
100
AcDbEntity
  8
_U+30EC_U+30A4_U+30E4_U+30FC 1
 62
   179
420
  2234388
370
    25
100
AcDbVertex
100
AcDb2dVertex
 10
54.28576055949931
 20
-97.0493783090709
 30
0.0
  0
VERTEX
  5
6F
330
6D
100
AcDbEntity
  8
_U+30EC_U+30A4_U+30E4_U+30FC 1
 62
   179
420
  2234388
370
    25
100
AcDbVertex
100
AcDb2dVertex
 10
55.48809775104736
 20
-97.0493783090709
 30
0.0
  0
SEQEND
  5
70
330
6D
100
AcDbEntity
  8
_U+30EC_U+30A4_U+30E4_U+30FC 1
 62
   179
420
  2234388
370
    25
  0
SPLINE
  5
71
330
1F
100
AcDbEntity
  8
_U+30EC_U+30A4_U+30E4_U+30FC 1
 62
   179
420
  2234388
370
     9
100
AcDbSpline
210
0.0
220
0.0
230
1.0
 70
    11
 71
     3
 72
    17
 73
    13
 74
     0
 42
0.0000000001
 43
0.0000000001
 12
1.0
 22
0.0
 32
0.0
 13
1.0
 23
0.0
 33
0.0
 40
0.0
 40
0.0
 40
0.0
 40
0.0
 40
1.0
 40
1.0
 40
1.0
 40
2.0
 40
2.0
 40
2.0
 40
3.0
 40
3.0
 40
3.0
 40
4.0
 40
4.0
 40
4.0
 40
4.0
 10
75.38765668781176
 20
-82.4492466460543
 30
0.0
 10
75.38765668781176
 20
-82.39375470162378
 30
0.0
 10
75.34285391117699
 20
-82.3489872016349
 30
0.0
 10
75.28775002369392
 20
-82.3489872016349
 30
0.0
 10
75.23261085843397
 20
-82.3489872016349
 30
0.0
 10
75.18784335957609
 20
-82.39375470162378
 30
0.0
 10
75.18784335957609
 20
-82.4492466460543
 30
0.0
 10
75.18784335957609
 20
-82.5047033127073
 30
0.0
 10
75.23261085843397
 20
-82.54915331269594
 30
0.0
 10
75.28775002369392
 20
-82.54915331269594
 30
0.0
 10
75.34285391117699
 20
-82.54915331269594
 30
0.0
 10
75.38765668781176
 20
-82.5047033127073
 30
0.0
 10
75.38765668781176
 20
-82.4492466460543
 30
0.0
  0
SPLINE
  5
72
330
1F
100
AcDbEntity
  8
_U+30EC_U+30A4_U+30E4_U+30FC 1
 62
   179
420
  2234388
370
     9
100
AcDbSpline
210
0.0
220
0.0
230
1.0
 70
    11
 71
     3
 72
    17
 73
    13
 74
     0
 42
0.0000000001
 43
0.0000000001
 12
1.0
 22
0.0
 32
0.0
 13
1.0
 23
0.0
 33
0.0
 40
0.0
 40
0.0
 40
0.0
 40
0.0
 40
1.0
 40
1.0
 40
1.0
 40
2.0
 40
2.0
 40
2.0
 40
3.0
 40
3.0
 40
3.0
 40
4.0
 40
4.0
 40
4.0
 40
4.0
 10
75.38765668781176
 20
-83.24917025696541
 30
0.0
 10
75.38765668781176
 20
-83.19406636809049
 30
0.0
 10
75.34285391117699
 20
-83.14926359032377
 30
0.0
 10
75.28775002369392
 20
-83.14926359032377
 30
0.0
 10
75.23261085843397
 20
-83.14926359032377
 30
0.0
 10
75.18784335957609
 20
-83.19406636809049
 30
0.0
 10
75.18784335957609
 20
-83.24917025696541
 30
0.0
 10
75.18784335957609
 20
-83.30466220139593
 30
0.0
 10
75.23261085843397
 20
-83.3494297013848
 30
0.0
 10
75.28775002369392
 20
-83.3494297013848
 30
0.0
 10
75.34285391117699
 20
-83.3494297013848
 30
0.0
 10
75.38765668781176
 20
-83.30466220139593
 30
0.0
 10
75.38765668781176
 20
-83.24917025696541
 30
0.0
  0
SPLINE
  5
73
330
1F
100
AcDbEntity
  8
_U+30EC_U+30A4_U+30E4_U+30FC 1
 62
   179
420
  2234388
370
     9
100
AcDbSpline
210
0.0
220
0.0
230
1.0
 70
    11
 71
     3
 72
    17
 73
    13
 74
     0
 42
0.0000000001
 43
0.0000000001
 12
1.0
 22
0.0
 32
0.0
 13
1.0
 23
0.0
 33
0.0
 40
0.0
 40
0.0
 40
0.0
 40
0.0
 40
1.0
 40
1.0
 40
1.0
 40
2.0
 40
2.0
 40
2.0
 40
3.0
 40
3.0
 40
3.0
 40
4.0
 40
4.0
 40
4.0
 40
4.0
 10
71.38789762318744
 20
-78.44913470260998
 30
0.0
 10
71.38789762318744
 20
-78.3939955359569
 30
0.0
 10
71.34309484655269
 20
-78.34922803596834
 30
0.0
 10
71.28799095906962
 20
-78.34922803596834
 30
0.0
 10
71.23285179380966
 20
-78.34922803596834
 30
0.0
 10
71.18808609331397
 20
-78.3939955359569
 30
0.0
 10
71.18808609331397
 20
-78.44913470260998
 30
0.0
 10
71.18808609331397
 20
-78.50423859148489
 30
0.0
 10
71.23285179380966
 20
-78.54904136925161
 30
0.0
 10
71.28799095906962
 20
-78.54904136925161
 30
0.0
 10
71.34309484655269
 20
-78.54904136925161
 30
0.0
 10
71.38789762318744
 20
-78.50423859148489
 30
0.0
 10
71.38789762318744
 20
-78.44913470260998
 30
0.0
  0
SPLINE
  5
74
330
1F
100
AcDbEntity
  8
_U+30EC_U+30A4_U+30E4_U+30FC 1
 62
   179
420
  2234388
370
     9
100
AcDbSpline
210
0.0
220
0.0
230
1.0
 70
    11
 71
     3
 72
    17
 73
    13
 74
     0
 42
0.0000000001
 43
0.0000000001
 12
1.0
 22
0.0
 32
0.0
 13
1.0
 23
0.0
 33
0.0
 40
0.0
 40
0.0
 40
0.0
 40
0.0
 40
1.0
 40
1.0
 40
1.0
 40
2.0
 40
2.0
 40
2.0
 40
3.0
 40
3.0
 40
3.0
 40
4.0
 40
4.0
 40
4.0
 40
4.0
 10
56.38792800586855
 20
-103.2495183075213
 30
0.0
 10
56.38792800586855
 20
-103.194061640868
 30
0.0
 10
56.34316050701067
 20
-103.1492588631019
 30
0.0
 10
56.28802134175071
 20
-103.1492588631019
 30
0.0
 10
56.23291745426764
 20
-103.1492588631019
 30
0.0
 10
56.18811467763288
 20
-103.194061640868
 30
0.0
 10
56.18811467763288
 20
-103.2495183075213
 30
0.0
 10
56.18811467763288
 20
-103.3046221963962
 30
0.0
 10
56.23291745426764
 20
-103.3494249741629
 30
0.0
 10
56.28802134175071
 20
-103.3494249741629
 30
0.0
 10
56.34316050701067
 20
-103.3494249741629
 30
0.0
 10
56.38792800586855
 20
-103.3046221963962
 30
0.0
 10
56.38792800586855
 20
-103.2495183075213
 30
0.0
  0
SPLINE
  5
75
330
1F
100
AcDbEntity
  8
_U+30EC_U+30A4_U+30E4_U+30FC 1
 62
   179
420
  2234388
370
     9
100
AcDbSpline
210
0.0
220
0.0
230
1.0
 70
    11
 71
     3
 72
    17
 73
    13
 74
     0
 42
0.0000000001
 43
0.0000000001
 12
1.0
 22
0.0
 32
0.0
 13
1.0
 23
0.0
 33
0.0
 40
0.0
 40
0.0
 40
0.0
 40
0.0
 40
1.0
 40
1.0
 40
1.0
 40
2.0
 40
2.0
 40
2.0
 40
3.0
 40
3.0
 40
3.0
 40
4.0
 40
4.0
 40
4.0
 40
4.0
 10
50.38795554295869
 20
-103.2495183075213
 30
0.0
 10
50.38795554295869
 20
-103.194061640868
 30
0.0
 10
50.34318677119386
 20
-103.1492588631019
 30
0.0
 10
50.28804760593391
 20
-103.1492588631019
 30
0.0
 10
50.23294371845084
 20
-103.1492588631019
 30
0.0
 10
50.18814094181607
 20
-103.194061640868
 30
0.0
 10
50.18814094181607
 20
-103.2495183075213
 30
0.0
 10
50.18814094181607
 20
-103.3046221963962
 30
0.0
 10
50.23294371845084
 20
-103.3494249741629
 30
0.0
 10
50.28804760593391
 20
-103.3494249741629
 30
0.0
 10
50.34318677119386
 20
-103.3494249741629
 30
0.0
 10
50.38795554295869
 20
-103.3046221963962
 30
0.0
 10
50.38795554295869
 20
-103.2495183075213
 30
0.0
  0
SPLINE
  5
76
330
1F
100
AcDbEntity
  8
_U+30EC_U+30A4_U+30E4_U+30FC 1
 62
   179
420
  2234388
370
     9
100
AcDbSpline
210
0.0
220
0.0
230
1.0
 70
    11
 71
     3
 72
    17
 73
    13
 74
     0
 42
0.0000000001
 43
0.0000000001
 12
1.0
 22
0.0
 32
0.0
 13
1.0
 23
0.0
 33
0.0
 40
0.0
 40
0.0
 40
0.0
 40
0.0
 40
1.0
 40
1.0
 40
1.0
 40
2.0
 40
2.0
 40
2.0
 40
3.0
 40
3.0
 40
3.0
 40
4.0
 40
4.0
 40
4.0
 40
4.0
 10
50.38795554295869
 20
-78.44913470260998
 30
0.0
 10
50.38795554295869
 20
-78.3939955359569
 30
0.0
 10
50.34318677119386
 20
-78.34922803596834
 30
0.0
 10
50.28804760593391
 20
-78.34922803596834
 30
0.0
 10
50.23294371845084
 20
-78.34922803596834
 30
0.0
 10
50.18814094181607
 20
-78.3939955359569
 30
0.0
 10
50.18814094181607
 20
-78.44913470260998
 30
0.0
 10
50.18814094181607
 20
-78.50423859148489
 30
0.0
 10
50.23294371845084
 20
-78.54904136925161
 30
0.0
 10
50.28804760593391
 20
-78.54904136925161
 30
0.0
 10
50.34318677119386
 20
-78.54904136925161
 30
0.0
 10
50.38795554295869
 20
-78.50423859148489
 30
0.0
 10
50.38795554295869
 20
-78.44913470260998
 30
0.0
  0
SPLINE
  5
77
330
1F
100
AcDbEntity
  8
_U+30EC_U+30A4_U+30E4_U+30FC 1
 62
   179
420
  2234388
370
     9
100
AcDbSpline
210
0.0
220
0.0
230
1.0
 70
    11
 71
     3
 72
    17
 73
    13
 74
     0
 42
0.0000000001
 43
0.0000000001
 12
1.0
 22
0.0
 32
0.0
 13
1.0
 23
0.0
 33
0.0
 40
0.0
 40
0.0
 40
0.0
 40
0.0
 40
1.0
 40
1.0
 40
1.0
 40
2.0
 40
2.0
 40
2.0
 40
3.0
 40
3.0
 40
3.0
 40
4.0
 40
4.0
 40
4.0
 40
4.0
 10
75.38765668781176
 20
-99.24940636407662
 30
0.0
 10
75.38765668781176
 20
-99.19430247520171
 30
0.0
 10
75.34285391117699
 20
-99.14949969743499
 30
0.0
 10
75.28775002369392
 20
-99.14949969743499
 30
0.0
 10
75.23261085843397
 20
-99.14949969743499
 30
0.0
 10
75.18784335957609
 20
-99.19430247520171
 30
0.0
 10
75.18784335957609
 20
-99.24940636407662
 30
0.0
 10
75.18784335957609
 20
-99.30454553072971
 30
0.0
 10
75.23261085843397
 20
-99.34931303071826
 30
0.0
 10
75.28775002369392
 20
-99.34931303071826
 30
0.0
 10
75.34285391117699
 20
-99.34931303071826
 30
0.0
 10
75.38765668781176
 20
-99.30454553072971
 30
0.0
 10
75.38765668781176
 20
-99.24940636407662
 30
0.0
  0
SPLINE
  5
78
330
1F
100
AcDbEntity
  8
_U+30EC_U+30A4_U+30E4_U+30FC 1
 62
   179
420
  2234388
370
     9
100
AcDbSpline
210
0.0
220
0.0
230
1.0
 70
    11
 71
     3
 72
    17
 73
    13
 74
     0
 42
0.0000000001
 43
0.0000000001
 12
1.0
 22
0.0
 32
0.0
 13
1.0
 23
0.0
 33
0.0
 40
0.0
 40
0.0
 40
0.0
 40
0.0
 40
1.0
 40
1.0
 40
1.0
 40
2.0
 40
2.0
 40
2.0
 40
3.0
 40
3.0
 40
3.0
 40
4.0
 40
4.0
 40
4.0
 40
4.0
 10
75.38765668781176
 20
-96.24941942038228
 30
0.0
 10
75.38765668781176
 20
-96.19431553150673
 30
0.0
 10
75.34285391117699
 20
-96.14951275374065
 30
0.0
 10
75.28775002369392
 20
-96.14951275374065
 30
0.0
 10
75.23261085843397
 20
-96.14951275374065
 30
0.0
 10
75.18784335957609
 20
-96.19431553150673
 30
0.0
 10
75.18784335957609
 20
-96.24941942038228
 30
0.0
 10
75.18784335957609
 20
-96.30455858703472
 30
0.0
 10
75.23261085843397
 20
-96.34932608702393
 30
0.0
 10
75.28775002369392
 20
-96.34932608702393
 30
0.0
 10
75.34285391117699
 20
-96.34932608702393
 30
0.0
 10
75.38765668781176
 20
-96.30455858703472
 30
0.0
 10
75.38765668781176
 20
-96.24941942038228
 30
0.0
  0
POLYLINE
  5
79
330
1F
100
AcDbEntity
  8
_U+30EC_U+30A4_U+30E4_U+30FC 1
 62
   179
420
  2234388
370
     9
100
AcDb2dPolyline
 66
     1
 10
0.0
 20
0.0
 30
0.0
  0
VERTEX
  5
7A
330
79
100
AcDbEntity
  8
_U+30EC_U+30A4_U+30E4_U+30FC 1
 62
   179
420
  2234388
370
     9
100
AcDbVertex
100
AcDb2dVertex
 10
75.28775002369392
 20
-82.4492466460543
 30
0.0
  0
VERTEX
  5
7B
330
79
100
AcDbEntity
  8
_U+30EC_U+30A4_U+30E4_U+30FC 1
 62
   179
420
  2234388
370
     9
100
AcDbVertex
100
AcDb2dVertex
 10
75.28775002369392
 20
-77.1913408140354
 30
0.0
  0
SEQEND
  5
7C
330
79
100
AcDbEntity
  8
_U+30EC_U+30A4_U+30E4_U+30FC 1
 62
   179
420
  2234388
370
     9
  0
POLYLINE
  5
7D
330
1F
100
AcDbEntity
  8
_U+30EC_U+30A4_U+30E4_U+30FC 1
 62
   179
420
  2234388
370
     9
100
AcDb2dPolyline
 66
     1
 10
0.0
 20
0.0
 30
0.0
  0
VERTEX
  5
7E
330
7D
100
AcDbEntity
  8
_U+30EC_U+30A4_U+30E4_U+30FC 1
 62
   179
420
  2234388
370
     9
100
AcDbVertex
100
AcDb2dVertex
 10
75.28775002369392
 20
-82.4492466460543
 30
0.0
  0
VERTEX
  5
7F
330
7D
100
AcDbEntity
  8
_U+30EC_U+30A4_U+30E4_U+30FC 1
 62
   179
420
  2234388
370
     9
100
AcDbVertex
100
AcDb2dVertex
 10
75.28775002369392
 20
-83.24917025696541
 30
0.0
  0
SEQEND
  5
80
330
7D
100
AcDbEntity
  8
_U+30EC_U+30A4_U+30E4_U+30FC 1
 62
   179
420
  2234388
370
     9
  0
POLYLINE
  5
81
330
1F
100
AcDbEntity
  8
_U+30EC_U+30A4_U+30E4_U+30FC 1
 62
   179
420
  2234388
370
     9
100
AcDb2dPolyline
 66
     1
 10
0.0
 20
0.0
 30
0.0
  0
VERTEX
  5
82
330
81
100
AcDbEntity
  8
_U+30EC_U+30A4_U+30E4_U+30FC 1
 62
   179
420
  2234388
370
     9
100
AcDbVertex
100
AcDb2dVertex
 10
73.82770867205379
 20
-82.4492466460543
 30
0.0
  0
VERTEX
  5
83
330
81
100
AcDbEntity
  8
_U+30EC_U+30A4_U+30E4_U+30FC 1
 62
   179
420
  2234388
370
     9
100
AcDbVertex
100
AcDb2dVertex
 10
76.2881944253724
 20
-82.4492466460543
 30
0.0
  0
SEQEND
  5
84
330
81
100
AcDbEntity
  8
_U+30EC_U+30A4_U+30E4_U+30FC 1
 62
   179
420
  2234388
370
     9
  0
POLYLINE
  5
85
330
1F
100
AcDbEntity
  8
_U+30EC_U+30A4_U+30E4_U+30FC 1
 62
   179
420
  2234388
370
     9
100
AcDb2dPolyline
 66
     1
 10
0.0
 20
0.0
 30
0.0
  0
VERTEX
  5
86
330
85
100
AcDbEntity
  8
_U+30EC_U+30A4_U+30E4_U+30FC 1
 62
   179
420
  2234388
370
     9
100
AcDbVertex
100
AcDb2dVertex
 10
73.82770867205379
 20
-83.24917025696541
 30
0.0
  0
VERTEX
  5
87
330
85
100
AcDbEntity
  8
_U+30EC_U+30A4_U+30E4_U+30FC 1
 62
   179
420
  2234388
370
     9
100
AcDbVertex
100
AcDb2dVertex
 10
76.2881944253724
 20
-83.24917025696541
 30
0.0
  0
SEQEND
  5
88
330
85
100
AcDbEntity
  8
_U+30EC_U+30A4_U+30E4_U+30FC 1
 62
   179
420
  2234388
370
     9
  0
INSERT
  5
8A
330
1F
100
AcDbEntity
  8
_U+30EC_U+30A4_U+30E4_U+30FC 1
100
AcDbBlockReference
  2
block 2
 10
0.0
 20
0.0
 30
0.0
  0
POLYLINE
  5
9C
330
1F
100
AcDbEntity
  8
_U+30EC_U+30A4_U+30E4_U+30FC 1
 62
   179
420
  2234388
370
     9
100
AcDb2dPolyline
 66
     1
 10
0.0
 20
0.0
 30
0.0
  0
VERTEX
  5
9D
330
9C
100
AcDbEntity
  8
_U+30EC_U+30A4_U+30E4_U+30FC 1
 62
   179
420
  2234388
370
     9
100
AcDbVertex
100
AcDb2dVertex
 10
75.28775002369392
 20
-96.24941942038228
 30
0.0
  0
VERTEX
  5
9E
330
9C
100
AcDbEntity
  8
_U+30EC_U+30A4_U+30E4_U+30FC 1
 62
   179
420
  2234388
370
     9
100
AcDbVertex
100
AcDb2dVertex
 10
75.28775002369392
 20
-99.24940636407662
 30
0.0
  0
SEQEND
  5
9F
330
9C
100
AcDbEntity
  8
_U+30EC_U+30A4_U+30E4_U+30FC 1
 62
   179
420
  2234388
370
     9
  0
POLYLINE
  5
A0
330
1F
100
AcDbEntity
  8
_U+30EC_U+30A4_U+30E4_U+30FC 1
 62
   179
420
  2234388
370
     9
100
AcDb2dPolyline
 66
     1
 10
0.0
 20
0.0
 30
0.0
  0
VERTEX
  5
A1
330
A0
100
AcDbEntity
  8
_U+30EC_U+30A4_U+30E4_U+30FC 1
 62
   179
420
  2234388
370
     9
100
AcDbVertex
100
AcDb2dVertex
 10
58.82777433251177
 20
-99.24940636407662
 30
0.0
  0
VERTEX
  5
A2
330
A0
100
AcDbEntity
  8
_U+30EC_U+30A4_U+30E4_U+30FC 1
 62
   179
420
  2234388
370
     9
100
AcDbVertex
100
AcDb2dVertex
 10
76.2881944253724
 20
-99.24940636407662
 30
0.0
  0
SEQEND
  5
A3
330
A0
100
AcDbEntity
  8
_U+30EC_U+30A4_U+30E4_U+30FC 1
 62
   179
420
  2234388
370
     9
  0
INSERT
  5
A5
330
1F
100
AcDbEntity
  8
_U+30EC_U+30A4_U+30E4_U+30FC 1
100
AcDbBlockReference
  2
block 3
 10
0.0
 20
0.0
 30
0.0
  0
POLYLINE
  5
AA
330
1F
100
AcDbEntity
  8
_U+30EC_U+30A4_U+30E4_U+30FC 1
 62
   179
420
  2234388
370
     9
100
AcDb2dPolyline
 66
     1
 10
0.0
 20
0.0
 30
0.0
  0
VERTEX
  5
AB
330
AA
100
AcDbEntity
  8
_U+30EC_U+30A4_U+30E4_U+30FC 1
 62
   179
420
  2234388
370
     9
100
AcDbVertex
100
AcDb2dVertex
 10
50.28804760593391
 20
-78.44913470260998
 30
0.0
  0
VERTEX
  5
AC
330
AA
100
AcDbEntity
  8
_U+30EC_U+30A4_U+30E4_U+30FC 1
 62
   179
420
  2234388
370
     9
100
AcDbVertex
100
AcDb2dVertex
 10
71.28799095906962
 20
-78.44913470260998
 30
0.0
  0
SEQEND
  5
AD
330
AA
100
AcDbEntity
  8
_U+30EC_U+30A4_U+30E4_U+30FC 1
 62
   179
420
  2234388
370
     9
  0
POLYLINE
  5
AE
330
1F
100
AcDbEntity
  8
_U+30EC_U+30A4_U+30E4_U+30FC 1
 62
   179
420
  2234388
370
     9
100
AcDb2dPolyline
 66
     1
 10
0.0
 20
0.0
 30
0.0
  0
VERTEX
  5
AF
330
AE
100
AcDbEntity
  8
_U+30EC_U+30A4_U+30E4_U+30FC 1
 62
   179
420
  2234388
370
     9
100
AcDbVertex
100
AcDb2dVertex
 10
50.28804760593391
 20
-79.90917609113369
 30
0.0
  0
VERTEX
  5
B0
330
AE
100
AcDbEntity
  8
_U+30EC_U+30A4_U+30E4_U+30FC 1
 62
   179
420
  2234388
370
     9
100
AcDbVertex
100
AcDb2dVertex
 10
50.28804760593391
 20
-77.44936248063776
 30
0.0
  0
SEQEND
  5
B1
330
AE
100
AcDbEntity
  8
_U+30EC_U+30A4_U+30E4_U+30FC 1
 62
   179
420
  2234388
370
     9
  0
POLYLINE
  5
B2
330
1F
100
AcDbEntity
  8
_U+30EC_U+30A4_U+30E4_U+30FC 1
 62
   179
420
  2234388
370
     9
100
AcDb2dPolyline
 66
     1
 10
0.0
 20
0.0
 30
0.0
  0
VERTEX
  5
B3
330
B2
100
AcDbEntity
  8
_U+30EC_U+30A4_U+30E4_U+30FC 1
 62
   179
420
  2234388
370
     9
100
AcDbVertex
100
AcDb2dVertex
 10
71.28799095906962
 20
-79.90917609113369
 30
0.0
  0
VERTEX
  5
B4
330
B2
100
AcDbEntity
  8
_U+30EC_U+30A4_U+30E4_U+30FC 1
 62
   179
420
  2234388
370
     9
100
AcDbVertex
100
AcDb2dVertex
 10
71.28799095906962
 20
-77.44936248063776
 30
0.0
  0
SEQEND
  5
B5
330
B2
100
AcDbEntity
  8
_U+30EC_U+30A4_U+30E4_U+30FC 1
 62
   179
420
  2234388
370
     9
  0
INSERT
  5
B7
330
1F
100
AcDbEntity
  8
_U+30EC_U+30A4_U+30E4_U+30FC 1
100
AcDbBlockReference
  2
block 4
 10
0.0
 20
0.0
 30
0.0
  0
POLYLINE
  5
BE
330
1F
100
AcDbEntity
  8
_U+30EC_U+30A4_U+30E4_U+30FC 1
 62
   179
420
  2234388
370
     9
100
AcDb2dPolyline
 66
     1
 10
0.0
 20
0.0
 30
0.0
  0
VERTEX
  5
BF
330
BE
100
AcDbEntity
  8
_U+30EC_U+30A4_U+30E4_U+30FC 1
 62
   179
420
  2234388
370
     9
100
AcDbVertex
100
AcDb2dVertex
 10
50.28804760593391
 20
-103.2495183075213
 30
0.0
  0
VERTEX
  5
C0
330
BE
100
AcDbEntity
  8
_U+30EC_U+30A4_U+30E4_U+30FC 1
 62
   179
420
  2234388
370
     9
100
AcDbVertex
100
AcDb2dVertex
 10
56.28802134175071
 20
-103.2495183075213
 30
0.0
  0
SEQEND
  5
C1
330
BE
100
AcDbEntity
  8
_U+30EC_U+30A4_U+30E4_U+30FC 1
 62
   179
420
  2234388
370
     9
  0
POLYLINE
  5
C2
330
1F
100
AcDbEntity
  8
_U+30EC_U+30A4_U+30E4_U+30FC 1
 62
   179
420
  2234388
370
     9
100
AcDb2dPolyline
 66
     1
 10
0.0
 20
0.0
 30
0.0
  0
VERTEX
  5
C3
330
C2
100
AcDbEntity
  8
_U+30EC_U+30A4_U+30E4_U+30FC 1
 62
   179
420
  2234388
370
     9
100
AcDbVertex
100
AcDb2dVertex
 10
50.28804760593391
 20
-101.7894769189969
 30
0.0
  0
VERTEX
  5
C4
330
C2
100
AcDbEntity
  8
_U+30EC_U+30A4_U+30E4_U+30FC 1
 62
   179
420
  2234388
370
     9
100
AcDbVertex
100
AcDb2dVertex
 10
50.28804760593391
 20
-104.2492905294932
 30
0.0
  0
SEQEND
  5
C5
330
C2
100
AcDbEntity
  8
_U+30EC_U+30A4_U+30E4_U+30FC 1
 62
   179
420
  2234388
370
     9
  0
POLYLINE
  5
C6
330
1F
100
AcDbEntity
  8
_U+30EC_U+30A4_U+30E4_U+30FC 1
 62
   179
420
  2234388
370
     9
100
AcDb2dPolyline
 66
     1
 10
0.0
 20
0.0
 30
0.0
  0
VERTEX
  5
C7
330
C6
100
AcDbEntity
  8
_U+30EC_U+30A4_U+30E4_U+30FC 1
 62
   179
420
  2234388
370
     9
100
AcDbVertex
100
AcDb2dVertex
 10
56.28802134175071
 20
-101.7894769189969
 30
0.0
  0
VERTEX
  5
C8
330
C6
100
AcDbEntity
  8
_U+30EC_U+30A4_U+30E4_U+30FC 1
 62
   179
420
  2234388
370
     9
100
AcDbVertex
100
AcDb2dVertex
 10
56.28802134175071
 20
-104.2492905294932
 30
0.0
  0
SEQEND
  5
C9
330
C6
100
AcDbEntity
  8
_U+30EC_U+30A4_U+30E4_U+30FC 1
 62
   179
420
  2234388
370
     9
  0
INSERT
  5
CB
330
1F
100
AcDbEntity
  8
_U+30EC_U+30A4_U+30E4_U+30FC 1
100
AcDbBlockReference
  2
block 5
 10
0.0
 20
0.0
 30
0.0
  0
POLYLINE
  5
D1
330
1F
100
AcDbEntity
  8
_U+30EC_U+30A4_U+30E4_U+30FC 1
 62
   179
420
  2234388
370
     9
100
AcDb2dPolyline
 66
     1
 10
0.0
 20
0.0
 30
0.0
  0
VERTEX
  5
D2
330
D1
100
AcDbEntity
  8
_U+30EC_U+30A4_U+30E4_U+30FC 1
 62
   179
420
  2234388
370
     9
100
AcDbVertex
100
AcDb2dVertex
 10
75.28775002369392
 20
-83.24917025696541
 30
0.0
  0
VERTEX
  5
D3
330
D1
100
AcDbEntity
  8
_U+30EC_U+30A4_U+30E4_U+30FC 1
 62
   179
420
  2234388
370
     9
100
AcDbVertex
100
AcDb2dVertex
 10
75.28775002369392
 20
-96.24941942038228
 30
0.0
  0
SEQEND
  5
D4
330
D1
100
AcDbEntity
  8
_U+30EC_U+30A4_U+30E4_U+30FC 1
 62
   179
420
  2234388
370
     9
  0
POLYLINE
  5
D5
330
1F
100
AcDbEntity
  8
_U+30EC_U+30A4_U+30E4_U+30FC 1
 62
   179
420
  2234388
370
     9
100
AcDb2dPolyline
 66
     1
 10
0.0
 20
0.0
 30
0.0
  0
VERTEX
  5
D6
330
D5
100
AcDbEntity
  8
_U+30EC_U+30A4_U+30E4_U+30FC 1
 62
   179
420
  2234388
370
     9
100
AcDbVertex
100
AcDb2dVertex
 10
73.82770867205379
 20
-83.24917025696541
 30
0.0
  0
VERTEX
  5
D7
330
D5
100
AcDbEntity
  8
_U+30EC_U+30A4_U+30E4_U+30FC 1
 62
   179
420
  2234388
370
     9
100
AcDbVertex
100
AcDb2dVertex
 10
76.2881944253724
 20
-83.24917025696541
 30
0.0
  0
SEQEND
  5
D8
330
D5
100
AcDbEntity
  8
_U+30EC_U+30A4_U+30E4_U+30FC 1
 62
   179
420
  2234388
370
     9
  0
POLYLINE
  5
D9
330
1F
100
AcDbEntity
  8
_U+30EC_U+30A4_U+30E4_U+30FC 1
 62
   179
420
  2234388
370
     9
100
AcDb2dPolyline
 66
     1
 10
0.0
 20
0.0
 30
0.0
  0
VERTEX
  5
DA
330
D9
100
AcDbEntity
  8
_U+30EC_U+30A4_U+30E4_U+30FC 1
 62
   179
420
  2234388
370
     9
100
AcDbVertex
100
AcDb2dVertex
 10
58.82777433251177
 20
-96.24941942038228
 30
0.0
  0
VERTEX
  5
DB
330
D9
100
AcDbEntity
  8
_U+30EC_U+30A4_U+30E4_U+30FC 1
 62
   179
420
  2234388
370
     9
100
AcDbVertex
100
AcDb2dVertex
 10
76.2881944253724
 20
-96.24941942038228
 30
0.0
  0
SEQEND
  5
DC
330
D9
100
AcDbEntity
  8
_U+30EC_U+30A4_U+30E4_U+30FC 1
 62
   179
420
  2234388
370
     9
  0
INSERT
  5
DE
330
1F
100
AcDbEntity
  8
_U+30EC_U+30A4_U+30E4_U+30FC 1
100
AcDbBlockReference
  2
block 6
 10
0.0
 20
0.0
 30
0.0
  0
ENDSEC
  0
SECTION
  2
OBJECTS
  0
DICTIONARY
  5
C
330
0
100
AcDbDictionary
281
     1
  3
ACAD_GROUP
350
D
  3
ACAD_LAYOUT
350
1A
  3
ACAD_MATERIAL
350
3B
  3
ACAD_MLEADERSTYLE
350
E6
  3
ACAD_MLINESTYLE
350
17
  3
ACAD_PLOTSETTINGS
350
19
  3
ACAD_PLOTSTYLENAME
350
E
  3
ACAD_TABLESTYLE
350
E5
  3
ACAD_VISUALSTYLE
350
2A
  0
SUN
  5
3F
330
29
100
AcDbSun
 90
        1
290
     0
 63
     7
421
 16777215
 40
1.0
291
     1
 91
  2455826
 92
 54000000
292
     0
 70
     2
 71
   256
280
     1
  0
DICTIONARY
  5
D
102
{ACAD_REACTORS
330
C
102
}
330
C
100
AcDbDictionary
281
     1
  0
DICTIONARY
  5
1A
102
{ACAD_REACTORS
330
C
102
}
330
C
100
AcDbDictionary
281
     1
  3
Layout1
350
1E
  3
Layout2
350
26
  3
Model
350
22
  0
DICTIONARY
  5
3B
102
{ACAD_REACTORS
330
C
102
}
330
C
100
AcDbDictionary
281
     1
  3
ByBlock
350
3D
  3
ByLayer
350
3C
  3
Global
350
3E
  0
DICTIONARY
  5
E6
102
{ACAD_REACTORS
330
C
102
}
330
C
100
AcDbDictionary
281
     1
  0
DICTIONARY
  5
17
102
{ACAD_REACTORS
330
C
102
}
330
C
100
AcDbDictionary
281
     1
  3
Standard
350
18
  0
DICTIONARY
  5
19
102
{ACAD_REACTORS
330
C
102
}
330
C
100
AcDbDictionary
281
     1
  0
ACDBDICTIONARYWDFLT
  5
E
102
{ACAD_REACTORS
330
C
102
}
330
C
100
AcDbDictionary
281
     1
  3
Normal
350
F
100
AcDbDictionaryWithDefault
340
F
  0
DICTIONARY
  5
E5
102
{ACAD_REACTORS
330
C
102
}
330
C
100
AcDbDictionary
281
     1
  0
DICTIONARY
  5
2A
102
{ACAD_REACTORS
330
C
102
}
330
C
100
AcDbDictionary
281
     1
  3
2dWireframe
350
2F
  3
3D Hidden
350
31
  3
3dWireframe
350
30
  3
Basic
350
32
  3
Brighten
350
36
  3
ColorChange
350
3A
  3
Conceptual
350
34
  3
Dim
350
35
  3
Facepattern
350
39
  3
Flat
350
2B
  3
FlatWithEdges
350
2C
  3
Gouraud
350
2D
  3
GouraudWithEdges
350
2E
  3
Linepattern
350
38
  3
Realistic
350
33
  3
Thicken
350
37
  0
LAYOUT
  5
1E
102
{ACAD_REACTORS
330
1A
102
}
330
1A
100
AcDbPlotSettings
  1

  2
none_device
  4

  6

 40
0.0
 41
0.0
 42
0.0
 43
0.0
 44
0.0
 45
0.0
 46
0.0
 47
0.0
 48
0.0
 49
0.0
140
0.0
141
0.0
142
1.0
143
1.0
 70
   688
 72
     0
 73
     0
 74
     5
  7

 75
    16
 76
     0
 77
     2
 78
   300
147
1.0
148
0.0
149
0.0
100
AcDbLayout
  1
Layout1
 70
     1
 71
     1
 10
0.0
 20
0.0
 11
12.0
 21
9.0
 12
0.0
 22
0.0
 32
0.0
 14
1.000000000000000E+20
 24
1.000000000000000E+20
 34
1.000000000000000E+20
 15
-1.000000000000000E+20
 25
-1.000000000000000E+20
 35
-1.000000000000000E+20
146
0.0
 13
0.0
 23
0.0
 33
0.0
 16
1.0
 26
0.0
 36
0.0
 17
0.0
 27
1.0
 37
0.0
 76
     0
330
1B
  0
LAYOUT
  5
26
102
{ACAD_REACTORS
330
1A
102
}
330
1A
100
AcDbPlotSettings
  1

  2
none_device
  4

  6

 40
0.0
 41
0.0
 42
0.0
 43
0.0
 44
0.0
 45
0.0
 46
0.0
 47
0.0
 48
0.0
 49
0.0
140
0.0
141
0.0
142
1.0
143
1.0
 70
   688
 72
     0
 73
     0
 74
     5
  7

 75
    16
 76
     0
 77
     2
 78
   300
147
1.0
148
0.0
149
0.0
100
AcDbLayout
  1
Layout2
 70
     1
 71
     2
 10
0.0
 20
0.0
 11
0.0
 21
0.0
 12
0.0
 22
0.0
 32
0.0
 14
0.0
 24
0.0
 34
0.0
 15
0.0
 25
0.0
 35
0.0
146
0.0
 13
0.0
 23
0.0
 33
0.0
 16
1.0
 26
0.0
 36
0.0
 17
0.0
 27
1.0
 37
0.0
 76
     0
330
23
  0
LAYOUT
  5
22
102
{ACAD_REACTORS
330
1A
102
}
330
1A
100
AcDbPlotSettings
  1

  2
none_device
  4

  6

 40
0.0
 41
0.0
 42
0.0
 43
0.0
 44
0.0
 45
0.0
 46
0.0
 47
0.0
 48
0.0
 49
0.0
140
0.0
141
0.0
142
1.0
143
1.0
 70
  1712
 72
     0
 73
     0
 74
     0
  7

 75
     0
 76
     0
 77
     2
 78
   300
147
1.0
148
0.0
149
0.0
100
AcDbLayout
  1
Model
 70
     1
 71
     0
 10
0.0
 20
0.0
 11
12.0
 21
9.0
 12
0.0
 22
0.0
 32
0.0
 14
1.000000000000000E+20
 24
1.000000000000000E+20
 34
1.000000000000000E+20
 15
-1.000000000000000E+20
 25
-1.000000000000000E+20
 35
-1.000000000000000E+20
146
0.0
 13
0.0
 23
0.0
 33
0.0
 16
1.0
 26
0.0
 36
0.0
 17
0.0
 27
1.0
 37
0.0
 76
     0
330
1F
331
29
  0
MATERIAL
  5
3D
102
{ACAD_REACTORS
330
3B
102
}
330
3B
100
AcDbMaterial
  1
ByBlock
 72
     1
 94
      127
  0
MATERIAL
  5
3C
102
{ACAD_REACTORS
330
3B
102
}
330
3B
100
AcDbMaterial
  1
ByLayer
 72
     1
 94
      127
  0
MATERIAL
  5
3E
102
{ACAD_REACTORS
330
3B
102
}
330
3B
100
AcDbMaterial
  1
Global
 72
     1
 94
      127
  0
MLINESTYLE
  5
18
102
{ACAD_REACTORS
330
17
102
}
330
17
100
AcDbMlineStyle
  2
Standard
 70
     0
  3

 62
   256
 51
90.0
 52
90.0
 71
     2
 49
0.5
 62
   256
  6
BYLAYER
 49
-0.5
 62
   256
  6
BYLAYER
  0
ACDBPLACEHOLDER
  5
F
102
{ACAD_REACTORS
330
E
102
}
330
E
  0
VISUALSTYLE
  5
2F
102
{ACAD_REACTORS
330
2A
102
}
330
2A
100
AcDbVisualStyle
  2
2dWireframe
 70
     4
177
     2
291
     0
 71
     0
176
     1
 72
     2
176
     1
 73
     0
176
     1
 90
        0
176
     1
 40
-0.6
176
     1
 41
-30.0
176
     1
 62
     5
 63
     7
421
 16777215
176
     1
 74
     1
176
     1
 91
        4
176
     1
 64
     7
176
     1
 65
   257
176
     1
 75
     1
176
     1
175
     1
176
     1
 42
1.0
176
     1
 92
        0
176
     1
 66
   257
176
     1
 43
1.0
176
     1
 76
     1
176
     1
 77
     6
176
     1
 78
     2
176
     1
 67
     7
176
     1
 79
     5
176
     1
170
     0
176
     1
171
     0
176
     1
290
     0
176
     1
 93
        1
176
     1
 44
0.0
176
     1
173
     0
176
     1
  0
VISUALSTYLE
  5
31
102
{ACAD_REACTORS
330
2A
102
}
330
2A
100
AcDbVisualStyle
  2
3D Hidden
 70
     6
177
     2
291
     0
 71
     1
176
     1
 72
     2
176
     1
 73
     2
176
     1
 90
        0
176
     1
 40
-0.6
176
     1
 41
-30.0
176
     1
 62
     5
 63
     7
421
 16777215
176
     1
 74
     2
176
     1
 91
        2
176
     1
 64
     7
176
     1
 65
   257
176
     1
 75
     2
176
     1
175
     1
176
     1
 42
40.0
176
     1
 92
        0
176
     1
 66
   257
176
     1
 43
1.0
176
     1
 76
     1
176
     1
 77
     6
176
     1
 78
     2
176
     1
 67
     7
176
     1
 79
     3
176
     1
170
     0
176
     1
171
     0
176
     1
290
     0
176
     1
 93
        1
176
     1
 44
0.0
176
     1
173
     0
176
     1
  0
VISUALSTYLE
  5
30
102
{ACAD_REACTORS
330
2A
102
}
330
2A
100
AcDbVisualStyle
  2
3dWireframe
 70
     5
177
     2
291
     0
 71
     0
176
     1
 72
     2
176
     1
 73
     0
176
     1
 90
        0
176
     1
 40
-0.6
176
     1
 41
-30.0
176
     1
 62
     5
 63
     7
421
 16777215
176
     1
 74
     1
176
     1
 91
        4
176
     1
 64
     7
176
     1
 65
   257
176
     1
 75
     1
176
     1
175
     1
176
     1
 42
1.0
176
     1
 92
        0
176
     1
 66
   257
176
     1
 43
1.0
176
     1
 76
     1
176
     1
 77
     6
176
     1
 78
     2
176
     1
 67
     7
176
     1
 79
     5
176
     1
170
     0
176
     1
171
     0
176
     1
290
     0
176
     1
 93
        1
176
     1
 44
0.0
176
     1
173
     0
176
     1
  0
VISUALSTYLE
  5
32
102
{ACAD_REACTORS
330
2A
102
}
330
2A
100
AcDbVisualStyle
  2
Basic
 70
     7
177
     2
291
     1
 71
     1
176
     1
 72
     0
176
     1
 73
     1
176
     1
 90
        0
176
     1
 40
-0.6
176
     1
 41
-30.0
176
     1
 62
     5
 63
     7
421
 16777215
176
     1
 74
     0
176
     1
 91
        4
176
     1
 64
     7
176
     1
 65
   257
176
     1
 75
     1
176
     1
175
     1
176
     1
 42
1.0
176
     1
 92
        8
176
     1
 66
     7
176
     1
 43
1.0
176
     1
 76
     1
176
     1
 77
     6
176
     1
 78
     2
176
     1
 67
     7
176
     1
 79
     5
176
     1
170
     0
176
     1
171
     0
176
     1
290
     0
176
     1
 93
        1
176
     1
 44
0.0
176
     1
173
     0
176
     1
  0
VISUALSTYLE
  5
36
102
{ACAD_REACTORS
330
2A
102
}
330
2A
100
AcDbVisualStyle
  2
Brighten
 70
    12
177
     2
291
     1
 71
     2
176
     1
 72
     2
176
     1
 73
     0
176
     1
 90
        0
176
     1
 40
-0.6
176
     1
 41
-30.0
176
     1
 62
     5
 63
     7
421
 16777215
176
     1
 74
     1
176
     1
 91
        4
176
     1
 64
     7
176
     1
 65
   257
176
     1
 75
     1
176
     1
175
     1
176
     1
 42
1.0
176
     1
 92
        8
176
     1
 66
     7
176
     1
 43
1.0
176
     1
 76
     1
176
     1
 77
     6
176
     1
 78
     2
176
     1
 67
     7
176
     1
 79
     5
176
     1
170
     0
176
     1
171
     0
176
     1
290
     0
176
     1
 93
        1
176
     1
 44
50.0
176
     1
173
     0
176
     1
  0
VISUALSTYLE
  5
3A
102
{ACAD_REACTORS
330
2A
102
}
330
2A
100
AcDbVisualStyle
  2
ColorChange
 70
    16
177
     2
291
     1
 71
     2
176
     1
 72
     2
176
     1
 73
     3
176
     1
 90
        0
176
     1
 40
-0.6
176
     1
 41
-30.0
176
     1
 62
     5
 63
     8
421
  8421504
176
     1
 74
     1
176
     1
 91
        4
176
     1
 64
     7
176
     1
 65
   257
176
     1
 75
     1
176
     1
175
     1
176
     1
 42
1.0
176
     1
 92
        8
176
     1
 66
     8
424
  8421504
176
     1
 43
1.0
176
     1
 76
     1
176
     1
 77
     6
176
     1
 78
     2
176
     1
 67
     7
176
     1
 79
     5
176
     1
170
     0
176
     1
171
     0
176
     1
290
     0
176
     1
 93
        1
176
     1
 44
0.0
176
     1
173
     0
176
     1
  0
VISUALSTYLE
  5
34
102
{ACAD_REACTORS
330
2A
102
}
330
2A
100
AcDbVisualStyle
  2
Conceptual
 70
     9
177
     2
291
     0
 71
     3
176
     1
 72
     2
176
     1
 73
     0
176
     1
 90
        0
176
     1
 40
-0.6
176
     1
 41
-30.0
176
     1
 62
     5
 63
     7
421
 16777215
176
     1
 74
     2
176
     1
 91
        2
176
     1
 64
     7
176
     1
 65
   257
176
     1
 75
     1
176
     1
175
     1
176
     1
 42
40.0
176
     1
 92
        8
176
     1
 66
     7
176
     1
 43
1.0
176
     1
 76
     1
176
     1
 77
     6
176
     1
 78
     2
176
     1
 67
     7
176
     1
 79
     3
176
     1
170
     0
176
     1
171
     0
176
     1
290
     0
176
     1
 93
        1
176
     1
 44
0.0
176
     1
173
     0
176
     1
  0
VISUALSTYLE
  5
35
102
{ACAD_REACTORS
330
2A
102
}
330
2A
100
AcDbVisualStyle
  2
Dim
 70
    11
177
     2
291
     1
 71
     2
176
     1
 72
     2
176
     1
 73
     0
176
     1
 90
        0
176
     1
 40
-0.6
176
     1
 41
-30.0
176
     1
 62
     5
 63
     7
421
 16777215
176
     1
 74
     1
176
     1
 91
        4
176
     1
 64
     7
176
     1
 65
   257
176
     1
 75
     1
176
     1
175
     1
176
     1
 42
1.0
176
     1
 92
        8
176
     1
 66
     7
176
     1
 43
1.0
176
     1
 76
     1
176
     1
 77
     6
176
     1
 78
     2
176
     1
 67
     7
176
     1
 79
     5
176
     1
170
     0
176
     1
171
     0
176
     1
290
     0
176
     1
 93
        1
176
     1
 44
-50.0
176
     1
173
     0
176
     1
  0
VISUALSTYLE
  5
39
102
{ACAD_REACTORS
330
2A
102
}
330
2A
100
AcDbVisualStyle
  2
Facepattern
 70
    15
177
     2
291
     1
 71
     2
176
     1
 72
     2
176
     1
 73
     0
176
     1
 90
        0
176
     1
 40
-0.6
176
     1
 41
-30.0
176
     1
 62
     5
 63
     7
421
 16777215
176
     1
 74
     1
176
     1
 91
        4
176
     1
 64
     7
176
     1
 65
   257
176
     1
 75
     1
176
     1
175
     1
176
     1
 42
1.0
176
     1
 92
        8
176
     1
 66
     7
176
     1
 43
1.0
176
     1
 76
     1
176
     1
 77
     6
176
     1
 78
     2
176
     1
 67
     7
176
     1
 79
     5
176
     1
170
     0
176
     1
171
     0
176
     1
290
     0
176
     1
 93
        1
176
     1
 44
0.0
176
     1
173
     0
176
     1
  0
VISUALSTYLE
  5
2B
102
{ACAD_REACTORS
330
2A
102
}
330
2A
100
AcDbVisualStyle
  2
Flat
 70
     0
177
     2
291
     1
 71
     2
176
     1
 72
     1
176
     1
 73
     1
176
     1
 90
        2
176
     1
 40
-0.6
176
     1
 41
30.0
176
     1
 62
     5
 63
     7
421
 16777215
176
     1
 74
     0
176
     1
 91
        4
176
     1
 64
     7
176
     1
 65
   257
176
     1
 75
     1
176
     1
175
     1
176
     1
 42
1.0
176
     1
 92
        8
176
     1
 66
     7
176
     1
 43
1.0
176
     1
 76
     1
176
     1
 77
     6
176
     1
 78
     2
176
     1
 67
     7
176
     1
 79
     5
176
     1
170
     0
176
     1
171
     0
176
     1
290
     0
176
     1
 93
       13
176
     1
 44
0.0
176
     1
173
     0
176
     1
  0
VISUALSTYLE
  5
2C
102
{ACAD_REACTORS
330
2A
102
}
330
2A
100
AcDbVisualStyle
  2
FlatWithEdges
 70
     1
177
     2
291
     1
 71
     2
176
     1
 72
     1
176
     1
 73
     1
176
     1
 90
        2
176
     1
 40
-0.6
176
     1
 41
30.0
176
     1
 62
     5
 63
     7
421
 16777215
176
     1
 74
     1
176
     1
 91
        4
176
     1
 64
     7
176
     1
 65
   257
176
     1
 75
     1
176
     1
175
     1
176
     1
 42
1.0
176
     1
 92
        0
176
     1
 66
   257
176
     1
 43
1.0
176
     1
 76
     1
176
     1
 77
     6
176
     1
 78
     2
176
     1
 67
     7
176
     1
 79
     5
176
     1
170
     0
176
     1
171
     0
176
     1
290
     0
176
     1
 93
       13
176
     1
 44
0.0
176
     1
173
     0
176
     1
  0
VISUALSTYLE
  5
2D
102
{ACAD_REACTORS
330
2A
102
}
330
2A
100
AcDbVisualStyle
  2
Gouraud
 70
     2
177
     2
291
     1
 71
     2
176
     1
 72
     2
176
     1
 73
     1
176
     1
 90
        2
176
     1
 40
-0.6
176
     1
 41
30.0
176
     1
 62
     5
 63
     7
421
 16777215
176
     1
 74
     0
176
     1
 91
        4
176
     1
 64
     7
176
     1
 65
   257
176
     1
 75
     1
176
     1
175
     1
176
     1
 42
1.0
176
     1
 92
        0
176
     1
 66
     7
176
     1
 43
1.0
176
     1
 76
     1
176
     1
 77
     6
176
     1
 78
     2
176
     1
 67
     7
176
     1
 79
     5
176
     1
170
     0
176
     1
171
     0
176
     1
290
     0
176
     1
 93
       13
176
     1
 44
0.0
176
     1
173
     0
176
     1
  0
VISUALSTYLE
  5
2E
102
{ACAD_REACTORS
330
2A
102
}
330
2A
100
AcDbVisualStyle
  2
GouraudWithEdges
 70
     3
177
     2
291
     1
 71
     2
176
     1
 72
     2
176
     1
 73
     1
176
     1
 90
        2
176
     1
 40
-0.6
176
     1
 41
30.0
176
     1
 62
     5
 63
     7
421
 16777215
176
     1
 74
     1
176
     1
 91
        4
176
     1
 64
     7
176
     1
 65
   257
176
     1
 75
     1
176
     1
175
     1
176
     1
 42
1.0
176
     1
 92
        0
176
     1
 66
   257
176
     1
 43
1.0
176
     1
 76
     1
176
     1
 77
     6
176
     1
 78
     2
176
     1
 67
     7
176
     1
 79
     5
176
     1
170
     0
176
     1
171
     0
176
     1
290
     0
176
     1
 93
       13
176
     1
 44
0.0
176
     1
173
     0
176
     1
  0
VISUALSTYLE
  5
38
102
{ACAD_REACTORS
330
2A
102
}
330
2A
100
AcDbVisualStyle
  2
Linepattern
 70
    14
177
     2
291
     1
 71
     2
176
     1
 72
     2
176
     1
 73
     0
176
     1
 90
        0
176
     1
 40
-0.6
176
     1
 41
-30.0
176
     1
 62
     5
 63
     7
421
 16777215
176
     1
 74
     1
176
     1
 91
        4
176
     1
 64
     7
176
     1
 65
   257
176
     1
 75
     7
176
     1
175
     7
176
     1
 42
1.0
176
     1
 92
        8
176
     1
 66
     7
176
     1
 43
1.0
176
     1
 76
     1
176
     1
 77
     6
176
     1
 78
     2
176
     1
 67
     7
176
     1
 79
     5
176
     1
170
     0
176
     1
171
     0
176
     1
290
     0
176
     1
 93
        1
176
     1
 44
0.0
176
     1
173
     0
176
     1
  0
VISUALSTYLE
  5
33
102
{ACAD_REACTORS
330
2A
102
}
330
2A
100
AcDbVisualStyle
  2
Realistic
 70
     8
177
     2
291
     0
 71
     2
176
     1
 72
     2
176
     1
 73
     0
176
     1
 90
        0
176
     1
 40
-0.6
176
     1
 41
-30.0
176
     1
 62
     5
 63
     7
421
 16777215
176
     1
 74
     1
176
     1
 91
        0
176
     1
 64
     7
176
     1
 65
   257
176
     1
 75
     1
176
     1
175
     1
176
     1
 42
1.0
176
     1
 92
        8
176
     1
 66
     8
424
  7895160
176
     1
 43
1.0
176
     1
 76
     1
176
     1
 77
     6
176
     1
 78
     2
176
     1
 67
     7
176
     1
 79
     5
176
     1
170
     0
176
     1
171
     0
176
     1
290
     0
176
     1
 93
       13
176
     1
 44
0.0
176
     1
173
     0
176
     1
  0
VISUALSTYLE
  5
37
102
{ACAD_REACTORS
330
2A
102
}
330
2A
100
AcDbVisualStyle
  2
Thicken
 70
    13
177
     2
291
     1
 71
     2
176
     1
 72
     2
176
     1
 73
     0
176
     1
 90
        0
176
     1
 40
-0.6
176
     1
 41
-30.0
176
     1
 62
     5
 63
     7
421
 16777215
176
     1
 74
     1
176
     1
 91
        4
176
     1
 64
     7
176
     1
 65
   257
176
     1
 75
     1
176
     1
175
     1
176
     1
 42
1.0
176
     1
 92
       12
176
     1
 66
     7
176
     1
 43
1.0
176
     1
 76
     1
176
     1
 77
     6
176
     1
 78
     2
176
     1
 67
     7
176
     1
 79
     5
176
     1
170
     0
176
     1
171
     0
176
     1
290
     0
176
     1
 93
        1
176
     1
 44
0.0
176
     1
173
     0
176
     1
  0
ENDSEC
  0
EOF
