  0
SECTION
  2
HEADER
  9
$ACADVER
  1
AC1024
  9
$ACADMAINTVER
 70
     6
  9
$DWGCODEPAGE
  3
UNDEFINED
  9
$INSBASE
 10
0.0
 20
0.0
 30
0.0
  9
$EXTMIN
 10
1.000000000000000E+20
 20
1.000000000000000E+20
 30
1.000000000000000E+20
  9
$EXTMAX
 10
-1.000000000000000E+20
 20
-1.000000000000000E+20
 30
-1.000000000000000E+20
  9
$LIMMIN
 10
0.0
 20
0.0
  9
$LIMMAX
 10
12.0
 20
9.0
  9
$ORTHOMODE
 70
     0
  9
$REGENMODE
 70
     1
  9
$FILLMODE
 70
     1
  9
$QTEXTMODE
 70
     0
  9
$MIRRTEXT
 70
     1
  9
$LTSCALE
 40
1.0
  9
$ATTMODE
 70
     1
  9
$TEXTSIZE
 40
0.2
  9
$TRACEWID
 40
0.05
  9
$TEXTSTYLE
  7
Standard
  9
$CLAYER
  8
0
  9
$CELTYPE
  6
ByLayer
  9
$CECOLOR
 62
   256
  9
$CELTSCALE
 40
1.0
  9
$DISPSILH
 70
     0
  9
$DIMSCALE
 40
1.0
  9
$DIMASZ
 40
0.18
  9
$DIMEXO
 40
0.0625
  9
$DIMDLI
 40
0.38
  9
$DIMRND
 40
0.0
  9
$DIMDLE
 40
0.0
  9
$DIMEXE
 40
0.18
  9
$DIMTP
 40
0.0
  9
$DIMTM
 40
0.0
  9
$DIMTXT
 40
0.18
  9
$DIMCEN
 40
0.09
  9
$DIMTSZ
 40
0.0
  9
$DIMTOL
 70
     0
  9
$DIMLIM
 70
     0
  9
$DIMTIH
 70
     1
  9
$DIMTOH
 70
     1
  9
$DIMSE1
 70
     0
  9
$DIMSE2
 70
     0
  9
$DIMTAD
 70
     0
  9
$DIMZIN
 70
     0
  9
$DIMBLK
  1

  9
$DIMASO
 70
     1
  9
$DIMSHO
 70
     1
  9
$DIMPOST
  1

  9
$DIMAPOST
  1

  9
$DIMALT
 70
     0
  9
$DIMALTD
 70
     2
  9
$DIMALTF
 40
25.4
  9
$DIMLFAC
 40
1.0
  9
$DIMTOFL
 70
     0
  9
$DIMTVP
 40
0.0
  9
$DIMTIX
 70
     0
  9
$DIMSOXD
 70
     0
  9
$DIMSAH
 70
     0
  9
$DIMBLK1
  1

  9
$DIMBLK2
  1

  9
$DIMSTYLE
  2
Standard
  9
$DIMCLRD
 70
     0
  9
$DIMCLRE
 70
     0
  9
$DIMCLRT
 70
     0
  9
$DIMTFAC
 40
1.0
  9
$DIMGAP
 40
0.09
  9
$DIMJUST
 70
     0
  9
$DIMSD1
 70
     0
  9
$DIMSD2
 70
     0
  9
$DIMTOLJ
 70
     1
  9
$DIMTZIN
 70
     0
  9
$DIMALTZ
 70
     0
  9
$DIMALTTZ
 70
     0
  9
$DIMUPT
 70
     0
  9
$DIMDEC
 70
     4
  9
$DIMTDEC
 70
     4
  9
$DIMALTU
 70
     2
  9
$DIMALTTD
 70
     2
  9
$DIMTXSTY
  7
Standard
  9
$DIMAUNIT
 70
     0
  9
$DIMADEC
 70
     0
  9
$DIMALTRND
 40
0.0
  9
$DIMAZIN
 70
     0
  9
$DIMDSEP
 70
    46
  9
$DIMATFIT
 70
     3
  9
$DIMFRAC
 70
     0
  9
$DIMLDRBLK
  1

  9
$DIMLUNIT
 70
     2
  9
$DIMLWD
 70
    -2
  9
$DIMLWE
 70
    -2
  9
$DIMTMOVE
 70
     0
  9
$DIMFXL
 40
1.0
  9
$DIMFXLON
 70
     0
  9
$DIMJOGANG
 40
0.7853981633974483
  9
$DIMTFILL
 70
     0
  9
$DIMTFILLCLR
 70
     0
  9
$DIMARCSYM
 70
     0
  9
$DIMLTYPE
  6

  9
$DIMLTEX1
  6

  9
$DIMLTEX2
  6

  9
$DIMTXTDIRECTION
 70
     0
  9
$LUNITS
 70
     2
  9
$LUPREC
 70
     4
  9
$SKETCHINC
 40
0.1
  9
$FILLETRAD
 40
0.5
  9
$AUNITS
 70
     0
  9
$AUPREC
 70
     0
  9
$MENU
  1
.
  9
$ELEVATION
 40
0.0
  9
$PELEVATION
 40
0.0
  9
$THICKNESS
 40
0.0
  9
$LIMCHECK
 70
     0
  9
$CHAMFERA
 40
0.5
  9
$CHAMFERB
 40
0.5
  9
$CHAMFERC
 40
1.0
  9
$CHAMFERD
 40
0.0
  9
$SKPOLY
 70
     0
  9
$TDCREATE
 40
2457917.589652766
  9
$TDUCREATE
 40
2457917.214652778
  9
$TDUPDATE
 40
2457917.589652766
  9
$TDUUPDATE
 40
2457917.214652778
  9
$TDINDWG
 40
0.0000000116
  9
$TDUSRTIMER
 40
0.0000000116
  9
$USRTIMER
 70
     1
  9
$ANGBASE
 50
0.0
  9
$ANGDIR
 70
     0
  9
$PDMODE
 70
     0
  9
$PDSIZE
 40
0.0
  9
$PLINEWID
 40
0.0
  9
$SPLFRAME
 70
     0
  9
$SPLINETYPE
 70
     6
  9
$SPLINESEGS
 70
     8
  9
$HANDSEED
  5
11D
  9
$SURFTAB1
 70
     6
  9
$SURFTAB2
 70
     6
  9
$SURFTYPE
 70
     6
  9
$SURFU
 70
     6
  9
$SURFV
 70
     6
  9
$UCSBASE
  2

  9
$UCSNAME
  2

  9
$UCSORG
 10
0.0
 20
0.0
 30
0.0
  9
$UCSXDIR
 10
1.0
 20
0.0
 30
0.0
  9
$UCSYDIR
 10
0.0
 20
1.0
 30
0.0
  9
$UCSORTHOREF
  2

  9
$UCSORTHOVIEW
 70
     0
  9
$UCSORGTOP
 10
0.0
 20
0.0
 30
0.0
  9
$UCSORGBOTTOM
 10
0.0
 20
0.0
 30
0.0
  9
$UCSORGLEFT
 10
0.0
 20
0.0
 30
0.0
  9
$UCSORGRIGHT
 10
0.0
 20
0.0
 30
0.0
  9
$UCSORGFRONT
 10
0.0
 20
0.0
 30
0.0
  9
$UCSORGBACK
 10
0.0
 20
0.0
 30
0.0
  9
$PUCSBASE
  2

  9
$PUCSNAME
  2

  9
$PUCSORG
 10
0.0
 20
0.0
 30
0.0
  9
$PUCSXDIR
 10
1.0
 20
0.0
 30
0.0
  9
$PUCSYDIR
 10
0.0
 20
1.0
 30
0.0
  9
$PUCSORTHOREF
  2

  9
$PUCSORTHOVIEW
 70
     0
  9
$PUCSORGTOP
 10
0.0
 20
0.0
 30
0.0
  9
$PUCSORGBOTTOM
 10
0.0
 20
0.0
 30
0.0
  9
$PUCSORGLEFT
 10
0.0
 20
0.0
 30
0.0
  9
$PUCSORGRIGHT
 10
0.0
 20
0.0
 30
0.0
  9
$PUCSORGFRONT
 10
0.0
 20
0.0
 30
0.0
  9
$PUCSORGBACK
 10
0.0
 20
0.0
 30
0.0
  9
$USERI1
 70
     0
  9
$USERI2
 70
     0
  9
$USERI3
 70
     0
  9
$USERI4
 70
     0
  9
$USERI5
 70
     0
  9
$USERR1
 40
0.0
  9
$USERR2
 40
0.0
  9
$USERR3
 40
0.0
  9
$USERR4
 40
0.0
  9
$USERR5
 40
0.0
  9
$WORLDVIEW
 70
     1
  9
$SHADEDGE
 70
     3
  9
$SHADEDIF
 70
    70
  9
$TILEMODE
 70
     1
  9
$MAXACTVP
 70
    64
  9
$PINSBASE
 10
0.0
 20
0.0
 30
0.0
  9
$PLIMCHECK
 70
     0
  9
$PEXTMIN
 10
1.000000000000000E+20
 20
1.000000000000000E+20
 30
1.000000000000000E+20
  9
$PEXTMAX
 10
-1.000000000000000E+20
 20
-1.000000000000000E+20
 30
-1.000000000000000E+20
  9
$PLIMMIN
 10
0.0
 20
0.0
  9
$PLIMMAX
 10
12.0
 20
9.0
  9
$UNITMODE
 70
     0
  9
$VISRETAIN
 70
     1
  9
$PLINEGEN
 70
     0
  9
$PSLTSCALE
 70
     1
  9
$TREEDEPTH
 70
  3020
  9
$CMLSTYLE
  2
Standard
  9
$CMLJUST
 70
     0
  9
$CMLSCALE
 40
1.0
  9
$PROXYGRAPHICS
 70
     1
  9
$MEASUREMENT
 70
     0
  9
$CELWEIGHT
370
    -1
  9
$ENDCAPS
280
     0
  9
$JOINSTYLE
280
     0
  9
$LWDISPLAY
290
     1
  9
$INSUNITS
 70
     1
  9
$HYPERLINKBASE
  1

  9
$STYLESHEET
  1

  9
$XEDIT
290
     1
  9
$CEPSNTYPE
380
     0
  9
$PSTYLEMODE
290
     1
  9
$FINGERPRINTGUID
  2
{F4E7B428-F57B-EF49-B62A-7E9173DB302B}
  9
$VERSIONGUID
  2
{FAEB1C32-E019-11D5-929B-00C0DF256EC4}
  9
$EXTNAMES
290
     1
  9
$PSVPSCALE
 40
0.0
  9
$OLESTARTUP
290
     0
  9
$SORTENTS
280
   127
  9
$INDEXCTL
280
     0
  9
$HIDETEXT
280
     1
  9
$XCLIPFRAME
280
     2
  9
$HALOGAP
280
     0
  9
$OBSCOLOR
 70
   257
  9
$OBSLTYPE
280
     0
  9
$INTERSECTIONDISPLAY
280
     0
  9
$INTERSECTIONCOLOR
 70
   257
  9
$DIMASSOC
280
     2
  9
$PROJECTNAME
  1

  9
$CAMERADISPLAY
290
     0
  9
$LENSLENGTH
 40
50.0
  9
$CAMERAHEIGHT
 40
0.0
  9
$STEPSPERSEC
 40
2.0
  9
$STEPSIZE
 40
6.0
  9
$3DDWFPREC
 40
2.0
  9
$PSOLWIDTH
 40
0.25
  9
$PSOLHEIGHT
 40
4.0
  9
$LOFTANG1
 40
1.570796326794897
  9
$LOFTANG2
 40
1.570796326794897
  9
$LOFTMAG1
 40
0.0
  9
$LOFTMAG2
 40
0.0
  9
$LOFTPARAM
 70
     7
  9
$LOFTNORMALS
280
     1
  9
$LATITUDE
 40
37.795
  9
$LONGITUDE
 40
-122.394
  9
$NORTHDIRECTION
 40
0.0
  9
$TIMEZONE
 70
 -8000
  9
$LIGHTGLYPHDISPLAY
280
     1
  9
$TILEMODELIGHTSYNCH
280
     1
  9
$CMATERIAL
347
3C
  9
$SOLIDHIST
280
     1
  9
$SHOWHIST
280
     1
  9
$DWFFRAME
280
     2
  9
$DGNFRAME
280
     2
  9
$REALWORLDSCALE
290
     1
  9
$INTERFERECOLOR
 62
   256
  9
$CSHADOW
280
     0
  9
$SHADOWPLANELOCATION
 40
0.0
  0
ENDSEC
  0
SECTION
  2
CLASSES
  0
CLASS
  1
ACDBDICTIONARYWDFLT
  2
AcDbDictionaryWithDefault
  3
ObjectDBX Classes
 90
        0
 91
        4
280
     0
281
     0
  0
CLASS
  1
VISUALSTYLE
  2
AcDbVisualStyle
  3
ObjectDBX Classes
 90
     4095
 91
        4
280
     0
281
     0
  0
CLASS
  1
MATERIAL
  2
AcDbMaterial
  3
ObjectDBX Classes
 90
     1153
 91
        4
280
     0
281
     0
  0
CLASS
  1
SUN
  2
AcDbSun
  3
SCENEOE
 90
     1024
 91
        4
280
     0
281
     0
  0
ENDSEC
  0
SECTION
  2
TABLES
  0
TABLE
  2
VPORT
  5
8
330
0
100
AcDbSymbolTable
 70
     1
  0
VPORT
  5
29
330
8
100
AcDbSymbolTableRecord
100
AcDbViewportTableRecord
  2
*Active
 70
     0
 10
0.0
 20
0.0
 11
1.0
 21
1.0
 12
0.0
 22
0.0
 13
0.0
 23
0.0
 14
0.5
 24
0.5
 15
0.5
 25
0.5
 16
0.0
 26
0.0
 36
1.0
 17
91.00082462281999
 27
-128.4993055234307
 37
0.0
 40
256.9986110468615
 41
0.7081814508812795
 42
50.0
 43
0.0
 44
0.0
 50
0.0
 51
0.0
 71
     0
 72
   100
 73
     1
 74
     3
 75
     0
 76
     0
 77
     0
 78
     0
281
     0
 65
     1
110
0.0
120
0.0
130
0.0
111
1.0
121
0.0
131
0.0
112
0.0
122
1.0
132
0.0
 79
     0
146
0.0
 60
     3
 61
     5
292
     1
282
     1
141
0.0
142
0.0
 63
   250
361
3F
  0
ENDTAB
  0
TABLE
  2
LTYPE
  5
5
330
0
100
AcDbSymbolTable
 70
     2
  0
LTYPE
  5
14
330
5
100
AcDbSymbolTableRecord
100
AcDbLinetypeTableRecord
  2
ByBlock
 70
     0
  3

 72
    65
 73
     0
 40
0.0
  0
LTYPE
  5
15
330
5
100
AcDbSymbolTableRecord
100
AcDbLinetypeTableRecord
  2
ByLayer
 70
     0
  3

 72
    65
 73
     0
 40
0.0
  0
LTYPE
  5
16
330
5
100
AcDbSymbolTableRecord
100
AcDbLinetypeTableRecord
  2
Continuous
 70
     0
  3
Solid line
 72
    65
 73
     0
 40
0.0
  0
LTYPE
  5
E5
330
5
100
AcDbSymbolTableRecord
100
AcDbLinetypeTableRecord
  2
AI-Linetype-1
 70
     0
  3
Adobe Illustrator Linetype No. 1
 72
    65
 73
     2
 40
1.411111110758333
 49
0.7055555553791667
 74
     0
 49
-0.7055555553791667
 74
     0
  0
ENDTAB
  0
TABLE
  2
LAYER
  5
2
330
0
100
AcDbSymbolTable
 70
     2
  0
LAYER
  5
10
330
2
100
AcDbSymbolTableRecord
100
AcDbLayerTableRecord
  2
0
 70
     0
 62
     7
  6
Continuous
370
    -3
390
F
347
3E
  0
LAYER
  5
40
330
2
100
AcDbSymbolTableRecord
100
AcDbLayerTableRecord
  2
_U+30EC_U+30A4_U+30E4_U+30FC 1
 70
     0
 62
     7
  6
Continuous
370
    -3
390
F
347
3E
  0
ENDTAB
  0
TABLE
  2
STYLE
  5
3
330
0
100
AcDbSymbolTable
 70
     1
  0
STYLE
  5
11
330
3
100
AcDbSymbolTableRecord
100
AcDbTextStyleTableRecord
  2
Standard
 70
     0
 40
0.0
 41
1.0
 50
0.0
 71
     0
 42
0.2
  3
txt
  4

  0
ENDTAB
  0
TABLE
  2
VIEW
  5
6
330
0
100
AcDbSymbolTable
 70
     0
  0
ENDTAB
  0
TABLE
  2
UCS
  5
7
330
0
100
AcDbSymbolTable
 70
     0
  0
ENDTAB
  0
TABLE
  2
APPID
  5
9
330
0
100
AcDbSymbolTable
 70
     1
  0
APPID
  5
12
330
9
100
AcDbSymbolTableRecord
100
AcDbRegAppTableRecord
  2
ACAD
 70
     0
  0
ENDTAB
  0
TABLE
  2
DIMSTYLE
  5
A
330
0
100
AcDbSymbolTable
 70
     1
100
AcDbDimStyleTable
  0
DIMSTYLE
105
27
330
A
100
AcDbSymbolTableRecord
100
AcDbDimStyleTableRecord
  2
Standard
 70
     0
178
     0
340
11
  0
ENDTAB
  0
TABLE
  2
BLOCK_RECORD
  5
1
330
0
100
AcDbSymbolTable
 70
     7
  0
BLOCK_RECORD
  5
1F
330
1
100
AcDbSymbolTableRecord
100
AcDbBlockTableRecord
  2
*Model_Space
340
22
 70
     0
280
     1
281
     0
  0
BLOCK_RECORD
  5
1B
330
1
100
AcDbSymbolTableRecord
100
AcDbBlockTableRecord
  2
*Paper_Space
340
1E
 70
     0
280
     1
281
     0
  0
BLOCK_RECORD
  5
23
330
1
100
AcDbSymbolTableRecord
100
AcDbBlockTableRecord
  2
*Paper_Space0
340
26
 70
     0
280
     1
281
     0
  0
BLOCK_RECORD
  5
89
330
1
100
AcDbSymbolTableRecord
100
AcDbBlockTableRecord
  2
block 2
340
0
102
{BLKREFS
331
8A
102
}
 70
     0
280
     1
281
     0
  0
BLOCK_RECORD
  5
A4
330
1
100
AcDbSymbolTableRecord
100
AcDbBlockTableRecord
  2
block 3
340
0
102
{BLKREFS
331
A5
102
}
 70
     0
280
     1
281
     0
  0
BLOCK_RECORD
  5
B5
330
1
100
AcDbSymbolTableRecord
100
AcDbBlockTableRecord
  2
block 4
340
0
102
{BLKREFS
331
B6
102
}
 70
     0
280
     1
281
     0
  0
BLOCK_RECORD
  5
C7
330
1
100
AcDbSymbolTableRecord
100
AcDbBlockTableRecord
  2
block 5
340
0
102
{BLKREFS
331
C8
102
}
 70
     0
280
     1
281
     0
  0
BLOCK_RECORD
  5
DB
330
1
100
AcDbSymbolTableRecord
100
AcDbBlockTableRecord
  2
block 6
340
0
102
{BLKREFS
331
DC
102
}
 70
     0
280
     1
281
     0
  0
BLOCK_RECORD
  5
F3
330
1
100
AcDbSymbolTableRecord
100
AcDbBlockTableRecord
  2
block 7
340
0
102
{BLKREFS
331
F4
102
}
 70
     0
280
     1
281
     0
  0
ENDTAB
  0
ENDSEC
  0
SECTION
  2
BLOCKS
  0
BLOCK
  5
20
330
1F
100
AcDbEntity
  8
0
100
AcDbBlockBegin
  2
*Model_Space
 70
     0
 10
0.0
 20
0.0
 30
0.0
  3
*Model_Space
  1

  0
ENDBLK
  5
21
330
1F
100
AcDbEntity
  8
0
100
AcDbBlockEnd
  0
BLOCK
  5
1C
330
1B
100
AcDbEntity
 67
     1
  8
0
100
AcDbBlockBegin
  2
*Paper_Space
 70
     0
 10
0.0
 20
0.0
 30
0.0
  3
*Paper_Space
  1

  0
ENDBLK
  5
1D
330
1B
100
AcDbEntity
 67
     1
  8
0
100
AcDbBlockEnd
  0
BLOCK
  5
24
330
23
100
AcDbEntity
  8
0
100
AcDbBlockBegin
  2
*Paper_Space0
 70
     0
 10
0.0
 20
0.0
 30
0.0
  3
*Paper_Space0
  1

  0
ENDBLK
  5
25
330
23
100
AcDbEntity
  8
0
100
AcDbBlockEnd
  0
BLOCK
  5
8B
330
89
100
AcDbEntity
  8
0
100
AcDbBlockBegin
  2
block 2
 70
     0
 10
0.0
 20
0.0
 30
0.0
  3
block 2
  1

  0
SPLINE
  5
8D
330
89
100
AcDbEntity
  8
_U+30EC_U+30A4_U+30E4_U+30FC 1
370
     0
100
AcDbSpline
210
0.0
220
0.0
230
1.0
 70
    11
 71
     3
 72
    29
 73
    25
 74
     0
 42
0.0000000001
 43
0.0000000001
 12
1.0
 22
0.0
 32
0.0
 13
1.0
 23
0.0
 33
0.0
 40
0.0
 40
0.0
 40
0.0
 40
0.0
 40
1.0
 40
1.0
 40
1.0
 40
2.0
 40
2.0
 40
2.0
 40
3.0
 40
3.0
 40
3.0
 40
4.0
 40
4.0
 40
4.0
 40
5.0
 40
5.0
 40
5.0
 40
6.0
 40
6.0
 40
6.0
 40
7.0
 40
7.0
 40
7.0
 40
8.0
 40
8.0
 40
8.0
 40
8.0
 10
108.1973578288534
 20
-120.953512882088
 30
0.0
 10
108.4068196343566
 20
-121.0689235808439
 30
0.0
 10
108.4257676595255
 20
-121.2542697179503
 30
0.0
 10
108.4257676595255
 20
-121.3786376649678
 30
0.0
 10
108.4257676595255
 20
-121.5502034201333
 30
0.0
 10
108.3792588704746
 20
-121.7017876214843
 30
0.0
 10
108.1973578288534
 20
-121.8034179382991
 30
0.0
 10
108.0027099339368
 20
-121.9143500129242
 30
0.0
 10
107.7656873645516
 20
-121.9346760762872
 30
0.0
 10
107.6030788576478
 20
-121.9346760762872
 30
0.0
 10
107.4590738663644
 20
-121.9346760762872
 30
0.0
 10
107.2072373863926
 20
-121.9164170702153
 30
0.0
 10
107.0084553768937
 20
-121.8034179382991
 30
0.0
 10
106.8055392528125
 20
-121.6883517490918
 30
0.0
 10
106.7821126035128
 20
-121.5164414843778
 30
0.0
 10
106.7821126035128
 20
-121.3786376649678
 30
0.0
 10
106.7821126035128
 20
-121.208794457545
 30
0.0
 10
106.8265543352725
 20
-121.0551431989029
 30
0.0
 10
107.0084553768937
 20
-120.953512882088
 30
0.0
 10
107.2010362145192
 20
-120.8470594315938
 30
0.0
 10
107.4294460451913
 20
-120.8222547441
 30
0.0
 10
107.6030788576478
 20
-120.8222547441
 30
0.0
 10
107.7743001032648
 20
-120.8222547441
 30
0.0
 10
108.004776991228
 20
-120.8449923743026
 30
0.0
 10
108.1973578288534
 20
-120.953512882088
 30
0.0
  0
SPLINE
  5
8E
330
89
100
AcDbEntity
  8
_U+30EC_U+30A4_U+30E4_U+30FC 1
370
     0
100
AcDbSpline
210
0.0
220
0.0
230
1.0
 70
    11
 71
     3
 72
    17
 73
    13
 74
     0
 42
0.0000000001
 43
0.0000000001
 12
1.0
 22
0.0
 32
0.0
 13
1.0
 23
0.0
 33
0.0
 40
0.0
 40
0.0
 40
0.0
 40
0.0
 40
1.0
 40
1.0
 40
1.0
 40
2.0
 40
2.0
 40
2.0
 40
3.0
 40
3.0
 40
3.0
 40
4.0
 40
4.0
 40
4.0
 40
4.0
 10
106.9746934411383
 20
-121.3786376649678
 30
0.0
 10
106.9746934411383
 20
-121.6452880555262
 30
0.0
 10
107.2582247995743
 20
-121.6948974305138
 30
0.0
 10
107.6030788576478
 20
-121.6948974305138
 30
0.0
 10
107.9224392091305
 20
-121.6948974305138
 30
0.0
 10
108.2311197646089
 20
-121.6566568706275
 30
0.0
 10
108.2311197646089
 20
-121.3786376649678
 30
0.0
 10
108.2311197646089
 20
-121.1140543317007
 30
0.0
 10
107.9499999730125
 20
-121.0620333898734
 30
0.0
 10
107.6030788576478
 20
-121.0620333898734
 30
0.0
 10
107.2833739966167
 20
-121.0620333898734
 30
0.0
 10
106.9746934411383
 20
-121.1026855165993
 30
0.0
 10
106.9746934411383
 20
-121.3786376649678
 30
0.0
  0
HATCH
  5
8F
330
89
100
AcDbEntity
  8
_U+30EC_U+30A4_U+30E4_U+30FC 1
 62
   179
420
  2234388
100
AcDbHatch
 10
0.0
 20
0.0
 30
0.0
210
0.0
220
0.0
230
1.0
  2
SOLID
 70
     1
 71
     0
 91
        2
 92
        1
 93
        1
 72
     4
 94
        3
 73
     0
 74
     1
 95
       29
 96
       25
 40
0.0
 40
0.0
 40
0.0
 40
0.0
 40
1.0
 40
1.0
 40
1.0
 40
2.0
 40
2.0
 40
2.0
 40
3.0
 40
3.0
 40
3.0
 40
4.0
 40
4.0
 40
4.0
 40
5.0
 40
5.0
 40
5.0
 40
6.0
 40
6.0
 40
6.0
 40
7.0
 40
7.0
 40
7.0
 40
8.0
 40
8.0
 40
8.0
 40
8.0
 10
108.1973578288534
 20
-120.953512882088
 10
108.4068196343566
 20
-121.0689235808439
 10
108.4257676595255
 20
-121.2542697179503
 10
108.4257676595255
 20
-121.3786376649678
 10
108.4257676595255
 20
-121.5502034201333
 10
108.3792588704746
 20
-121.7017876214843
 10
108.1973578288534
 20
-121.8034179382991
 10
108.0027099339368
 20
-121.9143500129242
 10
107.7656873645516
 20
-121.9346760762872
 10
107.6030788576478
 20
-121.9346760762872
 10
107.4590738663644
 20
-121.9346760762872
 10
107.2072373863926
 20
-121.9164170702153
 10
107.0084553768937
 20
-121.8034179382991
 10
106.8055392528125
 20
-121.6883517490918
 10
106.7821126035128
 20
-121.5164414843778
 10
106.7821126035128
 20
-121.3786376649678
 10
106.7821126035128
 20
-121.208794457545
 10
106.8265543352725
 20
-121.0551431989029
 10
107.0084553768937
 20
-120.953512882088
 10
107.2010362145192
 20
-120.8470594315938
 10
107.4294460451913
 20
-120.8222547441
 10
107.6030788576478
 20
-120.8222547441
 10
107.7743001032648
 20
-120.8222547441
 10
108.004776991228
 20
-120.8449923743026
 10
108.1973578288534
 20
-120.953512882088
 97
        0
 97
        0
 92
        1
 93
        1
 72
     4
 94
        3
 73
     0
 74
     1
 95
       17
 96
       13
 40
0.0
 40
0.0
 40
0.0
 40
0.0
 40
1.0
 40
1.0
 40
1.0
 40
2.0
 40
2.0
 40
2.0
 40
3.0
 40
3.0
 40
3.0
 40
4.0
 40
4.0
 40
4.0
 40
4.0
 10
106.9746934411383
 20
-121.3786376649678
 10
106.9746934411383
 20
-121.6452880555262
 10
107.2582247995743
 20
-121.6948974305138
 10
107.6030788576478
 20
-121.6948974305138
 10
107.9224392091305
 20
-121.6948974305138
 10
108.2311197646089
 20
-121.6566568706275
 10
108.2311197646089
 20
-121.3786376649678
 10
108.2311197646089
 20
-121.1140543317007
 10
107.9499999730125
 20
-121.0620333898734
 10
107.6030788576478
 20
-121.0620333898734
 10
107.2833739966167
 20
-121.0620333898734
 10
106.9746934411383
 20
-121.1026855165993
 10
106.9746934411383
 20
-121.3786376649678
 97
        0
 97
        0
 75
     2
 76
     1
 98
        0
  0
POLYLINE
  5
90
330
89
100
AcDbEntity
  8
_U+30EC_U+30A4_U+30E4_U+30FC 1
370
     0
100
AcDb2dPolyline
 66
     1
 10
0.0
 20
0.0
 30
0.0
  0
VERTEX
  5
91
330
90
100
AcDbEntity
  8
_U+30EC_U+30A4_U+30E4_U+30FC 1
370
     0
100
AcDbVertex
100
AcDb2dVertex
 10
108.3751247558923
 20
-120.5910888370397
 30
0.0
  0
VERTEX
  5
92
330
90
100
AcDbEntity
  8
_U+30EC_U+30A4_U+30E4_U+30FC 1
370
     0
100
AcDbVertex
100
AcDb2dVertex
 10
108.1232882759206
 20
-120.5910888370397
 30
0.0
  0
VERTEX
  5
93
330
90
100
AcDbEntity
  8
_U+30EC_U+30A4_U+30E4_U+30FC 1
370
     0
100
AcDbVertex
100
AcDb2dVertex
 10
108.1232882759206
 20
-120.3220268796417
 30
0.0
  0
VERTEX
  5
94
330
90
100
AcDbEntity
  8
_U+30EC_U+30A4_U+30E4_U+30FC 1
370
     0
100
AcDbVertex
100
AcDb2dVertex
 10
108.3751247558923
 20
-120.3220268796417
 30
0.0
  0
VERTEX
  5
95
330
90
100
AcDbEntity
  8
_U+30EC_U+30A4_U+30E4_U+30FC 1
370
     0
100
AcDbVertex
100
AcDb2dVertex
 10
108.3751247558923
 20
-120.5910888370397
 30
0.0
  0
SEQEND
  5
96
330
90
100
AcDbEntity
  8
_U+30EC_U+30A4_U+30E4_U+30FC 1
370
     0
  0
HATCH
  5
97
330
89
100
AcDbEntity
  8
_U+30EC_U+30A4_U+30E4_U+30FC 1
 62
   179
420
  2234388
100
AcDbHatch
 10
0.0
 20
0.0
 30
0.0
210
0.0
220
0.0
230
1.0
  2
SOLID
 70
     1
 71
     0
 91
        1
 92
        1
 93
        4
 72
     1
 10
108.3751247558923
 20
-120.5910888370397
 11
108.1232882759206
 21
-120.5910888370397
 72
     1
 10
108.1232882759206
 20
-120.5910888370397
 11
108.1232882759206
 21
-120.3220268796417
 72
     1
 10
108.1232882759206
 20
-120.3220268796417
 11
108.3751247558923
 21
-120.3220268796417
 72
     1
 10
108.3751247558923
 20
-120.3220268796417
 11
108.3751247558923
 21
-120.5910888370397
 97
        0
 75
     2
 76
     1
 98
        0
  0
SPLINE
  5
98
330
89
100
AcDbEntity
  8
_U+30EC_U+30A4_U+30E4_U+30FC 1
370
     0
100
AcDbSpline
210
0.0
220
0.0
230
1.0
 70
    11
 71
     3
 72
    29
 73
    25
 74
     0
 42
0.0000000001
 43
0.0000000001
 12
1.0
 22
0.0
 32
0.0
 13
1.0
 23
0.0
 33
0.0
 40
0.0
 40
0.0
 40
0.0
 40
0.0
 40
1.0
 40
1.0
 40
1.0
 40
2.0
 40
2.0
 40
2.0
 40
3.0
 40
3.0
 40
3.0
 40
4.0
 40
4.0
 40
4.0
 40
5.0
 40
5.0
 40
5.0
 40
6.0
 40
6.0
 40
6.0
 40
7.0
 40
7.0
 40
7.0
 40
8.0
 40
8.0
 40
8.0
 40
8.0
 10
108.4257676595255
 20
-119.5348225612621
 30
0.0
 10
108.4257676595255
 20
-119.8197319578923
 30
0.0
 10
108.288308349664
 20
-120.0908609725815
 30
0.0
 10
107.9393201770082
 20
-120.0908609725815
 30
0.0
 10
107.6833495824542
 20
-120.0908609725815
 30
0.0
 10
107.5882649470613
 20
-119.9392767712305
 30
0.0
 10
107.5269422474238
 20
-119.8262776393143
 30
0.0
 10
107.4676866050775
 20
-119.9596028345934
 30
0.0
 10
107.3533094349672
 20
-120.0412515975939
 30
0.0
 10
107.1924234758061
 20
-120.0412515975939
 30
0.0
 10
106.9175048560831
 20
-120.0412515975939
 30
0.0
 10
106.7821126035128
 20
-119.8286892061539
 30
0.0
 10
106.7821126035128
 20
-119.5348225612621
 30
0.0
 10
106.7821126035128
 20
-119.2316541585601
 30
0.0
 10
106.9261175947963
 20
-119.0283935249304
 30
0.0
 10
107.1924234758061
 20
-119.0283935249304
 30
0.0
 10
107.3533094349672
 20
-119.0283935249304
 30
0.0
 10
107.4676866050775
 20
-119.1117648356735
 30
0.0
 10
107.5269422474238
 20
-119.2454345405012
 30
0.0
 10
107.577585151057
 20
-119.1503499051083
 30
0.0
 10
107.6726697864499
 20
-118.980851207234
 30
0.0
 10
107.9351860624259
 20
-118.980851207234
 30
0.0
 10
108.3096679416726
 20
-118.980851207234
 30
0.0
 10
108.4257676595255
 20
-119.2791964762566
 30
0.0
 10
108.4257676595255
 20
-119.5348225612621
 30
0.0
  0
SPLINE
  5
99
330
89
100
AcDbEntity
  8
_U+30EC_U+30A4_U+30E4_U+30FC 1
370
     0
100
AcDbSpline
210
0.0
220
0.0
230
1.0
 70
    11
 71
     3
 72
    17
 73
    13
 74
     0
 42
0.0000000001
 43
0.0000000001
 12
1.0
 22
0.0
 32
0.0
 13
1.0
 23
0.0
 33
0.0
 40
0.0
 40
0.0
 40
0.0
 40
0.0
 40
1.0
 40
1.0
 40
1.0
 40
2.0
 40
2.0
 40
2.0
 40
3.0
 40
3.0
 40
3.0
 40
4.0
 40
4.0
 40
4.0
 40
4.0
 10
106.9746934411383
 20
-119.5348225612621
 30
0.0
 10
106.9746934411383
 20
-119.7108669405584
 30
0.0
 10
107.0697780765312
 20
-119.8014729518205
 30
0.0
 10
107.2051703291015
 20
-119.8014729518205
 30
0.0
 10
107.3278157283764
 20
-119.8014729518205
 30
0.0
 10
107.446327013069
 20
-119.7246473224994
 30
0.0
 10
107.446327013069
 20
-119.5348225612621
 30
0.0
 10
107.446327013069
 20
-119.3446532904763
 30
0.0
 10
107.3278157283764
 20
-119.2678276611553
 30
0.0
 10
107.2051703291015
 20
-119.2678276611553
 30
0.0
 10
107.0697780765312
 20
-119.2678276611553
 30
0.0
 10
106.9746934411383
 20
-119.3605007297085
 30
0.0
 10
106.9746934411383
 20
-119.5348225612621
 30
0.0
  0
SPLINE
  5
9A
330
89
100
AcDbEntity
  8
_U+30EC_U+30A4_U+30E4_U+30FC 1
370
     0
100
AcDbSpline
210
0.0
220
0.0
230
1.0
 70
    11
 71
     3
 72
    17
 73
    13
 74
     0
 42
0.0000000001
 43
0.0000000001
 12
1.0
 22
0.0
 32
0.0
 13
1.0
 23
0.0
 33
0.0
 40
0.0
 40
0.0
 40
0.0
 40
0.0
 40
1.0
 40
1.0
 40
1.0
 40
2.0
 40
2.0
 40
2.0
 40
3.0
 40
3.0
 40
3.0
 40
4.0
 40
4.0
 40
4.0
 40
4.0
 10
107.6347737361122
 20
-119.5348225612621
 30
0.0
 10
107.6347737361122
 20
-119.6884738199043
 30
0.0
 10
107.7215901423404
 20
-119.8510823268081
 30
0.0
 10
107.9245062664217
 20
-119.8510823268081
 30
0.0
 10
108.1298339573425
 20
-119.8510823268081
 30
0.0
 10
108.2311197646089
 20
-119.7156900742378
 30
0.0
 10
108.2311197646089
 20
-119.5348225612621
 30
0.0
 10
108.2311197646089
 20
-119.3356960422147
 30
0.0
 10
108.108474365334
 20
-119.2182182861677
 30
0.0
 10
107.9307074382951
 20
-119.2182182861677
 30
0.0
 10
107.708843289045
 20
-119.2182182861677
 30
0.0
 10
107.6347737361122
 20
-119.3921956081728
 30
0.0
 10
107.6347737361122
 20
-119.5348225612621
 30
0.0
  0
HATCH
  5
9B
330
89
100
AcDbEntity
  8
_U+30EC_U+30A4_U+30E4_U+30FC 1
 62
   179
420
  2234388
100
AcDbHatch
 10
0.0
 20
0.0
 30
0.0
210
0.0
220
0.0
230
1.0
  2
SOLID
 70
     1
 71
     0
 91
        3
 92
        1
 93
        1
 72
     4
 94
        3
 73
     0
 74
     1
 95
       29
 96
       25
 40
0.0
 40
0.0
 40
0.0
 40
0.0
 40
1.0
 40
1.0
 40
1.0
 40
2.0
 40
2.0
 40
2.0
 40
3.0
 40
3.0
 40
3.0
 40
4.0
 40
4.0
 40
4.0
 40
5.0
 40
5.0
 40
5.0
 40
6.0
 40
6.0
 40
6.0
 40
7.0
 40
7.0
 40
7.0
 40
8.0
 40
8.0
 40
8.0
 40
8.0
 10
108.4257676595255
 20
-119.5348225612621
 10
108.4257676595255
 20
-119.8197319578923
 10
108.288308349664
 20
-120.0908609725815
 10
107.9393201770082
 20
-120.0908609725815
 10
107.6833495824542
 20
-120.0908609725815
 10
107.5882649470613
 20
-119.9392767712305
 10
107.5269422474238
 20
-119.8262776393143
 10
107.4676866050775
 20
-119.9596028345934
 10
107.3533094349672
 20
-120.0412515975939
 10
107.1924234758061
 20
-120.0412515975939
 10
106.9175048560831
 20
-120.0412515975939
 10
106.7821126035128
 20
-119.8286892061539
 10
106.7821126035128
 20
-119.5348225612621
 10
106.7821126035128
 20
-119.2316541585601
 10
106.9261175947963
 20
-119.0283935249304
 10
107.1924234758061
 20
-119.0283935249304
 10
107.3533094349672
 20
-119.0283935249304
 10
107.4676866050775
 20
-119.1117648356735
 10
107.5269422474238
 20
-119.2454345405012
 10
107.577585151057
 20
-119.1503499051083
 10
107.6726697864499
 20
-118.980851207234
 10
107.9351860624259
 20
-118.980851207234
 10
108.3096679416726
 20
-118.980851207234
 10
108.4257676595255
 20
-119.2791964762566
 10
108.4257676595255
 20
-119.5348225612621
 97
        0
 97
        0
 92
        1
 93
        1
 72
     4
 94
        3
 73
     0
 74
     1
 95
       17
 96
       13
 40
0.0
 40
0.0
 40
0.0
 40
0.0
 40
1.0
 40
1.0
 40
1.0
 40
2.0
 40
2.0
 40
2.0
 40
3.0
 40
3.0
 40
3.0
 40
4.0
 40
4.0
 40
4.0
 40
4.0
 10
106.9746934411383
 20
-119.5348225612621
 10
106.9746934411383
 20
-119.7108669405584
 10
107.0697780765312
 20
-119.8014729518205
 10
107.2051703291015
 20
-119.8014729518205
 10
107.3278157283764
 20
-119.8014729518205
 10
107.446327013069
 20
-119.7246473224994
 10
107.446327013069
 20
-119.5348225612621
 10
107.446327013069
 20
-119.3446532904763
 10
107.3278157283764
 20
-119.2678276611553
 10
107.2051703291015
 20
-119.2678276611553
 10
107.0697780765312
 20
-119.2678276611553
 10
106.9746934411383
 20
-119.3605007297085
 10
106.9746934411383
 20
-119.5348225612621
 97
        0
 97
        0
 92
        1
 93
        1
 72
     4
 94
        3
 73
     0
 74
     1
 95
       17
 96
       13
 40
0.0
 40
0.0
 40
0.0
 40
0.0
 40
1.0
 40
1.0
 40
1.0
 40
2.0
 40
2.0
 40
2.0
 40
3.0
 40
3.0
 40
3.0
 40
4.0
 40
4.0
 40
4.0
 40
4.0
 10
107.6347737361122
 20
-119.5348225612621
 10
107.6347737361122
 20
-119.6884738199043
 10
107.7215901423404
 20
-119.8510823268081
 10
107.9245062664217
 20
-119.8510823268081
 10
108.1298339573425
 20
-119.8510823268081
 10
108.2311197646089
 20
-119.7156900742378
 10
108.2311197646089
 20
-119.5348225612621
 10
108.2311197646089
 20
-119.3356960422147
 10
108.108474365334
 20
-119.2182182861677
 10
107.9307074382951
 20
-119.2182182861677
 10
107.708843289045
 20
-119.2182182861677
 10
107.6347737361122
 20
-119.3921956081728
 10
107.6347737361122
 20
-119.5348225612621
 97
        0
 97
        0
 75
     2
 76
     1
 98
        0
  0
ENDBLK
  5
8C
330
89
100
AcDbEntity
  8
0
100
AcDbBlockEnd
  0
BLOCK
  5
A6
330
A4
100
AcDbEntity
  8
0
100
AcDbBlockBegin
  2
block 3
 70
     0
 10
0.0
 20
0.0
 30
0.0
  3
block 3
  1

  0
SPLINE
  5
A8
330
A4
100
AcDbEntity
  8
_U+30EC_U+30A4_U+30E4_U+30FC 1
370
     0
100
AcDbSpline
210
0.0
220
0.0
230
1.0
 70
    11
 71
     3
 72
    26
 73
    22
 74
     0
 42
0.0000000001
 43
0.0000000001
 12
1.0
 22
0.0
 32
0.0
 13
1.0
 23
0.0
 33
0.0
 40
0.0
 40
0.0
 40
0.0
 40
0.0
 40
1.0
 40
1.0
 40
1.0
 40
2.0
 40
2.0
 40
2.0
 40
3.0
 40
3.0
 40
3.0
 40
4.0
 40
4.0
 40
4.0
 40
5.0
 40
5.0
 40
5.0
 40
6.0
 40
6.0
 40
6.0
 40
7.0
 40
7.0
 40
7.0
 40
7.0
 10
108.3751247558923
 20
-129.9376328885225
 30
0.0
 10
108.3751247558923
 20
-129.9376328885225
 30
0.0
 10
107.2709716528698
 20
-129.9376328885225
 30
0.0
 10
107.2709716528698
 20
-129.9376328885225
 30
0.0
 10
107.2709716528698
 20
-129.9376328885225
 30
0.0
 10
107.2709716528698
 20
-130.2900661566636
 30
0.0
 10
107.2709716528698
 20
-130.2900661566636
 30
0.0
 10
107.2709716528698
 20
-130.2900661566636
 30
0.0
 10
107.122832547004
 20
-130.2900661566636
 30
0.0
 10
107.122832547004
 20
-130.2900661566636
 30
0.0
 10
107.1080186364174
 20
-129.9352213216829
 30
0.0
 10
106.9450656199651
 20
-129.8856119466953
 30
0.0
 10
106.8306884498548
 20
-129.853917068231
 30
0.0
 10
106.8306884498548
 20
-129.853917068231
 30
0.0
 10
106.8306884498548
 20
-129.6978542427491
 30
0.0
 10
106.8306884498548
 20
-129.6978542427491
 30
0.0
 10
106.8306884498548
 20
-129.6978542427491
 30
0.0
 10
108.3751247558923
 20
-129.6978542427491
 30
0.0
 10
108.3751247558923
 20
-129.6978542427491
 30
0.0
 10
108.3751247558923
 20
-129.6978542427491
 30
0.0
 10
108.3751247558923
 20
-129.9376328885225
 30
0.0
 10
108.3751247558923
 20
-129.9376328885225
 30
0.0
  0
HATCH
  5
A9
330
A4
100
AcDbEntity
  8
_U+30EC_U+30A4_U+30E4_U+30FC 1
 62
   179
420
  2234388
100
AcDbHatch
 10
0.0
 20
0.0
 30
0.0
210
0.0
220
0.0
230
1.0
  2
SOLID
 70
     1
 71
     0
 91
        1
 92
        1
 93
        1
 72
     4
 94
        3
 73
     0
 74
     1
 95
       26
 96
       22
 40
0.0
 40
0.0
 40
0.0
 40
0.0
 40
1.0
 40
1.0
 40
1.0
 40
2.0
 40
2.0
 40
2.0
 40
3.0
 40
3.0
 40
3.0
 40
4.0
 40
4.0
 40
4.0
 40
5.0
 40
5.0
 40
5.0
 40
6.0
 40
6.0
 40
6.0
 40
7.0
 40
7.0
 40
7.0
 40
7.0
 10
108.3751247558923
 20
-129.9376328885225
 10
108.3751247558923
 20
-129.9376328885225
 10
107.2709716528698
 20
-129.9376328885225
 10
107.2709716528698
 20
-129.9376328885225
 10
107.2709716528698
 20
-129.9376328885225
 10
107.2709716528698
 20
-130.2900661566636
 10
107.2709716528698
 20
-130.2900661566636
 10
107.2709716528698
 20
-130.2900661566636
 10
107.122832547004
 20
-130.2900661566636
 10
107.122832547004
 20
-130.2900661566636
 10
107.1080186364174
 20
-129.9352213216829
 10
106.9450656199651
 20
-129.8856119466953
 10
106.8306884498548
 20
-129.853917068231
 10
106.8306884498548
 20
-129.853917068231
 10
106.8306884498548
 20
-129.6978542427491
 10
106.8306884498548
 20
-129.6978542427491
 10
106.8306884498548
 20
-129.6978542427491
 10
108.3751247558923
 20
-129.6978542427491
 10
108.3751247558923
 20
-129.6978542427491
 10
108.3751247558923
 20
-129.6978542427491
 10
108.3751247558923
 20
-129.9376328885225
 10
108.3751247558923
 20
-129.9376328885225
 97
        0
 97
        0
 75
     2
 76
     1
 98
        0
  0
SPLINE
  5
AA
330
A4
100
AcDbEntity
  8
_U+30EC_U+30A4_U+30E4_U+30FC 1
370
     0
100
AcDbSpline
210
0.0
220
0.0
230
1.0
 70
    11
 71
     3
 72
    29
 73
    25
 74
     0
 42
0.0000000001
 43
0.0000000001
 12
1.0
 22
0.0
 32
0.0
 13
1.0
 23
0.0
 33
0.0
 40
0.0
 40
0.0
 40
0.0
 40
0.0
 40
1.0
 40
1.0
 40
1.0
 40
2.0
 40
2.0
 40
2.0
 40
3.0
 40
3.0
 40
3.0
 40
4.0
 40
4.0
 40
4.0
 40
5.0
 40
5.0
 40
5.0
 40
6.0
 40
6.0
 40
6.0
 40
7.0
 40
7.0
 40
7.0
 40
8.0
 40
8.0
 40
8.0
 40
8.0
 10
108.1973578288534
 20
-128.2026828021507
 30
0.0
 10
108.4068196343566
 20
-128.3180935009066
 30
0.0
 10
108.4257676595255
 20
-128.503439638013
 30
0.0
 10
108.4257676595255
 20
-128.6278075850306
 30
0.0
 10
108.4257676595255
 20
-128.799373340196
 30
0.0
 10
108.3792588704746
 20
-128.950957541547
 30
0.0
 10
108.1973578288534
 20
-129.0525878583618
 30
0.0
 10
108.0027099339368
 20
-129.1635199329869
 30
0.0
 10
107.7656873645516
 20
-129.1838459963499
 30
0.0
 10
107.6030788576478
 20
-129.1838459963499
 30
0.0
 10
107.4590738663644
 20
-129.1838459963499
 30
0.0
 10
107.2072373863926
 20
-129.1655869902781
 30
0.0
 10
107.0084553768937
 20
-129.0525878583618
 30
0.0
 10
106.8055392528125
 20
-128.9375216691545
 30
0.0
 10
106.7821126035128
 20
-128.7656114044405
 30
0.0
 10
106.7821126035128
 20
-128.6278075850306
 30
0.0
 10
106.7821126035128
 20
-128.4579643776077
 30
0.0
 10
106.8265543352725
 20
-128.3043131189656
 30
0.0
 10
107.0084553768937
 20
-128.2026828021507
 30
0.0
 10
107.2010362145192
 20
-128.0962293516565
 30
0.0
 10
107.4294460451913
 20
-128.0714246641627
 30
0.0
 10
107.6030788576478
 20
-128.0714246641627
 30
0.0
 10
107.7743001032648
 20
-128.0714246641627
 30
0.0
 10
108.004776991228
 20
-128.0941622943654
 30
0.0
 10
108.1973578288534
 20
-128.2026828021507
 30
0.0
  0
SPLINE
  5
AB
330
A4
100
AcDbEntity
  8
_U+30EC_U+30A4_U+30E4_U+30FC 1
370
     0
100
AcDbSpline
210
0.0
220
0.0
230
1.0
 70
    11
 71
     3
 72
    17
 73
    13
 74
     0
 42
0.0000000001
 43
0.0000000001
 12
1.0
 22
0.0
 32
0.0
 13
1.0
 23
0.0
 33
0.0
 40
0.0
 40
0.0
 40
0.0
 40
0.0
 40
1.0
 40
1.0
 40
1.0
 40
2.0
 40
2.0
 40
2.0
 40
3.0
 40
3.0
 40
3.0
 40
4.0
 40
4.0
 40
4.0
 40
4.0
 10
106.9746934411383
 20
-128.6278075850306
 30
0.0
 10
106.9746934411383
 20
-128.8944579755889
 30
0.0
 10
107.2582247995743
 20
-128.9440673505765
 30
0.0
 10
107.6030788576478
 20
-128.9440673505765
 30
0.0
 10
107.9224392091305
 20
-128.9440673505765
 30
0.0
 10
108.2311197646089
 20
-128.9058267906902
 30
0.0
 10
108.2311197646089
 20
-128.6278075850306
 30
0.0
 10
108.2311197646089
 20
-128.3632242517634
 30
0.0
 10
107.9499999730125
 20
-128.3112033099361
 30
0.0
 10
107.6030788576478
 20
-128.3112033099361
 30
0.0
 10
107.2833739966167
 20
-128.3112033099361
 30
0.0
 10
106.9746934411383
 20
-128.351855436662
 30
0.0
 10
106.9746934411383
 20
-128.6278075850306
 30
0.0
  0
HATCH
  5
AC
330
A4
100
AcDbEntity
  8
_U+30EC_U+30A4_U+30E4_U+30FC 1
 62
   179
420
  2234388
100
AcDbHatch
 10
0.0
 20
0.0
 30
0.0
210
0.0
220
0.0
230
1.0
  2
SOLID
 70
     1
 71
     0
 91
        2
 92
        1
 93
        1
 72
     4
 94
        3
 73
     0
 74
     1
 95
       29
 96
       25
 40
0.0
 40
0.0
 40
0.0
 40
0.0
 40
1.0
 40
1.0
 40
1.0
 40
2.0
 40
2.0
 40
2.0
 40
3.0
 40
3.0
 40
3.0
 40
4.0
 40
4.0
 40
4.0
 40
5.0
 40
5.0
 40
5.0
 40
6.0
 40
6.0
 40
6.0
 40
7.0
 40
7.0
 40
7.0
 40
8.0
 40
8.0
 40
8.0
 40
8.0
 10
108.1973578288534
 20
-128.2026828021507
 10
108.4068196343566
 20
-128.3180935009066
 10
108.4257676595255
 20
-128.503439638013
 10
108.4257676595255
 20
-128.6278075850306
 10
108.4257676595255
 20
-128.799373340196
 10
108.3792588704746
 20
-128.950957541547
 10
108.1973578288534
 20
-129.0525878583618
 10
108.0027099339368
 20
-129.1635199329869
 10
107.7656873645516
 20
-129.1838459963499
 10
107.6030788576478
 20
-129.1838459963499
 10
107.4590738663644
 20
-129.1838459963499
 10
107.2072373863926
 20
-129.1655869902781
 10
107.0084553768937
 20
-129.0525878583618
 10
106.8055392528125
 20
-128.9375216691545
 10
106.7821126035128
 20
-128.7656114044405
 10
106.7821126035128
 20
-128.6278075850306
 10
106.7821126035128
 20
-128.4579643776077
 10
106.8265543352725
 20
-128.3043131189656
 10
107.0084553768937
 20
-128.2026828021507
 10
107.2010362145192
 20
-128.0962293516565
 10
107.4294460451913
 20
-128.0714246641627
 10
107.6030788576478
 20
-128.0714246641627
 10
107.7743001032648
 20
-128.0714246641627
 10
108.004776991228
 20
-128.0941622943654
 10
108.1973578288534
 20
-128.2026828021507
 97
        0
 97
        0
 92
        1
 93
        1
 72
     4
 94
        3
 73
     0
 74
     1
 95
       17
 96
       13
 40
0.0
 40
0.0
 40
0.0
 40
0.0
 40
1.0
 40
1.0
 40
1.0
 40
2.0
 40
2.0
 40
2.0
 40
3.0
 40
3.0
 40
3.0
 40
4.0
 40
4.0
 40
4.0
 40
4.0
 10
106.9746934411383
 20
-128.6278075850306
 10
106.9746934411383
 20
-128.8944579755889
 10
107.2582247995743
 20
-128.9440673505765
 10
107.6030788576478
 20
-128.9440673505765
 10
107.9224392091305
 20
-128.9440673505765
 10
108.2311197646089
 20
-128.9058267906902
 10
108.2311197646089
 20
-128.6278075850306
 10
108.2311197646089
 20
-128.3632242517634
 10
107.9499999730125
 20
-128.3112033099361
 10
107.6030788576478
 20
-128.3112033099361
 10
107.2833739966167
 20
-128.3112033099361
 10
106.9746934411383
 20
-128.351855436662
 10
106.9746934411383
 20
-128.6278075850306
 97
        0
 97
        0
 75
     2
 76
     1
 98
        0
  0
ENDBLK
  5
A7
330
A4
100
AcDbEntity
  8
0
100
AcDbBlockEnd
  0
BLOCK
  5
B7
330
B5
100
AcDbEntity
  8
0
100
AcDbBlockBegin
  2
block 4
 70
     0
 10
0.0
 20
0.0
 30
0.0
  3
block 4
  1

  0
SPLINE
  5
B9
330
B5
100
AcDbEntity
  8
_U+30EC_U+30A4_U+30E4_U+30FC 1
370
     0
100
AcDbSpline
210
0.0
220
0.0
230
1.0
 70
    11
 71
     3
 72
    62
 73
    58
 74
     0
 42
0.0000000001
 43
0.0000000001
 12
1.0
 22
0.0
 32
0.0
 13
1.0
 23
0.0
 33
0.0
 40
0.0
 40
0.0
 40
0.0
 40
0.0
 40
1.0
 40
1.0
 40
1.0
 40
2.0
 40
2.0
 40
2.0
 40
3.0
 40
3.0
 40
3.0
 40
4.0
 40
4.0
 40
4.0
 40
5.0
 40
5.0
 40
5.0
 40
6.0
 40
6.0
 40
6.0
 40
7.0
 40
7.0
 40
7.0
 40
8.0
 40
8.0
 40
8.0
 40
9.0
 40
9.0
 40
9.0
 40
10.0
 40
10.0
 40
10.0
 40
11.0
 40
11.0
 40
11.0
 40
12.0
 40
12.0
 40
12.0
 40
13.0
 40
13.0
 40
13.0
 40
14.0
 40
14.0
 40
14.0
 40
15.0
 40
15.0
 40
15.0
 40
16.0
 40
16.0
 40
16.0
 40
17.0
 40
17.0
 40
17.0
 40
18.0
 40
18.0
 40
18.0
 40
19.0
 40
19.0
 40
19.0
 40
19.0
 10
108.4257676595255
 20
-135.7660454304682
 30
0.0
 10
108.4257676595255
 20
-135.8676757472831
 30
0.0
 10
108.4047525770655
 20
-136.100564202086
 30
0.0
 10
108.218717420862
 20
-136.2338893973651
 30
0.0
 10
108.1064073080428
 20
-136.3131265935259
 30
0.0
 10
108.0071885580677
 20
-136.3176052176567
 30
0.0
 10
107.9224392091305
 20
-136.3220838417875
 30
0.0
 10
107.9224392091305
 20
-136.3220838417875
 30
0.0
 10
107.9224392091305
 20
-136.0871283296935
 30
0.0
 10
107.9224392091305
 20
-136.0871283296935
 30
0.0
 10
107.9965087620634
 20
-136.0847167628538
 30
0.0
 10
108.2311197646089
 20
-136.0733479477525
 30
0.0
 10
108.2311197646089
 20
-135.770524054599
 30
0.0
 10
108.2311197646089
 20
-135.6234184773789
 30
0.0
 10
108.1615288358068
 20
-135.4608099704751
 30
0.0
 10
107.9331190051348
 20
-135.4608099704751
 30
0.0
 10
107.8166747777333
 20
-135.4608099704751
 30
0.0
 10
107.7680989313913
 20
-135.501462097201
 30
0.0
 10
107.736404052927
 20
-135.535568542505
 30
0.0
 10
107.6623344999941
 20
-135.6144612291172
 30
0.0
 10
107.6495876466987
 20
-135.7388291761347
 30
0.0
 10
107.6495876466987
 20
-135.7977403089325
 30
0.0
 10
107.6495876466987
 20
-135.8180663722955
 30
0.0
 10
107.6516547039899
 20
-135.8563069321818
 30
0.0
 10
107.6557888185722
 20
-135.8859347533549
 30
0.0
 10
107.6557888185722
 20
-135.8859347533549
 30
0.0
 10
107.4611409236555
 20
-135.8859347533549
 30
0.0
 10
107.4611409236555
 20
-135.8859347533549
 30
0.0
 10
107.4676866050775
 20
-135.845282626629
 30
0.0
 10
107.4697536623687
 20
-135.7998073662237
 30
0.0
 10
107.4697536623687
 20
-135.7932616848017
 30
0.0
 10
107.4697536623687
 20
-135.7229817369026
 30
0.0
 10
107.4483940703601
 20
-135.5104193454627
 30
0.0
 10
107.2117160105235
 20
-135.5104193454627
 30
0.0
 10
107.0339490834846
 20
-135.5104193454627
 30
0.0
 10
106.9788275557206
 20
-135.6506347317124
 30
0.0
 10
106.9788275557206
 20
-135.7681124877594
 30
0.0
 10
106.9788275557206
 20
-136.0509548270984
 30
0.0
 10
107.2117160105235
 20
-136.05991207536
 30
0.0
 10
107.2833739966167
 20
-136.0643906994908
 30
0.0
 10
107.2833739966167
 20
-136.0643906994908
 30
0.0
 10
107.2833739966167
 20
-136.2814317150616
 30
0.0
 10
107.2833739966167
 20
-136.2814317150616
 30
0.0
 10
107.1586615400506
 20
-136.2724744667999
 30
0.0
 10
106.7821126035128
 20
-136.2431911551753
 30
0.0
 10
106.7821126035128
 20
-135.7546766153669
 30
0.0
 10
106.7821126035128
 20
-135.5148979695935
 30
0.0
 10
106.9092366269185
 20
-135.2572048272968
 30
0.0
 10
107.2051703291015
 20
-135.2572048272968
 30
0.0
 10
107.3915499948535
 20
-135.2572048272968
 30
0.0
 10
107.473887776951
 20
-135.3591796536602
 30
0.0
 10
107.5352104765884
 20
-135.4652885946059
 30
0.0
 10
107.5627712404704
 20
-135.3998317803862
 30
0.0
 10
107.6430419652768
 20
-135.2051838854696
 30
0.0
 10
107.9203721518394
 20
-135.2051838854696
 30
0.0
 10
108.2586805284909
 20
-135.2051838854696
 30
0.0
 10
108.4257676595255
 20
-135.4697672187367
 30
0.0
 10
108.4257676595255
 20
-135.7660454304682
 30
0.0
  0
HATCH
  5
BA
330
B5
100
AcDbEntity
  8
_U+30EC_U+30A4_U+30E4_U+30FC 1
 62
   179
420
  2234388
100
AcDbHatch
 10
0.0
 20
0.0
 30
0.0
210
0.0
220
0.0
230
1.0
  2
SOLID
 70
     1
 71
     0
 91
        1
 92
        1
 93
        1
 72
     4
 94
        3
 73
     0
 74
     1
 95
       62
 96
       58
 40
0.0
 40
0.0
 40
0.0
 40
0.0
 40
1.0
 40
1.0
 40
1.0
 40
2.0
 40
2.0
 40
2.0
 40
3.0
 40
3.0
 40
3.0
 40
4.0
 40
4.0
 40
4.0
 40
5.0
 40
5.0
 40
5.0
 40
6.0
 40
6.0
 40
6.0
 40
7.0
 40
7.0
 40
7.0
 40
8.0
 40
8.0
 40
8.0
 40
9.0
 40
9.0
 40
9.0
 40
10.0
 40
10.0
 40
10.0
 40
11.0
 40
11.0
 40
11.0
 40
12.0
 40
12.0
 40
12.0
 40
13.0
 40
13.0
 40
13.0
 40
14.0
 40
14.0
 40
14.0
 40
15.0
 40
15.0
 40
15.0
 40
16.0
 40
16.0
 40
16.0
 40
17.0
 40
17.0
 40
17.0
 40
18.0
 40
18.0
 40
18.0
 40
19.0
 40
19.0
 40
19.0
 40
19.0
 10
108.4257676595255
 20
-135.7660454304682
 10
108.4257676595255
 20
-135.8676757472831
 10
108.4047525770655
 20
-136.100564202086
 10
108.218717420862
 20
-136.2338893973651
 10
108.1064073080428
 20
-136.3131265935259
 10
108.0071885580677
 20
-136.3176052176567
 10
107.9224392091305
 20
-136.3220838417875
 10
107.9224392091305
 20
-136.3220838417875
 10
107.9224392091305
 20
-136.0871283296935
 10
107.9224392091305
 20
-136.0871283296935
 10
107.9965087620634
 20
-136.0847167628538
 10
108.2311197646089
 20
-136.0733479477525
 10
108.2311197646089
 20
-135.770524054599
 10
108.2311197646089
 20
-135.6234184773789
 10
108.1615288358068
 20
-135.4608099704751
 10
107.9331190051348
 20
-135.4608099704751
 10
107.8166747777333
 20
-135.4608099704751
 10
107.7680989313913
 20
-135.501462097201
 10
107.736404052927
 20
-135.535568542505
 10
107.6623344999941
 20
-135.6144612291172
 10
107.6495876466987
 20
-135.7388291761347
 10
107.6495876466987
 20
-135.7977403089325
 10
107.6495876466987
 20
-135.8180663722955
 10
107.6516547039899
 20
-135.8563069321818
 10
107.6557888185722
 20
-135.8859347533549
 10
107.6557888185722
 20
-135.8859347533549
 10
107.4611409236555
 20
-135.8859347533549
 10
107.4611409236555
 20
-135.8859347533549
 10
107.4676866050775
 20
-135.845282626629
 10
107.4697536623687
 20
-135.7998073662237
 10
107.4697536623687
 20
-135.7932616848017
 10
107.4697536623687
 20
-135.7229817369026
 10
107.4483940703601
 20
-135.5104193454627
 10
107.2117160105235
 20
-135.5104193454627
 10
107.0339490834846
 20
-135.5104193454627
 10
106.9788275557206
 20
-135.6506347317124
 10
106.9788275557206
 20
-135.7681124877594
 10
106.9788275557206
 20
-136.0509548270984
 10
107.2117160105235
 20
-136.05991207536
 10
107.2833739966167
 20
-136.0643906994908
 10
107.2833739966167
 20
-136.0643906994908
 10
107.2833739966167
 20
-136.2814317150616
 10
107.2833739966167
 20
-136.2814317150616
 10
107.1586615400506
 20
-136.2724744667999
 10
106.7821126035128
 20
-136.2431911551753
 10
106.7821126035128
 20
-135.7546766153669
 10
106.7821126035128
 20
-135.5148979695935
 10
106.9092366269185
 20
-135.2572048272968
 10
107.2051703291015
 20
-135.2572048272968
 10
107.3915499948535
 20
-135.2572048272968
 10
107.473887776951
 20
-135.3591796536602
 10
107.5352104765884
 20
-135.4652885946059
 10
107.5627712404704
 20
-135.3998317803862
 10
107.6430419652768
 20
-135.2051838854696
 10
107.9203721518394
 20
-135.2051838854696
 10
108.2586805284909
 20
-135.2051838854696
 10
108.4257676595255
 20
-135.4697672187367
 10
108.4257676595255
 20
-135.7660454304682
 97
        0
 97
        0
 75
     2
 76
     1
 98
        0
  0
ENDBLK
  5
B8
330
B5
100
AcDbEntity
  8
0
100
AcDbBlockEnd
  0
BLOCK
  5
C9
330
C7
100
AcDbEntity
  8
0
100
AcDbBlockBegin
  2
block 5
 70
     0
 10
0.0
 20
0.0
 30
0.0
  3
block 5
  1

  0
SPLINE
  5
CB
330
C7
100
AcDbEntity
  8
_U+30EC_U+30A4_U+30E4_U+30FC 1
370
     0
100
AcDbSpline
210
0.0
220
0.0
230
1.0
 70
    11
 71
     3
 72
    44
 73
    40
 74
     0
 42
0.0000000001
 43
0.0000000001
 12
1.0
 22
0.0
 32
0.0
 13
1.0
 23
0.0
 33
0.0
 40
0.0
 40
0.0
 40
0.0
 40
0.0
 40
1.0
 40
1.0
 40
1.0
 40
2.0
 40
2.0
 40
2.0
 40
3.0
 40
3.0
 40
3.0
 40
4.0
 40
4.0
 40
4.0
 40
5.0
 40
5.0
 40
5.0
 40
6.0
 40
6.0
 40
6.0
 40
7.0
 40
7.0
 40
7.0
 40
8.0
 40
8.0
 40
8.0
 40
9.0
 40
9.0
 40
9.0
 40
10.0
 40
10.0
 40
10.0
 40
11.0
 40
11.0
 40
11.0
 40
12.0
 40
12.0
 40
12.0
 40
13.0
 40
13.0
 40
13.0
 40
13.0
 10
94.69671764125638
 20
-117.5230590526505
 30
0.0
 10
94.4638291864535
 20
-117.6817056997462
 30
0.0
 10
94.36426592692978
 20
-117.7557752526791
 30
0.0
 10
94.31258949465102
 20
-117.8996079891883
 30
0.0
 10
94.31258949465102
 20
-117.8996079891883
 30
0.0
 10
95.14423554479033
 20
-117.8996079891883
 30
0.0
 10
95.14423554479033
 20
-117.8996079891883
 30
0.0
 10
95.14423554479033
 20
-117.8996079891883
 30
0.0
 10
95.14423554479033
 20
-118.1047634253349
 30
0.0
 10
95.14423554479033
 20
-118.1047634253349
 30
0.0
 10
95.14423554479033
 20
-118.1047634253349
 30
0.0
 10
94.04559459454416
 20
-118.1047634253349
 30
0.0
 10
94.04559459454416
 20
-118.1047634253349
 30
0.0
 10
94.07970103984813
 20
-117.747162513966
 30
0.0
 10
94.1496364781987
 20
-117.6689588464508
 30
0.0
 10
94.56098087913753
 20
-117.3706135774282
 30
0.0
 10
94.83452146066638
 20
-117.1718315679293
 30
0.0
 10
94.90480140856548
 20
-117.1041354416441
 30
0.0
 10
94.90480140856548
 20
-116.9666761317826
 30
0.0
 10
94.90480140856548
 20
-116.84816484709
 30
0.0
 10
94.8279757792444
 20
-116.7170789638763
 30
0.0
 10
94.61748044509564
 20
-116.7170789638763
 30
0.0
 10
94.33946123943598
 20
-116.7170789638763
 30
0.0
 10
94.33050399117433
 20
-116.9475558518395
 30
0.0
 10
94.3260253670435
 20
-117.064000079241
 30
0.0
 10
94.3260253670435
 20
-117.064000079241
 30
0.0
 10
94.08624672127011
 20
-117.064000079241
 30
0.0
 10
94.08624672127011
 20
-117.064000079241
 30
0.0
 10
94.09554847908028
 20
-116.9370483106095
 30
0.0
 10
94.10657278463309
 20
-116.8249104525646
 30
0.0
 10
94.19270017176433
 20
-116.706399167872
 30
0.0
 10
94.31017792781135
 20
-116.5456854634851
 30
0.0
 10
94.50895993731027
 20
-116.5117512729554
 30
0.0
 10
94.63332788432778
 20
-116.5117512729554
 30
0.0
 10
94.92960609605927
 20
-116.5117512729554
 30
0.0
 10
95.15112573576083
 20
-116.695891626642
 30
0.0
 10
95.15112573576083
 20
-116.9687431890738
 30
0.0
 10
95.15112573576083
 20
-117.1971530197459
 30
0.0
 10
95.02675778874331
 20
-117.2967162792696
 30
0.0
 10
94.69671764125638
 20
-117.5230590526505
 30
0.0
  0
HATCH
  5
CC
330
C7
100
AcDbEntity
  8
_U+30EC_U+30A4_U+30E4_U+30FC 1
 62
   179
420
  2234388
100
AcDbHatch
 10
0.0
 20
0.0
 30
0.0
210
0.0
220
0.0
230
1.0
  2
SOLID
 70
     1
 71
     0
 91
        1
 92
        1
 93
        1
 72
     4
 94
        3
 73
     0
 74
     1
 95
       44
 96
       40
 40
0.0
 40
0.0
 40
0.0
 40
0.0
 40
1.0
 40
1.0
 40
1.0
 40
2.0
 40
2.0
 40
2.0
 40
3.0
 40
3.0
 40
3.0
 40
4.0
 40
4.0
 40
4.0
 40
5.0
 40
5.0
 40
5.0
 40
6.0
 40
6.0
 40
6.0
 40
7.0
 40
7.0
 40
7.0
 40
8.0
 40
8.0
 40
8.0
 40
9.0
 40
9.0
 40
9.0
 40
10.0
 40
10.0
 40
10.0
 40
11.0
 40
11.0
 40
11.0
 40
12.0
 40
12.0
 40
12.0
 40
13.0
 40
13.0
 40
13.0
 40
13.0
 10
94.69671764125638
 20
-117.5230590526505
 10
94.4638291864535
 20
-117.6817056997462
 10
94.36426592692978
 20
-117.7557752526791
 10
94.31258949465102
 20
-117.8996079891883
 10
94.31258949465102
 20
-117.8996079891883
 10
95.14423554479033
 20
-117.8996079891883
 10
95.14423554479033
 20
-117.8996079891883
 10
95.14423554479033
 20
-117.8996079891883
 10
95.14423554479033
 20
-118.1047634253349
 10
95.14423554479033
 20
-118.1047634253349
 10
95.14423554479033
 20
-118.1047634253349
 10
94.04559459454416
 20
-118.1047634253349
 10
94.04559459454416
 20
-118.1047634253349
 10
94.07970103984813
 20
-117.747162513966
 10
94.1496364781987
 20
-117.6689588464508
 10
94.56098087913753
 20
-117.3706135774282
 10
94.83452146066638
 20
-117.1718315679293
 10
94.90480140856548
 20
-117.1041354416441
 10
94.90480140856548
 20
-116.9666761317826
 10
94.90480140856548
 20
-116.84816484709
 10
94.8279757792444
 20
-116.7170789638763
 10
94.61748044509564
 20
-116.7170789638763
 10
94.33946123943598
 20
-116.7170789638763
 10
94.33050399117433
 20
-116.9475558518395
 10
94.3260253670435
 20
-117.064000079241
 10
94.3260253670435
 20
-117.064000079241
 10
94.08624672127011
 20
-117.064000079241
 10
94.08624672127011
 20
-117.064000079241
 10
94.09554847908028
 20
-116.9370483106095
 10
94.10657278463309
 20
-116.8249104525646
 10
94.19270017176433
 20
-116.706399167872
 10
94.31017792781135
 20
-116.5456854634851
 10
94.50895993731027
 20
-116.5117512729554
 10
94.63332788432778
 20
-116.5117512729554
 10
94.92960609605927
 20
-116.5117512729554
 10
95.15112573576083
 20
-116.695891626642
 10
95.15112573576083
 20
-116.9687431890738
 10
95.15112573576083
 20
-117.1971530197459
 10
95.02675778874331
 20
-117.2967162792696
 10
94.69671764125638
 20
-117.5230590526505
 97
        0
 97
        0
 75
     2
 76
     1
 98
        0
  0
SPLINE
  5
CD
330
C7
100
AcDbEntity
  8
_U+30EC_U+30A4_U+30E4_U+30FC 1
370
     0
100
AcDbSpline
210
0.0
220
0.0
230
1.0
 70
    11
 71
     3
 72
    26
 73
    22
 74
     0
 42
0.0000000001
 43
0.0000000001
 12
1.0
 22
0.0
 32
0.0
 13
1.0
 23
0.0
 33
0.0
 40
0.0
 40
0.0
 40
0.0
 40
0.0
 40
1.0
 40
1.0
 40
1.0
 40
2.0
 40
2.0
 40
2.0
 40
3.0
 40
3.0
 40
3.0
 40
4.0
 40
4.0
 40
4.0
 40
5.0
 40
5.0
 40
5.0
 40
6.0
 40
6.0
 40
6.0
 40
7.0
 40
7.0
 40
7.0
 40
7.0
 10
95.80293780157011
 20
-118.1047634253349
 30
0.0
 10
95.80293780157011
 20
-118.1047634253349
 30
0.0
 10
95.80293780157011
 20
-117.0004380675381
 30
0.0
 10
95.80293780157011
 20
-117.0004380675381
 30
0.0
 10
95.80293780157011
 20
-117.0004380675381
 30
0.0
 10
95.45050453342904
 20
-117.0004380675381
 30
0.0
 10
95.45050453342904
 20
-117.0004380675381
 30
0.0
 10
95.45050453342904
 20
-117.0004380675381
 30
0.0
 10
95.45050453342904
 20
-116.8524712164466
 30
0.0
 10
95.45050453342904
 20
-116.8524712164466
 30
0.0
 10
95.80534936840978
 20
-116.83765730586
 30
0.0
 10
95.85495874339738
 20
-116.6747042894077
 30
0.0
 10
95.88665362186167
 20
-116.5604993740717
 30
0.0
 10
95.88665362186167
 20
-116.5604993740717
 30
0.0
 10
96.0427164473435
 20
-116.5604993740717
 30
0.0
 10
96.0427164473435
 20
-116.5604993740717
 30
0.0
 10
96.0427164473435
 20
-116.5604993740717
 30
0.0
 10
96.0427164473435
 20
-118.1047634253349
 30
0.0
 10
96.0427164473435
 20
-118.1047634253349
 30
0.0
 10
96.0427164473435
 20
-118.1047634253349
 30
0.0
 10
95.80293780157011
 20
-118.1047634253349
 30
0.0
 10
95.80293780157011
 20
-118.1047634253349
 30
0.0
  0
HATCH
  5
CE
330
C7
100
AcDbEntity
  8
_U+30EC_U+30A4_U+30E4_U+30FC 1
 62
   179
420
  2234388
100
AcDbHatch
 10
0.0
 20
0.0
 30
0.0
210
0.0
220
0.0
230
1.0
  2
SOLID
 70
     1
 71
     0
 91
        1
 92
        1
 93
        1
 72
     4
 94
        3
 73
     0
 74
     1
 95
       26
 96
       22
 40
0.0
 40
0.0
 40
0.0
 40
0.0
 40
1.0
 40
1.0
 40
1.0
 40
2.0
 40
2.0
 40
2.0
 40
3.0
 40
3.0
 40
3.0
 40
4.0
 40
4.0
 40
4.0
 40
5.0
 40
5.0
 40
5.0
 40
6.0
 40
6.0
 40
6.0
 40
7.0
 40
7.0
 40
7.0
 40
7.0
 10
95.80293780157011
 20
-118.1047634253349
 10
95.80293780157011
 20
-118.1047634253349
 10
95.80293780157011
 20
-117.0004380675381
 10
95.80293780157011
 20
-117.0004380675381
 10
95.80293780157011
 20
-117.0004380675381
 10
95.45050453342904
 20
-117.0004380675381
 10
95.45050453342904
 20
-117.0004380675381
 10
95.45050453342904
 20
-117.0004380675381
 10
95.45050453342904
 20
-116.8524712164466
 10
95.45050453342904
 20
-116.8524712164466
 10
95.80534936840978
 20
-116.83765730586
 10
95.85495874339738
 20
-116.6747042894077
 10
95.88665362186167
 20
-116.5604993740717
 10
95.88665362186167
 20
-116.5604993740717
 10
96.0427164473435
 20
-116.5604993740717
 10
96.0427164473435
 20
-116.5604993740717
 10
96.0427164473435
 20
-116.5604993740717
 10
96.0427164473435
 20
-118.1047634253349
 10
96.0427164473435
 20
-118.1047634253349
 10
96.0427164473435
 20
-118.1047634253349
 10
95.80293780157011
 20
-118.1047634253349
 10
95.80293780157011
 20
-118.1047634253349
 97
        0
 97
        0
 75
     2
 76
     1
 98
        0
  0
ENDBLK
  5
CA
330
C7
100
AcDbEntity
  8
0
100
AcDbBlockEnd
  0
BLOCK
  5
DD
330
DB
100
AcDbEntity
  8
0
100
AcDbBlockBegin
  2
block 6
 70
     0
 10
0.0
 20
0.0
 30
0.0
  3
block 6
  1

  0
SPLINE
  5
DF
330
DB
100
AcDbEntity
  8
_U+30EC_U+30A4_U+30E4_U+30FC 1
370
     0
100
AcDbSpline
210
0.0
220
0.0
230
1.0
 70
    11
 71
     3
 72
    32
 73
    28
 74
     0
 42
0.0000000001
 43
0.0000000001
 12
1.0
 22
0.0
 32
0.0
 13
1.0
 23
0.0
 33
0.0
 40
0.0
 40
0.0
 40
0.0
 40
0.0
 40
1.0
 40
1.0
 40
1.0
 40
2.0
 40
2.0
 40
2.0
 40
3.0
 40
3.0
 40
3.0
 40
4.0
 40
4.0
 40
4.0
 40
5.0
 40
5.0
 40
5.0
 40
6.0
 40
6.0
 40
6.0
 40
7.0
 40
7.0
 40
7.0
 40
8.0
 40
8.0
 40
8.0
 40
9.0
 40
9.0
 40
9.0
 40
9.0
 10
87.73090682485547
 20
-139.9559705596291
 30
0.0
 10
87.17917478289272
 20
-139.9559705596291
 30
0.0
 10
87.17021753463106
 20
-139.4019992056009
 30
0.0
 10
87.17021753463106
 20
-139.1880587759669
 30
0.0
 10
87.17021753463106
 20
-138.9575818880037
 30
0.0
 10
87.19054359799404
 20
-138.3102484463252
 30
0.0
 10
87.77155895158143
 20
-138.3102484463252
 30
0.0
 10
87.95707734346212
 20
-138.3102484463252
 30
0.0
 10
88.21924910988963
 20
-138.3801838846758
 30
0.0
 10
88.25990123661559
 20
-138.7122910894539
 30
0.0
 10
88.25990123661559
 20
-138.7122910894539
 30
0.0
 10
88.03166366071778
 20
-138.7122910894539
 30
0.0
 10
88.03166366071778
 20
-138.7122910894539
 30
0.0
 10
88.02029484561646
 20
-138.6551025043987
 30
0.0
 10
87.98636065508674
 20
-138.506963398533
 30
0.0
 10
87.76931963951601
 20
-138.506963398533
 30
0.0
 10
87.45736624332663
 20
-138.506963398533
 30
0.0
 10
87.41447480453527
 20
-138.8349364887288
 30
0.0
 10
87.40086667736854
 20
-139.0399196701011
 30
0.0
 10
87.50025768211799
 20
-138.961716002586
 30
0.0
 10
87.57260468730824
 20
-138.9024603602397
 30
0.0
 10
87.7670803274506
 20
-138.9024603602397
 30
0.0
 10
87.95931665552753
 20
-138.9024603602397
 30
0.0
 10
88.28263886681823
 20
-139.0106363584765
 30
0.0
 10
88.28263886681823
 20
-139.4168131161875
 30
0.0
 10
88.28263886681823
 20
-139.7361734676701
 30
0.0
 10
88.07007647537831
 20
-139.9559705596291
 30
0.0
 10
87.73090682485547
 20
-139.9559705596291
 30
0.0
  0
SPLINE
  5
E0
330
DB
100
AcDbEntity
  8
_U+30EC_U+30A4_U+30E4_U+30FC 1
370
     0
100
AcDbSpline
210
0.0
220
0.0
230
1.0
 70
    11
 71
     3
 72
    17
 73
    13
 74
     0
 42
0.0000000001
 43
0.0000000001
 12
1.0
 22
0.0
 32
0.0
 13
1.0
 23
0.0
 33
0.0
 40
0.0
 40
0.0
 40
0.0
 40
0.0
 40
1.0
 40
1.0
 40
1.0
 40
2.0
 40
2.0
 40
2.0
 40
3.0
 40
3.0
 40
3.0
 40
4.0
 40
4.0
 40
4.0
 40
4.0
 10
87.74899357615304
 20
-139.0971082551563
 30
0.0
 10
87.4685628036537
 20
-139.0971082551563
 30
0.0
 10
87.42791067692775
 20
-139.3086371179506
 30
0.0
 10
87.42791067692775
 20
-139.4250813453521
 30
0.0
 10
87.42791067692775
 20
-139.6007812150998
 30
0.0
 10
87.52971324851688
 20
-139.7637342315521
 30
0.0
 10
87.72642820072464
 20
-139.7637342315521
 30
0.0
 10
87.85527477187298
 20
-139.7637342315521
 30
0.0
 10
88.04286022104485
 20
-139.7044785892058
 30
0.0
 10
88.04286022104485
 20
-139.4188801734786
 30
0.0
 10
88.04286022104485
 20
-139.1946044573889
 30
0.0
 10
87.89368758653353
 20
-139.0971082551563
 30
0.0
 10
87.74899357615304
 20
-139.0971082551563
 30
0.0
  0
HATCH
  5
E1
330
DB
100
AcDbEntity
  8
_U+30EC_U+30A4_U+30E4_U+30FC 1
 62
   179
420
  2234388
100
AcDbHatch
 10
0.0
 20
0.0
 30
0.0
210
0.0
220
0.0
230
1.0
  2
SOLID
 70
     1
 71
     0
 91
        2
 92
        1
 93
        1
 72
     4
 94
        3
 73
     0
 74
     1
 95
       32
 96
       28
 40
0.0
 40
0.0
 40
0.0
 40
0.0
 40
1.0
 40
1.0
 40
1.0
 40
2.0
 40
2.0
 40
2.0
 40
3.0
 40
3.0
 40
3.0
 40
4.0
 40
4.0
 40
4.0
 40
5.0
 40
5.0
 40
5.0
 40
6.0
 40
6.0
 40
6.0
 40
7.0
 40
7.0
 40
7.0
 40
8.0
 40
8.0
 40
8.0
 40
9.0
 40
9.0
 40
9.0
 40
9.0
 10
87.73090682485547
 20
-139.9559705596291
 10
87.17917478289272
 20
-139.9559705596291
 10
87.17021753463106
 20
-139.4019992056009
 10
87.17021753463106
 20
-139.1880587759669
 10
87.17021753463106
 20
-138.9575818880037
 10
87.19054359799404
 20
-138.3102484463252
 10
87.77155895158143
 20
-138.3102484463252
 10
87.95707734346212
 20
-138.3102484463252
 10
88.21924910988963
 20
-138.3801838846758
 10
88.25990123661559
 20
-138.7122910894539
 10
88.25990123661559
 20
-138.7122910894539
 10
88.03166366071778
 20
-138.7122910894539
 10
88.03166366071778
 20
-138.7122910894539
 10
88.02029484561646
 20
-138.6551025043987
 10
87.98636065508674
 20
-138.506963398533
 10
87.76931963951601
 20
-138.506963398533
 10
87.45736624332663
 20
-138.506963398533
 10
87.41447480453527
 20
-138.8349364887288
 10
87.40086667736854
 20
-139.0399196701011
 10
87.50025768211799
 20
-138.961716002586
 10
87.57260468730824
 20
-138.9024603602397
 10
87.7670803274506
 20
-138.9024603602397
 10
87.95931665552753
 20
-138.9024603602397
 10
88.28263886681823
 20
-139.0106363584765
 10
88.28263886681823
 20
-139.4168131161875
 10
88.28263886681823
 20
-139.7361734676701
 10
88.07007647537831
 20
-139.9559705596291
 10
87.73090682485547
 20
-139.9559705596291
 97
        0
 97
        0
 92
        1
 93
        1
 72
     4
 94
        3
 73
     0
 74
     1
 95
       17
 96
       13
 40
0.0
 40
0.0
 40
0.0
 40
0.0
 40
1.0
 40
1.0
 40
1.0
 40
2.0
 40
2.0
 40
2.0
 40
3.0
 40
3.0
 40
3.0
 40
4.0
 40
4.0
 40
4.0
 40
4.0
 10
87.74899357615304
 20
-139.0971082551563
 10
87.4685628036537
 20
-139.0971082551563
 10
87.42791067692775
 20
-139.3086371179506
 10
87.42791067692775
 20
-139.4250813453521
 10
87.42791067692775
 20
-139.6007812150998
 10
87.52971324851688
 20
-139.7637342315521
 10
87.72642820072464
 20
-139.7637342315521
 10
87.85527477187298
 20
-139.7637342315521
 10
88.04286022104485
 20
-139.7044785892058
 10
88.04286022104485
 20
-139.4188801734786
 10
88.04286022104485
 20
-139.1946044573889
 10
87.89368758653353
 20
-139.0971082551563
 10
87.74899357615304
 20
-139.0971082551563
 97
        0
 97
        0
 75
     2
 76
     1
 98
        0
  0
ENDBLK
  5
DE
330
DB
100
AcDbEntity
  8
0
100
AcDbBlockEnd
  0
BLOCK
  5
F5
330
F3
100
AcDbEntity
  8
0
100
AcDbBlockBegin
  2
block 7
 70
     0
 10
0.0
 20
0.0
 30
0.0
  3
block 7
  1

  0
SPLINE
  5
F7
330
F3
100
AcDbEntity
  8
_U+30EC_U+30A4_U+30E4_U+30FC 1
370
     0
100
AcDbSpline
210
0.0
220
0.0
230
1.0
 70
    11
 71
     3
 72
   242
 73
   238
 74
     0
 42
0.0000000001
 43
0.0000000001
 12
1.0
 22
0.0
 32
0.0
 13
1.0
 23
0.0
 33
0.0
 40
0.0
 40
0.0
 40
0.0
 40
0.0
 40
1.0
 40
1.0
 40
1.0
 40
2.0
 40
2.0
 40
2.0
 40
3.0
 40
3.0
 40
3.0
 40
4.0
 40
4.0
 40
4.0
 40
5.0
 40
5.0
 40
5.0
 40
6.0
 40
6.0
 40
6.0
 40
7.0
 40
7.0
 40
7.0
 40
8.0
 40
8.0
 40
8.0
 40
9.0
 40
9.0
 40
9.0
 40
10.0
 40
10.0
 40
10.0
 40
11.0
 40
11.0
 40
11.0
 40
12.0
 40
12.0
 40
12.0
 40
13.0
 40
13.0
 40
13.0
 40
14.0
 40
14.0
 40
14.0
 40
15.0
 40
15.0
 40
15.0
 40
16.0
 40
16.0
 40
16.0
 40
17.0
 40
17.0
 40
17.0
 40
18.0
 40
18.0
 40
18.0
 40
19.0
 40
19.0
 40
19.0
 40
20.0
 40
20.0
 40
20.0
 40
21.0
 40
21.0
 40
21.0
 40
22.0
 40
22.0
 40
22.0
 40
23.0
 40
23.0
 40
23.0
 40
24.0
 40
24.0
 40
24.0
 40
25.0
 40
25.0
 40
25.0
 40
26.0
 40
26.0
 40
26.0
 40
27.0
 40
27.0
 40
27.0
 40
28.0
 40
28.0
 40
28.0
 40
29.0
 40
29.0
 40
29.0
 40
30.0
 40
30.0
 40
30.0
 40
31.0
 40
31.0
 40
31.0
 40
32.0
 40
32.0
 40
32.0
 40
33.0
 40
33.0
 40
33.0
 40
34.0
 40
34.0
 40
34.0
 40
35.0
 40
35.0
 40
35.0
 40
36.0
 40
36.0
 40
36.0
 40
37.0
 40
37.0
 40
37.0
 40
38.0
 40
38.0
 40
38.0
 40
39.0
 40
39.0
 40
39.0
 40
40.0
 40
40.0
 40
40.0
 40
41.0
 40
41.0
 40
41.0
 40
42.0
 40
42.0
 40
42.0
 40
43.0
 40
43.0
 40
43.0
 40
44.0
 40
44.0
 40
44.0
 40
45.0
 40
45.0
 40
45.0
 40
46.0
 40
46.0
 40
46.0
 40
47.0
 40
47.0
 40
47.0
 40
48.0
 40
48.0
 40
48.0
 40
49.0
 40
49.0
 40
49.0
 40
50.0
 40
50.0
 40
50.0
 40
51.0
 40
51.0
 40
51.0
 40
52.0
 40
52.0
 40
52.0
 40
53.0
 40
53.0
 40
53.0
 40
54.0
 40
54.0
 40
54.0
 40
55.0
 40
55.0
 40
55.0
 40
56.0
 40
56.0
 40
56.0
 40
57.0
 40
57.0
 40
57.0
 40
58.0
 40
58.0
 40
58.0
 40
59.0
 40
59.0
 40
59.0
 40
60.0
 40
60.0
 40
60.0
 40
61.0
 40
61.0
 40
61.0
 40
62.0
 40
62.0
 40
62.0
 40
63.0
 40
63.0
 40
63.0
 40
64.0
 40
64.0
 40
64.0
 40
65.0
 40
65.0
 40
65.0
 40
66.0
 40
66.0
 40
66.0
 40
67.0
 40
67.0
 40
67.0
 40
68.0
 40
68.0
 40
68.0
 40
69.0
 40
69.0
 40
69.0
 40
70.0
 40
70.0
 40
70.0
 40
71.0
 40
71.0
 40
71.0
 40
72.0
 40
72.0
 40
72.0
 40
73.0
 40
73.0
 40
73.0
 40
74.0
 40
74.0
 40
74.0
 40
75.0
 40
75.0
 40
75.0
 40
76.0
 40
76.0
 40
76.0
 40
77.0
 40
77.0
 40
77.0
 40
78.0
 40
78.0
 40
78.0
 40
79.0
 40
79.0
 40
79.0
 40
79.0
 10
73.23876815660351
 20
-139.795773619565
 30
0.0
 10
73.23876815660351
 20
-139.795773619565
 30
0.0
 10
72.9848646193406
 20
-139.795773619565
 30
0.0
 10
72.9848646193406
 20
-139.795773619565
 30
0.0
 10
72.9848646193406
 20
-139.795773619565
 30
0.0
 10
72.7078789423265
 20
-139.795773619565
 30
0.0
 10
72.7078789423265
 20
-139.795773619565
 30
0.0
 10
72.7078789423265
 20
-139.795773619565
 30
0.0
 10
72.8346584561837
 20
-139.8384928035821
 30
0.0
 10
72.8346584561837
 20
-139.8384928035821
 30
0.0
 10
72.84533825218797
 20
-139.8426269181643
 30
0.0
 10
72.8580851054834
 20
-139.8488280900378
 30
0.0
 10
72.8580851054834
 20
-139.8615749433332
 30
0.0
 10
72.8580851054834
 20
-139.8825900257932
 30
0.0
 10
72.82604571747058
 20
-139.8891357072152
 30
0.0
 10
72.80503063501055
 20
-139.8932698217975
 30
0.0
 10
72.79435083900627
 20
-139.9163519615487
 30
0.0
 10
72.76472301783313
 20
-139.982153285317
 30
0.0
 10
72.74577499266425
 20
-140.0265950170767
 30
0.0
 10
72.74577499266425
 20
-140.0265950170767
 30
0.0
 10
73.01655949780489
 20
-140.0265950170767
 30
0.0
 10
73.01655949780489
 20
-140.0265950170767
 30
0.0
 10
73.10751001861549
 20
-140.0265950170767
 30
0.0
 10
73.30422497082326
 20
-140.0224609024944
 30
0.0
 10
73.44616290481555
 20
-140.0138481637813
 30
0.0
 10
73.44616290481555
 20
-140.0138481637813
 30
0.0
 10
73.44616290481555
 20
-140.1916150908202
 30
0.0
 10
73.44616290481555
 20
-140.1916150908202
 30
0.0
 10
73.36348061316956
 20
-140.1871364666893
 30
0.0
 10
73.34246553070953
 20
-140.1871364666893
 30
0.0
 10
73.16263154637949
 20
-140.183002352107
 30
0.0
 10
73.13093666791518
 20
-140.3373426298462
 30
0.0
 10
73.08649493615546
 20
-140.4179578642011
 30
0.0
 10
73.04205320439574
 20
-140.4875487930031
 30
0.0
 10
73.16263154637949
 20
-140.5468044353494
 30
0.0
 10
73.26839597777665
 20
-140.6146728164088
 30
0.0
 10
73.37209335188267
 20
-140.6970105985063
 30
0.0
 10
73.37209335188267
 20
-140.6970105985063
 30
0.0
 10
73.25358206719008
 20
-140.8644422390894
 30
0.0
 10
73.25358206719008
 20
-140.8644422390894
 30
0.0
 10
73.23015541789039
 20
-140.8451497043721
 30
0.0
 10
73.21740856459496
 20
-140.8368814752075
 30
0.0
 10
73.10544296132434
 20
-140.7521321262703
 30
0.0
 10
73.05686711498231
 20
-140.7142360759325
 30
0.0
 10
72.99761147263602
 20
-140.678407082886
 30
0.0
 10
72.91699623828117
 20
-140.6336208415777
 30
0.0
 10
72.70546737548683
 20
-140.8200005073297
 30
0.0
 10
72.50048419411446
 20
-140.8430826470809
 30
0.0
 10
72.21040715425643
 20
-140.872710468254
 30
0.0
 10
72.21040715425643
 20
-140.872710468254
 30
0.0
 10
72.10705428969894
 20
-140.692876483924
 30
0.0
 10
72.10705428969894
 20
-140.692876483924
 30
0.0
 10
72.42434758389044
 20
-140.6887423693417
 30
0.0
 10
72.59970294408966
 20
-140.6632486627509
 30
0.0
 10
72.75197616453771
 20
-140.5533501167714
 30
0.0
 10
72.63380938939363
 20
-140.5027072131382
 30
0.0
 10
72.54492592587418
 20
-140.4751464492562
 30
0.0
 10
72.50875242327906
 20
-140.4623995959608
 30
0.0
 10
72.4898043981102
 20
-140.4899603598428
 30
0.0
 10
72.47499048752361
 20
-140.5089083850117
 30
0.0
 10
72.44742972364162
 20
-140.5426703207671
 30
0.0
 10
72.44742972364162
 20
-140.5426703207671
 30
0.0
 10
72.25071477143385
 20
-140.4603325386696
 30
0.0
 10
72.25071477143385
 20
-140.4603325386696
 30
0.0
 10
72.33339706307984
 20
-140.3800618138633
 30
0.0
 10
72.3947197627173
 20
-140.2846326689219
 30
0.0
 10
72.45156383822392
 20
-140.183002352107
 30
0.0
 10
72.26139456743813
 20
-140.1871364666893
 30
0.0
 10
72.24003497542958
 20
-140.1871364666893
 30
0.0
 10
72.15769719333211
 20
-140.1916150908202
 30
0.0
 10
72.15769719333211
 20
-140.1916150908202
 30
0.0
 10
72.15769719333211
 20
-140.0138481637813
 30
0.0
 10
72.15769719333211
 20
-140.0138481637813
 30
0.0
 10
72.29722356048472
 20
-140.0203938452032
 30
0.0
 10
72.50668536598792
 20
-140.0245279597855
 30
0.0
 10
72.53217907257877
 20
-140.0245279597855
 30
0.0
 10
72.54906004045648
 20
-139.9907660240301
 30
0.0
 10
72.60418156822048
 20
-139.8701876820463
 30
0.0
 10
72.62312959338936
 20
-139.795773619565
 30
0.0
 10
72.60418156822048
 20
-139.795773619565
 30
0.0
 10
72.4264146411816
 20
-139.8023193009869
 30
0.0
 10
72.23176674626498
 20
-139.8150661542824
 30
0.0
 10
72.23176674626498
 20
-139.8150661542824
 30
0.0
 10
72.23176674626498
 20
-139.9483913495615
 30
0.0
 10
72.23176674626498
 20
-139.9483913495615
 30
0.0
 10
72.18319089992296
 20
-139.9735405466039
 30
0.0
 10
72.12393525757666
 20
-140.0052354250682
 30
0.0
 10
71.99061006229749
 20
-140.0710367488364
 30
0.0
 10
71.99061006229749
 20
-140.0710367488364
 30
0.0
 10
71.99061006229749
 20
-140.2167642878625
 30
0.0
 10
71.99061006229749
 20
-140.2167642878625
 30
0.0
 10
71.99061006229749
 20
-140.2167642878625
 30
0.0
 10
71.99061006229749
 20
-140.6846082547594
 30
0.0
 10
71.99061006229749
 20
-140.6846082547594
 30
0.0
 10
71.99061006229749
 20
-140.8113877686166
 30
0.0
 10
71.95443655970237
 20
-140.8706434109629
 30
0.0
 10
71.67124971081483
 20
-140.8623751817983
 30
0.0
 10
71.67124971081483
 20
-140.8623751817983
 30
0.0
 10
71.56755233670881
 20
-140.6549804335863
 30
0.0
 10
71.56755233670881
 20
-140.6549804335863
 30
0.0
 10
71.6309420936374
 20
-140.6673827773332
 30
0.0
 10
71.67951793997943
 20
-140.671861401464
 30
0.0
 10
71.71982555715685
 20
-140.671861401464
 30
0.0
 10
71.79596216738088
 20
-140.671861401464
 30
0.0
 10
71.80664196338515
 20
-140.6487792617128
 30
0.0
 10
71.80664196338515
 20
-140.5829779379445
 30
0.0
 10
71.80664196338515
 20
-140.5829779379445
 30
0.0
 10
71.80664196338515
 20
-140.1533745309339
 30
0.0
 10
71.80664196338515
 20
-140.1533745309339
 30
0.0
 10
71.70914576115258
 20
-140.1936821481113
 30
0.0
 10
71.69226479327486
 20
-140.2002278295333
 30
0.0
 10
71.64575600422398
 20
-140.2191758547021
 30
0.0
 10
71.64162188964168
 20
-140.2401909371622
 30
0.0
 10
71.63714326551086
 20
-140.2698187583353
 30
0.0
 10
71.61819524034198
 20
-140.2698187583353
 30
0.0
 10
71.60992701117738
 20
-140.2698187583353
 30
0.0
 10
71.59924721517311
 20
-140.265684643753
 30
0.0
 10
71.59270153375114
 20
-140.2422579944533
 30
0.0
 10
71.59270153375114
 20
-140.2422579944533
 30
0.0
 10
71.5399915728268
 20
-140.0500216663764
 30
0.0
 10
71.5399915728268
 20
-140.0500216663764
 30
0.0
 10
71.6860636214014
 20
-140.003168367777
 30
0.0
 10
71.75152043562115
 20
-139.9800862280258
 30
0.0
 10
71.80664196338515
 20
-139.9590711455658
 30
0.0
 10
71.80664196338515
 20
-139.9590711455658
 30
0.0
 10
71.80664196338515
 20
-139.5463487064329
 30
0.0
 10
71.80664196338515
 20
-139.5463487064329
 30
0.0
 10
71.80664196338515
 20
-139.5463487064329
 30
0.0
 10
71.7535874929123
 20
-139.5463487064329
 30
0.0
 10
71.7535874929123
 20
-139.5463487064329
 30
0.0
 10
71.7535874929123
 20
-139.5463487064329
 30
0.0
 10
71.67538382539713
 20
-139.5463487064329
 30
0.0
 10
71.67538382539713
 20
-139.5463487064329
 30
0.0
 10
71.60751544433771
 20
-139.5463487064329
 30
0.0
 10
71.59924721517311
 20
-139.5463487064329
 30
0.0
 10
71.56307371257799
 20
-139.5525498783063
 30
0.0
 10
71.56307371257799
 20
-139.5525498783063
 30
0.0
 10
71.56307371257799
 20
-139.3582464929382
 30
0.0
 10
71.56307371257799
 20
-139.3582464929382
 30
0.0
 10
71.59063447645998
 20
-139.3644476648117
 30
0.0
 10
71.59924721517311
 20
-139.3644476648117
 30
0.0
 10
71.66883814397515
 20
-139.3644476648117
 30
0.0
 10
71.66883814397515
 20
-139.3644476648117
 30
0.0
 10
71.80216333925432
 20
-139.3644476648117
 30
0.0
 10
71.80216333925432
 20
-139.3644476648117
 30
0.0
 10
71.80216333925432
 20
-139.2948567360096
 30
0.0
 10
71.80216333925432
 20
-139.2121744443636
 30
0.0
 10
71.80009628196318
 20
-139.2080403297813
 30
0.0
 10
71.79182805279858
 20
-139.0282063454513
 30
0.0
 10
71.79182805279858
 20
-139.0089138107339
 30
0.0
 10
71.7894164859589
 20
-138.9627495312315
 30
0.0
 10
71.7894164859589
 20
-138.9627495312315
 30
0.0
 10
72.00542397288406
 20
-138.9710177603961
 30
0.0
 10
72.00542397288406
 20
-138.9710177603961
 30
0.0
 10
72.01610376888834
 20
-138.9710177603961
 30
0.0
 10
72.03711885134837
 20
-138.9730848176873
 30
0.0
 10
72.03711885134837
 20
-138.989965785565
 30
0.0
 10
72.03711885134837
 20
-139.0089138107339
 30
0.0
 10
72.02230494076179
 20
-139.0195936067382
 30
0.0
 10
71.99681123417093
 20
-139.038541631907
 30
0.0
 10
71.99681123417093
 20
-139.0895290450887
 30
0.0
 10
71.99061006229749
 20
-139.3179388757608
 30
0.0
 10
71.99267711958863
 20
-139.3644476648117
 30
0.0
 10
72.1218682002855
 20
-139.3644476648117
 30
0.0
 10
72.1342705440324
 20
-139.3644476648117
 30
0.0
 10
72.23176674626498
 20
-139.3561794356471
 30
0.0
 10
72.23176674626498
 20
-139.3561794356471
 30
0.0
 10
72.23176674626498
 20
-139.5504828210152
 30
0.0
 10
72.23176674626498
 20
-139.5504828210152
 30
0.0
 10
72.1935261863787
 20
-139.548415763724
 30
0.0
 10
72.1260023148678
 20
-139.5442816491417
 30
0.0
 10
71.99061006229749
 20
-139.5463487064329
 30
0.0
 10
71.99061006229749
 20
-139.5463487064329
 30
0.0
 10
71.99061006229749
 20
-139.8846570830844
 30
0.0
 10
71.99061006229749
 20
-139.8846570830844
 30
0.0
 10
72.0457315900615
 20
-139.8615749433332
 30
0.0
 10
72.11118840428124
 20
-139.8340141794512
 30
0.0
 10
72.15976425062325
 20
-139.8109320397
 30
0.0
 10
72.15976425062325
 20
-139.8109320397
 30
0.0
 10
72.15976425062325
 20
-139.6331651126611
 30
0.0
 10
72.15976425062325
 20
-139.6331651126611
 30
0.0
 10
72.27414142073356
 20
-139.6455674564081
 30
0.0
 10
72.39265270542614
 20
-139.6455674564081
 30
0.0
 10
72.50875242327906
 20
-139.6455674564081
 30
0.0
 10
72.4856702835279
 20
-139.5504828210152
 30
0.0
 10
72.45810951964589
 20
-139.4681450389177
 30
0.0
 10
72.3947197627173
 20
-139.3348198436385
 30
0.0
 10
72.35027803095757
 20
-139.3368869009297
 30
0.0
 10
72.26759573931157
 20
-139.341021015512
 30
0.0
 10
72.22969968897382
 20
-139.3430880728031
 30
0.0
 10
72.22969968897382
 20
-139.3430880728031
 30
0.0
 10
72.22969968897382
 20
-139.1632540884731
 30
0.0
 10
72.22969968897382
 20
-139.1632540884731
 30
0.0
 10
72.35441214553987
 20
-139.1718668271862
 30
0.0
 10
72.52804495799647
 20
-139.176345451317
 30
0.0
 10
72.61038274009394
 20
-139.176345451317
 30
0.0
 10
72.61038274009394
 20
-139.176345451317
 30
0.0
 10
72.69306503173993
 20
-139.176345451317
 30
0.0
 10
72.69306503173993
 20
-139.176345451317
 30
0.0
 10
72.69306503173993
 20
-139.0130479253162
 30
0.0
 10
72.69306503173993
 20
-139.0027126388604
 30
0.0
 10
72.69065346490025
 20
-138.9475911110964
 30
0.0
 10
72.69065346490025
 20
-138.9475911110964
 30
0.0
 10
72.91492918099001
 20
-138.9730848176873
 30
0.0
 10
72.91492918099001
 20
-138.9730848176873
 30
0.0
 10
72.91940780512084
 20
-138.9730848176873
 30
0.0
 10
72.94042288758087
 20
-138.9751518749785
 30
0.0
 10
72.94042288758087
 20
-138.9920328428562
 30
0.0
 10
72.94042288758087
 20
-139.0068467534427
 30
0.0
 10
72.9297430915766
 20
-139.0154594921559
 30
0.0
 10
72.9021823276946
 20
-139.0302734027424
 30
0.0
 10
72.89598115582115
 20
-139.0957302169622
 30
0.0
 10
72.89391409852999
 20
-139.1170898089707
 30
0.0
 10
72.89391409852999
 20
-139.176345451317
 30
0.0
 10
72.89391409852999
 20
-139.176345451317
 30
0.0
 10
72.9889987339229
 20
-139.176345451317
 30
0.0
 10
72.9889987339229
 20
-139.176345451317
 30
0.0
 10
73.07168102556889
 20
-139.176345451317
 30
0.0
 10
73.24496932847696
 20
-139.1718668271862
 30
0.0
 10
73.37002629459153
 20
-139.1632540884731
 30
0.0
 10
73.37002629459153
 20
-139.1632540884731
 30
0.0
 10
73.37002629459153
 20
-139.3430880728031
 30
0.0
 10
73.37002629459153
 20
-139.3430880728031
 30
0.0
 10
73.34039847341838
 20
-139.341021015512
 30
0.0
 10
73.22188718872579
 20
-139.3368869009297
 30
0.0
 10
73.18157957154835
 20
-139.3348198436385
 30
0.0
 10
73.16676566096179
 20
-139.3858072568202
 30
0.0
 10
73.13300372520634
 20
-139.4977728600908
 30
0.0
 10
73.06720240143807
 20
-139.6372992272435
 30
0.0
 10
73.10957707590664
 20
-139.6372992272435
 30
0.0
 10
73.38690726246925
 20
-139.6183512020746
 30
0.0
 10
73.4482299621067
 20
-139.6159396352349
 30
0.0
 10
73.4482299621067
 20
-139.6159396352349
 30
0.0
 10
73.4482299621067
 20
-139.8002522436958
 30
0.0
 10
73.4482299621067
 20
-139.8002522436958
 30
0.0
 10
73.41860214093354
 20
-139.8002522436958
 30
0.0
 10
73.40172117305582
 20
-139.795773619565
 30
0.0
 10
73.23876815660351
 20
-139.795773619565
 30
0.0
  0
SPLINE
  5
F8
330
F3
100
AcDbEntity
  8
_U+30EC_U+30A4_U+30E4_U+30FC 1
370
     0
100
AcDbSpline
210
0.0
220
0.0
230
1.0
 70
    11
 71
     3
 72
    20
 73
    16
 74
     0
 42
0.0000000001
 43
0.0000000001
 12
1.0
 22
0.0
 32
0.0
 13
1.0
 23
0.0
 33
0.0
 40
0.0
 40
0.0
 40
0.0
 40
0.0
 40
1.0
 40
1.0
 40
1.0
 40
2.0
 40
2.0
 40
2.0
 40
3.0
 40
3.0
 40
3.0
 40
4.0
 40
4.0
 40
4.0
 40
5.0
 40
5.0
 40
5.0
 40
5.0
 10
72.61038274009394
 20
-139.3306857290562
 30
0.0
 10
72.61038274009394
 20
-139.3306857290562
 30
0.0
 10
72.57868786162963
 20
-139.3306857290562
 30
0.0
 10
72.57868786162963
 20
-139.3306857290562
 30
0.0
 10
72.62519665068051
 20
-139.4299044790314
 30
0.0
 10
72.65689152914481
 20
-139.5105197133863
 30
0.0
 10
72.69065346490025
 20
-139.6372992272435
 30
0.0
 10
72.69065346490025
 20
-139.6372992272435
 30
0.0
 10
72.89804821311229
 20
-139.6372992272435
 30
0.0
 10
72.89804821311229
 20
-139.6372992272435
 30
0.0
 10
72.9297430915766
 20
-139.5442816491417
 30
0.0
 10
72.95316974087629
 20
-139.4595323002046
 30
0.0
 10
72.97625188062747
 20
-139.3306857290562
 30
0.0
 10
72.97625188062747
 20
-139.3306857290562
 30
0.0
 10
72.61038274009394
 20
-139.3306857290562
 30
0.0
 10
72.61038274009394
 20
-139.3306857290562
 30
0.0
  0
SPLINE
  5
F9
330
F3
100
AcDbEntity
  8
_U+30EC_U+30A4_U+30E4_U+30FC 1
370
     0
100
AcDbSpline
210
0.0
220
0.0
230
1.0
 70
    11
 71
     3
 72
    17
 73
    13
 74
     0
 42
0.0000000001
 43
0.0000000001
 12
1.0
 22
0.0
 32
0.0
 13
1.0
 23
0.0
 33
0.0
 40
0.0
 40
0.0
 40
0.0
 40
0.0
 40
1.0
 40
1.0
 40
1.0
 40
2.0
 40
2.0
 40
2.0
 40
3.0
 40
3.0
 40
3.0
 40
4.0
 40
4.0
 40
4.0
 40
4.0
 10
72.67377249702253
 20
-140.1809352948159
 30
0.0
 10
72.65689152914481
 20
-140.210563115989
 30
0.0
 10
72.60624862551164
 20
-140.3035806940908
 30
0.0
 10
72.59556882950736
 20
-140.3228732288082
 30
0.0
 10
72.78608260984167
 20
-140.3821288711545
 30
0.0
 10
72.8070976923017
 20
-140.3883300430279
 30
0.0
 10
72.87910018794342
 20
-140.4158908069099
 30
0.0
 10
72.93422171570742
 20
-140.3290744006816
 30
0.0
 10
72.95730385545859
 20
-140.2550048477488
 30
0.0
 10
72.97211776604517
 20
-140.1809352948159
 30
0.0
 10
72.97211776604517
 20
-140.1809352948159
 30
0.0
 10
72.67377249702253
 20
-140.1809352948159
 30
0.0
 10
72.67377249702253
 20
-140.1809352948159
 30
0.0
  0
HATCH
  5
FA
330
F3
100
AcDbEntity
  8
_U+30EC_U+30A4_U+30E4_U+30FC 1
 62
   179
420
  2234388
100
AcDbHatch
 10
0.0
 20
0.0
 30
0.0
210
0.0
220
0.0
230
1.0
  2
SOLID
 70
     1
 71
     0
 91
        3
 92
        1
 93
        1
 72
     4
 94
        3
 73
     0
 74
     1
 95
      242
 96
      238
 40
0.0
 40
0.0
 40
0.0
 40
0.0
 40
1.0
 40
1.0
 40
1.0
 40
2.0
 40
2.0
 40
2.0
 40
3.0
 40
3.0
 40
3.0
 40
4.0
 40
4.0
 40
4.0
 40
5.0
 40
5.0
 40
5.0
 40
6.0
 40
6.0
 40
6.0
 40
7.0
 40
7.0
 40
7.0
 40
8.0
 40
8.0
 40
8.0
 40
9.0
 40
9.0
 40
9.0
 40
10.0
 40
10.0
 40
10.0
 40
11.0
 40
11.0
 40
11.0
 40
12.0
 40
12.0
 40
12.0
 40
13.0
 40
13.0
 40
13.0
 40
14.0
 40
14.0
 40
14.0
 40
15.0
 40
15.0
 40
15.0
 40
16.0
 40
16.0
 40
16.0
 40
17.0
 40
17.0
 40
17.0
 40
18.0
 40
18.0
 40
18.0
 40
19.0
 40
19.0
 40
19.0
 40
20.0
 40
20.0
 40
20.0
 40
21.0
 40
21.0
 40
21.0
 40
22.0
 40
22.0
 40
22.0
 40
23.0
 40
23.0
 40
23.0
 40
24.0
 40
24.0
 40
24.0
 40
25.0
 40
25.0
 40
25.0
 40
26.0
 40
26.0
 40
26.0
 40
27.0
 40
27.0
 40
27.0
 40
28.0
 40
28.0
 40
28.0
 40
29.0
 40
29.0
 40
29.0
 40
30.0
 40
30.0
 40
30.0
 40
31.0
 40
31.0
 40
31.0
 40
32.0
 40
32.0
 40
32.0
 40
33.0
 40
33.0
 40
33.0
 40
34.0
 40
34.0
 40
34.0
 40
35.0
 40
35.0
 40
35.0
 40
36.0
 40
36.0
 40
36.0
 40
37.0
 40
37.0
 40
37.0
 40
38.0
 40
38.0
 40
38.0
 40
39.0
 40
39.0
 40
39.0
 40
40.0
 40
40.0
 40
40.0
 40
41.0
 40
41.0
 40
41.0
 40
42.0
 40
42.0
 40
42.0
 40
43.0
 40
43.0
 40
43.0
 40
44.0
 40
44.0
 40
44.0
 40
45.0
 40
45.0
 40
45.0
 40
46.0
 40
46.0
 40
46.0
 40
47.0
 40
47.0
 40
47.0
 40
48.0
 40
48.0
 40
48.0
 40
49.0
 40
49.0
 40
49.0
 40
50.0
 40
50.0
 40
50.0
 40
51.0
 40
51.0
 40
51.0
 40
52.0
 40
52.0
 40
52.0
 40
53.0
 40
53.0
 40
53.0
 40
54.0
 40
54.0
 40
54.0
 40
55.0
 40
55.0
 40
55.0
 40
56.0
 40
56.0
 40
56.0
 40
57.0
 40
57.0
 40
57.0
 40
58.0
 40
58.0
 40
58.0
 40
59.0
 40
59.0
 40
59.0
 40
60.0
 40
60.0
 40
60.0
 40
61.0
 40
61.0
 40
61.0
 40
62.0
 40
62.0
 40
62.0
 40
63.0
 40
63.0
 40
63.0
 40
64.0
 40
64.0
 40
64.0
 40
65.0
 40
65.0
 40
65.0
 40
66.0
 40
66.0
 40
66.0
 40
67.0
 40
67.0
 40
67.0
 40
68.0
 40
68.0
 40
68.0
 40
69.0
 40
69.0
 40
69.0
 40
70.0
 40
70.0
 40
70.0
 40
71.0
 40
71.0
 40
71.0
 40
72.0
 40
72.0
 40
72.0
 40
73.0
 40
73.0
 40
73.0
 40
74.0
 40
74.0
 40
74.0
 40
75.0
 40
75.0
 40
75.0
 40
76.0
 40
76.0
 40
76.0
 40
77.0
 40
77.0
 40
77.0
 40
78.0
 40
78.0
 40
78.0
 40
79.0
 40
79.0
 40
79.0
 40
79.0
 10
73.23876815660351
 20
-139.795773619565
 10
73.23876815660351
 20
-139.795773619565
 10
72.9848646193406
 20
-139.795773619565
 10
72.9848646193406
 20
-139.795773619565
 10
72.9848646193406
 20
-139.795773619565
 10
72.7078789423265
 20
-139.795773619565
 10
72.7078789423265
 20
-139.795773619565
 10
72.7078789423265
 20
-139.795773619565
 10
72.8346584561837
 20
-139.8384928035821
 10
72.8346584561837
 20
-139.8384928035821
 10
72.84533825218797
 20
-139.8426269181643
 10
72.8580851054834
 20
-139.8488280900378
 10
72.8580851054834
 20
-139.8615749433332
 10
72.8580851054834
 20
-139.8825900257932
 10
72.82604571747058
 20
-139.8891357072152
 10
72.80503063501055
 20
-139.8932698217975
 10
72.79435083900627
 20
-139.9163519615487
 10
72.76472301783313
 20
-139.982153285317
 10
72.74577499266425
 20
-140.0265950170767
 10
72.74577499266425
 20
-140.0265950170767
 10
73.01655949780489
 20
-140.0265950170767
 10
73.01655949780489
 20
-140.0265950170767
 10
73.10751001861549
 20
-140.0265950170767
 10
73.30422497082326
 20
-140.0224609024944
 10
73.44616290481555
 20
-140.0138481637813
 10
73.44616290481555
 20
-140.0138481637813
 10
73.44616290481555
 20
-140.1916150908202
 10
73.44616290481555
 20
-140.1916150908202
 10
73.36348061316956
 20
-140.1871364666893
 10
73.34246553070953
 20
-140.1871364666893
 10
73.16263154637949
 20
-140.183002352107
 10
73.13093666791518
 20
-140.3373426298462
 10
73.08649493615546
 20
-140.4179578642011
 10
73.04205320439574
 20
-140.4875487930031
 10
73.16263154637949
 20
-140.5468044353494
 10
73.26839597777665
 20
-140.6146728164088
 10
73.37209335188267
 20
-140.6970105985063
 10
73.37209335188267
 20
-140.6970105985063
 10
73.25358206719008
 20
-140.8644422390894
 10
73.25358206719008
 20
-140.8644422390894
 10
73.23015541789039
 20
-140.8451497043721
 10
73.21740856459496
 20
-140.8368814752075
 10
73.10544296132434
 20
-140.7521321262703
 10
73.05686711498231
 20
-140.7142360759325
 10
72.99761147263602
 20
-140.678407082886
 10
72.91699623828117
 20
-140.6336208415777
 10
72.70546737548683
 20
-140.8200005073297
 10
72.50048419411446
 20
-140.8430826470809
 10
72.21040715425643
 20
-140.872710468254
 10
72.21040715425643
 20
-140.872710468254
 10
72.10705428969894
 20
-140.692876483924
 10
72.10705428969894
 20
-140.692876483924
 10
72.42434758389044
 20
-140.6887423693417
 10
72.59970294408966
 20
-140.6632486627509
 10
72.75197616453771
 20
-140.5533501167714
 10
72.63380938939363
 20
-140.5027072131382
 10
72.54492592587418
 20
-140.4751464492562
 10
72.50875242327906
 20
-140.4623995959608
 10
72.4898043981102
 20
-140.4899603598428
 10
72.47499048752361
 20
-140.5089083850117
 10
72.44742972364162
 20
-140.5426703207671
 10
72.44742972364162
 20
-140.5426703207671
 10
72.25071477143385
 20
-140.4603325386696
 10
72.25071477143385
 20
-140.4603325386696
 10
72.33339706307984
 20
-140.3800618138633
 10
72.3947197627173
 20
-140.2846326689219
 10
72.45156383822392
 20
-140.183002352107
 10
72.26139456743813
 20
-140.1871364666893
 10
72.24003497542958
 20
-140.1871364666893
 10
72.15769719333211
 20
-140.1916150908202
 10
72.15769719333211
 20
-140.1916150908202
 10
72.15769719333211
 20
-140.0138481637813
 10
72.15769719333211
 20
-140.0138481637813
 10
72.29722356048472
 20
-140.0203938452032
 10
72.50668536598792
 20
-140.0245279597855
 10
72.53217907257877
 20
-140.0245279597855
 10
72.54906004045648
 20
-139.9907660240301
 10
72.60418156822048
 20
-139.8701876820463
 10
72.62312959338936
 20
-139.795773619565
 10
72.60418156822048
 20
-139.795773619565
 10
72.4264146411816
 20
-139.8023193009869
 10
72.23176674626498
 20
-139.8150661542824
 10
72.23176674626498
 20
-139.8150661542824
 10
72.23176674626498
 20
-139.9483913495615
 10
72.23176674626498
 20
-139.9483913495615
 10
72.18319089992296
 20
-139.9735405466039
 10
72.12393525757666
 20
-140.0052354250682
 10
71.99061006229749
 20
-140.0710367488364
 10
71.99061006229749
 20
-140.0710367488364
 10
71.99061006229749
 20
-140.2167642878625
 10
71.99061006229749
 20
-140.2167642878625
 10
71.99061006229749
 20
-140.2167642878625
 10
71.99061006229749
 20
-140.6846082547594
 10
71.99061006229749
 20
-140.6846082547594
 10
71.99061006229749
 20
-140.8113877686166
 10
71.95443655970237
 20
-140.8706434109629
 10
71.67124971081483
 20
-140.8623751817983
 10
71.67124971081483
 20
-140.8623751817983
 10
71.56755233670881
 20
-140.6549804335863
 10
71.56755233670881
 20
-140.6549804335863
 10
71.6309420936374
 20
-140.6673827773332
 10
71.67951793997943
 20
-140.671861401464
 10
71.71982555715685
 20
-140.671861401464
 10
71.79596216738088
 20
-140.671861401464
 10
71.80664196338515
 20
-140.6487792617128
 10
71.80664196338515
 20
-140.5829779379445
 10
71.80664196338515
 20
-140.5829779379445
 10
71.80664196338515
 20
-140.1533745309339
 10
71.80664196338515
 20
-140.1533745309339
 10
71.70914576115258
 20
-140.1936821481113
 10
71.69226479327486
 20
-140.2002278295333
 10
71.64575600422398
 20
-140.2191758547021
 10
71.64162188964168
 20
-140.2401909371622
 10
71.63714326551086
 20
-140.2698187583353
 10
71.61819524034198
 20
-140.2698187583353
 10
71.60992701117738
 20
-140.2698187583353
 10
71.59924721517311
 20
-140.265684643753
 10
71.59270153375114
 20
-140.2422579944533
 10
71.59270153375114
 20
-140.2422579944533
 10
71.5399915728268
 20
-140.0500216663764
 10
71.5399915728268
 20
-140.0500216663764
 10
71.6860636214014
 20
-140.003168367777
 10
71.75152043562115
 20
-139.9800862280258
 10
71.80664196338515
 20
-139.9590711455658
 10
71.80664196338515
 20
-139.9590711455658
 10
71.80664196338515
 20
-139.5463487064329
 10
71.80664196338515
 20
-139.5463487064329
 10
71.80664196338515
 20
-139.5463487064329
 10
71.7535874929123
 20
-139.5463487064329
 10
71.7535874929123
 20
-139.5463487064329
 10
71.7535874929123
 20
-139.5463487064329
 10
71.67538382539713
 20
-139.5463487064329
 10
71.67538382539713
 20
-139.5463487064329
 10
71.60751544433771
 20
-139.5463487064329
 10
71.59924721517311
 20
-139.5463487064329
 10
71.56307371257799
 20
-139.5525498783063
 10
71.56307371257799
 20
-139.5525498783063
 10
71.56307371257799
 20
-139.3582464929382
 10
71.56307371257799
 20
-139.3582464929382
 10
71.59063447645998
 20
-139.3644476648117
 10
71.59924721517311
 20
-139.3644476648117
 10
71.66883814397515
 20
-139.3644476648117
 10
71.66883814397515
 20
-139.3644476648117
 10
71.80216333925432
 20
-139.3644476648117
 10
71.80216333925432
 20
-139.3644476648117
 10
71.80216333925432
 20
-139.2948567360096
 10
71.80216333925432
 20
-139.2121744443636
 10
71.80009628196318
 20
-139.2080403297813
 10
71.79182805279858
 20
-139.0282063454513
 10
71.79182805279858
 20
-139.0089138107339
 10
71.7894164859589
 20
-138.9627495312315
 10
71.7894164859589
 20
-138.9627495312315
 10
72.00542397288406
 20
-138.9710177603961
 10
72.00542397288406
 20
-138.9710177603961
 10
72.01610376888834
 20
-138.9710177603961
 10
72.03711885134837
 20
-138.9730848176873
 10
72.03711885134837
 20
-138.989965785565
 10
72.03711885134837
 20
-139.0089138107339
 10
72.02230494076179
 20
-139.0195936067382
 10
71.99681123417093
 20
-139.038541631907
 10
71.99681123417093
 20
-139.0895290450887
 10
71.99061006229749
 20
-139.3179388757608
 10
71.99267711958863
 20
-139.3644476648117
 10
72.1218682002855
 20
-139.3644476648117
 10
72.1342705440324
 20
-139.3644476648117
 10
72.23176674626498
 20
-139.3561794356471
 10
72.23176674626498
 20
-139.3561794356471
 10
72.23176674626498
 20
-139.5504828210152
 10
72.23176674626498
 20
-139.5504828210152
 10
72.1935261863787
 20
-139.548415763724
 10
72.1260023148678
 20
-139.5442816491417
 10
71.99061006229749
 20
-139.5463487064329
 10
71.99061006229749
 20
-139.5463487064329
 10
71.99061006229749
 20
-139.8846570830844
 10
71.99061006229749
 20
-139.8846570830844
 10
72.0457315900615
 20
-139.8615749433332
 10
72.11118840428124
 20
-139.8340141794512
 10
72.15976425062325
 20
-139.8109320397
 10
72.15976425062325
 20
-139.8109320397
 10
72.15976425062325
 20
-139.6331651126611
 10
72.15976425062325
 20
-139.6331651126611
 10
72.27414142073356
 20
-139.6455674564081
 10
72.39265270542614
 20
-139.6455674564081
 10
72.50875242327906
 20
-139.6455674564081
 10
72.4856702835279
 20
-139.5504828210152
 10
72.45810951964589
 20
-139.4681450389177
 10
72.3947197627173
 20
-139.3348198436385
 10
72.35027803095757
 20
-139.3368869009297
 10
72.26759573931157
 20
-139.341021015512
 10
72.22969968897382
 20
-139.3430880728031
 10
72.22969968897382
 20
-139.3430880728031
 10
72.22969968897382
 20
-139.1632540884731
 10
72.22969968897382
 20
-139.1632540884731
 10
72.35441214553987
 20
-139.1718668271862
 10
72.52804495799647
 20
-139.176345451317
 10
72.61038274009394
 20
-139.176345451317
 10
72.61038274009394
 20
-139.176345451317
 10
72.69306503173993
 20
-139.176345451317
 10
72.69306503173993
 20
-139.176345451317
 10
72.69306503173993
 20
-139.0130479253162
 10
72.69306503173993
 20
-139.0027126388604
 10
72.69065346490025
 20
-138.9475911110964
 10
72.69065346490025
 20
-138.9475911110964
 10
72.91492918099001
 20
-138.9730848176873
 10
72.91492918099001
 20
-138.9730848176873
 10
72.91940780512084
 20
-138.9730848176873
 10
72.94042288758087
 20
-138.9751518749785
 10
72.94042288758087
 20
-138.9920328428562
 10
72.94042288758087
 20
-139.0068467534427
 10
72.9297430915766
 20
-139.0154594921559
 10
72.9021823276946
 20
-139.0302734027424
 10
72.89598115582115
 20
-139.0957302169622
 10
72.89391409852999
 20
-139.1170898089707
 10
72.89391409852999
 20
-139.176345451317
 10
72.89391409852999
 20
-139.176345451317
 10
72.9889987339229
 20
-139.176345451317
 10
72.9889987339229
 20
-139.176345451317
 10
73.07168102556889
 20
-139.176345451317
 10
73.24496932847696
 20
-139.1718668271862
 10
73.37002629459153
 20
-139.1632540884731
 10
73.37002629459153
 20
-139.1632540884731
 10
73.37002629459153
 20
-139.3430880728031
 10
73.37002629459153
 20
-139.3430880728031
 10
73.34039847341838
 20
-139.341021015512
 10
73.22188718872579
 20
-139.3368869009297
 10
73.18157957154835
 20
-139.3348198436385
 10
73.16676566096179
 20
-139.3858072568202
 10
73.13300372520634
 20
-139.4977728600908
 10
73.06720240143807
 20
-139.6372992272435
 10
73.10957707590664
 20
-139.6372992272435
 10
73.38690726246925
 20
-139.6183512020746
 10
73.4482299621067
 20
-139.6159396352349
 10
73.4482299621067
 20
-139.6159396352349
 10
73.4482299621067
 20
-139.8002522436958
 10
73.4482299621067
 20
-139.8002522436958
 10
73.41860214093354
 20
-139.8002522436958
 10
73.40172117305582
 20
-139.795773619565
 10
73.23876815660351
 20
-139.795773619565
 97
        0
 97
        0
 92
        1
 93
        1
 72
     4
 94
        3
 73
     0
 74
     1
 95
       20
 96
       16
 40
0.0
 40
0.0
 40
0.0
 40
0.0
 40
1.0
 40
1.0
 40
1.0
 40
2.0
 40
2.0
 40
2.0
 40
3.0
 40
3.0
 40
3.0
 40
4.0
 40
4.0
 40
4.0
 40
5.0
 40
5.0
 40
5.0
 40
5.0
 10
72.61038274009394
 20
-139.3306857290562
 10
72.61038274009394
 20
-139.3306857290562
 10
72.57868786162963
 20
-139.3306857290562
 10
72.57868786162963
 20
-139.3306857290562
 10
72.62519665068051
 20
-139.4299044790314
 10
72.65689152914481
 20
-139.5105197133863
 10
72.69065346490025
 20
-139.6372992272435
 10
72.69065346490025
 20
-139.6372992272435
 10
72.89804821311229
 20
-139.6372992272435
 10
72.89804821311229
 20
-139.6372992272435
 10
72.9297430915766
 20
-139.5442816491417
 10
72.95316974087629
 20
-139.4595323002046
 10
72.97625188062747
 20
-139.3306857290562
 10
72.97625188062747
 20
-139.3306857290562
 10
72.61038274009394
 20
-139.3306857290562
 10
72.61038274009394
 20
-139.3306857290562
 97
        0
 97
        0
 92
        1
 93
        1
 72
     4
 94
        3
 73
     0
 74
     1
 95
       17
 96
       13
 40
0.0
 40
0.0
 40
0.0
 40
0.0
 40
1.0
 40
1.0
 40
1.0
 40
2.0
 40
2.0
 40
2.0
 40
3.0
 40
3.0
 40
3.0
 40
4.0
 40
4.0
 40
4.0
 40
4.0
 10
72.67377249702253
 20
-140.1809352948159
 10
72.65689152914481
 20
-140.210563115989
 10
72.60624862551164
 20
-140.3035806940908
 10
72.59556882950736
 20
-140.3228732288082
 10
72.78608260984167
 20
-140.3821288711545
 10
72.8070976923017
 20
-140.3883300430279
 10
72.87910018794342
 20
-140.4158908069099
 10
72.93422171570742
 20
-140.3290744006816
 10
72.95730385545859
 20
-140.2550048477488
 10
72.97211776604517
 20
-140.1809352948159
 10
72.97211776604517
 20
-140.1809352948159
 10
72.67377249702253
 20
-140.1809352948159
 10
72.67377249702253
 20
-140.1809352948159
 97
        0
 97
        0
 75
     2
 76
     1
 98
        0
  0
SPLINE
  5
FB
330
F3
100
AcDbEntity
  8
_U+30EC_U+30A4_U+30E4_U+30FC 1
370
     0
100
AcDbSpline
210
0.0
220
0.0
230
1.0
 70
    11
 71
     3
 72
   203
 73
   199
 74
     0
 42
0.0000000001
 43
0.0000000001
 12
1.0
 22
0.0
 32
0.0
 13
1.0
 23
0.0
 33
0.0
 40
0.0
 40
0.0
 40
0.0
 40
0.0
 40
1.0
 40
1.0
 40
1.0
 40
2.0
 40
2.0
 40
2.0
 40
3.0
 40
3.0
 40
3.0
 40
4.0
 40
4.0
 40
4.0
 40
5.0
 40
5.0
 40
5.0
 40
6.0
 40
6.0
 40
6.0
 40
7.0
 40
7.0
 40
7.0
 40
8.0
 40
8.0
 40
8.0
 40
9.0
 40
9.0
 40
9.0
 40
10.0
 40
10.0
 40
10.0
 40
11.0
 40
11.0
 40
11.0
 40
12.0
 40
12.0
 40
12.0
 40
13.0
 40
13.0
 40
13.0
 40
14.0
 40
14.0
 40
14.0
 40
15.0
 40
15.0
 40
15.0
 40
16.0
 40
16.0
 40
16.0
 40
17.0
 40
17.0
 40
17.0
 40
18.0
 40
18.0
 40
18.0
 40
19.0
 40
19.0
 40
19.0
 40
20.0
 40
20.0
 40
20.0
 40
21.0
 40
21.0
 40
21.0
 40
22.0
 40
22.0
 40
22.0
 40
23.0
 40
23.0
 40
23.0
 40
24.0
 40
24.0
 40
24.0
 40
25.0
 40
25.0
 40
25.0
 40
26.0
 40
26.0
 40
26.0
 40
27.0
 40
27.0
 40
27.0
 40
28.0
 40
28.0
 40
28.0
 40
29.0
 40
29.0
 40
29.0
 40
30.0
 40
30.0
 40
30.0
 40
31.0
 40
31.0
 40
31.0
 40
32.0
 40
32.0
 40
32.0
 40
33.0
 40
33.0
 40
33.0
 40
34.0
 40
34.0
 40
34.0
 40
35.0
 40
35.0
 40
35.0
 40
36.0
 40
36.0
 40
36.0
 40
37.0
 40
37.0
 40
37.0
 40
38.0
 40
38.0
 40
38.0
 40
39.0
 40
39.0
 40
39.0
 40
40.0
 40
40.0
 40
40.0
 40
41.0
 40
41.0
 40
41.0
 40
42.0
 40
42.0
 40
42.0
 40
43.0
 40
43.0
 40
43.0
 40
44.0
 40
44.0
 40
44.0
 40
45.0
 40
45.0
 40
45.0
 40
46.0
 40
46.0
 40
46.0
 40
47.0
 40
47.0
 40
47.0
 40
48.0
 40
48.0
 40
48.0
 40
49.0
 40
49.0
 40
49.0
 40
50.0
 40
50.0
 40
50.0
 40
51.0
 40
51.0
 40
51.0
 40
52.0
 40
52.0
 40
52.0
 40
53.0
 40
53.0
 40
53.0
 40
54.0
 40
54.0
 40
54.0
 40
55.0
 40
55.0
 40
55.0
 40
56.0
 40
56.0
 40
56.0
 40
57.0
 40
57.0
 40
57.0
 40
58.0
 40
58.0
 40
58.0
 40
59.0
 40
59.0
 40
59.0
 40
60.0
 40
60.0
 40
60.0
 40
61.0
 40
61.0
 40
61.0
 40
62.0
 40
62.0
 40
62.0
 40
63.0
 40
63.0
 40
63.0
 40
64.0
 40
64.0
 40
64.0
 40
65.0
 40
65.0
 40
65.0
 40
66.0
 40
66.0
 40
66.0
 40
66.0
 10
74.93031003986117
 20
-139.8636420006244
 30
0.0
 10
74.93031003986117
 20
-139.8636420006244
 30
0.0
 10
74.37151555215365
 20
-139.8636420006244
 30
0.0
 10
74.37151555215365
 20
-139.8636420006244
 30
0.0
 10
74.3611802656979
 20
-139.9080837323841
 30
0.0
 10
74.35256752698479
 20
-139.9397786108484
 30
0.0
 10
74.33982067368936
 20
-139.9780191707347
 30
0.0
 10
74.3653143802802
 20
-139.9780191707347
 30
0.0
 10
74.38012829086678
 20
-139.9800862280258
 30
0.0
 10
74.38632946274022
 20
-139.9800862280258
 30
0.0
 10
74.38632946274022
 20
-139.9800862280258
 30
0.0
 10
74.57477618578339
 20
-139.9800862280258
 30
0.0
 10
74.57477618578339
 20
-139.9800862280258
 30
0.0
 10
74.57477618578339
 20
-139.9800862280258
 30
0.0
 10
74.94925806503005
 20
-139.9800862280258
 30
0.0
 10
74.94925806503005
 20
-139.9800862280258
 30
0.0
 10
74.99990096866323
 20
-139.9800862280258
 30
0.0
 10
75.28343232709929
 20
-139.9673393747304
 30
0.0
 10
75.31512720556358
 20
-139.9673393747304
 30
0.0
 10
75.31306014827243
 20
-139.9949001386124
 30
0.0
 10
75.31099309098128
 20
-140.0138481637813
 30
0.0
 10
75.31099309098128
 20
-140.0434759849544
 30
0.0
 10
75.30892603369013
 20
-140.0751708634187
 30
0.0
 10
75.30892603369013
 20
-140.210563115989
 30
0.0
 10
75.30892603369013
 20
-140.238123879871
 30
0.0
 10
75.30892603369013
 20
-140.238123879871
 30
0.0
 10
75.30892603369013
 20
-140.4834146784208
 30
0.0
 10
75.30892603369013
 20
-140.4834146784208
 30
0.0
 10
75.30892603369013
 20
-140.5282009197291
 30
0.0
 10
75.31306014827243
 20
-140.7245713623883
 30
0.0
 10
75.31719426285473
 20
-140.8768445828364
 30
0.0
 10
75.31719426285473
 20
-140.8768445828364
 30
0.0
 10
75.09085148947382
 20
-140.8768445828364
 30
0.0
 10
75.09085148947382
 20
-140.8768445828364
 30
0.0
 10
75.09085148947382
 20
-140.8768445828364
 30
0.0
 10
75.09291854676496
 20
-140.8430826470809
 30
0.0
 10
75.09291854676496
 20
-140.8430826470809
 30
0.0
 10
75.09291854676496
 20
-140.8430826470809
 30
0.0
 10
74.39080808687105
 20
-140.8430826470809
 30
0.0
 10
74.39080808687105
 20
-140.8430826470809
 30
0.0
 10
74.39080808687105
 20
-140.8430826470809
 30
0.0
 10
74.3928751441622
 20
-140.8768445828364
 30
0.0
 10
74.3928751441622
 20
-140.8768445828364
 30
0.0
 10
74.3928751441622
 20
-140.8768445828364
 30
0.0
 10
74.17480059994588
 20
-140.8768445828364
 30
0.0
 10
74.17480059994588
 20
-140.8768445828364
 30
0.0
 10
74.17927922407671
 20
-140.8220675646209
 30
0.0
 10
74.17927922407671
 20
-140.8093207113255
 30
0.0
 10
74.18548039595017
 20
-140.6949435412152
 30
0.0
 10
74.18754745324131
 20
-140.6673827773332
 30
0.0
 10
74.18961451053246
 20
-140.5344020916025
 30
0.0
 10
74.18961451053246
 20
-140.5151095568851
 30
0.0
 10
74.18961451053246
 20
-140.5151095568851
 30
0.0
 10
74.18961451053246
 20
-140.3121934328039
 30
0.0
 10
74.18961451053246
 20
-140.3121934328039
 30
0.0
 10
74.05008814337984
 20
-140.5619628554845
 30
0.0
 10
73.88093395505408
 20
-140.692876483924
 30
0.0
 10
73.7751695236569
 20
-140.7583332981438
 30
0.0
 10
73.7751695236569
 20
-140.7583332981438
 30
0.0
 10
73.60153671120031
 20
-140.6191514405397
 30
0.0
 10
73.60153671120031
 20
-140.6191514405397
 30
0.0
 10
73.69042017471976
 20
-140.568164027358
 30
0.0
 10
73.8344251660032
 20
-140.4813476211297
 30
0.0
 10
73.97188447586467
 20
-140.2870442357616
 30
0.0
 10
74.06283499667526
 20
-140.1599202123559
 30
0.0
 10
74.128291810895
 20
-140.0162597306209
 30
0.0
 10
74.16239825619898
 20
-139.8636420006244
 30
0.0
 10
73.9336439159784
 20
-139.866053567464
 30
0.0
 10
73.75380993164836
 20
-139.8722547393375
 30
0.0
 10
73.65872529625545
 20
-139.8743217966286
 30
0.0
 10
73.65872529625545
 20
-139.8743217966286
 30
0.0
 10
73.65872529625545
 20
-139.6965548695898
 30
0.0
 10
73.65872529625545
 20
-139.6965548695898
 30
0.0
 10
73.85544024846322
 20
-139.7027560414632
 30
0.0
 10
74.13897160689929
 20
-139.707234665594
 30
0.0
 10
74.28917777005618
 20
-139.707234665594
 30
0.0
 10
74.28917777005618
 20
-139.707234665594
 30
0.0
 10
74.50277369014167
 20
-139.707234665594
 30
0.0
 10
74.50277369014167
 20
-139.707234665594
 30
0.0
 10
74.50277369014167
 20
-139.707234665594
 30
0.0
 10
74.50277369014167
 20
-139.5994031769057
 30
0.0
 10
74.50277369014167
 20
-139.5994031769057
 30
0.0
 10
74.50277369014167
 20
-139.5994031769057
 30
0.0
 10
74.35670164156708
 20
-139.5994031769057
 30
0.0
 10
74.35670164156708
 20
-139.5994031769057
 30
0.0
 10
74.18754745324131
 20
-139.5994031769057
 30
0.0
 10
74.01839326491555
 20
-139.603537291488
 30
0.0
 10
73.85130613388093
 20
-139.6097384633615
 30
0.0
 10
73.85130613388093
 20
-139.6097384633615
 30
0.0
 10
73.85130613388093
 20
-139.4385172177445
 30
0.0
 10
73.85130613388093
 20
-139.4385172177445
 30
0.0
 10
74.00564641162012
 20
-139.4491970137488
 30
0.0
 10
74.19168156782361
 20
-139.4491970137488
 30
0.0
 10
74.35670164156708
 20
-139.4491970137488
 30
0.0
 10
74.35670164156708
 20
-139.4491970137488
 30
0.0
 10
74.50277369014167
 20
-139.4491970137488
 30
0.0
 10
74.50277369014167
 20
-139.4491970137488
 30
0.0
 10
74.50277369014167
 20
-139.4491970137488
 30
0.0
 10
74.50277369014167
 20
-139.3306857290562
 30
0.0
 10
74.50277369014167
 20
-139.3306857290562
 30
0.0
 10
74.50277369014167
 20
-139.3306857290562
 30
0.0
 10
74.37151555215365
 20
-139.3306857290562
 30
0.0
 10
74.37151555215365
 20
-139.3306857290562
 30
0.0
 10
74.32500676310278
 20
-139.3306857290562
 30
0.0
 10
74.12209063902156
 20
-139.3389539582208
 30
0.0
 10
74.07971596455299
 20
-139.3389539582208
 30
0.0
 10
73.87679984047178
 20
-139.3430880728031
 30
0.0
 10
73.80031872069922
 20
-139.3451551300943
 30
0.0
 10
73.72211505318406
 20
-139.3475666969339
 30
0.0
 10
73.72211505318406
 20
-139.3475666969339
 30
0.0
 10
73.72211505318406
 20
-139.1632540884731
 30
0.0
 10
73.72211505318406
 20
-139.1632540884731
 30
0.0
 10
73.83649222329436
 20
-139.1718668271862
 30
0.0
 10
73.88093395505408
 20
-139.1718668271862
 30
0.0
 10
74.26368406346533
 20
-139.1804795658993
 30
0.0
 10
74.20029430653673
 20
-139.0853949305064
 30
0.0
 10
74.17273354265474
 20
-139.0578341666244
 30
0.0
 10
74.13690454960813
 20
-139.0216606640293
 30
0.0
 10
74.13690454960813
 20
-139.0216606640293
 30
0.0
 10
74.31225990980735
 20
-138.9393228819318
 30
0.0
 10
74.31225990980735
 20
-138.9393228819318
 30
0.0
 10
74.35256752698479
 20
-138.9751518749785
 30
0.0
 10
74.3970092587445
 20
-139.017526549447
 30
0.0
 10
74.47107881167737
 20
-139.1274250954265
 30
0.0
 10
74.47107881167737
 20
-139.1274250954265
 30
0.0
 10
74.35670164156708
 20
-139.1825466231905
 30
0.0
 10
74.35670164156708
 20
-139.1825466231905
 30
0.0
 10
74.35670164156708
 20
-139.1825466231905
 30
0.0
 10
74.36738143757135
 20
-139.1825466231905
 30
0.0
 10
74.36738143757135
 20
-139.1825466231905
 30
0.0
 10
74.36738143757135
 20
-139.1825466231905
 30
0.0
 10
74.89000242268375
 20
-139.1825466231905
 30
0.0
 10
74.89000242268375
 20
-139.1825466231905
 30
0.0
 10
74.89000242268375
 20
-139.1825466231905
 30
0.0
 10
74.79491778729086
 20
-139.1381048914308
 30
0.0
 10
74.79491778729086
 20
-139.1381048914308
 30
0.0
 10
74.82213404162434
 20
-139.0998643315445
 30
0.0
 10
74.87932262667948
 20
-139.0195936067382
 30
0.0
 10
74.89413653726605
 20
-138.9455240538053
 30
0.0
 10
74.89413653726605
 20
-138.9455240538053
 30
0.0
 10
75.10773245735155
 20
-139.0089138107339
 30
0.0
 10
75.10773245735155
 20
-139.0089138107339
 30
0.0
 10
75.11634519606467
 20
-139.010980868025
 30
0.0
 10
75.1373602785247
 20
-139.0216606640293
 30
0.0
 10
75.1373602785247
 20
-139.0426757464894
 30
0.0
 10
75.1373602785247
 20
-139.0809163063756
 30
0.0
 10
75.07190346430494
 20
-139.0809163063756
 30
0.0
 10
75.05295543913607
 20
-139.0809163063756
 30
0.0
 10
75.0422756431318
 20
-139.0998643315445
 30
0.0
 10
75.0188489938321
 20
-139.1401719487219
 30
0.0
 10
74.98922117265894
 20
-139.1804795658993
 30
0.0
 10
75.38919675849645
 20
-139.1742783940259
 30
0.0
 10
75.4188245796696
 20
-139.1718668271862
 30
0.0
 10
75.49496118989363
 20
-139.1656656553128
 30
0.0
 10
75.49496118989363
 20
-139.1656656553128
 30
0.0
 10
75.49496118989363
 20
-139.3475666969339
 30
0.0
 10
75.49496118989363
 20
-139.3475666969339
 30
0.0
 10
75.47601316472475
 20
-139.3475666969339
 30
0.0
 10
75.4505194581339
 20
-139.3451551300943
 30
0.0
 10
75.23072236617496
 20
-139.3368869009297
 30
0.0
 10
75.17973495299326
 20
-139.3348198436385
 30
0.0
 10
74.95993786103432
 20
-139.3306857290562
 30
0.0
 10
74.9154961292746
 20
-139.3306857290562
 30
0.0
 10
74.9154961292746
 20
-139.3306857290562
 30
0.0
 10
74.69948864234944
 20
-139.3306857290562
 30
0.0
 10
74.69948864234944
 20
-139.3306857290562
 30
0.0
 10
74.69948864234944
 20
-139.3306857290562
 30
0.0
 10
74.69948864234944
 20
-139.4491970137488
 30
0.0
 10
74.69948864234944
 20
-139.4491970137488
 30
0.0
 10
74.69948864234944
 20
-139.4491970137488
 30
0.0
 10
74.87312145480603
 20
-139.4491970137488
 30
0.0
 10
74.87312145480603
 20
-139.4491970137488
 30
0.0
 10
75.03607447125835
 20
-139.4491970137488
 30
0.0
 10
75.22624374204413
 20
-139.4491970137488
 30
0.0
 10
75.38299558662301
 20
-139.4385172177445
 30
0.0
 10
75.38299558662301
 20
-139.4385172177445
 30
0.0
 10
75.38299558662301
 20
-139.6097384633615
 30
0.0
 10
75.38299558662301
 20
-139.6097384633615
 30
0.0
 10
75.17353378111981
 20
-139.6014702341969
 30
0.0
 10
74.97681882891204
 20
-139.5994031769057
 30
0.0
 10
74.87312145480603
 20
-139.5994031769057
 30
0.0
 10
74.87312145480603
 20
-139.5994031769057
 30
0.0
 10
74.69948864234944
 20
-139.5994031769057
 30
0.0
 10
74.69948864234944
 20
-139.5994031769057
 30
0.0
 10
74.69948864234944
 20
-139.5994031769057
 30
0.0
 10
74.69948864234944
 20
-139.707234665594
 30
0.0
 10
74.69948864234944
 20
-139.707234665594
 30
0.0
 10
74.69948864234944
 20
-139.707234665594
 30
0.0
 10
74.93031003986117
 20
-139.707234665594
 30
0.0
 10
74.93031003986117
 20
-139.707234665594
 30
0.0
 10
75.06329072559181
 20
-139.707234665594
 30
0.0
 10
75.3513007081587
 20
-139.7027560414632
 30
0.0
 10
75.56041800411337
 20
-139.6965548695898
 30
0.0
 10
75.56041800411337
 20
-139.6965548695898
 30
0.0
 10
75.56041800411337
 20
-139.8743217966286
 30
0.0
 10
75.56041800411337
 20
-139.8743217966286
 30
0.0
 10
75.36818167603643
 20
-139.8681206247552
 30
0.0
 10
75.05502249642721
 20
-139.8636420006244
 30
0.0
 10
74.93031003986117
 20
-139.8636420006244
 30
0.0
  0
POLYLINE
  5
FC
330
F3
100
AcDbEntity
  8
_U+30EC_U+30A4_U+30E4_U+30FC 1
370
     0
100
AcDb2dPolyline
 66
     1
 10
0.0
 20
0.0
 30
0.0
  0
VERTEX
  5
FD
330
FC
100
AcDbEntity
  8
_U+30EC_U+30A4_U+30E4_U+30FC 1
370
     0
100
AcDbVertex
100
AcDb2dVertex
 10
75.09533011360465
 20
-140.1196125951784
 30
0.0
  0
VERTEX
  5
FE
330
FC
100
AcDbEntity
  8
_U+30EC_U+30A4_U+30E4_U+30FC 1
370
     0
100
AcDbVertex
100
AcDb2dVertex
 10
74.3887410295799
 20
-140.1196125951784
 30
0.0
  0
VERTEX
  5
FF
330
FC
100
AcDbEntity
  8
_U+30EC_U+30A4_U+30E4_U+30FC 1
370
     0
100
AcDbVertex
100
AcDb2dVertex
 10
74.3887410295799
 20
-140.2277885934153
 30
0.0
  0
VERTEX
  5
100
330
FC
100
AcDbEntity
  8
_U+30EC_U+30A4_U+30E4_U+30FC 1
370
     0
100
AcDbVertex
100
AcDb2dVertex
 10
75.09533011360465
 20
-140.2277885934153
 30
0.0
  0
VERTEX
  5
101
330
FC
100
AcDbEntity
  8
_U+30EC_U+30A4_U+30E4_U+30FC 1
370
     0
100
AcDbVertex
100
AcDb2dVertex
 10
75.09533011360465
 20
-140.1196125951784
 30
0.0
  0
SEQEND
  5
102
330
FC
100
AcDbEntity
  8
_U+30EC_U+30A4_U+30E4_U+30FC 1
370
     0
  0
POLYLINE
  5
103
330
F3
100
AcDbEntity
  8
_U+30EC_U+30A4_U+30E4_U+30FC 1
370
     0
100
AcDb2dPolyline
 66
     1
 10
0.0
 20
0.0
 30
0.0
  0
VERTEX
  5
104
330
103
100
AcDbEntity
  8
_U+30EC_U+30A4_U+30E4_U+30FC 1
370
     0
100
AcDbVertex
100
AcDb2dVertex
 10
75.09533011360465
 20
-140.3525010499813
 30
0.0
  0
VERTEX
  5
105
330
103
100
AcDbEntity
  8
_U+30EC_U+30A4_U+30E4_U+30FC 1
370
     0
100
AcDbVertex
100
AcDb2dVertex
 10
74.3887410295799
 20
-140.3525010499813
 30
0.0
  0
VERTEX
  5
106
330
103
100
AcDbEntity
  8
_U+30EC_U+30A4_U+30E4_U+30FC 1
370
     0
100
AcDbVertex
100
AcDb2dVertex
 10
74.3887410295799
 20
-140.4668782200916
 30
0.0
  0
VERTEX
  5
107
330
103
100
AcDbEntity
  8
_U+30EC_U+30A4_U+30E4_U+30FC 1
370
     0
100
AcDbVertex
100
AcDb2dVertex
 10
75.09533011360465
 20
-140.4668782200916
 30
0.0
  0
VERTEX
  5
108
330
103
100
AcDbEntity
  8
_U+30EC_U+30A4_U+30E4_U+30FC 1
370
     0
100
AcDbVertex
100
AcDb2dVertex
 10
75.09533011360465
 20
-140.3525010499813
 30
0.0
  0
SEQEND
  5
109
330
103
100
AcDbEntity
  8
_U+30EC_U+30A4_U+30E4_U+30FC 1
370
     0
  0
POLYLINE
  5
10A
330
F3
100
AcDbEntity
  8
_U+30EC_U+30A4_U+30E4_U+30FC 1
370
     0
100
AcDb2dPolyline
 66
     1
 10
0.0
 20
0.0
 30
0.0
  0
VERTEX
  5
10B
330
10A
100
AcDbEntity
  8
_U+30EC_U+30A4_U+30E4_U+30FC 1
370
     0
100
AcDbVertex
100
AcDb2dVertex
 10
75.09533011360465
 20
-140.59572479124
 30
0.0
  0
VERTEX
  5
10C
330
10A
100
AcDbEntity
  8
_U+30EC_U+30A4_U+30E4_U+30FC 1
370
     0
100
AcDbVertex
100
AcDb2dVertex
 10
74.3887410295799
 20
-140.59572479124
 30
0.0
  0
VERTEX
  5
10D
330
10A
100
AcDbEntity
  8
_U+30EC_U+30A4_U+30E4_U+30FC 1
370
     0
100
AcDbVertex
100
AcDb2dVertex
 10
74.3887410295799
 20
-140.7101019613503
 30
0.0
  0
VERTEX
  5
10E
330
10A
100
AcDbEntity
  8
_U+30EC_U+30A4_U+30E4_U+30FC 1
370
     0
100
AcDbVertex
100
AcDb2dVertex
 10
75.09533011360465
 20
-140.7101019613503
 30
0.0
  0
VERTEX
  5
10F
330
10A
100
AcDbEntity
  8
_U+30EC_U+30A4_U+30E4_U+30FC 1
370
     0
100
AcDbVertex
100
AcDb2dVertex
 10
75.09533011360465
 20
-140.59572479124
 30
0.0
  0
SEQEND
  5
110
330
10A
100
AcDbEntity
  8
_U+30EC_U+30A4_U+30E4_U+30FC 1
370
     0
  0
HATCH
  5
111
330
F3
100
AcDbEntity
  8
_U+30EC_U+30A4_U+30E4_U+30FC 1
 62
   179
420
  2234388
100
AcDbHatch
 10
0.0
 20
0.0
 30
0.0
210
0.0
220
0.0
230
1.0
  2
SOLID
 70
     1
 71
     0
 91
        4
 92
        1
 93
        1
 72
     4
 94
        3
 73
     0
 74
     1
 95
      203
 96
      199
 40
0.0
 40
0.0
 40
0.0
 40
0.0
 40
1.0
 40
1.0
 40
1.0
 40
2.0
 40
2.0
 40
2.0
 40
3.0
 40
3.0
 40
3.0
 40
4.0
 40
4.0
 40
4.0
 40
5.0
 40
5.0
 40
5.0
 40
6.0
 40
6.0
 40
6.0
 40
7.0
 40
7.0
 40
7.0
 40
8.0
 40
8.0
 40
8.0
 40
9.0
 40
9.0
 40
9.0
 40
10.0
 40
10.0
 40
10.0
 40
11.0
 40
11.0
 40
11.0
 40
12.0
 40
12.0
 40
12.0
 40
13.0
 40
13.0
 40
13.0
 40
14.0
 40
14.0
 40
14.0
 40
15.0
 40
15.0
 40
15.0
 40
16.0
 40
16.0
 40
16.0
 40
17.0
 40
17.0
 40
17.0
 40
18.0
 40
18.0
 40
18.0
 40
19.0
 40
19.0
 40
19.0
 40
20.0
 40
20.0
 40
20.0
 40
21.0
 40
21.0
 40
21.0
 40
22.0
 40
22.0
 40
22.0
 40
23.0
 40
23.0
 40
23.0
 40
24.0
 40
24.0
 40
24.0
 40
25.0
 40
25.0
 40
25.0
 40
26.0
 40
26.0
 40
26.0
 40
27.0
 40
27.0
 40
27.0
 40
28.0
 40
28.0
 40
28.0
 40
29.0
 40
29.0
 40
29.0
 40
30.0
 40
30.0
 40
30.0
 40
31.0
 40
31.0
 40
31.0
 40
32.0
 40
32.0
 40
32.0
 40
33.0
 40
33.0
 40
33.0
 40
34.0
 40
34.0
 40
34.0
 40
35.0
 40
35.0
 40
35.0
 40
36.0
 40
36.0
 40
36.0
 40
37.0
 40
37.0
 40
37.0
 40
38.0
 40
38.0
 40
38.0
 40
39.0
 40
39.0
 40
39.0
 40
40.0
 40
40.0
 40
40.0
 40
41.0
 40
41.0
 40
41.0
 40
42.0
 40
42.0
 40
42.0
 40
43.0
 40
43.0
 40
43.0
 40
44.0
 40
44.0
 40
44.0
 40
45.0
 40
45.0
 40
45.0
 40
46.0
 40
46.0
 40
46.0
 40
47.0
 40
47.0
 40
47.0
 40
48.0
 40
48.0
 40
48.0
 40
49.0
 40
49.0
 40
49.0
 40
50.0
 40
50.0
 40
50.0
 40
51.0
 40
51.0
 40
51.0
 40
52.0
 40
52.0
 40
52.0
 40
53.0
 40
53.0
 40
53.0
 40
54.0
 40
54.0
 40
54.0
 40
55.0
 40
55.0
 40
55.0
 40
56.0
 40
56.0
 40
56.0
 40
57.0
 40
57.0
 40
57.0
 40
58.0
 40
58.0
 40
58.0
 40
59.0
 40
59.0
 40
59.0
 40
60.0
 40
60.0
 40
60.0
 40
61.0
 40
61.0
 40
61.0
 40
62.0
 40
62.0
 40
62.0
 40
63.0
 40
63.0
 40
63.0
 40
64.0
 40
64.0
 40
64.0
 40
65.0
 40
65.0
 40
65.0
 40
66.0
 40
66.0
 40
66.0
 40
66.0
 10
74.93031003986117
 20
-139.8636420006244
 10
74.93031003986117
 20
-139.8636420006244
 10
74.37151555215365
 20
-139.8636420006244
 10
74.37151555215365
 20
-139.8636420006244
 10
74.3611802656979
 20
-139.9080837323841
 10
74.35256752698479
 20
-139.9397786108484
 10
74.33982067368936
 20
-139.9780191707347
 10
74.3653143802802
 20
-139.9780191707347
 10
74.38012829086678
 20
-139.9800862280258
 10
74.38632946274022
 20
-139.9800862280258
 10
74.38632946274022
 20
-139.9800862280258
 10
74.57477618578339
 20
-139.9800862280258
 10
74.57477618578339
 20
-139.9800862280258
 10
74.57477618578339
 20
-139.9800862280258
 10
74.94925806503005
 20
-139.9800862280258
 10
74.94925806503005
 20
-139.9800862280258
 10
74.99990096866323
 20
-139.9800862280258
 10
75.28343232709929
 20
-139.9673393747304
 10
75.31512720556358
 20
-139.9673393747304
 10
75.31306014827243
 20
-139.9949001386124
 10
75.31099309098128
 20
-140.0138481637813
 10
75.31099309098128
 20
-140.0434759849544
 10
75.30892603369013
 20
-140.0751708634187
 10
75.30892603369013
 20
-140.210563115989
 10
75.30892603369013
 20
-140.238123879871
 10
75.30892603369013
 20
-140.238123879871
 10
75.30892603369013
 20
-140.4834146784208
 10
75.30892603369013
 20
-140.4834146784208
 10
75.30892603369013
 20
-140.5282009197291
 10
75.31306014827243
 20
-140.7245713623883
 10
75.31719426285473
 20
-140.8768445828364
 10
75.31719426285473
 20
-140.8768445828364
 10
75.09085148947382
 20
-140.8768445828364
 10
75.09085148947382
 20
-140.8768445828364
 10
75.09085148947382
 20
-140.8768445828364
 10
75.09291854676496
 20
-140.8430826470809
 10
75.09291854676496
 20
-140.8430826470809
 10
75.09291854676496
 20
-140.8430826470809
 10
74.39080808687105
 20
-140.8430826470809
 10
74.39080808687105
 20
-140.8430826470809
 10
74.39080808687105
 20
-140.8430826470809
 10
74.3928751441622
 20
-140.8768445828364
 10
74.3928751441622
 20
-140.8768445828364
 10
74.3928751441622
 20
-140.8768445828364
 10
74.17480059994588
 20
-140.8768445828364
 10
74.17480059994588
 20
-140.8768445828364
 10
74.17927922407671
 20
-140.8220675646209
 10
74.17927922407671
 20
-140.8093207113255
 10
74.18548039595017
 20
-140.6949435412152
 10
74.18754745324131
 20
-140.6673827773332
 10
74.18961451053246
 20
-140.5344020916025
 10
74.18961451053246
 20
-140.5151095568851
 10
74.18961451053246
 20
-140.5151095568851
 10
74.18961451053246
 20
-140.3121934328039
 10
74.18961451053246
 20
-140.3121934328039
 10
74.05008814337984
 20
-140.5619628554845
 10
73.88093395505408
 20
-140.692876483924
 10
73.7751695236569
 20
-140.7583332981438
 10
73.7751695236569
 20
-140.7583332981438
 10
73.60153671120031
 20
-140.6191514405397
 10
73.60153671120031
 20
-140.6191514405397
 10
73.69042017471976
 20
-140.568164027358
 10
73.8344251660032
 20
-140.4813476211297
 10
73.97188447586467
 20
-140.2870442357616
 10
74.06283499667526
 20
-140.1599202123559
 10
74.128291810895
 20
-140.0162597306209
 10
74.16239825619898
 20
-139.8636420006244
 10
73.9336439159784
 20
-139.866053567464
 10
73.75380993164836
 20
-139.8722547393375
 10
73.65872529625545
 20
-139.8743217966286
 10
73.65872529625545
 20
-139.8743217966286
 10
73.65872529625545
 20
-139.6965548695898
 10
73.65872529625545
 20
-139.6965548695898
 10
73.85544024846322
 20
-139.7027560414632
 10
74.13897160689929
 20
-139.707234665594
 10
74.28917777005618
 20
-139.707234665594
 10
74.28917777005618
 20
-139.707234665594
 10
74.50277369014167
 20
-139.707234665594
 10
74.50277369014167
 20
-139.707234665594
 10
74.50277369014167
 20
-139.707234665594
 10
74.50277369014167
 20
-139.5994031769057
 10
74.50277369014167
 20
-139.5994031769057
 10
74.50277369014167
 20
-139.5994031769057
 10
74.35670164156708
 20
-139.5994031769057
 10
74.35670164156708
 20
-139.5994031769057
 10
74.18754745324131
 20
-139.5994031769057
 10
74.01839326491555
 20
-139.603537291488
 10
73.85130613388093
 20
-139.6097384633615
 10
73.85130613388093
 20
-139.6097384633615
 10
73.85130613388093
 20
-139.4385172177445
 10
73.85130613388093
 20
-139.4385172177445
 10
74.00564641162012
 20
-139.4491970137488
 10
74.19168156782361
 20
-139.4491970137488
 10
74.35670164156708
 20
-139.4491970137488
 10
74.35670164156708
 20
-139.4491970137488
 10
74.50277369014167
 20
-139.4491970137488
 10
74.50277369014167
 20
-139.4491970137488
 10
74.50277369014167
 20
-139.4491970137488
 10
74.50277369014167
 20
-139.3306857290562
 10
74.50277369014167
 20
-139.3306857290562
 10
74.50277369014167
 20
-139.3306857290562
 10
74.37151555215365
 20
-139.3306857290562
 10
74.37151555215365
 20
-139.3306857290562
 10
74.32500676310278
 20
-139.3306857290562
 10
74.12209063902156
 20
-139.3389539582208
 10
74.07971596455299
 20
-139.3389539582208
 10
73.87679984047178
 20
-139.3430880728031
 10
73.80031872069922
 20
-139.3451551300943
 10
73.72211505318406
 20
-139.3475666969339
 10
73.72211505318406
 20
-139.3475666969339
 10
73.72211505318406
 20
-139.1632540884731
 10
73.72211505318406
 20
-139.1632540884731
 10
73.83649222329436
 20
-139.1718668271862
 10
73.88093395505408
 20
-139.1718668271862
 10
74.26368406346533
 20
-139.1804795658993
 10
74.20029430653673
 20
-139.0853949305064
 10
74.17273354265474
 20
-139.0578341666244
 10
74.13690454960813
 20
-139.0216606640293
 10
74.13690454960813
 20
-139.0216606640293
 10
74.31225990980735
 20
-138.9393228819318
 10
74.31225990980735
 20
-138.9393228819318
 10
74.35256752698479
 20
-138.9751518749785
 10
74.3970092587445
 20
-139.017526549447
 10
74.47107881167737
 20
-139.1274250954265
 10
74.47107881167737
 20
-139.1274250954265
 10
74.35670164156708
 20
-139.1825466231905
 10
74.35670164156708
 20
-139.1825466231905
 10
74.35670164156708
 20
-139.1825466231905
 10
74.36738143757135
 20
-139.1825466231905
 10
74.36738143757135
 20
-139.1825466231905
 10
74.36738143757135
 20
-139.1825466231905
 10
74.89000242268375
 20
-139.1825466231905
 10
74.89000242268375
 20
-139.1825466231905
 10
74.89000242268375
 20
-139.1825466231905
 10
74.79491778729086
 20
-139.1381048914308
 10
74.79491778729086
 20
-139.1381048914308
 10
74.82213404162434
 20
-139.0998643315445
 10
74.87932262667948
 20
-139.0195936067382
 10
74.89413653726605
 20
-138.9455240538053
 10
74.89413653726605
 20
-138.9455240538053
 10
75.10773245735155
 20
-139.0089138107339
 10
75.10773245735155
 20
-139.0089138107339
 10
75.11634519606467
 20
-139.010980868025
 10
75.1373602785247
 20
-139.0216606640293
 10
75.1373602785247
 20
-139.0426757464894
 10
75.1373602785247
 20
-139.0809163063756
 10
75.07190346430494
 20
-139.0809163063756
 10
75.05295543913607
 20
-139.0809163063756
 10
75.0422756431318
 20
-139.0998643315445
 10
75.0188489938321
 20
-139.1401719487219
 10
74.98922117265894
 20
-139.1804795658993
 10
75.38919675849645
 20
-139.1742783940259
 10
75.4188245796696
 20
-139.1718668271862
 10
75.49496118989363
 20
-139.1656656553128
 10
75.49496118989363
 20
-139.1656656553128
 10
75.49496118989363
 20
-139.3475666969339
 10
75.49496118989363
 20
-139.3475666969339
 10
75.47601316472475
 20
-139.3475666969339
 10
75.4505194581339
 20
-139.3451551300943
 10
75.23072236617496
 20
-139.3368869009297
 10
75.17973495299326
 20
-139.3348198436385
 10
74.95993786103432
 20
-139.3306857290562
 10
74.9154961292746
 20
-139.3306857290562
 10
74.9154961292746
 20
-139.3306857290562
 10
74.69948864234944
 20
-139.3306857290562
 10
74.69948864234944
 20
-139.3306857290562
 10
74.69948864234944
 20
-139.3306857290562
 10
74.69948864234944
 20
-139.4491970137488
 10
74.69948864234944
 20
-139.4491970137488
 10
74.69948864234944
 20
-139.4491970137488
 10
74.87312145480603
 20
-139.4491970137488
 10
74.87312145480603
 20
-139.4491970137488
 10
75.03607447125835
 20
-139.4491970137488
 10
75.22624374204413
 20
-139.4491970137488
 10
75.38299558662301
 20
-139.4385172177445
 10
75.38299558662301
 20
-139.4385172177445
 10
75.38299558662301
 20
-139.6097384633615
 10
75.38299558662301
 20
-139.6097384633615
 10
75.17353378111981
 20
-139.6014702341969
 10
74.97681882891204
 20
-139.5994031769057
 10
74.87312145480603
 20
-139.5994031769057
 10
74.87312145480603
 20
-139.5994031769057
 10
74.69948864234944
 20
-139.5994031769057
 10
74.69948864234944
 20
-139.5994031769057
 10
74.69948864234944
 20
-139.5994031769057
 10
74.69948864234944
 20
-139.707234665594
 10
74.69948864234944
 20
-139.707234665594
 10
74.69948864234944
 20
-139.707234665594
 10
74.93031003986117
 20
-139.707234665594
 10
74.93031003986117
 20
-139.707234665594
 10
75.06329072559181
 20
-139.707234665594
 10
75.3513007081587
 20
-139.7027560414632
 10
75.56041800411337
 20
-139.6965548695898
 10
75.56041800411337
 20
-139.6965548695898
 10
75.56041800411337
 20
-139.8743217966286
 10
75.56041800411337
 20
-139.8743217966286
 10
75.36818167603643
 20
-139.8681206247552
 10
75.05502249642721
 20
-139.8636420006244
 10
74.93031003986117
 20
-139.8636420006244
 97
        0
 97
        0
 92
        1
 93
        4
 72
     1
 10
75.09533011360465
 20
-140.1196125951784
 11
74.3887410295799
 21
-140.1196125951784
 72
     1
 10
74.3887410295799
 20
-140.1196125951784
 11
74.3887410295799
 21
-140.2277885934153
 72
     1
 10
74.3887410295799
 20
-140.2277885934153
 11
75.09533011360465
 21
-140.2277885934153
 72
     1
 10
75.09533011360465
 20
-140.2277885934153
 11
75.09533011360465
 21
-140.1196125951784
 97
        0
 92
        1
 93
        4
 72
     1
 10
75.09533011360465
 20
-140.3525010499813
 11
74.3887410295799
 21
-140.3525010499813
 72
     1
 10
74.3887410295799
 20
-140.3525010499813
 11
74.3887410295799
 21
-140.4668782200916
 72
     1
 10
74.3887410295799
 20
-140.4668782200916
 11
75.09533011360465
 21
-140.4668782200916
 72
     1
 10
75.09533011360465
 20
-140.4668782200916
 11
75.09533011360465
 21
-140.3525010499813
 97
        0
 92
        1
 93
        4
 72
     1
 10
75.09533011360465
 20
-140.59572479124
 11
74.3887410295799
 21
-140.59572479124
 72
     1
 10
74.3887410295799
 20
-140.59572479124
 11
74.3887410295799
 21
-140.7101019613503
 72
     1
 10
74.3887410295799
 20
-140.7101019613503
 11
75.09533011360465
 21
-140.7101019613503
 72
     1
 10
75.09533011360465
 20
-140.7101019613503
 11
75.09533011360465
 21
-140.59572479124
 97
        0
 75
     2
 76
     1
 98
        0
  0
SPLINE
  5
112
330
F3
100
AcDbEntity
  8
_U+30EC_U+30A4_U+30E4_U+30FC 1
370
     0
100
AcDbSpline
210
0.0
220
0.0
230
1.0
 70
    11
 71
     3
 72
    47
 73
    43
 74
     0
 42
0.0000000001
 43
0.0000000001
 12
1.0
 22
0.0
 32
0.0
 13
1.0
 23
0.0
 33
0.0
 40
0.0
 40
0.0
 40
0.0
 40
0.0
 40
1.0
 40
1.0
 40
1.0
 40
2.0
 40
2.0
 40
2.0
 40
3.0
 40
3.0
 40
3.0
 40
4.0
 40
4.0
 40
4.0
 40
5.0
 40
5.0
 40
5.0
 40
6.0
 40
6.0
 40
6.0
 40
7.0
 40
7.0
 40
7.0
 40
8.0
 40
8.0
 40
8.0
 40
9.0
 40
9.0
 40
9.0
 40
10.0
 40
10.0
 40
10.0
 40
11.0
 40
11.0
 40
11.0
 40
12.0
 40
12.0
 40
12.0
 40
13.0
 40
13.0
 40
13.0
 40
14.0
 40
14.0
 40
14.0
 40
14.0
 10
76.90710582929754
 20
-139.8405598608732
 30
0.0
 10
76.90710582929754
 20
-139.8405598608732
 30
0.0
 10
76.80547551248266
 20
-139.8405598608732
 30
0.0
 10
76.80547551248266
 20
-139.8405598608732
 30
0.0
 10
76.80547551248266
 20
-139.9273762671015
 30
0.0
 10
76.78446043002263
 20
-140.3166720569347
 30
0.0
 10
76.58774547781488
 20
-140.5364691488937
 30
0.0
 10
76.4351277478183
 20
-140.7056233372194
 30
0.0
 10
76.22807750915479
 20
-140.77555877557
 30
0.0
 10
76.14332816021765
 20
-140.803119539452
 30
0.0
 10
76.14332816021765
 20
-140.803119539452
 30
0.0
 10
75.94868026530102
 20
-140.6356878988689
 30
0.0
 10
75.94868026530102
 20
-140.6356878988689
 30
0.0
 10
76.0461764675336
 20
-140.623285555122
 30
0.0
 10
76.22153182773282
 20
-140.5998589058223
 30
0.0
 10
76.40997855077597
 20
-140.4117566923276
 30
0.0
 10
76.48404810370886
 20
-140.3397541966859
 30
0.0
 10
76.58774547781488
 20
-140.2002278295333
 30
0.0
 10
76.58774547781488
 20
-139.8405598608732
 30
0.0
 10
76.58774547781488
 20
-139.8405598608732
 30
0.0
 10
76.35692408030313
 20
-139.8405598608732
 30
0.0
 10
76.35692408030313
 20
-139.8405598608732
 30
0.0
 10
76.17088892409964
 20
-139.8405598608732
 30
0.0
 10
75.98450925834763
 20
-139.8446939754555
 30
0.0
 10
75.79847410214414
 20
-139.8595078860421
 30
0.0
 10
75.79847410214414
 20
-139.8595078860421
 30
0.0
 10
75.79847410214414
 20
-139.6393662845346
 30
0.0
 10
75.79847410214414
 20
-139.6393662845346
 30
0.0
 10
75.9869208251873
 20
-139.6545247046697
 30
0.0
 10
76.27251924091452
 20
-139.658658819252
 30
0.0
 10
76.35692408030313
 20
-139.658658819252
 30
0.0
 10
76.35692408030313
 20
-139.658658819252
 30
0.0
 10
76.90710582929754
 20
-139.658658819252
 30
0.0
 10
76.90710582929754
 20
-139.658658819252
 30
0.0
 10
76.9260538544664
 20
-139.658658819252
 30
0.0
 10
77.24334714865792
 20
-139.658658819252
 30
0.0
 10
77.47175697932998
 20
-139.6393662845346
 30
0.0
 10
77.47175697932998
 20
-139.6393662845346
 30
0.0
 10
77.47175697932998
 20
-139.8595078860421
 30
0.0
 10
77.47175697932998
 20
-139.8595078860421
 30
0.0
 10
77.28365476583534
 20
-139.8446939754555
 30
0.0
 10
77.09520804279218
 20
-139.8405598608732
 30
0.0
 10
76.90710582929754
 20
-139.8405598608732
 30
0.0
  0
SPLINE
  5
113
330
F3
100
AcDbEntity
  8
_U+30EC_U+30A4_U+30E4_U+30FC 1
370
     0
100
AcDbSpline
210
0.0
220
0.0
230
1.0
 70
    11
 71
     3
 72
    29
 73
    25
 74
     0
 42
0.0000000001
 43
0.0000000001
 12
1.0
 22
0.0
 32
0.0
 13
1.0
 23
0.0
 33
0.0
 40
0.0
 40
0.0
 40
0.0
 40
0.0
 40
1.0
 40
1.0
 40
1.0
 40
2.0
 40
2.0
 40
2.0
 40
3.0
 40
3.0
 40
3.0
 40
4.0
 40
4.0
 40
4.0
 40
5.0
 40
5.0
 40
5.0
 40
6.0
 40
6.0
 40
6.0
 40
7.0
 40
7.0
 40
7.0
 40
8.0
 40
8.0
 40
8.0
 40
8.0
 10
76.80547551248266
 20
-139.3113931943388
 30
0.0
 10
76.80547551248266
 20
-139.3113931943388
 30
0.0
 10
76.45200871569602
 20
-139.3113931943388
 30
0.0
 10
76.45200871569602
 20
-139.3113931943388
 30
0.0
 10
76.3400431124254
 20
-139.3113931943388
 30
0.0
 10
76.2005167452728
 20
-139.3179388757608
 30
0.0
 10
76.09268525658447
 20
-139.3306857290562
 30
0.0
 10
76.09268525658447
 20
-139.3306857290562
 30
0.0
 10
76.09268525658447
 20
-139.0957302169622
 30
0.0
 10
76.09268525658447
 20
-139.0957302169622
 30
0.0
 10
76.21085203172854
 20
-139.1105441275488
 30
0.0
 10
76.3951646401894
 20
-139.1150227516796
 30
0.0
 10
76.45200871569602
 20
-139.1150227516796
 30
0.0
 10
76.45200871569602
 20
-139.1150227516796
 30
0.0
 10
76.80547551248266
 20
-139.1150227516796
 30
0.0
 10
76.80547551248266
 20
-139.1150227516796
 30
0.0
 10
76.82442353765154
 20
-139.1150227516796
 30
0.0
 10
77.02768417128128
 20
-139.1150227516796
 30
0.0
 10
77.16927759572505
 20
-139.0957302169622
 30
0.0
 10
77.16927759572505
 20
-139.0957302169622
 30
0.0
 10
77.16927759572505
 20
-139.3306857290562
 30
0.0
 10
77.16927759572505
 20
-139.3306857290562
 30
0.0
 10
77.0128702606947
 20
-139.3113931943388
 30
0.0
 10
76.82235648036038
 20
-139.3113931943388
 30
0.0
 10
76.80547551248266
 20
-139.3113931943388
 30
0.0
  0
HATCH
  5
114
330
F3
100
AcDbEntity
  8
_U+30EC_U+30A4_U+30E4_U+30FC 1
 62
   179
420
  2234388
100
AcDbHatch
 10
0.0
 20
0.0
 30
0.0
210
0.0
220
0.0
230
1.0
  2
SOLID
 70
     1
 71
     0
 91
        2
 92
        1
 93
        1
 72
     4
 94
        3
 73
     0
 74
     1
 95
       47
 96
       43
 40
0.0
 40
0.0
 40
0.0
 40
0.0
 40
1.0
 40
1.0
 40
1.0
 40
2.0
 40
2.0
 40
2.0
 40
3.0
 40
3.0
 40
3.0
 40
4.0
 40
4.0
 40
4.0
 40
5.0
 40
5.0
 40
5.0
 40
6.0
 40
6.0
 40
6.0
 40
7.0
 40
7.0
 40
7.0
 40
8.0
 40
8.0
 40
8.0
 40
9.0
 40
9.0
 40
9.0
 40
10.0
 40
10.0
 40
10.0
 40
11.0
 40
11.0
 40
11.0
 40
12.0
 40
12.0
 40
12.0
 40
13.0
 40
13.0
 40
13.0
 40
14.0
 40
14.0
 40
14.0
 40
14.0
 10
76.90710582929754
 20
-139.8405598608732
 10
76.90710582929754
 20
-139.8405598608732
 10
76.80547551248266
 20
-139.8405598608732
 10
76.80547551248266
 20
-139.8405598608732
 10
76.80547551248266
 20
-139.9273762671015
 10
76.78446043002263
 20
-140.3166720569347
 10
76.58774547781488
 20
-140.5364691488937
 10
76.4351277478183
 20
-140.7056233372194
 10
76.22807750915479
 20
-140.77555877557
 10
76.14332816021765
 20
-140.803119539452
 10
76.14332816021765
 20
-140.803119539452
 10
75.94868026530102
 20
-140.6356878988689
 10
75.94868026530102
 20
-140.6356878988689
 10
76.0461764675336
 20
-140.623285555122
 10
76.22153182773282
 20
-140.5998589058223
 10
76.40997855077597
 20
-140.4117566923276
 10
76.48404810370886
 20
-140.3397541966859
 10
76.58774547781488
 20
-140.2002278295333
 10
76.58774547781488
 20
-139.8405598608732
 10
76.58774547781488
 20
-139.8405598608732
 10
76.35692408030313
 20
-139.8405598608732
 10
76.35692408030313
 20
-139.8405598608732
 10
76.17088892409964
 20
-139.8405598608732
 10
75.98450925834763
 20
-139.8446939754555
 10
75.79847410214414
 20
-139.8595078860421
 10
75.79847410214414
 20
-139.8595078860421
 10
75.79847410214414
 20
-139.6393662845346
 10
75.79847410214414
 20
-139.6393662845346
 10
75.9869208251873
 20
-139.6545247046697
 10
76.27251924091452
 20
-139.658658819252
 10
76.35692408030313
 20
-139.658658819252
 10
76.35692408030313
 20
-139.658658819252
 10
76.90710582929754
 20
-139.658658819252
 10
76.90710582929754
 20
-139.658658819252
 10
76.9260538544664
 20
-139.658658819252
 10
77.24334714865792
 20
-139.658658819252
 10
77.47175697932998
 20
-139.6393662845346
 10
77.47175697932998
 20
-139.6393662845346
 10
77.47175697932998
 20
-139.8595078860421
 10
77.47175697932998
 20
-139.8595078860421
 10
77.28365476583534
 20
-139.8446939754555
 10
77.09520804279218
 20
-139.8405598608732
 10
76.90710582929754
 20
-139.8405598608732
 97
        0
 97
        0
 92
        1
 93
        1
 72
     4
 94
        3
 73
     0
 74
     1
 95
       29
 96
       25
 40
0.0
 40
0.0
 40
0.0
 40
0.0
 40
1.0
 40
1.0
 40
1.0
 40
2.0
 40
2.0
 40
2.0
 40
3.0
 40
3.0
 40
3.0
 40
4.0
 40
4.0
 40
4.0
 40
5.0
 40
5.0
 40
5.0
 40
6.0
 40
6.0
 40
6.0
 40
7.0
 40
7.0
 40
7.0
 40
8.0
 40
8.0
 40
8.0
 40
8.0
 10
76.80547551248266
 20
-139.3113931943388
 10
76.80547551248266
 20
-139.3113931943388
 10
76.45200871569602
 20
-139.3113931943388
 10
76.45200871569602
 20
-139.3113931943388
 10
76.3400431124254
 20
-139.3113931943388
 10
76.2005167452728
 20
-139.3179388757608
 10
76.09268525658447
 20
-139.3306857290562
 10
76.09268525658447
 20
-139.3306857290562
 10
76.09268525658447
 20
-139.0957302169622
 10
76.09268525658447
 20
-139.0957302169622
 10
76.21085203172854
 20
-139.1105441275488
 10
76.3951646401894
 20
-139.1150227516796
 10
76.45200871569602
 20
-139.1150227516796
 10
76.45200871569602
 20
-139.1150227516796
 10
76.80547551248266
 20
-139.1150227516796
 10
76.80547551248266
 20
-139.1150227516796
 10
76.82442353765154
 20
-139.1150227516796
 10
77.02768417128128
 20
-139.1150227516796
 10
77.16927759572505
 20
-139.0957302169622
 10
77.16927759572505
 20
-139.0957302169622
 10
77.16927759572505
 20
-139.3306857290562
 10
77.16927759572505
 20
-139.3306857290562
 10
77.0128702606947
 20
-139.3113931943388
 10
76.82235648036038
 20
-139.3113931943388
 10
76.80547551248266
 20
-139.3113931943388
 97
        0
 97
        0
 75
     2
 76
     1
 98
        0
  0
SPLINE
  5
115
330
F3
100
AcDbEntity
  8
_U+30EC_U+30A4_U+30E4_U+30FC 1
370
     0
100
AcDbSpline
210
0.0
220
0.0
230
1.0
 70
    11
 71
     3
 72
    29
 73
    25
 74
     0
 42
0.0000000001
 43
0.0000000001
 12
1.0
 22
0.0
 32
0.0
 13
1.0
 23
0.0
 33
0.0
 40
0.0
 40
0.0
 40
0.0
 40
0.0
 40
1.0
 40
1.0
 40
1.0
 40
2.0
 40
2.0
 40
2.0
 40
3.0
 40
3.0
 40
3.0
 40
4.0
 40
4.0
 40
4.0
 40
5.0
 40
5.0
 40
5.0
 40
6.0
 40
6.0
 40
6.0
 40
7.0
 40
7.0
 40
7.0
 40
8.0
 40
8.0
 40
8.0
 40
8.0
 10
78.7529879902944
 20
-140.003168367777
 30
0.0
 10
78.7529879902944
 20
-140.003168367777
 30
0.0
 10
78.26860756506827
 20
-140.003168367777
 30
0.0
 10
78.26860756506827
 20
-140.003168367777
 30
0.0
 10
78.24104680118627
 20
-140.003168367777
 30
0.0
 10
77.92375350699476
 20
-140.003168367777
 30
0.0
 10
77.71222464420042
 20
-140.0286620743678
 30
0.0
 10
77.71222464420042
 20
-140.0286620743678
 30
0.0
 10
77.71222464420042
 20
-139.7981851864046
 30
0.0
 10
77.71222464420042
 20
-139.7981851864046
 30
0.0
 10
77.87069903652191
 20
-139.8212673261558
 30
0.0
 10
78.06121281685623
 20
-139.823334383447
 30
0.0
 10
78.26860756506827
 20
-139.823334383447
 30
0.0
 10
78.26860756506827
 20
-139.823334383447
 30
0.0
 10
78.7529879902944
 20
-139.823334383447
 30
0.0
 10
78.7529879902944
 20
-139.823334383447
 30
0.0
 10
78.93902314649789
 20
-139.823334383447
 30
0.0
 10
79.1254028122499
 20
-139.8212673261558
 30
0.0
 10
79.30937091116225
 20
-139.7981851864046
 30
0.0
 10
79.30937091116225
 20
-139.7981851864046
 30
0.0
 10
79.30937091116225
 20
-140.0286620743678
 30
0.0
 10
79.30937091116225
 20
-140.0286620743678
 30
0.0
 10
79.1254028122499
 20
-140.0052354250682
 30
0.0
 10
78.87770044686044
 20
-140.003168367777
 30
0.0
 10
78.7529879902944
 20
-140.003168367777
 30
0.0
  0
HATCH
  5
116
330
F3
100
AcDbEntity
  8
_U+30EC_U+30A4_U+30E4_U+30FC 1
 62
   179
420
  2234388
100
AcDbHatch
 10
0.0
 20
0.0
 30
0.0
210
0.0
220
0.0
230
1.0
  2
SOLID
 70
     1
 71
     0
 91
        1
 92
        1
 93
        1
 72
     4
 94
        3
 73
     0
 74
     1
 95
       29
 96
       25
 40
0.0
 40
0.0
 40
0.0
 40
0.0
 40
1.0
 40
1.0
 40
1.0
 40
2.0
 40
2.0
 40
2.0
 40
3.0
 40
3.0
 40
3.0
 40
4.0
 40
4.0
 40
4.0
 40
5.0
 40
5.0
 40
5.0
 40
6.0
 40
6.0
 40
6.0
 40
7.0
 40
7.0
 40
7.0
 40
8.0
 40
8.0
 40
8.0
 40
8.0
 10
78.7529879902944
 20
-140.003168367777
 10
78.7529879902944
 20
-140.003168367777
 10
78.26860756506827
 20
-140.003168367777
 10
78.26860756506827
 20
-140.003168367777
 10
78.24104680118627
 20
-140.003168367777
 10
77.92375350699476
 20
-140.003168367777
 10
77.71222464420042
 20
-140.0286620743678
 10
77.71222464420042
 20
-140.0286620743678
 10
77.71222464420042
 20
-139.7981851864046
 10
77.71222464420042
 20
-139.7981851864046
 10
77.87069903652191
 20
-139.8212673261558
 10
78.06121281685623
 20
-139.823334383447
 10
78.26860756506827
 20
-139.823334383447
 10
78.26860756506827
 20
-139.823334383447
 10
78.7529879902944
 20
-139.823334383447
 10
78.7529879902944
 20
-139.823334383447
 10
78.93902314649789
 20
-139.823334383447
 10
79.1254028122499
 20
-139.8212673261558
 10
79.30937091116225
 20
-139.7981851864046
 10
79.30937091116225
 20
-139.7981851864046
 10
79.30937091116225
 20
-140.0286620743678
 10
79.30937091116225
 20
-140.0286620743678
 10
79.1254028122499
 20
-140.0052354250682
 10
78.87770044686044
 20
-140.003168367777
 10
78.7529879902944
 20
-140.003168367777
 97
        0
 97
        0
 75
     2
 76
     1
 98
        0
  0
SPLINE
  5
117
330
F3
100
AcDbEntity
  8
_U+30EC_U+30A4_U+30E4_U+30FC 1
370
     0
100
AcDbSpline
210
0.0
220
0.0
230
1.0
 70
    11
 71
     3
 72
    44
 73
    40
 74
     0
 42
0.0000000001
 43
0.0000000001
 12
1.0
 22
0.0
 32
0.0
 13
1.0
 23
0.0
 33
0.0
 40
0.0
 40
0.0
 40
0.0
 40
0.0
 40
1.0
 40
1.0
 40
1.0
 40
2.0
 40
2.0
 40
2.0
 40
3.0
 40
3.0
 40
3.0
 40
4.0
 40
4.0
 40
4.0
 40
5.0
 40
5.0
 40
5.0
 40
6.0
 40
6.0
 40
6.0
 40
7.0
 40
7.0
 40
7.0
 40
8.0
 40
8.0
 40
8.0
 40
9.0
 40
9.0
 40
9.0
 40
10.0
 40
10.0
 40
10.0
 40
11.0
 40
11.0
 40
11.0
 40
12.0
 40
12.0
 40
12.0
 40
13.0
 40
13.0
 40
13.0
 40
13.0
 10
80.96439478227627
 20
-139.5656412411503
 30
0.0
 10
80.85242917900564
 20
-139.9335774389749
 30
0.0
 10
80.80178627537248
 20
-140.0920518312964
 30
0.0
 10
80.60507132316471
 20
-140.3418212539771
 30
0.0
 10
80.42075871470384
 20
-140.5722981419403
 30
0.0
 10
80.18408065486717
 20
-140.7583332981438
 30
0.0
 10
79.90468341101342
 20
-140.851695385794
 30
0.0
 10
79.90468341101342
 20
-140.851695385794
 30
0.0
 10
79.71210257338795
 20
-140.671861401464
 30
0.0
 10
79.71210257338795
 20
-140.671861401464
 30
0.0
 10
80.35323484319295
 20
-140.5195881810159
 30
0.0
 10
80.68327499067988
 20
-139.9632052601481
 30
0.0
 10
80.74666474760848
 20
-139.5229220571332
 30
0.0
 10
80.74666474760848
 20
-139.5229220571332
 30
0.0
 10
79.98082002123743
 20
-139.5229220571332
 30
0.0
 10
79.98082002123743
 20
-139.5229220571332
 30
0.0
 10
79.8878024431357
 20
-139.5229220571332
 30
0.0
 10
79.70383434422335
 20
-139.527400681264
 30
0.0
 10
79.54708249964449
 20
-139.5463487064329
 30
0.0
 10
79.54708249964449
 20
-139.5463487064329
 30
0.0
 10
79.54708249964449
 20
-139.3265516144739
 30
0.0
 10
79.54708249964449
 20
-139.3265516144739
 30
0.0
 10
79.63389890587278
 20
-139.3475666969339
 30
0.0
 10
79.88573538584454
 20
-139.3475666969339
 30
0.0
 10
79.98495413581973
 20
-139.3475666969339
 30
0.0
 10
79.98495413581973
 20
-139.3475666969339
 30
0.0
 10
80.41662460012154
 20
-139.3475666969339
 30
0.0
 10
80.41662460012154
 20
-139.3475666969339
 30
0.0
 10
80.45899927459011
 20
-139.3475666969339
 30
0.0
 10
80.69361027713563
 20
-139.3451551300943
 30
0.0
 10
80.7318508370219
 20
-139.3389539582208
 30
0.0
 10
80.77422551149047
 20
-139.3327527863474
 30
0.0
 10
80.77629256878163
 20
-139.3306857290562
 30
0.0
 10
80.83761526841907
 20
-139.2903781118788
 30
0.0
 10
80.83761526841907
 20
-139.2903781118788
 30
0.0
 10
81.02571748191372
 20
-139.4450628991665
 30
0.0
 10
81.02571748191372
 20
-139.4450628991665
 30
0.0
 10
80.99643417028909
 20
-139.4746907203397
 30
0.0
 10
80.98162025970251
 20
-139.506385598804
 30
0.0
 10
80.96439478227627
 20
-139.5656412411503
 30
0.0
  0
SPLINE
  5
118
330
F3
100
AcDbEntity
  8
_U+30EC_U+30A4_U+30E4_U+30FC 1
370
     0
100
AcDbSpline
210
0.0
220
0.0
230
1.0
 70
    11
 71
     3
 72
    17
 73
    13
 74
     0
 42
0.0000000001
 43
0.0000000001
 12
1.0
 22
0.0
 32
0.0
 13
1.0
 23
0.0
 33
0.0
 40
0.0
 40
0.0
 40
0.0
 40
0.0
 40
1.0
 40
1.0
 40
1.0
 40
2.0
 40
2.0
 40
2.0
 40
3.0
 40
3.0
 40
3.0
 40
4.0
 40
4.0
 40
4.0
 40
4.0
 10
81.17385658777945
 20
-139.3665147221028
 30
0.0
 10
81.04707707392227
 20
-139.3665147221028
 30
0.0
 10
80.94544675710739
 20
-139.2652289148365
 30
0.0
 10
80.94544675710739
 20
-139.1381048914308
 30
0.0
 10
80.94544675710739
 20
-139.010980868025
 30
0.0
 10
81.04707707392227
 20
-138.9076280034676
 30
0.0
 10
81.17385658777945
 20
-138.9076280034676
 30
0.0
 10
81.30098061118518
 20
-138.9076280034676
 30
0.0
 10
81.4046779852912
 20
-139.010980868025
 30
0.0
 10
81.4046779852912
 20
-139.1381048914308
 30
0.0
 10
81.4046779852912
 20
-139.2652289148365
 30
0.0
 10
81.30098061118518
 20
-139.3665147221028
 30
0.0
 10
81.17385658777945
 20
-139.3665147221028
 30
0.0
  0
SPLINE
  5
119
330
F3
100
AcDbEntity
  8
_U+30EC_U+30A4_U+30E4_U+30FC 1
370
     0
100
AcDbSpline
210
0.0
220
0.0
230
1.0
 70
    11
 71
     3
 72
    17
 73
    13
 74
     0
 42
0.0000000001
 43
0.0000000001
 12
1.0
 22
0.0
 32
0.0
 13
1.0
 23
0.0
 33
0.0
 40
0.0
 40
0.0
 40
0.0
 40
0.0
 40
1.0
 40
1.0
 40
1.0
 40
2.0
 40
2.0
 40
2.0
 40
3.0
 40
3.0
 40
3.0
 40
4.0
 40
4.0
 40
4.0
 40
4.0
 10
81.17178953048831
 20
-139.0364745746159
 30
0.0
 10
81.11701251227284
 20
-139.0364745746159
 30
0.0
 10
81.07257078051312
 20
-139.0809163063756
 30
0.0
 10
81.07257078051312
 20
-139.1360378341396
 30
0.0
 10
81.07257078051312
 20
-139.1928819096462
 30
0.0
 10
81.11701251227284
 20
-139.2418022655368
 30
0.0
 10
81.17592364507061
 20
-139.2418022655368
 30
0.0
 10
81.2351792874169
 20
-139.2418022655368
 30
0.0
 10
81.27548690459433
 20
-139.1908148523551
 30
0.0
 10
81.27548690459433
 20
-139.1381048914308
 30
0.0
 10
81.27548690459433
 20
-139.0809163063756
 30
0.0
 10
81.22897811554346
 20
-139.0364745746159
 30
0.0
 10
81.17178953048831
 20
-139.0364745746159
 30
0.0
  0
HATCH
  5
11A
330
F3
100
AcDbEntity
  8
_U+30EC_U+30A4_U+30E4_U+30FC 1
 62
   179
420
  2234388
100
AcDbHatch
 10
0.0
 20
0.0
 30
0.0
210
0.0
220
0.0
230
1.0
  2
SOLID
 70
     1
 71
     0
 91
        3
 92
        1
 93
        1
 72
     4
 94
        3
 73
     0
 74
     1
 95
       44
 96
       40
 40
0.0
 40
0.0
 40
0.0
 40
0.0
 40
1.0
 40
1.0
 40
1.0
 40
2.0
 40
2.0
 40
2.0
 40
3.0
 40
3.0
 40
3.0
 40
4.0
 40
4.0
 40
4.0
 40
5.0
 40
5.0
 40
5.0
 40
6.0
 40
6.0
 40
6.0
 40
7.0
 40
7.0
 40
7.0
 40
8.0
 40
8.0
 40
8.0
 40
9.0
 40
9.0
 40
9.0
 40
10.0
 40
10.0
 40
10.0
 40
11.0
 40
11.0
 40
11.0
 40
12.0
 40
12.0
 40
12.0
 40
13.0
 40
13.0
 40
13.0
 40
13.0
 10
80.96439478227627
 20
-139.5656412411503
 10
80.85242917900564
 20
-139.9335774389749
 10
80.80178627537248
 20
-140.0920518312964
 10
80.60507132316471
 20
-140.3418212539771
 10
80.42075871470384
 20
-140.5722981419403
 10
80.18408065486717
 20
-140.7583332981438
 10
79.90468341101342
 20
-140.851695385794
 10
79.90468341101342
 20
-140.851695385794
 10
79.71210257338795
 20
-140.671861401464
 10
79.71210257338795
 20
-140.671861401464
 10
80.35323484319295
 20
-140.5195881810159
 10
80.68327499067988
 20
-139.9632052601481
 10
80.74666474760848
 20
-139.5229220571332
 10
80.74666474760848
 20
-139.5229220571332
 10
79.98082002123743
 20
-139.5229220571332
 10
79.98082002123743
 20
-139.5229220571332
 10
79.8878024431357
 20
-139.5229220571332
 10
79.70383434422335
 20
-139.527400681264
 10
79.54708249964449
 20
-139.5463487064329
 10
79.54708249964449
 20
-139.5463487064329
 10
79.54708249964449
 20
-139.3265516144739
 10
79.54708249964449
 20
-139.3265516144739
 10
79.63389890587278
 20
-139.3475666969339
 10
79.88573538584454
 20
-139.3475666969339
 10
79.98495413581973
 20
-139.3475666969339
 10
79.98495413581973
 20
-139.3475666969339
 10
80.41662460012154
 20
-139.3475666969339
 10
80.41662460012154
 20
-139.3475666969339
 10
80.45899927459011
 20
-139.3475666969339
 10
80.69361027713563
 20
-139.3451551300943
 10
80.7318508370219
 20
-139.3389539582208
 10
80.77422551149047
 20
-139.3327527863474
 10
80.77629256878163
 20
-139.3306857290562
 10
80.83761526841907
 20
-139.2903781118788
 10
80.83761526841907
 20
-139.2903781118788
 10
81.02571748191372
 20
-139.4450628991665
 10
81.02571748191372
 20
-139.4450628991665
 10
80.99643417028909
 20
-139.4746907203397
 10
80.98162025970251
 20
-139.506385598804
 10
80.96439478227627
 20
-139.5656412411503
 97
        0
 97
        0
 92
        1
 93
        1
 72
     4
 94
        3
 73
     0
 74
     1
 95
       17
 96
       13
 40
0.0
 40
0.0
 40
0.0
 40
0.0
 40
1.0
 40
1.0
 40
1.0
 40
2.0
 40
2.0
 40
2.0
 40
3.0
 40
3.0
 40
3.0
 40
4.0
 40
4.0
 40
4.0
 40
4.0
 10
81.17385658777945
 20
-139.3665147221028
 10
81.04707707392227
 20
-139.3665147221028
 10
80.94544675710739
 20
-139.2652289148365
 10
80.94544675710739
 20
-139.1381048914308
 10
80.94544675710739
 20
-139.010980868025
 10
81.04707707392227
 20
-138.9076280034676
 10
81.17385658777945
 20
-138.9076280034676
 10
81.30098061118518
 20
-138.9076280034676
 10
81.4046779852912
 20
-139.010980868025
 10
81.4046779852912
 20
-139.1381048914308
 10
81.4046779852912
 20
-139.2652289148365
 10
81.30098061118518
 20
-139.3665147221028
 10
81.17385658777945
 20
-139.3665147221028
 97
        0
 97
        0
 92
        1
 93
        1
 72
     4
 94
        3
 73
     0
 74
     1
 95
       17
 96
       13
 40
0.0
 40
0.0
 40
0.0
 40
0.0
 40
1.0
 40
1.0
 40
1.0
 40
2.0
 40
2.0
 40
2.0
 40
3.0
 40
3.0
 40
3.0
 40
4.0
 40
4.0
 40
4.0
 40
4.0
 10
81.17178953048831
 20
-139.0364745746159
 10
81.11701251227284
 20
-139.0364745746159
 10
81.07257078051312
 20
-139.0809163063756
 10
81.07257078051312
 20
-139.1360378341396
 10
81.07257078051312
 20
-139.1928819096462
 10
81.11701251227284
 20
-139.2418022655368
 10
81.17592364507061
 20
-139.2418022655368
 10
81.2351792874169
 20
-139.2418022655368
 10
81.27548690459433
 20
-139.1908148523551
 10
81.27548690459433
 20
-139.1381048914308
 10
81.27548690459433
 20
-139.0809163063756
 10
81.22897811554346
 20
-139.0364745746159
 10
81.17178953048831
 20
-139.0364745746159
 97
        0
 97
        0
 75
     2
 76
     1
 98
        0
  0
ENDBLK
  5
F6
330
F3
100
AcDbEntity
  8
0
100
AcDbBlockEnd
  0
ENDSEC
  0
SECTION
  2
ENTITIES
  0
POLYLINE
  5
41
330
1F
100
AcDbEntity
  8
_U+30EC_U+30A4_U+30E4_U+30FC 1
 62
   179
420
  2234388
370
    25
100
AcDb2dPolyline
 66
     1
 10
0.0
 20
0.0
 30
0.0
  0
VERTEX
  5
42
330
41
100
AcDbEntity
  8
_U+30EC_U+30A4_U+30E4_U+30FC 1
 62
   179
420
  2234388
370
    25
100
AcDbVertex
100
AcDb2dVertex
 10
84.72660144955543
 20
-123.4560296913582
 30
0.0
  0
VERTEX
  5
43
330
41
100
AcDbEntity
  8
_U+30EC_U+30A4_U+30E4_U+30FC 1
 62
   179
420
  2234388
370
    25
100
AcDbVertex
100
AcDb2dVertex
 10
105.726862302683
 20
-123.4560296913582
 30
0.0
  0
SEQEND
  5
44
330
41
100
AcDbEntity
  8
_U+30EC_U+30A4_U+30E4_U+30FC 1
 62
   179
420
  2234388
370
    25
  0
POLYLINE
  5
45
330
1F
100
AcDbEntity
  8
_U+30EC_U+30A4_U+30E4_U+30FC 1
 62
   179
420
  2234388
370
    25
100
AcDb2dPolyline
 66
     1
 10
0.0
 20
0.0
 30
0.0
  0
VERTEX
  5
46
330
45
100
AcDbEntity
  8
_U+30EC_U+30A4_U+30E4_U+30FC 1
 62
   179
420
  2234388
370
    25
100
AcDbVertex
100
AcDb2dVertex
 10
85.52656031803566
 20
-124.2559885800471
 30
0.0
  0
VERTEX
  5
47
330
45
100
AcDbEntity
  8
_U+30EC_U+30A4_U+30E4_U+30FC 1
 62
   179
420
  2234388
370
    25
100
AcDbVertex
100
AcDb2dVertex
 10
105.726862302683
 20
-124.2559885800471
 30
0.0
  0
SEQEND
  5
48
330
45
100
AcDbEntity
  8
_U+30EC_U+30A4_U+30E4_U+30FC 1
 62
   179
420
  2234388
370
    25
  0
POLYLINE
  5
49
330
1F
100
AcDbEntity
  8
_U+30EC_U+30A4_U+30E4_U+30FC 1
 62
   179
420
  2234388
370
    25
100
AcDb2dPolyline
 66
     1
 10
0.0
 20
0.0
 30
0.0
  0
VERTEX
  5
4A
330
49
100
AcDbEntity
  8
_U+30EC_U+30A4_U+30E4_U+30FC 1
 62
   179
420
  2234388
370
    25
100
AcDbVertex
100
AcDb2dVertex
 10
105.726862302683
 20
-123.4560296913582
 30
0.0
  0
VERTEX
  5
4B
330
49
100
AcDbEntity
  8
_U+30EC_U+30A4_U+30E4_U+30FC 1
 62
   179
420
  2234388
370
    25
100
AcDbVertex
100
AcDb2dVertex
 10
105.726862302683
 20
-124.2559885800471
 30
0.0
  0
SEQEND
  5
4C
330
49
100
AcDbEntity
  8
_U+30EC_U+30A4_U+30E4_U+30FC 1
 62
   179
420
  2234388
370
    25
  0
POLYLINE
  5
4D
330
1F
100
AcDbEntity
  8
_U+30EC_U+30A4_U+30E4_U+30FC 1
 62
   179
420
  2234388
370
    25
100
AcDb2dPolyline
 66
     1
 10
0.0
 20
0.0
 30
0.0
  0
VERTEX
  5
4E
330
4D
100
AcDbEntity
  8
_U+30EC_U+30A4_U+30E4_U+30FC 1
 62
   179
420
  2234388
370
    25
100
AcDbVertex
100
AcDb2dVertex
 10
84.72660144955543
 20
-123.4560296913582
 30
0.0
  0
VERTEX
  5
4F
330
4D
100
AcDbEntity
  8
_U+30EC_U+30A4_U+30E4_U+30FC 1
 62
   179
420
  2234388
370
    25
100
AcDbVertex
100
AcDb2dVertex
 10
84.72660144955543
 20
-137.256378854575
 30
0.0
  0
SEQEND
  5
50
330
4D
100
AcDbEntity
  8
_U+30EC_U+30A4_U+30E4_U+30FC 1
 62
   179
420
  2234388
370
    25
  0
POLYLINE
  5
51
330
1F
100
AcDbEntity
  8
_U+30EC_U+30A4_U+30E4_U+30FC 1
 62
   179
420
  2234388
370
    25
100
AcDb2dPolyline
 66
     1
 10
0.0
 20
0.0
 30
0.0
  0
VERTEX
  5
52
330
51
100
AcDbEntity
  8
_U+30EC_U+30A4_U+30E4_U+30FC 1
 62
   179
420
  2234388
370
    25
100
AcDbVertex
100
AcDb2dVertex
 10
85.52656031803566
 20
-124.2559885800471
 30
0.0
  0
VERTEX
  5
53
330
51
100
AcDbEntity
  8
_U+30EC_U+30A4_U+30E4_U+30FC 1
 62
   179
420
  2234388
370
    25
100
AcDbVertex
100
AcDb2dVertex
 10
85.52656031803566
 20
-136.456455243664
 30
0.0
  0
SEQEND
  5
54
330
51
100
AcDbEntity
  8
_U+30EC_U+30A4_U+30E4_U+30FC 1
 62
   179
420
  2234388
370
    25
  0
POLYLINE
  5
55
330
1F
100
AcDbEntity
  8
_U+30EC_U+30A4_U+30E4_U+30FC 1
 62
   179
420
  2234388
370
    25
100
AcDb2dPolyline
 66
     1
 10
0.0
 20
0.0
 30
0.0
  0
VERTEX
  5
56
330
55
100
AcDbEntity
  8
_U+30EC_U+30A4_U+30E4_U+30FC 1
 62
   179
420
  2234388
370
    25
100
AcDbVertex
100
AcDb2dVertex
 10
88.72671329194851
 20
-134.2563919108801
 30
0.0
  0
VERTEX
  5
57
330
55
100
AcDbEntity
  8
_U+30EC_U+30A4_U+30E4_U+30FC 1
 62
   179
420
  2234388
370
    25
100
AcDbVertex
100
AcDb2dVertex
 10
90.72657518537224
 20
-134.2563919108801
 30
0.0
  0
SEQEND
  5
58
330
55
100
AcDbEntity
  8
_U+30EC_U+30A4_U+30E4_U+30FC 1
 62
   179
420
  2234388
370
    25
  0
POLYLINE
  5
59
330
1F
100
AcDbEntity
  8
_U+30EC_U+30A4_U+30E4_U+30FC 1
 62
   179
420
  2234388
370
    25
100
AcDb2dPolyline
 66
     1
 10
0.0
 20
0.0
 30
0.0
  0
VERTEX
  5
5A
330
59
100
AcDbEntity
  8
_U+30EC_U+30A4_U+30E4_U+30FC 1
 62
   179
420
  2234388
370
    25
100
AcDbVertex
100
AcDb2dVertex
 10
84.72660144955543
 20
-137.256378854575
 30
0.0
  0
VERTEX
  5
5B
330
59
100
AcDbEntity
  8
_U+30EC_U+30A4_U+30E4_U+30FC 1
 62
   179
420
  2234388
370
    25
100
AcDbVertex
100
AcDb2dVertex
 10
90.72657518537224
 20
-137.256378854575
 30
0.0
  0
SEQEND
  5
5C
330
59
100
AcDbEntity
  8
_U+30EC_U+30A4_U+30E4_U+30FC 1
 62
   179
420
  2234388
370
    25
  0
POLYLINE
  5
5D
330
1F
100
AcDbEntity
  8
_U+30EC_U+30A4_U+30E4_U+30FC 1
 62
   179
420
  2234388
370
    25
100
AcDb2dPolyline
 66
     1
 10
0.0
 20
0.0
 30
0.0
  0
VERTEX
  5
5E
330
5D
100
AcDbEntity
  8
_U+30EC_U+30A4_U+30E4_U+30FC 1
 62
   179
420
  2234388
370
    25
100
AcDbVertex
100
AcDb2dVertex
 10
90.72657518537224
 20
-134.2563919108801
 30
0.0
  0
VERTEX
  5
5F
330
5D
100
AcDbEntity
  8
_U+30EC_U+30A4_U+30E4_U+30FC 1
 62
   179
420
  2234388
370
    25
100
AcDbVertex
100
AcDb2dVertex
 10
90.72657518537224
 20
-137.256378854575
 30
0.0
  0
SEQEND
  5
60
330
5D
100
AcDbEntity
  8
_U+30EC_U+30A4_U+30E4_U+30FC 1
 62
   179
420
  2234388
370
    25
  0
POLYLINE
  5
61
330
1F
100
AcDbEntity
  8
_U+30EC_U+30A4_U+30E4_U+30FC 1
 62
   179
420
  2234388
370
    25
100
AcDb2dPolyline
 66
     1
 10
0.0
 20
0.0
 30
0.0
  0
VERTEX
  5
62
330
61
100
AcDbEntity
  8
_U+30EC_U+30A4_U+30E4_U+30FC 1
 62
   179
420
  2234388
370
    25
100
AcDbVertex
100
AcDb2dVertex
 10
88.72671329194851
 20
-134.2563919108801
 30
0.0
  0
VERTEX
  5
63
330
61
100
AcDbEntity
  8
_U+30EC_U+30A4_U+30E4_U+30FC 1
 62
   179
420
  2234388
370
    25
100
AcDbVertex
100
AcDb2dVertex
 10
88.72671329194851
 20
-135.0563507995693
 30
0.0
  0
SEQEND
  5
64
330
61
100
AcDbEntity
  8
_U+30EC_U+30A4_U+30E4_U+30FC 1
 62
   179
420
  2234388
370
    25
  0
POLYLINE
  5
65
330
1F
100
AcDbEntity
  8
_U+30EC_U+30A4_U+30E4_U+30FC 1
 62
   179
420
  2234388
370
    25
100
AcDb2dPolyline
 66
     1
 10
0.0
 20
0.0
 30
0.0
  0
VERTEX
  5
66
330
65
100
AcDbEntity
  8
_U+30EC_U+30A4_U+30E4_U+30FC 1
 62
   179
420
  2234388
370
    25
100
AcDbVertex
100
AcDb2dVertex
 10
85.52656031803566
 20
-136.456455243664
 30
0.0
  0
VERTEX
  5
67
330
65
100
AcDbEntity
  8
_U+30EC_U+30A4_U+30E4_U+30FC 1
 62
   179
420
  2234388
370
    25
100
AcDbVertex
100
AcDb2dVertex
 10
89.92665159466887
 20
-136.456455243664
 30
0.0
  0
SEQEND
  5
68
330
65
100
AcDbEntity
  8
_U+30EC_U+30A4_U+30E4_U+30FC 1
 62
   179
420
  2234388
370
    25
  0
POLYLINE
  5
69
330
1F
100
AcDbEntity
  8
_U+30EC_U+30A4_U+30E4_U+30FC 1
 62
   179
420
  2234388
370
    25
100
AcDb2dPolyline
 66
     1
 10
0.0
 20
0.0
 30
0.0
  0
VERTEX
  5
6A
330
69
100
AcDbEntity
  8
_U+30EC_U+30A4_U+30E4_U+30FC 1
 62
   179
420
  2234388
370
    25
100
AcDbVertex
100
AcDb2dVertex
 10
89.92665159466887
 20
-135.0563507995693
 30
0.0
  0
VERTEX
  5
6B
330
69
100
AcDbEntity
  8
_U+30EC_U+30A4_U+30E4_U+30FC 1
 62
   179
420
  2234388
370
    25
100
AcDbVertex
100
AcDb2dVertex
 10
89.92665159466887
 20
-136.456455243664
 30
0.0
  0
SEQEND
  5
6C
330
69
100
AcDbEntity
  8
_U+30EC_U+30A4_U+30E4_U+30FC 1
 62
   179
420
  2234388
370
    25
  0
POLYLINE
  5
6D
330
1F
100
AcDbEntity
  8
_U+30EC_U+30A4_U+30E4_U+30FC 1
 62
   179
420
  2234388
370
    25
100
AcDb2dPolyline
 66
     1
 10
0.0
 20
0.0
 30
0.0
  0
VERTEX
  5
6E
330
6D
100
AcDbEntity
  8
_U+30EC_U+30A4_U+30E4_U+30FC 1
 62
   179
420
  2234388
370
    25
100
AcDbVertex
100
AcDb2dVertex
 10
88.72671329194851
 20
-135.0563507995693
 30
0.0
  0
VERTEX
  5
6F
330
6D
100
AcDbEntity
  8
_U+30EC_U+30A4_U+30E4_U+30FC 1
 62
   179
420
  2234388
370
    25
100
AcDbVertex
100
AcDb2dVertex
 10
89.92665159466887
 20
-135.0563507995693
 30
0.0
  0
SEQEND
  5
70
330
6D
100
AcDbEntity
  8
_U+30EC_U+30A4_U+30E4_U+30FC 1
 62
   179
420
  2234388
370
    25
  0
SPLINE
  5
71
330
1F
100
AcDbEntity
  8
_U+30EC_U+30A4_U+30E4_U+30FC 1
 62
   179
420
  2234388
370
     9
100
AcDbSpline
210
0.0
220
0.0
230
1.0
 70
    11
 71
     3
 72
    17
 73
    13
 74
     0
 42
0.0000000001
 43
0.0000000001
 12
1.0
 22
0.0
 32
0.0
 13
1.0
 23
0.0
 33
0.0
 40
0.0
 40
0.0
 40
0.0
 40
0.0
 40
1.0
 40
1.0
 40
1.0
 40
2.0
 40
2.0
 40
2.0
 40
3.0
 40
3.0
 40
3.0
 40
4.0
 40
4.0
 40
4.0
 40
4.0
 10
109.8265280314252
 20
-123.4560296913582
 30
0.0
 10
109.8265280314252
 20
-123.400925802483
 30
0.0
 10
109.7817605325673
 20
-123.3561230247166
 30
0.0
 10
109.7266213673073
 20
-123.3561230247166
 30
0.0
 10
109.6715174798243
 20
-123.3561230247166
 30
0.0
 10
109.6267147031895
 20
-123.400925802483
 30
0.0
 10
109.6267147031895
 20
-123.4560296913582
 30
0.0
 10
109.6267147031895
 20
-123.5118391357886
 30
0.0
 10
109.6715174798243
 20
-123.5566419135554
 30
0.0
 10
109.7266213673073
 20
-123.5566419135554
 30
0.0
 10
109.7817605325673
 20
-123.5566419135554
 30
0.0
 10
109.8265280314252
 20
-123.5118391357886
 30
0.0
 10
109.8265280314252
 20
-123.4560296913582
 30
0.0
  0
SPLINE
  5
72
330
1F
100
AcDbEntity
  8
_U+30EC_U+30A4_U+30E4_U+30FC 1
 62
   179
420
  2234388
370
     9
100
AcDbSpline
210
0.0
220
0.0
230
1.0
 70
    11
 71
     3
 72
    17
 73
    13
 74
     0
 42
0.0000000001
 43
0.0000000001
 12
1.0
 22
0.0
 32
0.0
 13
1.0
 23
0.0
 33
0.0
 40
0.0
 40
0.0
 40
0.0
 40
0.0
 40
1.0
 40
1.0
 40
1.0
 40
2.0
 40
2.0
 40
2.0
 40
3.0
 40
3.0
 40
3.0
 40
4.0
 40
4.0
 40
4.0
 40
4.0
 10
109.8265280314252
 20
-124.2559885800471
 30
0.0
 10
109.8265280314252
 20
-124.2008494133944
 30
0.0
 10
109.7817605325673
 20
-124.1560819134055
 30
0.0
 10
109.7266213673073
 20
-124.1560819134055
 30
0.0
 10
109.6715174798243
 20
-124.1560819134055
 30
0.0
 10
109.6267147031895
 20
-124.2008494133944
 30
0.0
 10
109.6267147031895
 20
-124.2559885800471
 30
0.0
 10
109.6267147031895
 20
-124.3117980244776
 30
0.0
 10
109.6715174798243
 20
-124.3565655244665
 30
0.0
 10
109.7266213673073
 20
-124.3565655244665
 30
0.0
 10
109.7817605325673
 20
-124.3565655244665
 30
0.0
 10
109.8265280314252
 20
-124.3117980244776
 30
0.0
 10
109.8265280314252
 20
-124.2559885800471
 30
0.0
  0
SPLINE
  5
73
330
1F
100
AcDbEntity
  8
_U+30EC_U+30A4_U+30E4_U+30FC 1
 62
   179
420
  2234388
370
     9
100
AcDbSpline
210
0.0
220
0.0
230
1.0
 70
    11
 71
     3
 72
    17
 73
    13
 74
     0
 42
0.0000000001
 43
0.0000000001
 12
1.0
 22
0.0
 32
0.0
 13
1.0
 23
0.0
 33
0.0
 40
0.0
 40
0.0
 40
0.0
 40
0.0
 40
1.0
 40
1.0
 40
1.0
 40
2.0
 40
2.0
 40
2.0
 40
3.0
 40
3.0
 40
3.0
 40
4.0
 40
4.0
 40
4.0
 40
4.0
 10
105.8267689668009
 20
-119.4562705256916
 30
0.0
 10
105.8267689668009
 20
-119.4011666368164
 30
0.0
 10
105.782001467943
 20
-119.3563638590497
 30
0.0
 10
105.726862302683
 20
-119.3563638590497
 30
0.0
 10
105.671761084693
 20
-119.3563638590497
 30
0.0
 10
105.6269583069269
 20
-119.4011666368164
 30
0.0
 10
105.6269583069269
 20
-119.4562705256916
 30
0.0
 10
105.6269583069269
 20
-119.5114096923444
 30
0.0
 10
105.671761084693
 20
-119.5561771923333
 30
0.0
 10
105.726862302683
 20
-119.5561771923333
 30
0.0
 10
105.782001467943
 20
-119.5561771923333
 30
0.0
 10
105.8267689668009
 20
-119.5114096923444
 30
0.0
 10
105.8267689668009
 20
-119.4562705256916
 30
0.0
  0
SPLINE
  5
74
330
1F
100
AcDbEntity
  8
_U+30EC_U+30A4_U+30E4_U+30FC 1
 62
   179
420
  2234388
370
     9
100
AcDbSpline
210
0.0
220
0.0
230
1.0
 70
    11
 71
     3
 72
    17
 73
    13
 74
     0
 42
0.0000000001
 43
0.0000000001
 12
1.0
 22
0.0
 32
0.0
 13
1.0
 23
0.0
 33
0.0
 40
0.0
 40
0.0
 40
0.0
 40
0.0
 40
1.0
 40
1.0
 40
1.0
 40
2.0
 40
2.0
 40
2.0
 40
3.0
 40
3.0
 40
3.0
 40
4.0
 40
4.0
 40
4.0
 40
4.0
 10
90.82683462725885
 20
-141.2568435757968
 30
0.0
 10
90.82683462725885
 20
-141.2010341313664
 30
0.0
 10
90.78206942174894
 20
-141.1562313535997
 30
0.0
 10
90.72657518537224
 20
-141.1562313535997
 30
0.0
 10
90.67147129788916
 20
-141.1562313535997
 30
0.0
 10
90.6266685212544
 20
-141.2010341313664
 30
0.0
 10
90.6266685212544
 20
-141.2568435757968
 30
0.0
 10
90.6266685212544
 20
-141.3119474646717
 30
0.0
 10
90.67147129788916
 20
-141.3567502424385
 30
0.0
 10
90.72657518537224
 20
-141.3567502424385
 30
0.0
 10
90.78206942174894
 20
-141.3567502424385
 30
0.0
 10
90.82683462725885
 20
-141.3119474646717
 30
0.0
 10
90.82683462725885
 20
-141.2568435757968
 30
0.0
  0
SPLINE
  5
75
330
1F
100
AcDbEntity
  8
_U+30EC_U+30A4_U+30E4_U+30FC 1
 62
   179
420
  2234388
370
     9
100
AcDbSpline
210
0.0
220
0.0
230
1.0
 70
    11
 71
     3
 72
    17
 73
    13
 74
     0
 42
0.0000000001
 43
0.0000000001
 12
1.0
 22
0.0
 32
0.0
 13
1.0
 23
0.0
 33
0.0
 40
0.0
 40
0.0
 40
0.0
 40
0.0
 40
1.0
 40
1.0
 40
1.0
 40
2.0
 40
2.0
 40
2.0
 40
3.0
 40
3.0
 40
3.0
 40
4.0
 40
4.0
 40
4.0
 40
4.0
 10
84.82650811367326
 20
-141.2568435757968
 30
0.0
 10
84.82650811367326
 20
-141.2010341313664
 30
0.0
 10
84.78174061481538
 20
-141.1562313535997
 30
0.0
 10
84.72660144955543
 20
-141.1562313535997
 30
0.0
 10
84.67149756207236
 20
-141.1562313535997
 30
0.0
 10
84.62669478543759
 20
-141.2010341313664
 30
0.0
 10
84.62669478543759
 20
-141.2568435757968
 30
0.0
 10
84.62669478543759
 20
-141.3119474646717
 30
0.0
 10
84.67149756207236
 20
-141.3567502424385
 30
0.0
 10
84.72660144955543
 20
-141.3567502424385
 30
0.0
 10
84.78174061481538
 20
-141.3567502424385
 30
0.0
 10
84.82650811367326
 20
-141.3119474646717
 30
0.0
 10
84.82650811367326
 20
-141.2568435757968
 30
0.0
  0
SPLINE
  5
76
330
1F
100
AcDbEntity
  8
_U+30EC_U+30A4_U+30E4_U+30FC 1
 62
   179
420
  2234388
370
     9
100
AcDbSpline
210
0.0
220
0.0
230
1.0
 70
    11
 71
     3
 72
    17
 73
    13
 74
     0
 42
0.0000000001
 43
0.0000000001
 12
1.0
 22
0.0
 32
0.0
 13
1.0
 23
0.0
 33
0.0
 40
0.0
 40
0.0
 40
0.0
 40
0.0
 40
1.0
 40
1.0
 40
1.0
 40
2.0
 40
2.0
 40
2.0
 40
3.0
 40
3.0
 40
3.0
 40
4.0
 40
4.0
 40
4.0
 40
4.0
 10
84.82650811367326
 20
-119.4562705256916
 30
0.0
 10
84.82650811367326
 20
-119.4011666368164
 30
0.0
 10
84.78174061481538
 20
-119.3563638590497
 30
0.0
 10
84.72660144955543
 20
-119.3563638590497
 30
0.0
 10
84.67149756207236
 20
-119.3563638590497
 30
0.0
 10
84.62669478543759
 20
-119.4011666368164
 30
0.0
 10
84.62669478543759
 20
-119.4562705256916
 30
0.0
 10
84.62669478543759
 20
-119.5114096923444
 30
0.0
 10
84.67149756207236
 20
-119.5561771923333
 30
0.0
 10
84.72660144955543
 20
-119.5561771923333
 30
0.0
 10
84.78174061481538
 20
-119.5561771923333
 30
0.0
 10
84.82650811367326
 20
-119.5114096923444
 30
0.0
 10
84.82650811367326
 20
-119.4562705256916
 30
0.0
  0
SPLINE
  5
77
330
1F
100
AcDbEntity
  8
_U+30EC_U+30A4_U+30E4_U+30FC 1
 62
   179
420
  2234388
370
     9
100
AcDbSpline
210
0.0
220
0.0
230
1.0
 70
    11
 71
     3
 72
    17
 73
    13
 74
     0
 42
0.0000000001
 43
0.0000000001
 12
1.0
 22
0.0
 32
0.0
 13
1.0
 23
0.0
 33
0.0
 40
0.0
 40
0.0
 40
0.0
 40
0.0
 40
1.0
 40
1.0
 40
1.0
 40
2.0
 40
2.0
 40
2.0
 40
3.0
 40
3.0
 40
3.0
 40
4.0
 40
4.0
 40
4.0
 40
4.0
 10
109.8265280314252
 20
-137.256378854575
 30
0.0
 10
109.8265280314252
 20
-137.2012749656995
 30
0.0
 10
109.7817605325673
 20
-137.1564721879334
 30
0.0
 10
109.7266213673073
 20
-137.1564721879334
 30
0.0
 10
109.6715174798243
 20
-137.1564721879334
 30
0.0
 10
109.6267147031895
 20
-137.2012749656995
 30
0.0
 10
109.6267147031895
 20
-137.256378854575
 30
0.0
 10
109.6267147031895
 20
-137.3115180212275
 30
0.0
 10
109.6715174798243
 20
-137.3562855212167
 30
0.0
 10
109.7266213673073
 20
-137.3562855212167
 30
0.0
 10
109.7817605325673
 20
-137.3562855212167
 30
0.0
 10
109.8265280314252
 20
-137.3115180212275
 30
0.0
 10
109.8265280314252
 20
-137.256378854575
 30
0.0
  0
SPLINE
  5
78
330
1F
100
AcDbEntity
  8
_U+30EC_U+30A4_U+30E4_U+30FC 1
 62
   179
420
  2234388
370
     9
100
AcDbSpline
210
0.0
220
0.0
230
1.0
 70
    11
 71
     3
 72
    17
 73
    13
 74
     0
 42
0.0000000001
 43
0.0000000001
 12
1.0
 22
0.0
 32
0.0
 13
1.0
 23
0.0
 33
0.0
 40
0.0
 40
0.0
 40
0.0
 40
0.0
 40
1.0
 40
1.0
 40
1.0
 40
2.0
 40
2.0
 40
2.0
 40
3.0
 40
3.0
 40
3.0
 40
4.0
 40
4.0
 40
4.0
 40
4.0
 10
109.8265280314252
 20
-134.2563919108801
 30
0.0
 10
109.8265280314252
 20
-134.2012880220051
 30
0.0
 10
109.7817605325673
 20
-134.1564852442384
 30
0.0
 10
109.7266213673073
 20
-134.1564852442384
 30
0.0
 10
109.6715174798243
 20
-134.1564852442384
 30
0.0
 10
109.6267147031895
 20
-134.2012880220051
 30
0.0
 10
109.6267147031895
 20
-134.2563919108801
 30
0.0
 10
109.6267147031895
 20
-134.3115310775331
 30
0.0
 10
109.6715174798243
 20
-134.3562985775224
 30
0.0
 10
109.7266213673073
 20
-134.3562985775224
 30
0.0
 10
109.7817605325673
 20
-134.3562985775224
 30
0.0
 10
109.8265280314252
 20
-134.3115310775331
 30
0.0
 10
109.8265280314252
 20
-134.2563919108801
 30
0.0
  0
POLYLINE
  5
79
330
1F
100
AcDbEntity
  8
_U+30EC_U+30A4_U+30E4_U+30FC 1
 62
   179
420
  2234388
370
     9
100
AcDb2dPolyline
 66
     1
 10
0.0
 20
0.0
 30
0.0
  0
VERTEX
  5
7A
330
79
100
AcDbEntity
  8
_U+30EC_U+30A4_U+30E4_U+30FC 1
 62
   179
420
  2234388
370
     9
100
AcDbVertex
100
AcDb2dVertex
 10
109.7266213673073
 20
-123.4560296913582
 30
0.0
  0
VERTEX
  5
7B
330
79
100
AcDbEntity
  8
_U+30EC_U+30A4_U+30E4_U+30FC 1
 62
   179
420
  2234388
370
     9
100
AcDbVertex
100
AcDb2dVertex
 10
109.7266213673073
 20
-118.1988294148948
 30
0.0
  0
SEQEND
  5
7C
330
79
100
AcDbEntity
  8
_U+30EC_U+30A4_U+30E4_U+30FC 1
 62
   179
420
  2234388
370
     9
  0
POLYLINE
  5
7D
330
1F
100
AcDbEntity
  8
_U+30EC_U+30A4_U+30E4_U+30FC 1
 62
   179
420
  2234388
370
     9
100
AcDb2dPolyline
 66
     1
 10
0.0
 20
0.0
 30
0.0
  0
VERTEX
  5
7E
330
7D
100
AcDbEntity
  8
_U+30EC_U+30A4_U+30E4_U+30FC 1
 62
   179
420
  2234388
370
     9
100
AcDbVertex
100
AcDb2dVertex
 10
109.7266213673073
 20
-123.4560296913582
 30
0.0
  0
VERTEX
  5
7F
330
7D
100
AcDbEntity
  8
_U+30EC_U+30A4_U+30E4_U+30FC 1
 62
   179
420
  2234388
370
     9
100
AcDbVertex
100
AcDb2dVertex
 10
109.7266213673073
 20
-124.2559885800471
 30
0.0
  0
SEQEND
  5
80
330
7D
100
AcDbEntity
  8
_U+30EC_U+30A4_U+30E4_U+30FC 1
 62
   179
420
  2234388
370
     9
  0
POLYLINE
  5
81
330
1F
100
AcDbEntity
  8
_U+30EC_U+30A4_U+30E4_U+30FC 1
 62
   179
420
  2234388
370
     9
100
AcDb2dPolyline
 66
     1
 10
0.0
 20
0.0
 30
0.0
  0
VERTEX
  5
82
330
81
100
AcDbEntity
  8
_U+30EC_U+30A4_U+30E4_U+30FC 1
 62
   179
420
  2234388
370
     9
100
AcDbVertex
100
AcDb2dVertex
 10
108.2666152934441
 20
-123.4560296913582
 30
0.0
  0
VERTEX
  5
83
330
81
100
AcDbEntity
  8
_U+30EC_U+30A4_U+30E4_U+30FC 1
 62
   179
420
  2234388
370
     9
100
AcDbVertex
100
AcDb2dVertex
 10
110.7270991195608
 20
-123.4560296913582
 30
0.0
  0
SEQEND
  5
84
330
81
100
AcDbEntity
  8
_U+30EC_U+30A4_U+30E4_U+30FC 1
 62
   179
420
  2234388
370
     9
  0
POLYLINE
  5
85
330
1F
100
AcDbEntity
  8
_U+30EC_U+30A4_U+30E4_U+30FC 1
 62
   179
420
  2234388
370
     9
100
AcDb2dPolyline
 66
     1
 10
0.0
 20
0.0
 30
0.0
  0
VERTEX
  5
86
330
85
100
AcDbEntity
  8
_U+30EC_U+30A4_U+30E4_U+30FC 1
 62
   179
420
  2234388
370
     9
100
AcDbVertex
100
AcDb2dVertex
 10
108.2666152934441
 20
-124.2559885800471
 30
0.0
  0
VERTEX
  5
87
330
85
100
AcDbEntity
  8
_U+30EC_U+30A4_U+30E4_U+30FC 1
 62
   179
420
  2234388
370
     9
100
AcDbVertex
100
AcDb2dVertex
 10
110.7270991195608
 20
-124.2559885800471
 30
0.0
  0
SEQEND
  5
88
330
85
100
AcDbEntity
  8
_U+30EC_U+30A4_U+30E4_U+30FC 1
 62
   179
420
  2234388
370
     9
  0
INSERT
  5
8A
330
1F
100
AcDbEntity
  8
_U+30EC_U+30A4_U+30E4_U+30FC 1
100
AcDbBlockReference
  2
block 2
 10
0.0
 20
0.0
 30
0.0
  0
POLYLINE
  5
9C
330
1F
100
AcDbEntity
  8
_U+30EC_U+30A4_U+30E4_U+30FC 1
 62
   179
420
  2234388
370
     9
100
AcDb2dPolyline
 66
     1
 10
0.0
 20
0.0
 30
0.0
  0
VERTEX
  5
9D
330
9C
100
AcDbEntity
  8
_U+30EC_U+30A4_U+30E4_U+30FC 1
 62
   179
420
  2234388
370
     9
100
AcDbVertex
100
AcDb2dVertex
 10
109.7266213673073
 20
-134.2563919108801
 30
0.0
  0
VERTEX
  5
9E
330
9C
100
AcDbEntity
  8
_U+30EC_U+30A4_U+30E4_U+30FC 1
 62
   179
420
  2234388
370
     9
100
AcDbVertex
100
AcDb2dVertex
 10
109.7266213673073
 20
-124.2559885800471
 30
0.0
  0
SEQEND
  5
9F
330
9C
100
AcDbEntity
  8
_U+30EC_U+30A4_U+30E4_U+30FC 1
 62
   179
420
  2234388
370
     9
  0
POLYLINE
  5
A0
330
1F
100
AcDbEntity
  8
_U+30EC_U+30A4_U+30E4_U+30FC 1
 62
   179
420
  2234388
370
     9
100
AcDb2dPolyline
 66
     1
 10
0.0
 20
0.0
 30
0.0
  0
VERTEX
  5
A1
330
A0
100
AcDbEntity
  8
_U+30EC_U+30A4_U+30E4_U+30FC 1
 62
   179
420
  2234388
370
     9
100
AcDbVertex
100
AcDb2dVertex
 10
93.2666456761252
 20
-134.2563919108801
 30
0.0
  0
VERTEX
  5
A2
330
A0
100
AcDbEntity
  8
_U+30EC_U+30A4_U+30E4_U+30FC 1
 62
   179
420
  2234388
370
     9
100
AcDbVertex
100
AcDb2dVertex
 10
110.7270991195608
 20
-134.2563919108801
 30
0.0
  0
SEQEND
  5
A3
330
A0
100
AcDbEntity
  8
_U+30EC_U+30A4_U+30E4_U+30FC 1
 62
   179
420
  2234388
370
     9
  0
INSERT
  5
A5
330
1F
100
AcDbEntity
  8
_U+30EC_U+30A4_U+30E4_U+30FC 1
100
AcDbBlockReference
  2
block 3
 10
0.0
 20
0.0
 30
0.0
  0
POLYLINE
  5
AD
330
1F
100
AcDbEntity
  8
_U+30EC_U+30A4_U+30E4_U+30FC 1
 62
   179
420
  2234388
370
     9
100
AcDb2dPolyline
 66
     1
 10
0.0
 20
0.0
 30
0.0
  0
VERTEX
  5
AE
330
AD
100
AcDbEntity
  8
_U+30EC_U+30A4_U+30E4_U+30FC 1
 62
   179
420
  2234388
370
     9
100
AcDbVertex
100
AcDb2dVertex
 10
109.7266213673073
 20
-134.2563919108801
 30
0.0
  0
VERTEX
  5
AF
330
AD
100
AcDbEntity
  8
_U+30EC_U+30A4_U+30E4_U+30FC 1
 62
   179
420
  2234388
370
     9
100
AcDbVertex
100
AcDb2dVertex
 10
109.7266213673073
 20
-137.256378854575
 30
0.0
  0
SEQEND
  5
B0
330
AD
100
AcDbEntity
  8
_U+30EC_U+30A4_U+30E4_U+30FC 1
 62
   179
420
  2234388
370
     9
  0
POLYLINE
  5
B1
330
1F
100
AcDbEntity
  8
_U+30EC_U+30A4_U+30E4_U+30FC 1
 62
   179
420
  2234388
370
     9
100
AcDb2dPolyline
 66
     1
 10
0.0
 20
0.0
 30
0.0
  0
VERTEX
  5
B2
330
B1
100
AcDbEntity
  8
_U+30EC_U+30A4_U+30E4_U+30FC 1
 62
   179
420
  2234388
370
     9
100
AcDbVertex
100
AcDb2dVertex
 10
93.2666456761252
 20
-137.256378854575
 30
0.0
  0
VERTEX
  5
B3
330
B1
100
AcDbEntity
  8
_U+30EC_U+30A4_U+30E4_U+30FC 1
 62
   179
420
  2234388
370
     9
100
AcDbVertex
100
AcDb2dVertex
 10
110.7270991195608
 20
-137.256378854575
 30
0.0
  0
SEQEND
  5
B4
330
B1
100
AcDbEntity
  8
_U+30EC_U+30A4_U+30E4_U+30FC 1
 62
   179
420
  2234388
370
     9
  0
INSERT
  5
B6
330
1F
100
AcDbEntity
  8
_U+30EC_U+30A4_U+30E4_U+30FC 1
100
AcDbBlockReference
  2
block 4
 10
0.0
 20
0.0
 30
0.0
  0
POLYLINE
  5
BB
330
1F
100
AcDbEntity
  8
_U+30EC_U+30A4_U+30E4_U+30FC 1
 62
   179
420
  2234388
370
     9
100
AcDb2dPolyline
 66
     1
 10
0.0
 20
0.0
 30
0.0
  0
VERTEX
  5
BC
330
BB
100
AcDbEntity
  8
_U+30EC_U+30A4_U+30E4_U+30FC 1
 62
   179
420
  2234388
370
     9
100
AcDbVertex
100
AcDb2dVertex
 10
84.72660144955543
 20
-119.4562705256916
 30
0.0
  0
VERTEX
  5
BD
330
BB
100
AcDbEntity
  8
_U+30EC_U+30A4_U+30E4_U+30FC 1
 62
   179
420
  2234388
370
     9
100
AcDbVertex
100
AcDb2dVertex
 10
105.726862302683
 20
-119.4562705256916
 30
0.0
  0
SEQEND
  5
BE
330
BB
100
AcDbEntity
  8
_U+30EC_U+30A4_U+30E4_U+30FC 1
 62
   179
420
  2234388
370
     9
  0
POLYLINE
  5
BF
330
1F
100
AcDbEntity
  8
_U+30EC_U+30A4_U+30E4_U+30FC 1
 62
   179
420
  2234388
370
     9
100
AcDb2dPolyline
 66
     1
 10
0.0
 20
0.0
 30
0.0
  0
VERTEX
  5
C0
330
BF
100
AcDbEntity
  8
_U+30EC_U+30A4_U+30E4_U+30FC 1
 62
   179
420
  2234388
370
     9
100
AcDbVertex
100
AcDb2dVertex
 10
84.72660144955543
 20
-120.9163119142153
 30
0.0
  0
VERTEX
  5
C1
330
BF
100
AcDbEntity
  8
_U+30EC_U+30A4_U+30E4_U+30FC 1
 62
   179
420
  2234388
370
     9
100
AcDbVertex
100
AcDb2dVertex
 10
84.72660144955543
 20
-118.4564983037191
 30
0.0
  0
SEQEND
  5
C2
330
BF
100
AcDbEntity
  8
_U+30EC_U+30A4_U+30E4_U+30FC 1
 62
   179
420
  2234388
370
     9
  0
POLYLINE
  5
C3
330
1F
100
AcDbEntity
  8
_U+30EC_U+30A4_U+30E4_U+30FC 1
 62
   179
420
  2234388
370
     9
100
AcDb2dPolyline
 66
     1
 10
0.0
 20
0.0
 30
0.0
  0
VERTEX
  5
C4
330
C3
100
AcDbEntity
  8
_U+30EC_U+30A4_U+30E4_U+30FC 1
 62
   179
420
  2234388
370
     9
100
AcDbVertex
100
AcDb2dVertex
 10
105.726862302683
 20
-120.9163119142153
 30
0.0
  0
VERTEX
  5
C5
330
C3
100
AcDbEntity
  8
_U+30EC_U+30A4_U+30E4_U+30FC 1
 62
   179
420
  2234388
370
     9
100
AcDbVertex
100
AcDb2dVertex
 10
105.726862302683
 20
-118.4564983037191
 30
0.0
  0
SEQEND
  5
C6
330
C3
100
AcDbEntity
  8
_U+30EC_U+30A4_U+30E4_U+30FC 1
 62
   179
420
  2234388
370
     9
  0
INSERT
  5
C8
330
1F
100
AcDbEntity
  8
_U+30EC_U+30A4_U+30E4_U+30FC 1
100
AcDbBlockReference
  2
block 5
 10
0.0
 20
0.0
 30
0.0
  0
POLYLINE
  5
CF
330
1F
100
AcDbEntity
  8
_U+30EC_U+30A4_U+30E4_U+30FC 1
 62
   179
420
  2234388
370
     9
100
AcDb2dPolyline
 66
     1
 10
0.0
 20
0.0
 30
0.0
  0
VERTEX
  5
D0
330
CF
100
AcDbEntity
  8
_U+30EC_U+30A4_U+30E4_U+30FC 1
 62
   179
420
  2234388
370
     9
100
AcDbVertex
100
AcDb2dVertex
 10
84.72660144955543
 20
-141.2568435757968
 30
0.0
  0
VERTEX
  5
D1
330
CF
100
AcDbEntity
  8
_U+30EC_U+30A4_U+30E4_U+30FC 1
 62
   179
420
  2234388
370
     9
100
AcDbVertex
100
AcDb2dVertex
 10
90.72657518537224
 20
-141.2568435757968
 30
0.0
  0
SEQEND
  5
D2
330
CF
100
AcDbEntity
  8
_U+30EC_U+30A4_U+30E4_U+30FC 1
 62
   179
420
  2234388
370
     9
  0
POLYLINE
  5
D3
330
1F
100
AcDbEntity
  8
_U+30EC_U+30A4_U+30E4_U+30FC 1
 62
   179
420
  2234388
370
     9
100
AcDb2dPolyline
 66
     1
 10
0.0
 20
0.0
 30
0.0
  0
VERTEX
  5
D4
330
D3
100
AcDbEntity
  8
_U+30EC_U+30A4_U+30E4_U+30FC 1
 62
   179
420
  2234388
370
     9
100
AcDbVertex
100
AcDb2dVertex
 10
84.72660144955543
 20
-139.7968021872731
 30
0.0
  0
VERTEX
  5
D5
330
D3
100
AcDbEntity
  8
_U+30EC_U+30A4_U+30E4_U+30FC 1
 62
   179
420
  2234388
370
     9
100
AcDbVertex
100
AcDb2dVertex
 10
84.72660144955543
 20
-142.2566157977694
 30
0.0
  0
SEQEND
  5
D6
330
D3
100
AcDbEntity
  8
_U+30EC_U+30A4_U+30E4_U+30FC 1
 62
   179
420
  2234388
370
     9
  0
POLYLINE
  5
D7
330
1F
100
AcDbEntity
  8
_U+30EC_U+30A4_U+30E4_U+30FC 1
 62
   179
420
  2234388
370
     9
100
AcDb2dPolyline
 66
     1
 10
0.0
 20
0.0
 30
0.0
  0
VERTEX
  5
D8
330
D7
100
AcDbEntity
  8
_U+30EC_U+30A4_U+30E4_U+30FC 1
 62
   179
420
  2234388
370
     9
100
AcDbVertex
100
AcDb2dVertex
 10
90.72657518537224
 20
-139.7968021872731
 30
0.0
  0
VERTEX
  5
D9
330
D7
100
AcDbEntity
  8
_U+30EC_U+30A4_U+30E4_U+30FC 1
 62
   179
420
  2234388
370
     9
100
AcDbVertex
100
AcDb2dVertex
 10
90.72657518537224
 20
-142.2566157977694
 30
0.0
  0
SEQEND
  5
DA
330
D7
100
AcDbEntity
  8
_U+30EC_U+30A4_U+30E4_U+30FC 1
 62
   179
420
  2234388
370
     9
  0
INSERT
  5
DC
330
1F
100
AcDbEntity
  8
_U+30EC_U+30A4_U+30E4_U+30FC 1
100
AcDbBlockReference
  2
block 6
 10
0.0
 20
0.0
 30
0.0
  0
POLYLINE
  5
E2
330
1F
100
AcDbEntity
  8
_U+30EC_U+30A4_U+30E4_U+30FC 1
  6
AI-Linetype-1
 62
   154
420
    23468
370
    25
100
AcDb2dPolyline
 66
     1
 10
0.0
 20
0.0
 30
0.0
  0
VERTEX
  5
E3
330
E2
100
AcDbEntity
  8
_U+30EC_U+30A4_U+30E4_U+30FC 1
  6
AI-Linetype-1
 62
   154
420
    23468
370
    25
100
AcDbVertex
100
AcDb2dVertex
 10
84.11890646505901
 20
-123.4773727469086
 30
0.0
  0
VERTEX
  5
E4
330
E2
100
AcDbEntity
  8
_U+30EC_U+30A4_U+30E4_U+30FC 1
  6
AI-Linetype-1
 62
   154
420
    23468
370
    25
100
AcDbVertex
100
AcDb2dVertex
 10
84.11890646505901
 20
-131.4768910782417
 30
0.0
  0
SEQEND
  5
E6
330
E2
100
AcDbEntity
  8
_U+30EC_U+30A4_U+30E4_U+30FC 1
  6
AI-Linetype-1
 62
   154
420
    23468
370
    25
  0
POLYLINE
  5
E7
330
1F
100
AcDbEntity
  8
_U+30EC_U+30A4_U+30E4_U+30FC 1
 62
   179
420
  2234388
370
     9
100
AcDb2dPolyline
 66
     1
 10
0.0
 20
0.0
 30
0.0
  0
VERTEX
  5
E8
330
E7
100
AcDbEntity
  8
_U+30EC_U+30A4_U+30E4_U+30FC 1
 62
   179
420
  2234388
370
     9
100
AcDbVertex
100
AcDb2dVertex
 10
83.93941313630494
 20
-131.5396149671154
 30
0.0
  0
VERTEX
  5
E9
330
E7
100
AcDbEntity
  8
_U+30EC_U+30A4_U+30E4_U+30FC 1
 62
   179
420
  2234388
370
     9
100
AcDbVertex
100
AcDb2dVertex
 10
83.07366121394767
 20
-132.0398185781009
 30
0.0
  0
SEQEND
  5
EA
330
E7
100
AcDbEntity
  8
_U+30EC_U+30A4_U+30E4_U+30FC 1
 62
   179
420
  2234388
370
     9
  0
POLYLINE
  5
EB
330
1F
100
AcDbEntity
  8
_U+30EC_U+30A4_U+30E4_U+30FC 1
 62
   179
420
  2234388
370
     9
100
AcDb2dPolyline
 66
     1
 10
0.0
 20
0.0
 30
0.0
  0
VERTEX
  5
EC
330
EB
100
AcDbEntity
  8
_U+30EC_U+30A4_U+30E4_U+30FC 1
 62
   179
420
  2234388
370
     9
100
AcDbVertex
100
AcDb2dVertex
 10
83.93941313630494
 20
-131.5396149671154
 30
0.0
  0
VERTEX
  5
ED
330
EB
100
AcDbEntity
  8
_U+30EC_U+30A4_U+30E4_U+30FC 1
 62
   179
420
  2234388
370
     9
100
AcDbVertex
100
AcDb2dVertex
 10
76.86868831669416
 20
-138.611010243125
 30
0.0
  0
SEQEND
  5
EE
330
EB
100
AcDbEntity
  8
_U+30EC_U+30A4_U+30E4_U+30FC 1
 62
   179
420
  2234388
370
     9
  0
POLYLINE
  5
EF
330
1F
100
AcDbEntity
  8
_U+30EC_U+30A4_U+30E4_U+30FC 1
 62
   179
420
  2234388
370
     9
100
AcDb2dPolyline
 66
     1
 10
0.0
 20
0.0
 30
0.0
  0
VERTEX
  5
F0
330
EF
100
AcDbEntity
  8
_U+30EC_U+30A4_U+30E4_U+30FC 1
 62
   179
420
  2234388
370
     9
100
AcDbVertex
100
AcDb2dVertex
 10
83.93941313630494
 20
-131.5396149671154
 30
0.0
  0
VERTEX
  5
F1
330
EF
100
AcDbEntity
  8
_U+30EC_U+30A4_U+30E4_U+30FC 1
 62
   179
420
  2234388
370
     9
100
AcDbVertex
100
AcDb2dVertex
 10
83.43952703794699
 20
-132.4056844113433
 30
0.0
  0
SEQEND
  5
F2
330
EF
100
AcDbEntity
  8
_U+30EC_U+30A4_U+30E4_U+30FC 1
 62
   179
420
  2234388
370
     9
  0
INSERT
  5
F4
330
1F
100
AcDbEntity
  8
_U+30EC_U+30A4_U+30E4_U+30FC 1
100
AcDbBlockReference
  2
block 7
 10
0.0
 20
0.0
 30
0.0
  0
ENDSEC
  0
SECTION
  2
OBJECTS
  0
DICTIONARY
  5
C
330
0
100
AcDbDictionary
281
     1
  3
ACAD_GROUP
350
D
  3
ACAD_LAYOUT
350
1A
  3
ACAD_MATERIAL
350
3B
  3
ACAD_MLEADERSTYLE
350
11C
  3
ACAD_MLINESTYLE
350
17
  3
ACAD_PLOTSETTINGS
350
19
  3
ACAD_PLOTSTYLENAME
350
E
  3
ACAD_TABLESTYLE
350
11B
  3
ACAD_VISUALSTYLE
350
2A
  0
SUN
  5
3F
330
29
100
AcDbSun
 90
        1
290
     0
 63
     7
421
 16777215
 40
1.0
291
     1
 91
  2455826
 92
 54000000
292
     0
 70
     2
 71
   256
280
     1
  0
DICTIONARY
  5
D
102
{ACAD_REACTORS
330
C
102
}
330
C
100
AcDbDictionary
281
     1
  0
DICTIONARY
  5
1A
102
{ACAD_REACTORS
330
C
102
}
330
C
100
AcDbDictionary
281
     1
  3
Layout1
350
1E
  3
Layout2
350
26
  3
Model
350
22
  0
DICTIONARY
  5
3B
102
{ACAD_REACTORS
330
C
102
}
330
C
100
AcDbDictionary
281
     1
  3
ByBlock
350
3D
  3
ByLayer
350
3C
  3
Global
350
3E
  0
DICTIONARY
  5
11C
102
{ACAD_REACTORS
330
C
102
}
330
C
100
AcDbDictionary
281
     1
  0
DICTIONARY
  5
17
102
{ACAD_REACTORS
330
C
102
}
330
C
100
AcDbDictionary
281
     1
  3
Standard
350
18
  0
DICTIONARY
  5
19
102
{ACAD_REACTORS
330
C
102
}
330
C
100
AcDbDictionary
281
     1
  0
ACDBDICTIONARYWDFLT
  5
E
102
{ACAD_REACTORS
330
C
102
}
330
C
100
AcDbDictionary
281
     1
  3
Normal
350
F
100
AcDbDictionaryWithDefault
340
F
  0
DICTIONARY
  5
11B
102
{ACAD_REACTORS
330
C
102
}
330
C
100
AcDbDictionary
281
     1
  0
DICTIONARY
  5
2A
102
{ACAD_REACTORS
330
C
102
}
330
C
100
AcDbDictionary
281
     1
  3
2dWireframe
350
2F
  3
3D Hidden
350
31
  3
3dWireframe
350
30
  3
Basic
350
32
  3
Brighten
350
36
  3
ColorChange
350
3A
  3
Conceptual
350
34
  3
Dim
350
35
  3
Facepattern
350
39
  3
Flat
350
2B
  3
FlatWithEdges
350
2C
  3
Gouraud
350
2D
  3
GouraudWithEdges
350
2E
  3
Linepattern
350
38
  3
Realistic
350
33
  3
Thicken
350
37
  0
LAYOUT
  5
1E
102
{ACAD_REACTORS
330
1A
102
}
330
1A
100
AcDbPlotSettings
  1

  2
none_device
  4

  6

 40
0.0
 41
0.0
 42
0.0
 43
0.0
 44
0.0
 45
0.0
 46
0.0
 47
0.0
 48
0.0
 49
0.0
140
0.0
141
0.0
142
1.0
143
1.0
 70
   688
 72
     0
 73
     0
 74
     5
  7

 75
    16
 76
     0
 77
     2
 78
   300
147
1.0
148
0.0
149
0.0
100
AcDbLayout
  1
Layout1
 70
     1
 71
     1
 10
0.0
 20
0.0
 11
12.0
 21
9.0
 12
0.0
 22
0.0
 32
0.0
 14
1.000000000000000E+20
 24
1.000000000000000E+20
 34
1.000000000000000E+20
 15
-1.000000000000000E+20
 25
-1.000000000000000E+20
 35
-1.000000000000000E+20
146
0.0
 13
0.0
 23
0.0
 33
0.0
 16
1.0
 26
0.0
 36
0.0
 17
0.0
 27
1.0
 37
0.0
 76
     0
330
1B
  0
LAYOUT
  5
26
102
{ACAD_REACTORS
330
1A
102
}
330
1A
100
AcDbPlotSettings
  1

  2
none_device
  4

  6

 40
0.0
 41
0.0
 42
0.0
 43
0.0
 44
0.0
 45
0.0
 46
0.0
 47
0.0
 48
0.0
 49
0.0
140
0.0
141
0.0
142
1.0
143
1.0
 70
   688
 72
     0
 73
     0
 74
     5
  7

 75
    16
 76
     0
 77
     2
 78
   300
147
1.0
148
0.0
149
0.0
100
AcDbLayout
  1
Layout2
 70
     1
 71
     2
 10
0.0
 20
0.0
 11
0.0
 21
0.0
 12
0.0
 22
0.0
 32
0.0
 14
0.0
 24
0.0
 34
0.0
 15
0.0
 25
0.0
 35
0.0
146
0.0
 13
0.0
 23
0.0
 33
0.0
 16
1.0
 26
0.0
 36
0.0
 17
0.0
 27
1.0
 37
0.0
 76
     0
330
23
  0
LAYOUT
  5
22
102
{ACAD_REACTORS
330
1A
102
}
330
1A
100
AcDbPlotSettings
  1

  2
none_device
  4

  6

 40
0.0
 41
0.0
 42
0.0
 43
0.0
 44
0.0
 45
0.0
 46
0.0
 47
0.0
 48
0.0
 49
0.0
140
0.0
141
0.0
142
1.0
143
1.0
 70
  1712
 72
     0
 73
     0
 74
     0
  7

 75
     0
 76
     0
 77
     2
 78
   300
147
1.0
148
0.0
149
0.0
100
AcDbLayout
  1
Model
 70
     1
 71
     0
 10
0.0
 20
0.0
 11
12.0
 21
9.0
 12
0.0
 22
0.0
 32
0.0
 14
1.000000000000000E+20
 24
1.000000000000000E+20
 34
1.000000000000000E+20
 15
-1.000000000000000E+20
 25
-1.000000000000000E+20
 35
-1.000000000000000E+20
146
0.0
 13
0.0
 23
0.0
 33
0.0
 16
1.0
 26
0.0
 36
0.0
 17
0.0
 27
1.0
 37
0.0
 76
     0
330
1F
331
29
  0
MATERIAL
  5
3D
102
{ACAD_REACTORS
330
3B
102
}
330
3B
100
AcDbMaterial
  1
ByBlock
 72
     1
 94
      127
  0
MATERIAL
  5
3C
102
{ACAD_REACTORS
330
3B
102
}
330
3B
100
AcDbMaterial
  1
ByLayer
 72
     1
 94
      127
  0
MATERIAL
  5
3E
102
{ACAD_REACTORS
330
3B
102
}
330
3B
100
AcDbMaterial
  1
Global
 72
     1
 94
      127
  0
MLINESTYLE
  5
18
102
{ACAD_REACTORS
330
17
102
}
330
17
100
AcDbMlineStyle
  2
Standard
 70
     0
  3

 62
   256
 51
90.0
 52
90.0
 71
     2
 49
0.5
 62
   256
  6
BYLAYER
 49
-0.5
 62
   256
  6
BYLAYER
  0
ACDBPLACEHOLDER
  5
F
102
{ACAD_REACTORS
330
E
102
}
330
E
  0
VISUALSTYLE
  5
2F
102
{ACAD_REACTORS
330
2A
102
}
330
2A
100
AcDbVisualStyle
  2
2dWireframe
 70
     4
177
     2
291
     0
 71
     0
176
     1
 72
     2
176
     1
 73
     0
176
     1
 90
        0
176
     1
 40
-0.6
176
     1
 41
-30.0
176
     1
 62
     5
 63
     7
421
 16777215
176
     1
 74
     1
176
     1
 91
        4
176
     1
 64
     7
176
     1
 65
   257
176
     1
 75
     1
176
     1
175
     1
176
     1
 42
1.0
176
     1
 92
        0
176
     1
 66
   257
176
     1
 43
1.0
176
     1
 76
     1
176
     1
 77
     6
176
     1
 78
     2
176
     1
 67
     7
176
     1
 79
     5
176
     1
170
     0
176
     1
171
     0
176
     1
290
     0
176
     1
 93
        1
176
     1
 44
0.0
176
     1
173
     0
176
     1
  0
VISUALSTYLE
  5
31
102
{ACAD_REACTORS
330
2A
102
}
330
2A
100
AcDbVisualStyle
  2
3D Hidden
 70
     6
177
     2
291
     0
 71
     1
176
     1
 72
     2
176
     1
 73
     2
176
     1
 90
        0
176
     1
 40
-0.6
176
     1
 41
-30.0
176
     1
 62
     5
 63
     7
421
 16777215
176
     1
 74
     2
176
     1
 91
        2
176
     1
 64
     7
176
     1
 65
   257
176
     1
 75
     2
176
     1
175
     1
176
     1
 42
40.0
176
     1
 92
        0
176
     1
 66
   257
176
     1
 43
1.0
176
     1
 76
     1
176
     1
 77
     6
176
     1
 78
     2
176
     1
 67
     7
176
     1
 79
     3
176
     1
170
     0
176
     1
171
     0
176
     1
290
     0
176
     1
 93
        1
176
     1
 44
0.0
176
     1
173
     0
176
     1
  0
VISUALSTYLE
  5
30
102
{ACAD_REACTORS
330
2A
102
}
330
2A
100
AcDbVisualStyle
  2
3dWireframe
 70
     5
177
     2
291
     0
 71
     0
176
     1
 72
     2
176
     1
 73
     0
176
     1
 90
        0
176
     1
 40
-0.6
176
     1
 41
-30.0
176
     1
 62
     5
 63
     7
421
 16777215
176
     1
 74
     1
176
     1
 91
        4
176
     1
 64
     7
176
     1
 65
   257
176
     1
 75
     1
176
     1
175
     1
176
     1
 42
1.0
176
     1
 92
        0
176
     1
 66
   257
176
     1
 43
1.0
176
     1
 76
     1
176
     1
 77
     6
176
     1
 78
     2
176
     1
 67
     7
176
     1
 79
     5
176
     1
170
     0
176
     1
171
     0
176
     1
290
     0
176
     1
 93
        1
176
     1
 44
0.0
176
     1
173
     0
176
     1
  0
VISUALSTYLE
  5
32
102
{ACAD_REACTORS
330
2A
102
}
330
2A
100
AcDbVisualStyle
  2
Basic
 70
     7
177
     2
291
     1
 71
     1
176
     1
 72
     0
176
     1
 73
     1
176
     1
 90
        0
176
     1
 40
-0.6
176
     1
 41
-30.0
176
     1
 62
     5
 63
     7
421
 16777215
176
     1
 74
     0
176
     1
 91
        4
176
     1
 64
     7
176
     1
 65
   257
176
     1
 75
     1
176
     1
175
     1
176
     1
 42
1.0
176
     1
 92
        8
176
     1
 66
     7
176
     1
 43
1.0
176
     1
 76
     1
176
     1
 77
     6
176
     1
 78
     2
176
     1
 67
     7
176
     1
 79
     5
176
     1
170
     0
176
     1
171
     0
176
     1
290
     0
176
     1
 93
        1
176
     1
 44
0.0
176
     1
173
     0
176
     1
  0
VISUALSTYLE
  5
36
102
{ACAD_REACTORS
330
2A
102
}
330
2A
100
AcDbVisualStyle
  2
Brighten
 70
    12
177
     2
291
     1
 71
     2
176
     1
 72
     2
176
     1
 73
     0
176
     1
 90
        0
176
     1
 40
-0.6
176
     1
 41
-30.0
176
     1
 62
     5
 63
     7
421
 16777215
176
     1
 74
     1
176
     1
 91
        4
176
     1
 64
     7
176
     1
 65
   257
176
     1
 75
     1
176
     1
175
     1
176
     1
 42
1.0
176
     1
 92
        8
176
     1
 66
     7
176
     1
 43
1.0
176
     1
 76
     1
176
     1
 77
     6
176
     1
 78
     2
176
     1
 67
     7
176
     1
 79
     5
176
     1
170
     0
176
     1
171
     0
176
     1
290
     0
176
     1
 93
        1
176
     1
 44
50.0
176
     1
173
     0
176
     1
  0
VISUALSTYLE
  5
3A
102
{ACAD_REACTORS
330
2A
102
}
330
2A
100
AcDbVisualStyle
  2
ColorChange
 70
    16
177
     2
291
     1
 71
     2
176
     1
 72
     2
176
     1
 73
     3
176
     1
 90
        0
176
     1
 40
-0.6
176
     1
 41
-30.0
176
     1
 62
     5
 63
     8
421
  8421504
176
     1
 74
     1
176
     1
 91
        4
176
     1
 64
     7
176
     1
 65
   257
176
     1
 75
     1
176
     1
175
     1
176
     1
 42
1.0
176
     1
 92
        8
176
     1
 66
     8
424
  8421504
176
     1
 43
1.0
176
     1
 76
     1
176
     1
 77
     6
176
     1
 78
     2
176
     1
 67
     7
176
     1
 79
     5
176
     1
170
     0
176
     1
171
     0
176
     1
290
     0
176
     1
 93
        1
176
     1
 44
0.0
176
     1
173
     0
176
     1
  0
VISUALSTYLE
  5
34
102
{ACAD_REACTORS
330
2A
102
}
330
2A
100
AcDbVisualStyle
  2
Conceptual
 70
     9
177
     2
291
     0
 71
     3
176
     1
 72
     2
176
     1
 73
     0
176
     1
 90
        0
176
     1
 40
-0.6
176
     1
 41
-30.0
176
     1
 62
     5
 63
     7
421
 16777215
176
     1
 74
     2
176
     1
 91
        2
176
     1
 64
     7
176
     1
 65
   257
176
     1
 75
     1
176
     1
175
     1
176
     1
 42
40.0
176
     1
 92
        8
176
     1
 66
     7
176
     1
 43
1.0
176
     1
 76
     1
176
     1
 77
     6
176
     1
 78
     2
176
     1
 67
     7
176
     1
 79
     3
176
     1
170
     0
176
     1
171
     0
176
     1
290
     0
176
     1
 93
        1
176
     1
 44
0.0
176
     1
173
     0
176
     1
  0
VISUALSTYLE
  5
35
102
{ACAD_REACTORS
330
2A
102
}
330
2A
100
AcDbVisualStyle
  2
Dim
 70
    11
177
     2
291
     1
 71
     2
176
     1
 72
     2
176
     1
 73
     0
176
     1
 90
        0
176
     1
 40
-0.6
176
     1
 41
-30.0
176
     1
 62
     5
 63
     7
421
 16777215
176
     1
 74
     1
176
     1
 91
        4
176
     1
 64
     7
176
     1
 65
   257
176
     1
 75
     1
176
     1
175
     1
176
     1
 42
1.0
176
     1
 92
        8
176
     1
 66
     7
176
     1
 43
1.0
176
     1
 76
     1
176
     1
 77
     6
176
     1
 78
     2
176
     1
 67
     7
176
     1
 79
     5
176
     1
170
     0
176
     1
171
     0
176
     1
290
     0
176
     1
 93
        1
176
     1
 44
-50.0
176
     1
173
     0
176
     1
  0
VISUALSTYLE
  5
39
102
{ACAD_REACTORS
330
2A
102
}
330
2A
100
AcDbVisualStyle
  2
Facepattern
 70
    15
177
     2
291
     1
 71
     2
176
     1
 72
     2
176
     1
 73
     0
176
     1
 90
        0
176
     1
 40
-0.6
176
     1
 41
-30.0
176
     1
 62
     5
 63
     7
421
 16777215
176
     1
 74
     1
176
     1
 91
        4
176
     1
 64
     7
176
     1
 65
   257
176
     1
 75
     1
176
     1
175
     1
176
     1
 42
1.0
176
     1
 92
        8
176
     1
 66
     7
176
     1
 43
1.0
176
     1
 76
     1
176
     1
 77
     6
176
     1
 78
     2
176
     1
 67
     7
176
     1
 79
     5
176
     1
170
     0
176
     1
171
     0
176
     1
290
     0
176
     1
 93
        1
176
     1
 44
0.0
176
     1
173
     0
176
     1
  0
VISUALSTYLE
  5
2B
102
{ACAD_REACTORS
330
2A
102
}
330
2A
100
AcDbVisualStyle
  2
Flat
 70
     0
177
     2
291
     1
 71
     2
176
     1
 72
     1
176
     1
 73
     1
176
     1
 90
        2
176
     1
 40
-0.6
176
     1
 41
30.0
176
     1
 62
     5
 63
     7
421
 16777215
176
     1
 74
     0
176
     1
 91
        4
176
     1
 64
     7
176
     1
 65
   257
176
     1
 75
     1
176
     1
175
     1
176
     1
 42
1.0
176
     1
 92
        8
176
     1
 66
     7
176
     1
 43
1.0
176
     1
 76
     1
176
     1
 77
     6
176
     1
 78
     2
176
     1
 67
     7
176
     1
 79
     5
176
     1
170
     0
176
     1
171
     0
176
     1
290
     0
176
     1
 93
       13
176
     1
 44
0.0
176
     1
173
     0
176
     1
  0
VISUALSTYLE
  5
2C
102
{ACAD_REACTORS
330
2A
102
}
330
2A
100
AcDbVisualStyle
  2
FlatWithEdges
 70
     1
177
     2
291
     1
 71
     2
176
     1
 72
     1
176
     1
 73
     1
176
     1
 90
        2
176
     1
 40
-0.6
176
     1
 41
30.0
176
     1
 62
     5
 63
     7
421
 16777215
176
     1
 74
     1
176
     1
 91
        4
176
     1
 64
     7
176
     1
 65
   257
176
     1
 75
     1
176
     1
175
     1
176
     1
 42
1.0
176
     1
 92
        0
176
     1
 66
   257
176
     1
 43
1.0
176
     1
 76
     1
176
     1
 77
     6
176
     1
 78
     2
176
     1
 67
     7
176
     1
 79
     5
176
     1
170
     0
176
     1
171
     0
176
     1
290
     0
176
     1
 93
       13
176
     1
 44
0.0
176
     1
173
     0
176
     1
  0
VISUALSTYLE
  5
2D
102
{ACAD_REACTORS
330
2A
102
}
330
2A
100
AcDbVisualStyle
  2
Gouraud
 70
     2
177
     2
291
     1
 71
     2
176
     1
 72
     2
176
     1
 73
     1
176
     1
 90
        2
176
     1
 40
-0.6
176
     1
 41
30.0
176
     1
 62
     5
 63
     7
421
 16777215
176
     1
 74
     0
176
     1
 91
        4
176
     1
 64
     7
176
     1
 65
   257
176
     1
 75
     1
176
     1
175
     1
176
     1
 42
1.0
176
     1
 92
        0
176
     1
 66
     7
176
     1
 43
1.0
176
     1
 76
     1
176
     1
 77
     6
176
     1
 78
     2
176
     1
 67
     7
176
     1
 79
     5
176
     1
170
     0
176
     1
171
     0
176
     1
290
     0
176
     1
 93
       13
176
     1
 44
0.0
176
     1
173
     0
176
     1
  0
VISUALSTYLE
  5
2E
102
{ACAD_REACTORS
330
2A
102
}
330
2A
100
AcDbVisualStyle
  2
GouraudWithEdges
 70
     3
177
     2
291
     1
 71
     2
176
     1
 72
     2
176
     1
 73
     1
176
     1
 90
        2
176
     1
 40
-0.6
176
     1
 41
30.0
176
     1
 62
     5
 63
     7
421
 16777215
176
     1
 74
     1
176
     1
 91
        4
176
     1
 64
     7
176
     1
 65
   257
176
     1
 75
     1
176
     1
175
     1
176
     1
 42
1.0
176
     1
 92
        0
176
     1
 66
   257
176
     1
 43
1.0
176
     1
 76
     1
176
     1
 77
     6
176
     1
 78
     2
176
     1
 67
     7
176
     1
 79
     5
176
     1
170
     0
176
     1
171
     0
176
     1
290
     0
176
     1
 93
       13
176
     1
 44
0.0
176
     1
173
     0
176
     1
  0
VISUALSTYLE
  5
38
102
{ACAD_REACTORS
330
2A
102
}
330
2A
100
AcDbVisualStyle
  2
Linepattern
 70
    14
177
     2
291
     1
 71
     2
176
     1
 72
     2
176
     1
 73
     0
176
     1
 90
        0
176
     1
 40
-0.6
176
     1
 41
-30.0
176
     1
 62
     5
 63
     7
421
 16777215
176
     1
 74
     1
176
     1
 91
        4
176
     1
 64
     7
176
     1
 65
   257
176
     1
 75
     7
176
     1
175
     7
176
     1
 42
1.0
176
     1
 92
        8
176
     1
 66
     7
176
     1
 43
1.0
176
     1
 76
     1
176
     1
 77
     6
176
     1
 78
     2
176
     1
 67
     7
176
     1
 79
     5
176
     1
170
     0
176
     1
171
     0
176
     1
290
     0
176
     1
 93
        1
176
     1
 44
0.0
176
     1
173
     0
176
     1
  0
VISUALSTYLE
  5
33
102
{ACAD_REACTORS
330
2A
102
}
330
2A
100
AcDbVisualStyle
  2
Realistic
 70
     8
177
     2
291
     0
 71
     2
176
     1
 72
     2
176
     1
 73
     0
176
     1
 90
        0
176
     1
 40
-0.6
176
     1
 41
-30.0
176
     1
 62
     5
 63
     7
421
 16777215
176
     1
 74
     1
176
     1
 91
        0
176
     1
 64
     7
176
     1
 65
   257
176
     1
 75
     1
176
     1
175
     1
176
     1
 42
1.0
176
     1
 92
        8
176
     1
 66
     8
424
  7895160
176
     1
 43
1.0
176
     1
 76
     1
176
     1
 77
     6
176
     1
 78
     2
176
     1
 67
     7
176
     1
 79
     5
176
     1
170
     0
176
     1
171
     0
176
     1
290
     0
176
     1
 93
       13
176
     1
 44
0.0
176
     1
173
     0
176
     1
  0
VISUALSTYLE
  5
37
102
{ACAD_REACTORS
330
2A
102
}
330
2A
100
AcDbVisualStyle
  2
Thicken
 70
    13
177
     2
291
     1
 71
     2
176
     1
 72
     2
176
     1
 73
     0
176
     1
 90
        0
176
     1
 40
-0.6
176
     1
 41
-30.0
176
     1
 62
     5
 63
     7
421
 16777215
176
     1
 74
     1
176
     1
 91
        4
176
     1
 64
     7
176
     1
 65
   257
176
     1
 75
     1
176
     1
175
     1
176
     1
 42
1.0
176
     1
 92
       12
176
     1
 66
     7
176
     1
 43
1.0
176
     1
 76
     1
176
     1
 77
     6
176
     1
 78
     2
176
     1
 67
     7
176
     1
 79
     5
176
     1
170
     0
176
     1
171
     0
176
     1
290
     0
176
     1
 93
        1
176
     1
 44
0.0
176
     1
173
     0
176
     1
  0
ENDSEC
  0
EOF
