  0
SECTION
  2
HEADER
  9
$ACADVER
  1
AC1024
  9
$ACADMAINTVER
 70
     6
  9
$DWGCODEPAGE
  3
UNDEFINED
  9
$INSBASE
 10
0.0
 20
0.0
 30
0.0
  9
$EXTMIN
 10
1.000000000000000E+20
 20
1.000000000000000E+20
 30
1.000000000000000E+20
  9
$EXTMAX
 10
-1.000000000000000E+20
 20
-1.000000000000000E+20
 30
-1.000000000000000E+20
  9
$LIMMIN
 10
0.0
 20
0.0
  9
$LIMMAX
 10
12.0
 20
9.0
  9
$ORTHOMODE
 70
     0
  9
$REGENMODE
 70
     1
  9
$FILLMODE
 70
     1
  9
$QTEXTMODE
 70
     0
  9
$MIRRTEXT
 70
     1
  9
$LTSCALE
 40
1.0
  9
$ATTMODE
 70
     1
  9
$TEXTSIZE
 40
0.2
  9
$TRACEWID
 40
0.05
  9
$TEXTSTYLE
  7
Standard
  9
$CLAYER
  8
0
  9
$CELTYPE
  6
ByLayer
  9
$CECOLOR
 62
   256
  9
$CELTSCALE
 40
1.0
  9
$DISPSILH
 70
     0
  9
$DIMSCALE
 40
1.0
  9
$DIMASZ
 40
0.18
  9
$DIMEXO
 40
0.0625
  9
$DIMDLI
 40
0.38
  9
$DIMRND
 40
0.0
  9
$DIMDLE
 40
0.0
  9
$DIMEXE
 40
0.18
  9
$DIMTP
 40
0.0
  9
$DIMTM
 40
0.0
  9
$DIMTXT
 40
0.18
  9
$DIMCEN
 40
0.09
  9
$DIMTSZ
 40
0.0
  9
$DIMTOL
 70
     0
  9
$DIMLIM
 70
     0
  9
$DIMTIH
 70
     1
  9
$DIMTOH
 70
     1
  9
$DIMSE1
 70
     0
  9
$DIMSE2
 70
     0
  9
$DIMTAD
 70
     0
  9
$DIMZIN
 70
     0
  9
$DIMBLK
  1

  9
$DIMASO
 70
     1
  9
$DIMSHO
 70
     1
  9
$DIMPOST
  1

  9
$DIMAPOST
  1

  9
$DIMALT
 70
     0
  9
$DIMALTD
 70
     2
  9
$DIMALTF
 40
25.4
  9
$DIMLFAC
 40
1.0
  9
$DIMTOFL
 70
     0
  9
$DIMTVP
 40
0.0
  9
$DIMTIX
 70
     0
  9
$DIMSOXD
 70
     0
  9
$DIMSAH
 70
     0
  9
$DIMBLK1
  1

  9
$DIMBLK2
  1

  9
$DIMSTYLE
  2
Standard
  9
$DIMCLRD
 70
     0
  9
$DIMCLRE
 70
     0
  9
$DIMCLRT
 70
     0
  9
$DIMTFAC
 40
1.0
  9
$DIMGAP
 40
0.09
  9
$DIMJUST
 70
     0
  9
$DIMSD1
 70
     0
  9
$DIMSD2
 70
     0
  9
$DIMTOLJ
 70
     1
  9
$DIMTZIN
 70
     0
  9
$DIMALTZ
 70
     0
  9
$DIMALTTZ
 70
     0
  9
$DIMUPT
 70
     0
  9
$DIMDEC
 70
     4
  9
$DIMTDEC
 70
     4
  9
$DIMALTU
 70
     2
  9
$DIMALTTD
 70
     2
  9
$DIMTXSTY
  7
Standard
  9
$DIMAUNIT
 70
     0
  9
$DIMADEC
 70
     0
  9
$DIMALTRND
 40
0.0
  9
$DIMAZIN
 70
     0
  9
$DIMDSEP
 70
    46
  9
$DIMATFIT
 70
     3
  9
$DIMFRAC
 70
     0
  9
$DIMLDRBLK
  1

  9
$DIMLUNIT
 70
     2
  9
$DIMLWD
 70
    -2
  9
$DIMLWE
 70
    -2
  9
$DIMTMOVE
 70
     0
  9
$DIMFXL
 40
1.0
  9
$DIMFXLON
 70
     0
  9
$DIMJOGANG
 40
0.7853981633974483
  9
$DIMTFILL
 70
     0
  9
$DIMTFILLCLR
 70
     0
  9
$DIMARCSYM
 70
     0
  9
$DIMLTYPE
  6

  9
$DIMLTEX1
  6

  9
$DIMLTEX2
  6

  9
$DIMTXTDIRECTION
 70
     0
  9
$LUNITS
 70
     2
  9
$LUPREC
 70
     4
  9
$SKETCHINC
 40
0.1
  9
$FILLETRAD
 40
0.5
  9
$AUNITS
 70
     0
  9
$AUPREC
 70
     0
  9
$MENU
  1
.
  9
$ELEVATION
 40
0.0
  9
$PELEVATION
 40
0.0
  9
$THICKNESS
 40
0.0
  9
$LIMCHECK
 70
     0
  9
$CHAMFERA
 40
0.5
  9
$CHAMFERB
 40
0.5
  9
$CHAMFERC
 40
1.0
  9
$CHAMFERD
 40
0.0
  9
$SKPOLY
 70
     0
  9
$TDCREATE
 40
2457917.589143507
  9
$TDUCREATE
 40
2457917.214143518
  9
$TDUPDATE
 40
2457917.589143507
  9
$TDUUPDATE
 40
2457917.214143518
  9
$TDINDWG
 40
0.0000000116
  9
$TDUSRTIMER
 40
0.0000000116
  9
$USRTIMER
 70
     1
  9
$ANGBASE
 50
0.0
  9
$ANGDIR
 70
     0
  9
$PDMODE
 70
     0
  9
$PDSIZE
 40
0.0
  9
$PLINEWID
 40
0.0
  9
$SPLFRAME
 70
     0
  9
$SPLINETYPE
 70
     6
  9
$SPLINESEGS
 70
     8
  9
$HANDSEED
  5
E4
  9
$SURFTAB1
 70
     6
  9
$SURFTAB2
 70
     6
  9
$SURFTYPE
 70
     6
  9
$SURFU
 70
     6
  9
$SURFV
 70
     6
  9
$UCSBASE
  2

  9
$UCSNAME
  2

  9
$UCSORG
 10
0.0
 20
0.0
 30
0.0
  9
$UCSXDIR
 10
1.0
 20
0.0
 30
0.0
  9
$UCSYDIR
 10
0.0
 20
1.0
 30
0.0
  9
$UCSORTHOREF
  2

  9
$UCSORTHOVIEW
 70
     0
  9
$UCSORGTOP
 10
0.0
 20
0.0
 30
0.0
  9
$UCSORGBOTTOM
 10
0.0
 20
0.0
 30
0.0
  9
$UCSORGLEFT
 10
0.0
 20
0.0
 30
0.0
  9
$UCSORGRIGHT
 10
0.0
 20
0.0
 30
0.0
  9
$UCSORGFRONT
 10
0.0
 20
0.0
 30
0.0
  9
$UCSORGBACK
 10
0.0
 20
0.0
 30
0.0
  9
$PUCSBASE
  2

  9
$PUCSNAME
  2

  9
$PUCSORG
 10
0.0
 20
0.0
 30
0.0
  9
$PUCSXDIR
 10
1.0
 20
0.0
 30
0.0
  9
$PUCSYDIR
 10
0.0
 20
1.0
 30
0.0
  9
$PUCSORTHOREF
  2

  9
$PUCSORTHOVIEW
 70
     0
  9
$PUCSORGTOP
 10
0.0
 20
0.0
 30
0.0
  9
$PUCSORGBOTTOM
 10
0.0
 20
0.0
 30
0.0
  9
$PUCSORGLEFT
 10
0.0
 20
0.0
 30
0.0
  9
$PUCSORGRIGHT
 10
0.0
 20
0.0
 30
0.0
  9
$PUCSORGFRONT
 10
0.0
 20
0.0
 30
0.0
  9
$PUCSORGBACK
 10
0.0
 20
0.0
 30
0.0
  9
$USERI1
 70
     0
  9
$USERI2
 70
     0
  9
$USERI3
 70
     0
  9
$USERI4
 70
     0
  9
$USERI5
 70
     0
  9
$USERR1
 40
0.0
  9
$USERR2
 40
0.0
  9
$USERR3
 40
0.0
  9
$USERR4
 40
0.0
  9
$USERR5
 40
0.0
  9
$WORLDVIEW
 70
     1
  9
$SHADEDGE
 70
     3
  9
$SHADEDIF
 70
    70
  9
$TILEMODE
 70
     1
  9
$MAXACTVP
 70
    64
  9
$PINSBASE
 10
0.0
 20
0.0
 30
0.0
  9
$PLIMCHECK
 70
     0
  9
$PEXTMIN
 10
1.000000000000000E+20
 20
1.000000000000000E+20
 30
1.000000000000000E+20
  9
$PEXTMAX
 10
-1.000000000000000E+20
 20
-1.000000000000000E+20
 30
-1.000000000000000E+20
  9
$PLIMMIN
 10
0.0
 20
0.0
  9
$PLIMMAX
 10
12.0
 20
9.0
  9
$UNITMODE
 70
     0
  9
$VISRETAIN
 70
     1
  9
$PLINEGEN
 70
     0
  9
$PSLTSCALE
 70
     1
  9
$TREEDEPTH
 70
  3020
  9
$CMLSTYLE
  2
Standard
  9
$CMLJUST
 70
     0
  9
$CMLSCALE
 40
1.0
  9
$PROXYGRAPHICS
 70
     1
  9
$MEASUREMENT
 70
     0
  9
$CELWEIGHT
370
    -1
  9
$ENDCAPS
280
     0
  9
$JOINSTYLE
280
     0
  9
$LWDISPLAY
290
     1
  9
$INSUNITS
 70
     1
  9
$HYPERLINKBASE
  1

  9
$STYLESHEET
  1

  9
$XEDIT
290
     1
  9
$CEPSNTYPE
380
     0
  9
$PSTYLEMODE
290
     1
  9
$FINGERPRINTGUID
  2
{6CDA9A35-B3C1-9EAD-A587-F58E396F48D3}
  9
$VERSIONGUID
  2
{FAEB1C32-E019-11D5-929B-00C0DF256EC4}
  9
$EXTNAMES
290
     1
  9
$PSVPSCALE
 40
0.0
  9
$OLESTARTUP
290
     0
  9
$SORTENTS
280
   127
  9
$INDEXCTL
280
     0
  9
$HIDETEXT
280
     1
  9
$XCLIPFRAME
280
     2
  9
$HALOGAP
280
     0
  9
$OBSCOLOR
 70
   257
  9
$OBSLTYPE
280
     0
  9
$INTERSECTIONDISPLAY
280
     0
  9
$INTERSECTIONCOLOR
 70
   257
  9
$DIMASSOC
280
     2
  9
$PROJECTNAME
  1

  9
$CAMERADISPLAY
290
     0
  9
$LENSLENGTH
 40
50.0
  9
$CAMERAHEIGHT
 40
0.0
  9
$STEPSPERSEC
 40
2.0
  9
$STEPSIZE
 40
6.0
  9
$3DDWFPREC
 40
2.0
  9
$PSOLWIDTH
 40
0.25
  9
$PSOLHEIGHT
 40
4.0
  9
$LOFTANG1
 40
1.570796326794897
  9
$LOFTANG2
 40
1.570796326794897
  9
$LOFTMAG1
 40
0.0
  9
$LOFTMAG2
 40
0.0
  9
$LOFTPARAM
 70
     7
  9
$LOFTNORMALS
280
     1
  9
$LATITUDE
 40
37.795
  9
$LONGITUDE
 40
-122.394
  9
$NORTHDIRECTION
 40
0.0
  9
$TIMEZONE
 70
 -8000
  9
$LIGHTGLYPHDISPLAY
280
     1
  9
$TILEMODELIGHTSYNCH
280
     1
  9
$CMATERIAL
347
3C
  9
$SOLIDHIST
280
     1
  9
$SHOWHIST
280
     1
  9
$DWFFRAME
280
     2
  9
$DGNFRAME
280
     2
  9
$REALWORLDSCALE
290
     1
  9
$INTERFERECOLOR
 62
   256
  9
$CSHADOW
280
     0
  9
$SHADOWPLANELOCATION
 40
0.0
  0
ENDSEC
  0
SECTION
  2
CLASSES
  0
CLASS
  1
ACDBDICTIONARYWDFLT
  2
AcDbDictionaryWithDefault
  3
ObjectDBX Classes
 90
        0
 91
        4
280
     0
281
     0
  0
CLASS
  1
VISUALSTYLE
  2
AcDbVisualStyle
  3
ObjectDBX Classes
 90
     4095
 91
        4
280
     0
281
     0
  0
CLASS
  1
MATERIAL
  2
AcDbMaterial
  3
ObjectDBX Classes
 90
     1153
 91
        4
280
     0
281
     0
  0
CLASS
  1
SUN
  2
AcDbSun
  3
SCENEOE
 90
     1024
 91
        4
280
     0
281
     0
  0
ENDSEC
  0
SECTION
  2
TABLES
  0
TABLE
  2
VPORT
  5
8
330
0
100
AcDbSymbolTable
 70
     1
  0
VPORT
  5
29
330
8
100
AcDbSymbolTableRecord
100
AcDbViewportTableRecord
  2
*Active
 70
     0
 10
0.0
 20
0.0
 11
1.0
 21
1.0
 12
0.0
 22
0.0
 13
0.0
 23
0.0
 14
0.5
 24
0.5
 15
0.5
 25
0.5
 16
0.0
 26
0.0
 36
1.0
 17
63.499999984125
 27
-89.00059456108309
 37
0.0
 40
178.0011891221662
 41
0.7134783795241226
 42
50.0
 43
0.0
 44
0.0
 50
0.0
 51
0.0
 71
     0
 72
   100
 73
     1
 74
     3
 75
     0
 76
     0
 77
     0
 78
     0
281
     0
 65
     1
110
0.0
120
0.0
130
0.0
111
1.0
121
0.0
131
0.0
112
0.0
122
1.0
132
0.0
 79
     0
146
0.0
 60
     3
 61
     5
292
     1
282
     1
141
0.0
142
0.0
 63
   250
361
3F
  0
ENDTAB
  0
TABLE
  2
LTYPE
  5
5
330
0
100
AcDbSymbolTable
 70
     1
  0
LTYPE
  5
14
330
5
100
AcDbSymbolTableRecord
100
AcDbLinetypeTableRecord
  2
ByBlock
 70
     0
  3

 72
    65
 73
     0
 40
0.0
  0
LTYPE
  5
15
330
5
100
AcDbSymbolTableRecord
100
AcDbLinetypeTableRecord
  2
ByLayer
 70
     0
  3

 72
    65
 73
     0
 40
0.0
  0
LTYPE
  5
16
330
5
100
AcDbSymbolTableRecord
100
AcDbLinetypeTableRecord
  2
Continuous
 70
     0
  3
Solid line
 72
    65
 73
     0
 40
0.0
  0
ENDTAB
  0
TABLE
  2
LAYER
  5
2
330
0
100
AcDbSymbolTable
 70
     2
  0
LAYER
  5
10
330
2
100
AcDbSymbolTableRecord
100
AcDbLayerTableRecord
  2
0
 70
     0
 62
     7
  6
Continuous
370
    -3
390
F
347
3E
  0
LAYER
  5
40
330
2
100
AcDbSymbolTableRecord
100
AcDbLayerTableRecord
  2
_U+30EC_U+30A4_U+30E4_U+30FC 1
 70
     0
 62
     7
  6
Continuous
370
    -3
390
F
347
3E
  0
ENDTAB
  0
TABLE
  2
STYLE
  5
3
330
0
100
AcDbSymbolTable
 70
     1
  0
STYLE
  5
11
330
3
100
AcDbSymbolTableRecord
100
AcDbTextStyleTableRecord
  2
Standard
 70
     0
 40
0.0
 41
1.0
 50
0.0
 71
     0
 42
0.2
  3
txt
  4

  0
ENDTAB
  0
TABLE
  2
VIEW
  5
6
330
0
100
AcDbSymbolTable
 70
     0
  0
ENDTAB
  0
TABLE
  2
UCS
  5
7
330
0
100
AcDbSymbolTable
 70
     0
  0
ENDTAB
  0
TABLE
  2
APPID
  5
9
330
0
100
AcDbSymbolTable
 70
     1
  0
APPID
  5
12
330
9
100
AcDbSymbolTableRecord
100
AcDbRegAppTableRecord
  2
ACAD
 70
     0
  0
ENDTAB
  0
TABLE
  2
DIMSTYLE
  5
A
330
0
100
AcDbSymbolTable
 70
     1
100
AcDbDimStyleTable
  0
DIMSTYLE
105
27
330
A
100
AcDbSymbolTableRecord
100
AcDbDimStyleTableRecord
  2
Standard
 70
     0
178
     0
340
11
  0
ENDTAB
  0
TABLE
  2
BLOCK_RECORD
  5
1
330
0
100
AcDbSymbolTable
 70
     6
  0
BLOCK_RECORD
  5
1F
330
1
100
AcDbSymbolTableRecord
100
AcDbBlockTableRecord
  2
*Model_Space
340
22
 70
     0
280
     1
281
     0
  0
BLOCK_RECORD
  5
1B
330
1
100
AcDbSymbolTableRecord
100
AcDbBlockTableRecord
  2
*Paper_Space
340
1E
 70
     0
280
     1
281
     0
  0
BLOCK_RECORD
  5
23
330
1
100
AcDbSymbolTableRecord
100
AcDbBlockTableRecord
  2
*Paper_Space0
340
26
 70
     0
280
     1
281
     0
  0
BLOCK_RECORD
  5
89
330
1
100
AcDbSymbolTableRecord
100
AcDbBlockTableRecord
  2
block 2
340
0
102
{BLKREFS
331
8A
102
}
 70
     0
280
     1
281
     0
  0
BLOCK_RECORD
  5
A4
330
1
100
AcDbSymbolTableRecord
100
AcDbBlockTableRecord
  2
block 3
340
0
102
{BLKREFS
331
A5
102
}
 70
     0
280
     1
281
     0
  0
BLOCK_RECORD
  5
B5
330
1
100
AcDbSymbolTableRecord
100
AcDbBlockTableRecord
  2
block 4
340
0
102
{BLKREFS
331
B6
102
}
 70
     0
280
     1
281
     0
  0
BLOCK_RECORD
  5
C7
330
1
100
AcDbSymbolTableRecord
100
AcDbBlockTableRecord
  2
block 5
340
0
102
{BLKREFS
331
C8
102
}
 70
     0
280
     1
281
     0
  0
BLOCK_RECORD
  5
DB
330
1
100
AcDbSymbolTableRecord
100
AcDbBlockTableRecord
  2
block 6
340
0
102
{BLKREFS
331
DC
102
}
 70
     0
280
     1
281
     0
  0
ENDTAB
  0
ENDSEC
  0
SECTION
  2
BLOCKS
  0
BLOCK
  5
20
330
1F
100
AcDbEntity
  8
0
100
AcDbBlockBegin
  2
*Model_Space
 70
     0
 10
0.0
 20
0.0
 30
0.0
  3
*Model_Space
  1

  0
ENDBLK
  5
21
330
1F
100
AcDbEntity
  8
0
100
AcDbBlockEnd
  0
BLOCK
  5
1C
330
1B
100
AcDbEntity
 67
     1
  8
0
100
AcDbBlockBegin
  2
*Paper_Space
 70
     0
 10
0.0
 20
0.0
 30
0.0
  3
*Paper_Space
  1

  0
ENDBLK
  5
1D
330
1B
100
AcDbEntity
 67
     1
  8
0
100
AcDbBlockEnd
  0
BLOCK
  5
24
330
23
100
AcDbEntity
  8
0
100
AcDbBlockBegin
  2
*Paper_Space0
 70
     0
 10
0.0
 20
0.0
 30
0.0
  3
*Paper_Space0
  1

  0
ENDBLK
  5
25
330
23
100
AcDbEntity
  8
0
100
AcDbBlockEnd
  0
BLOCK
  5
8B
330
89
100
AcDbEntity
  8
0
100
AcDbBlockBegin
  2
block 2
 70
     0
 10
0.0
 20
0.0
 30
0.0
  3
block 2
  1

  0
SPLINE
  5
8D
330
89
100
AcDbEntity
  8
_U+30EC_U+30A4_U+30E4_U+30FC 1
370
     0
100
AcDbSpline
210
0.0
220
0.0
230
1.0
 70
    11
 71
     3
 72
    29
 73
    25
 74
     0
 42
0.0000000001
 43
0.0000000001
 12
1.0
 22
0.0
 32
0.0
 13
1.0
 23
0.0
 33
0.0
 40
0.0
 40
0.0
 40
0.0
 40
0.0
 40
1.0
 40
1.0
 40
1.0
 40
2.0
 40
2.0
 40
2.0
 40
3.0
 40
3.0
 40
3.0
 40
4.0
 40
4.0
 40
4.0
 40
5.0
 40
5.0
 40
5.0
 40
6.0
 40
6.0
 40
6.0
 40
7.0
 40
7.0
 40
7.0
 40
8.0
 40
8.0
 40
8.0
 40
8.0
 10
74.01822101014127
 20
-81.53473033985938
 30
0.0
 10
74.22768281564447
 20
-81.65014103861525
 30
0.0
 10
74.24663084081334
 20
-81.83548717572168
 30
0.0
 10
74.24663084081334
 20
-81.95985512273921
 30
0.0
 10
74.24663084081334
 20
-82.13142087790465
 30
0.0
 10
74.20012205176248
 20
-82.28300507925564
 30
0.0
 10
74.01822101014127
 20
-82.38463539607051
 30
0.0
 10
73.82357311522466
 20
-82.49556747069556
 30
0.0
 10
73.58655054583947
 20
-82.51589353405853
 30
0.0
 10
73.42394203893568
 20
-82.51589353405853
 30
0.0
 10
73.27993704765224
 20
-82.51589353405853
 30
0.0
 10
73.02810056768048
 20
-82.4976345279867
 30
0.0
 10
72.82931855818157
 20
-82.38463539607051
 30
0.0
 10
72.62640243410034
 20
-82.26956920686317
 30
0.0
 10
72.60297578480065
 20
-82.0976589421492
 30
0.0
 10
72.60297578480065
 20
-81.95985512273921
 30
0.0
 10
72.60297578480065
 20
-81.79001191531638
 30
0.0
 10
72.64741751656037
 20
-81.63636065667424
 30
0.0
 10
72.82931855818157
 20
-81.53473033985938
 30
0.0
 10
73.02189939580703
 20
-81.42827688936515
 30
0.0
 10
73.25030922647909
 20
-81.40347220187135
 30
0.0
 10
73.42394203893568
 20
-81.40347220187135
 30
0.0
 10
73.5951632845526
 20
-81.40347220187135
 30
0.0
 10
73.82564017251582
 20
-81.42620983207401
 30
0.0
 10
74.01822101014127
 20
-81.53473033985938
 30
0.0
  0
SPLINE
  5
8E
330
89
100
AcDbEntity
  8
_U+30EC_U+30A4_U+30E4_U+30FC 1
370
     0
100
AcDbSpline
210
0.0
220
0.0
230
1.0
 70
    11
 71
     3
 72
    17
 73
    13
 74
     0
 42
0.0000000001
 43
0.0000000001
 12
1.0
 22
0.0
 32
0.0
 13
1.0
 23
0.0
 33
0.0
 40
0.0
 40
0.0
 40
0.0
 40
0.0
 40
1.0
 40
1.0
 40
1.0
 40
2.0
 40
2.0
 40
2.0
 40
3.0
 40
3.0
 40
3.0
 40
4.0
 40
4.0
 40
4.0
 40
4.0
 10
72.79555662242612
 20
-81.95985512273921
 30
0.0
 10
72.79555662242612
 20
-82.22650551329754
 30
0.0
 10
73.07908798086217
 20
-82.27611488828514
 30
0.0
 10
73.42394203893568
 20
-82.27611488828514
 30
0.0
 10
73.74330239041835
 20
-82.27611488828514
 30
0.0
 10
74.05198294589673
 20
-82.23787432839887
 30
0.0
 10
74.05198294589673
 20
-81.95985512273921
 30
0.0
 10
74.05198294589673
 20
-81.69527178947202
 30
0.0
 10
73.77086315430034
 20
-81.64325084764475
 30
0.0
 10
73.42394203893568
 20
-81.64325084764475
 30
0.0
 10
73.1042371779045
 20
-81.64325084764475
 30
0.0
 10
72.79555662242612
 20
-81.6839029743707
 30
0.0
 10
72.79555662242612
 20
-81.95985512273921
 30
0.0
  0
HATCH
  5
8F
330
89
100
AcDbEntity
  8
_U+30EC_U+30A4_U+30E4_U+30FC 1
 62
   179
420
  2234388
100
AcDbHatch
 10
0.0
 20
0.0
 30
0.0
210
0.0
220
0.0
230
1.0
  2
SOLID
 70
     1
 71
     0
 91
        2
 92
        1
 93
        1
 72
     4
 94
        3
 73
     0
 74
     1
 95
       29
 96
       25
 40
0.0
 40
0.0
 40
0.0
 40
0.0
 40
1.0
 40
1.0
 40
1.0
 40
2.0
 40
2.0
 40
2.0
 40
3.0
 40
3.0
 40
3.0
 40
4.0
 40
4.0
 40
4.0
 40
5.0
 40
5.0
 40
5.0
 40
6.0
 40
6.0
 40
6.0
 40
7.0
 40
7.0
 40
7.0
 40
8.0
 40
8.0
 40
8.0
 40
8.0
 10
74.01822101014127
 20
-81.53473033985938
 10
74.22768281564447
 20
-81.65014103861525
 10
74.24663084081334
 20
-81.83548717572168
 10
74.24663084081334
 20
-81.95985512273921
 10
74.24663084081334
 20
-82.13142087790465
 10
74.20012205176248
 20
-82.28300507925564
 10
74.01822101014127
 20
-82.38463539607051
 10
73.82357311522466
 20
-82.49556747069556
 10
73.58655054583947
 20
-82.51589353405853
 10
73.42394203893568
 20
-82.51589353405853
 10
73.27993704765224
 20
-82.51589353405853
 10
73.02810056768048
 20
-82.4976345279867
 10
72.82931855818157
 20
-82.38463539607051
 10
72.62640243410034
 20
-82.26956920686317
 10
72.60297578480065
 20
-82.0976589421492
 10
72.60297578480065
 20
-81.95985512273921
 10
72.60297578480065
 20
-81.79001191531638
 10
72.64741751656037
 20
-81.63636065667424
 10
72.82931855818157
 20
-81.53473033985938
 10
73.02189939580703
 20
-81.42827688936515
 10
73.25030922647909
 20
-81.40347220187135
 10
73.42394203893568
 20
-81.40347220187135
 10
73.5951632845526
 20
-81.40347220187135
 10
73.82564017251582
 20
-81.42620983207401
 10
74.01822101014127
 20
-81.53473033985938
 97
        0
 97
        0
 92
        1
 93
        1
 72
     4
 94
        3
 73
     0
 74
     1
 95
       17
 96
       13
 40
0.0
 40
0.0
 40
0.0
 40
0.0
 40
1.0
 40
1.0
 40
1.0
 40
2.0
 40
2.0
 40
2.0
 40
3.0
 40
3.0
 40
3.0
 40
4.0
 40
4.0
 40
4.0
 40
4.0
 10
72.79555662242612
 20
-81.95985512273921
 10
72.79555662242612
 20
-82.22650551329754
 10
73.07908798086217
 20
-82.27611488828514
 10
73.42394203893568
 20
-82.27611488828514
 10
73.74330239041835
 20
-82.27611488828514
 10
74.05198294589673
 20
-82.23787432839887
 10
74.05198294589673
 20
-81.95985512273921
 10
74.05198294589673
 20
-81.69527178947202
 10
73.77086315430034
 20
-81.64325084764475
 10
73.42394203893568
 20
-81.64325084764475
 10
73.1042371779045
 20
-81.64325084764475
 10
72.79555662242612
 20
-81.6839029743707
 10
72.79555662242612
 20
-81.95985512273921
 97
        0
 97
        0
 75
     2
 76
     1
 98
        0
  0
POLYLINE
  5
90
330
89
100
AcDbEntity
  8
_U+30EC_U+30A4_U+30E4_U+30FC 1
370
     0
100
AcDb2dPolyline
 66
     1
 10
0.0
 20
0.0
 30
0.0
  0
VERTEX
  5
91
330
90
100
AcDbEntity
  8
_U+30EC_U+30A4_U+30E4_U+30FC 1
370
     0
100
AcDbVertex
100
AcDb2dVertex
 10
74.19598793718018
 20
-81.1723062948111
 30
0.0
  0
VERTEX
  5
92
330
90
100
AcDbEntity
  8
_U+30EC_U+30A4_U+30E4_U+30FC 1
370
     0
100
AcDbVertex
100
AcDb2dVertex
 10
73.9441514572084
 20
-81.1723062948111
 30
0.0
  0
VERTEX
  5
93
330
90
100
AcDbEntity
  8
_U+30EC_U+30A4_U+30E4_U+30FC 1
370
     0
100
AcDbVertex
100
AcDb2dVertex
 10
73.9441514572084
 20
-80.90324433741308
 30
0.0
  0
VERTEX
  5
94
330
90
100
AcDbEntity
  8
_U+30EC_U+30A4_U+30E4_U+30FC 1
370
     0
100
AcDbVertex
100
AcDb2dVertex
 10
74.19598793718018
 20
-80.90324433741308
 30
0.0
  0
VERTEX
  5
95
330
90
100
AcDbEntity
  8
_U+30EC_U+30A4_U+30E4_U+30FC 1
370
     0
100
AcDbVertex
100
AcDb2dVertex
 10
74.19598793718018
 20
-81.1723062948111
 30
0.0
  0
SEQEND
  5
96
330
90
100
AcDbEntity
  8
_U+30EC_U+30A4_U+30E4_U+30FC 1
370
     0
  0
HATCH
  5
97
330
89
100
AcDbEntity
  8
_U+30EC_U+30A4_U+30E4_U+30FC 1
 62
   179
420
  2234388
100
AcDbHatch
 10
0.0
 20
0.0
 30
0.0
210
0.0
220
0.0
230
1.0
  2
SOLID
 70
     1
 71
     0
 91
        1
 92
        1
 93
        4
 72
     1
 10
74.19598793718018
 20
-81.1723062948111
 11
73.9441514572084
 21
-81.1723062948111
 72
     1
 10
73.9441514572084
 20
-81.1723062948111
 11
73.9441514572084
 21
-80.90324433741308
 72
     1
 10
73.9441514572084
 20
-80.90324433741308
 11
74.19598793718018
 21
-80.90324433741308
 72
     1
 10
74.19598793718018
 20
-80.90324433741308
 11
74.19598793718018
 21
-81.1723062948111
 97
        0
 75
     2
 76
     1
 98
        0
  0
SPLINE
  5
98
330
89
100
AcDbEntity
  8
_U+30EC_U+30A4_U+30E4_U+30FC 1
370
     0
100
AcDbSpline
210
0.0
220
0.0
230
1.0
 70
    11
 71
     3
 72
    29
 73
    25
 74
     0
 42
0.0000000001
 43
0.0000000001
 12
1.0
 22
0.0
 32
0.0
 13
1.0
 23
0.0
 33
0.0
 40
0.0
 40
0.0
 40
0.0
 40
0.0
 40
1.0
 40
1.0
 40
1.0
 40
2.0
 40
2.0
 40
2.0
 40
3.0
 40
3.0
 40
3.0
 40
4.0
 40
4.0
 40
4.0
 40
5.0
 40
5.0
 40
5.0
 40
6.0
 40
6.0
 40
6.0
 40
7.0
 40
7.0
 40
7.0
 40
8.0
 40
8.0
 40
8.0
 40
8.0
 10
74.24663084081334
 20
-80.11604001903349
 30
0.0
 10
74.24663084081334
 20
-80.40094941566366
 30
0.0
 10
74.10917153095188
 20
-80.67207843035281
 30
0.0
 10
73.76018335829608
 20
-80.67207843035281
 30
0.0
 10
73.504212763742
 20
-80.67207843035281
 30
0.0
 10
73.40912812834911
 20
-80.52049422900183
 30
0.0
 10
73.34780542871167
 20
-80.40749509708563
 30
0.0
 10
73.28854978636537
 20
-80.5408202923648
 30
0.0
 10
73.17417261625508
 20
-80.62246905536522
 30
0.0
 10
73.0132866570939
 20
-80.62246905536522
 30
0.0
 10
72.73836803737096
 20
-80.62246905536522
 30
0.0
 10
72.60297578480065
 20
-80.4099066639253
 30
0.0
 10
72.60297578480065
 20
-80.11604001903349
 30
0.0
 10
72.60297578480065
 20
-79.8128716163315
 30
0.0
 10
72.74698077608409
 20
-79.60961098270177
 30
0.0
 10
73.0132866570939
 20
-79.60961098270177
 30
0.0
 10
73.17417261625508
 20
-79.60961098270177
 30
0.0
 10
73.28854978636537
 20
-79.69298229344481
 30
0.0
 10
73.34780542871167
 20
-79.82665199827251
 30
0.0
 10
73.39844833234484
 20
-79.73156736287962
 30
0.0
 10
73.49353296773774
 20
-79.56206866500531
 30
0.0
 10
73.75604924371378
 20
-79.56206866500531
 30
0.0
 10
74.13053112296042
 20
-79.56206866500531
 30
0.0
 10
74.24663084081334
 20
-79.86041393402796
 30
0.0
 10
74.24663084081334
 20
-80.11604001903349
 30
0.0
  0
SPLINE
  5
99
330
89
100
AcDbEntity
  8
_U+30EC_U+30A4_U+30E4_U+30FC 1
370
     0
100
AcDbSpline
210
0.0
220
0.0
230
1.0
 70
    11
 71
     3
 72
    17
 73
    13
 74
     0
 42
0.0000000001
 43
0.0000000001
 12
1.0
 22
0.0
 32
0.0
 13
1.0
 23
0.0
 33
0.0
 40
0.0
 40
0.0
 40
0.0
 40
0.0
 40
1.0
 40
1.0
 40
1.0
 40
2.0
 40
2.0
 40
2.0
 40
3.0
 40
3.0
 40
3.0
 40
4.0
 40
4.0
 40
4.0
 40
4.0
 10
72.79555662242612
 20
-80.11604001903349
 30
0.0
 10
72.79555662242612
 20
-80.29208439832976
 30
0.0
 10
72.89064125781901
 20
-80.38269040959183
 30
0.0
 10
73.02603351038933
 20
-80.38269040959183
 30
0.0
 10
73.14867890966423
 20
-80.38269040959183
 30
0.0
 10
73.26719019435681
 20
-80.30586478027077
 30
0.0
 10
73.26719019435681
 20
-80.11604001903349
 30
0.0
 10
73.26719019435681
 20
-79.9258707482477
 30
0.0
 10
73.14867890966423
 20
-79.84904511892663
 30
0.0
 10
73.02603351038933
 20
-79.84904511892663
 30
0.0
 10
72.89064125781901
 20
-79.84904511892663
 30
0.0
 10
72.79555662242612
 20
-79.94171818747985
 30
0.0
 10
72.79555662242612
 20
-80.11604001903349
 30
0.0
  0
SPLINE
  5
9A
330
89
100
AcDbEntity
  8
_U+30EC_U+30A4_U+30E4_U+30FC 1
370
     0
100
AcDbSpline
210
0.0
220
0.0
230
1.0
 70
    11
 71
     3
 72
    17
 73
    13
 74
     0
 42
0.0000000001
 43
0.0000000001
 12
1.0
 22
0.0
 32
0.0
 13
1.0
 23
0.0
 33
0.0
 40
0.0
 40
0.0
 40
0.0
 40
0.0
 40
1.0
 40
1.0
 40
1.0
 40
2.0
 40
2.0
 40
2.0
 40
3.0
 40
3.0
 40
3.0
 40
4.0
 40
4.0
 40
4.0
 40
4.0
 10
73.45563691739999
 20
-80.11604001903349
 30
0.0
 10
73.45563691739999
 20
-80.26969127767563
 30
0.0
 10
73.54245332362828
 20
-80.43229978457943
 30
0.0
 10
73.74536944770949
 20
-80.43229978457943
 30
0.0
 10
73.95069713863039
 20
-80.43229978457943
 30
0.0
 10
74.05198294589673
 20
-80.29690753200912
 30
0.0
 10
74.05198294589673
 20
-80.11604001903349
 30
0.0
 10
74.05198294589673
 20
-79.91691349998605
 30
0.0
 10
73.92933754662184
 20
-79.79943574393903
 30
0.0
 10
73.75157061958295
 20
-79.79943574393903
 30
0.0
 10
73.52970647033285
 20
-79.79943574393903
 30
0.0
 10
73.45563691739999
 20
-79.97341306594414
 30
0.0
 10
73.45563691739999
 20
-80.11604001903349
 30
0.0
  0
HATCH
  5
9B
330
89
100
AcDbEntity
  8
_U+30EC_U+30A4_U+30E4_U+30FC 1
 62
   179
420
  2234388
100
AcDbHatch
 10
0.0
 20
0.0
 30
0.0
210
0.0
220
0.0
230
1.0
  2
SOLID
 70
     1
 71
     0
 91
        3
 92
        1
 93
        1
 72
     4
 94
        3
 73
     0
 74
     1
 95
       29
 96
       25
 40
0.0
 40
0.0
 40
0.0
 40
0.0
 40
1.0
 40
1.0
 40
1.0
 40
2.0
 40
2.0
 40
2.0
 40
3.0
 40
3.0
 40
3.0
 40
4.0
 40
4.0
 40
4.0
 40
5.0
 40
5.0
 40
5.0
 40
6.0
 40
6.0
 40
6.0
 40
7.0
 40
7.0
 40
7.0
 40
8.0
 40
8.0
 40
8.0
 40
8.0
 10
74.24663084081334
 20
-80.11604001903349
 10
74.24663084081334
 20
-80.40094941566366
 10
74.10917153095188
 20
-80.67207843035281
 10
73.76018335829608
 20
-80.67207843035281
 10
73.504212763742
 20
-80.67207843035281
 10
73.40912812834911
 20
-80.52049422900183
 10
73.34780542871167
 20
-80.40749509708563
 10
73.28854978636537
 20
-80.5408202923648
 10
73.17417261625508
 20
-80.62246905536522
 10
73.0132866570939
 20
-80.62246905536522
 10
72.73836803737096
 20
-80.62246905536522
 10
72.60297578480065
 20
-80.4099066639253
 10
72.60297578480065
 20
-80.11604001903349
 10
72.60297578480065
 20
-79.8128716163315
 10
72.74698077608409
 20
-79.60961098270177
 10
73.0132866570939
 20
-79.60961098270177
 10
73.17417261625508
 20
-79.60961098270177
 10
73.28854978636537
 20
-79.69298229344481
 10
73.34780542871167
 20
-79.82665199827251
 10
73.39844833234484
 20
-79.73156736287962
 10
73.49353296773774
 20
-79.56206866500531
 10
73.75604924371378
 20
-79.56206866500531
 10
74.13053112296042
 20
-79.56206866500531
 10
74.24663084081334
 20
-79.86041393402796
 10
74.24663084081334
 20
-80.11604001903349
 97
        0
 97
        0
 92
        1
 93
        1
 72
     4
 94
        3
 73
     0
 74
     1
 95
       17
 96
       13
 40
0.0
 40
0.0
 40
0.0
 40
0.0
 40
1.0
 40
1.0
 40
1.0
 40
2.0
 40
2.0
 40
2.0
 40
3.0
 40
3.0
 40
3.0
 40
4.0
 40
4.0
 40
4.0
 40
4.0
 10
72.79555662242612
 20
-80.11604001903349
 10
72.79555662242612
 20
-80.29208439832976
 10
72.89064125781901
 20
-80.38269040959183
 10
73.02603351038933
 20
-80.38269040959183
 10
73.14867890966423
 20
-80.38269040959183
 10
73.26719019435681
 20
-80.30586478027077
 10
73.26719019435681
 20
-80.11604001903349
 10
73.26719019435681
 20
-79.9258707482477
 10
73.14867890966423
 20
-79.84904511892663
 10
73.02603351038933
 20
-79.84904511892663
 10
72.89064125781901
 20
-79.84904511892663
 10
72.79555662242612
 20
-79.94171818747985
 10
72.79555662242612
 20
-80.11604001903349
 97
        0
 97
        0
 92
        1
 93
        1
 72
     4
 94
        3
 73
     0
 74
     1
 95
       17
 96
       13
 40
0.0
 40
0.0
 40
0.0
 40
0.0
 40
1.0
 40
1.0
 40
1.0
 40
2.0
 40
2.0
 40
2.0
 40
3.0
 40
3.0
 40
3.0
 40
4.0
 40
4.0
 40
4.0
 40
4.0
 10
73.45563691739999
 20
-80.11604001903349
 10
73.45563691739999
 20
-80.26969127767563
 10
73.54245332362828
 20
-80.43229978457943
 10
73.74536944770949
 20
-80.43229978457943
 10
73.95069713863039
 20
-80.43229978457943
 10
74.05198294589673
 20
-80.29690753200912
 10
74.05198294589673
 20
-80.11604001903349
 10
74.05198294589673
 20
-79.91691349998605
 10
73.92933754662184
 20
-79.79943574393903
 10
73.75157061958295
 20
-79.79943574393903
 10
73.52970647033285
 20
-79.79943574393903
 10
73.45563691739999
 20
-79.97341306594414
 10
73.45563691739999
 20
-80.11604001903349
 97
        0
 97
        0
 75
     2
 76
     1
 98
        0
  0
ENDBLK
  5
8C
330
89
100
AcDbEntity
  8
0
100
AcDbBlockEnd
  0
BLOCK
  5
A6
330
A4
100
AcDbEntity
  8
0
100
AcDbBlockBegin
  2
block 3
 70
     0
 10
0.0
 20
0.0
 30
0.0
  3
block 3
  1

  0
SPLINE
  5
A8
330
A4
100
AcDbEntity
  8
_U+30EC_U+30A4_U+30E4_U+30FC 1
370
     0
100
AcDbSpline
210
0.0
220
0.0
230
1.0
 70
    11
 71
     3
 72
    26
 73
    22
 74
     0
 42
0.0000000001
 43
0.0000000001
 12
1.0
 22
0.0
 32
0.0
 13
1.0
 23
0.0
 33
0.0
 40
0.0
 40
0.0
 40
0.0
 40
0.0
 40
1.0
 40
1.0
 40
1.0
 40
2.0
 40
2.0
 40
2.0
 40
3.0
 40
3.0
 40
3.0
 40
4.0
 40
4.0
 40
4.0
 40
5.0
 40
5.0
 40
5.0
 40
6.0
 40
6.0
 40
6.0
 40
7.0
 40
7.0
 40
7.0
 40
7.0
 10
74.19598793718018
 20
-90.51919485584243
 30
0.0
 10
74.19598793718018
 20
-90.51919485584243
 30
0.0
 10
73.0918348341576
 20
-90.51919485584243
 30
0.0
 10
73.0918348341576
 20
-90.51919485584243
 30
0.0
 10
73.0918348341576
 20
-90.51919485584243
 30
0.0
 10
73.0918348341576
 20
-90.87162812398348
 30
0.0
 10
73.0918348341576
 20
-90.87162812398348
 30
0.0
 10
73.0918348341576
 20
-90.87162812398348
 30
0.0
 10
72.94369572829186
 20
-90.87162812398348
 30
0.0
 10
72.94369572829186
 20
-90.87162812398348
 30
0.0
 10
72.92888181770529
 20
-90.51678328900276
 30
0.0
 10
72.76592880125297
 20
-90.46717391401515
 30
0.0
 10
72.65155163114267
 20
-90.43547903555086
 30
0.0
 10
72.65155163114267
 20
-90.43547903555086
 30
0.0
 10
72.65155163114267
 20
-90.27941621006904
 30
0.0
 10
72.65155163114267
 20
-90.27941621006904
 30
0.0
 10
72.65155163114267
 20
-90.27941621006904
 30
0.0
 10
74.19598793718018
 20
-90.27941621006904
 30
0.0
 10
74.19598793718018
 20
-90.27941621006904
 30
0.0
 10
74.19598793718018
 20
-90.27941621006904
 30
0.0
 10
74.19598793718018
 20
-90.51919485584243
 30
0.0
 10
74.19598793718018
 20
-90.51919485584243
 30
0.0
  0
HATCH
  5
A9
330
A4
100
AcDbEntity
  8
_U+30EC_U+30A4_U+30E4_U+30FC 1
 62
   179
420
  2234388
100
AcDbHatch
 10
0.0
 20
0.0
 30
0.0
210
0.0
220
0.0
230
1.0
  2
SOLID
 70
     1
 71
     0
 91
        1
 92
        1
 93
        1
 72
     4
 94
        3
 73
     0
 74
     1
 95
       26
 96
       22
 40
0.0
 40
0.0
 40
0.0
 40
0.0
 40
1.0
 40
1.0
 40
1.0
 40
2.0
 40
2.0
 40
2.0
 40
3.0
 40
3.0
 40
3.0
 40
4.0
 40
4.0
 40
4.0
 40
5.0
 40
5.0
 40
5.0
 40
6.0
 40
6.0
 40
6.0
 40
7.0
 40
7.0
 40
7.0
 40
7.0
 10
74.19598793718018
 20
-90.51919485584243
 10
74.19598793718018
 20
-90.51919485584243
 10
73.0918348341576
 20
-90.51919485584243
 10
73.0918348341576
 20
-90.51919485584243
 10
73.0918348341576
 20
-90.51919485584243
 10
73.0918348341576
 20
-90.87162812398348
 10
73.0918348341576
 20
-90.87162812398348
 10
73.0918348341576
 20
-90.87162812398348
 10
72.94369572829186
 20
-90.87162812398348
 10
72.94369572829186
 20
-90.87162812398348
 10
72.92888181770529
 20
-90.51678328900276
 10
72.76592880125297
 20
-90.46717391401515
 10
72.65155163114267
 20
-90.43547903555086
 10
72.65155163114267
 20
-90.43547903555086
 10
72.65155163114267
 20
-90.27941621006904
 10
72.65155163114267
 20
-90.27941621006904
 10
72.65155163114267
 20
-90.27941621006904
 10
74.19598793718018
 20
-90.27941621006904
 10
74.19598793718018
 20
-90.27941621006904
 10
74.19598793718018
 20
-90.27941621006904
 10
74.19598793718018
 20
-90.51919485584243
 10
74.19598793718018
 20
-90.51919485584243
 97
        0
 97
        0
 75
     2
 76
     1
 98
        0
  0
SPLINE
  5
AA
330
A4
100
AcDbEntity
  8
_U+30EC_U+30A4_U+30E4_U+30FC 1
370
     0
100
AcDbSpline
210
0.0
220
0.0
230
1.0
 70
    11
 71
     3
 72
    29
 73
    25
 74
     0
 42
0.0000000001
 43
0.0000000001
 12
1.0
 22
0.0
 32
0.0
 13
1.0
 23
0.0
 33
0.0
 40
0.0
 40
0.0
 40
0.0
 40
0.0
 40
1.0
 40
1.0
 40
1.0
 40
2.0
 40
2.0
 40
2.0
 40
3.0
 40
3.0
 40
3.0
 40
4.0
 40
4.0
 40
4.0
 40
5.0
 40
5.0
 40
5.0
 40
6.0
 40
6.0
 40
6.0
 40
7.0
 40
7.0
 40
7.0
 40
8.0
 40
8.0
 40
8.0
 40
8.0
 10
74.01822101014127
 20
-88.7842447694706
 30
0.0
 10
74.22768281564447
 20
-88.89965546822648
 30
0.0
 10
74.24663084081334
 20
-89.08500160533292
 30
0.0
 10
74.24663084081334
 20
-89.20936955235044
 30
0.0
 10
74.24663084081334
 20
-89.38093530751588
 30
0.0
 10
74.20012205176248
 20
-89.53251950886687
 30
0.0
 10
74.01822101014127
 20
-89.63414982568175
 30
0.0
 10
73.82357311522466
 20
-89.74508190030679
 30
0.0
 10
73.58655054583947
 20
-89.76540796366976
 30
0.0
 10
73.42394203893568
 20
-89.76540796366976
 30
0.0
 10
73.27993704765224
 20
-89.76540796366976
 30
0.0
 10
73.02810056768048
 20
-89.74749346714647
 30
0.0
 10
72.82931855818157
 20
-89.63414982568175
 30
0.0
 10
72.62640243410034
 20
-89.5190836364744
 30
0.0
 10
72.60297578480065
 20
-89.34717337176043
 30
0.0
 10
72.60297578480065
 20
-89.20936955235044
 30
0.0
 10
72.60297578480065
 20
-89.03952634492762
 30
0.0
 10
72.64741751656037
 20
-88.88587508628548
 30
0.0
 10
72.82931855818157
 20
-88.7842447694706
 30
0.0
 10
73.02189939580703
 20
-88.67779131897639
 30
0.0
 10
73.25030922647909
 20
-88.65298663148259
 30
0.0
 10
73.42394203893568
 20
-88.65298663148259
 30
0.0
 10
73.5951632845526
 20
-88.65298663148259
 30
0.0
 10
73.82564017251582
 20
-88.67572426168525
 30
0.0
 10
74.01822101014127
 20
-88.7842447694706
 30
0.0
  0
SPLINE
  5
AB
330
A4
100
AcDbEntity
  8
_U+30EC_U+30A4_U+30E4_U+30FC 1
370
     0
100
AcDbSpline
210
0.0
220
0.0
230
1.0
 70
    11
 71
     3
 72
    17
 73
    13
 74
     0
 42
0.0000000001
 43
0.0000000001
 12
1.0
 22
0.0
 32
0.0
 13
1.0
 23
0.0
 33
0.0
 40
0.0
 40
0.0
 40
0.0
 40
0.0
 40
1.0
 40
1.0
 40
1.0
 40
2.0
 40
2.0
 40
2.0
 40
3.0
 40
3.0
 40
3.0
 40
4.0
 40
4.0
 40
4.0
 40
4.0
 10
72.79555662242612
 20
-89.20936955235044
 30
0.0
 10
72.79555662242612
 20
-89.47601994290878
 30
0.0
 10
73.07908798086217
 20
-89.52562931789637
 30
0.0
 10
73.42394203893568
 20
-89.52562931789637
 30
0.0
 10
73.74330239041835
 20
-89.52562931789637
 30
0.0
 10
74.05198294589673
 20
-89.4873887580101
 30
0.0
 10
74.05198294589673
 20
-89.20936955235044
 30
0.0
 10
74.05198294589673
 20
-88.94478621908326
 30
0.0
 10
73.77086315430034
 20
-88.89276527725598
 30
0.0
 10
73.42394203893568
 20
-88.89276527725598
 30
0.0
 10
73.1042371779045
 20
-88.89276527725598
 30
0.0
 10
72.79555662242612
 20
-88.93341740398193
 30
0.0
 10
72.79555662242612
 20
-89.20936955235044
 30
0.0
  0
HATCH
  5
AC
330
A4
100
AcDbEntity
  8
_U+30EC_U+30A4_U+30E4_U+30FC 1
 62
   179
420
  2234388
100
AcDbHatch
 10
0.0
 20
0.0
 30
0.0
210
0.0
220
0.0
230
1.0
  2
SOLID
 70
     1
 71
     0
 91
        2
 92
        1
 93
        1
 72
     4
 94
        3
 73
     0
 74
     1
 95
       29
 96
       25
 40
0.0
 40
0.0
 40
0.0
 40
0.0
 40
1.0
 40
1.0
 40
1.0
 40
2.0
 40
2.0
 40
2.0
 40
3.0
 40
3.0
 40
3.0
 40
4.0
 40
4.0
 40
4.0
 40
5.0
 40
5.0
 40
5.0
 40
6.0
 40
6.0
 40
6.0
 40
7.0
 40
7.0
 40
7.0
 40
8.0
 40
8.0
 40
8.0
 40
8.0
 10
74.01822101014127
 20
-88.7842447694706
 10
74.22768281564447
 20
-88.89965546822648
 10
74.24663084081334
 20
-89.08500160533292
 10
74.24663084081334
 20
-89.20936955235044
 10
74.24663084081334
 20
-89.38093530751588
 10
74.20012205176248
 20
-89.53251950886687
 10
74.01822101014127
 20
-89.63414982568175
 10
73.82357311522466
 20
-89.74508190030679
 10
73.58655054583947
 20
-89.76540796366976
 10
73.42394203893568
 20
-89.76540796366976
 10
73.27993704765224
 20
-89.76540796366976
 10
73.02810056768048
 20
-89.74749346714647
 10
72.82931855818157
 20
-89.63414982568175
 10
72.62640243410034
 20
-89.5190836364744
 10
72.60297578480065
 20
-89.34717337176043
 10
72.60297578480065
 20
-89.20936955235044
 10
72.60297578480065
 20
-89.03952634492762
 10
72.64741751656037
 20
-88.88587508628548
 10
72.82931855818157
 20
-88.7842447694706
 10
73.02189939580703
 20
-88.67779131897639
 10
73.25030922647909
 20
-88.65298663148259
 10
73.42394203893568
 20
-88.65298663148259
 10
73.5951632845526
 20
-88.65298663148259
 10
73.82564017251582
 20
-88.67572426168525
 10
74.01822101014127
 20
-88.7842447694706
 97
        0
 97
        0
 92
        1
 93
        1
 72
     4
 94
        3
 73
     0
 74
     1
 95
       17
 96
       13
 40
0.0
 40
0.0
 40
0.0
 40
0.0
 40
1.0
 40
1.0
 40
1.0
 40
2.0
 40
2.0
 40
2.0
 40
3.0
 40
3.0
 40
3.0
 40
4.0
 40
4.0
 40
4.0
 40
4.0
 10
72.79555662242612
 20
-89.20936955235044
 10
72.79555662242612
 20
-89.47601994290878
 10
73.07908798086217
 20
-89.52562931789637
 10
73.42394203893568
 20
-89.52562931789637
 10
73.74330239041835
 20
-89.52562931789637
 10
74.05198294589673
 20
-89.4873887580101
 10
74.05198294589673
 20
-89.20936955235044
 10
74.05198294589673
 20
-88.94478621908326
 10
73.77086315430034
 20
-88.89276527725598
 10
73.42394203893568
 20
-88.89276527725598
 10
73.1042371779045
 20
-88.89276527725598
 10
72.79555662242612
 20
-88.93341740398193
 10
72.79555662242612
 20
-89.20936955235044
 97
        0
 97
        0
 75
     2
 76
     1
 98
        0
  0
ENDBLK
  5
A7
330
A4
100
AcDbEntity
  8
0
100
AcDbBlockEnd
  0
BLOCK
  5
B7
330
B5
100
AcDbEntity
  8
0
100
AcDbBlockBegin
  2
block 4
 70
     0
 10
0.0
 20
0.0
 30
0.0
  3
block 4
  1

  0
SPLINE
  5
B9
330
B5
100
AcDbEntity
  8
_U+30EC_U+30A4_U+30E4_U+30FC 1
370
     0
100
AcDbSpline
210
0.0
220
0.0
230
1.0
 70
    11
 71
     3
 72
    62
 73
    58
 74
     0
 42
0.0000000001
 43
0.0000000001
 12
1.0
 22
0.0
 32
0.0
 13
1.0
 23
0.0
 33
0.0
 40
0.0
 40
0.0
 40
0.0
 40
0.0
 40
1.0
 40
1.0
 40
1.0
 40
2.0
 40
2.0
 40
2.0
 40
3.0
 40
3.0
 40
3.0
 40
4.0
 40
4.0
 40
4.0
 40
5.0
 40
5.0
 40
5.0
 40
6.0
 40
6.0
 40
6.0
 40
7.0
 40
7.0
 40
7.0
 40
8.0
 40
8.0
 40
8.0
 40
9.0
 40
9.0
 40
9.0
 40
10.0
 40
10.0
 40
10.0
 40
11.0
 40
11.0
 40
11.0
 40
12.0
 40
12.0
 40
12.0
 40
13.0
 40
13.0
 40
13.0
 40
14.0
 40
14.0
 40
14.0
 40
15.0
 40
15.0
 40
15.0
 40
16.0
 40
16.0
 40
16.0
 40
17.0
 40
17.0
 40
17.0
 40
18.0
 40
18.0
 40
18.0
 40
19.0
 40
19.0
 40
19.0
 40
19.0
 10
74.24663084081334
 20
-96.34726288823958
 30
0.0
 10
74.24663084081334
 20
-96.44889320505445
 30
0.0
 10
74.22561575835333
 20
-96.68178165985734
 30
0.0
 10
74.03958060214983
 20
-96.8151068551365
 30
0.0
 10
73.92727048933068
 20
-96.89434405129725
 30
0.0
 10
73.82805173935549
 20
-96.89882267542808
 30
0.0
 10
73.74330239041835
 20
-96.9033012995589
 30
0.0
 10
73.74330239041835
 20
-96.9033012995589
 30
0.0
 10
73.74330239041835
 20
-96.66834578746486
 30
0.0
 10
73.74330239041835
 20
-96.66834578746486
 30
0.0
 10
73.81737194335122
 20
-96.66593422062519
 30
0.0
 10
74.05198294589673
 20
-96.65456540552387
 30
0.0
 10
74.05198294589673
 20
-96.3517415123704
 30
0.0
 10
74.05198294589673
 20
-96.20463593515024
 30
0.0
 10
73.98239201709468
 20
-96.04202742824644
 30
0.0
 10
73.75398218642262
 20
-96.04202742824644
 30
0.0
 10
73.63753795902117
 20
-96.04202742824644
 30
0.0
 10
73.58896211267916
 20
-96.08267955497239
 30
0.0
 10
73.55726723421485
 20
-96.11678600027636
 30
0.0
 10
73.48319768128198
 20
-96.19567868688858
 30
0.0
 10
73.47045082798655
 20
-96.3200466339061
 30
0.0
 10
73.47045082798655
 20
-96.37895776670388
 30
0.0
 10
73.47045082798655
 20
-96.39928383006685
 30
0.0
 10
73.47251788527771
 20
-96.43752438995313
 30
0.0
 10
73.47665199986001
 20
-96.46715221112628
 30
0.0
 10
73.47665199986001
 20
-96.46715221112628
 30
0.0
 10
73.2820041049434
 20
-96.46715221112628
 30
0.0
 10
73.2820041049434
 20
-96.46715221112628
 30
0.0
 10
73.28854978636537
 20
-96.42650008440032
 30
0.0
 10
73.29061684365652
 20
-96.38102482399502
 30
0.0
 10
73.29061684365652
 20
-96.37447914257305
 30
0.0
 10
73.29061684365652
 20
-96.30419919467396
 30
0.0
 10
73.26925725164797
 20
-96.09163680323404
 30
0.0
 10
73.03257919181131
 20
-96.09163680323404
 30
0.0
 10
72.8548122647724
 20
-96.09163680323404
 30
0.0
 10
72.79969073700842
 20
-96.2318521894837
 30
0.0
 10
72.79969073700842
 20
-96.34932994553073
 30
0.0
 10
72.79969073700842
 20
-96.63217228486974
 30
0.0
 10
73.03257919181131
 20
-96.64112953313139
 30
0.0
 10
73.1042371779045
 20
-96.64560815726222
 30
0.0
 10
73.1042371779045
 20
-96.64560815726222
 30
0.0
 10
73.1042371779045
 20
-96.86264917283296
 30
0.0
 10
73.1042371779045
 20
-96.86264917283296
 30
0.0
 10
72.97952472133845
 20
-96.85369192457131
 30
0.0
 10
72.60297578480065
 20
-96.82440861294668
 30
0.0
 10
72.60297578480065
 20
-96.33589407313825
 30
0.0
 10
72.60297578480065
 20
-96.09611542736486
 30
0.0
 10
72.73009980820636
 20
-95.83842228506818
 30
0.0
 10
73.02603351038933
 20
-95.83842228506818
 30
0.0
 10
73.21241317614134
 20
-95.83842228506818
 30
0.0
 10
73.29475095823882
 20
-95.94039711143157
 30
0.0
 10
73.35607365787627
 20
-96.04650605237727
 30
0.0
 10
73.38363442175826
 20
-95.98104923815752
 30
0.0
 10
73.46390514656458
 20
-95.78640134324091
 30
0.0
 10
73.7412353331272
 20
-95.78640134324091
 30
0.0
 10
74.07954370977873
 20
-95.78640134324091
 30
0.0
 10
74.24663084081334
 20
-96.0509846765081
 30
0.0
 10
74.24663084081334
 20
-96.34726288823958
 30
0.0
  0
HATCH
  5
BA
330
B5
100
AcDbEntity
  8
_U+30EC_U+30A4_U+30E4_U+30FC 1
 62
   179
420
  2234388
100
AcDbHatch
 10
0.0
 20
0.0
 30
0.0
210
0.0
220
0.0
230
1.0
  2
SOLID
 70
     1
 71
     0
 91
        1
 92
        1
 93
        1
 72
     4
 94
        3
 73
     0
 74
     1
 95
       62
 96
       58
 40
0.0
 40
0.0
 40
0.0
 40
0.0
 40
1.0
 40
1.0
 40
1.0
 40
2.0
 40
2.0
 40
2.0
 40
3.0
 40
3.0
 40
3.0
 40
4.0
 40
4.0
 40
4.0
 40
5.0
 40
5.0
 40
5.0
 40
6.0
 40
6.0
 40
6.0
 40
7.0
 40
7.0
 40
7.0
 40
8.0
 40
8.0
 40
8.0
 40
9.0
 40
9.0
 40
9.0
 40
10.0
 40
10.0
 40
10.0
 40
11.0
 40
11.0
 40
11.0
 40
12.0
 40
12.0
 40
12.0
 40
13.0
 40
13.0
 40
13.0
 40
14.0
 40
14.0
 40
14.0
 40
15.0
 40
15.0
 40
15.0
 40
16.0
 40
16.0
 40
16.0
 40
17.0
 40
17.0
 40
17.0
 40
18.0
 40
18.0
 40
18.0
 40
19.0
 40
19.0
 40
19.0
 40
19.0
 10
74.24663084081334
 20
-96.34726288823958
 10
74.24663084081334
 20
-96.44889320505445
 10
74.22561575835333
 20
-96.68178165985734
 10
74.03958060214983
 20
-96.8151068551365
 10
73.92727048933068
 20
-96.89434405129725
 10
73.82805173935549
 20
-96.89882267542808
 10
73.74330239041835
 20
-96.9033012995589
 10
73.74330239041835
 20
-96.9033012995589
 10
73.74330239041835
 20
-96.66834578746486
 10
73.74330239041835
 20
-96.66834578746486
 10
73.81737194335122
 20
-96.66593422062519
 10
74.05198294589673
 20
-96.65456540552387
 10
74.05198294589673
 20
-96.3517415123704
 10
74.05198294589673
 20
-96.20463593515024
 10
73.98239201709468
 20
-96.04202742824644
 10
73.75398218642262
 20
-96.04202742824644
 10
73.63753795902117
 20
-96.04202742824644
 10
73.58896211267916
 20
-96.08267955497239
 10
73.55726723421485
 20
-96.11678600027636
 10
73.48319768128198
 20
-96.19567868688858
 10
73.47045082798655
 20
-96.3200466339061
 10
73.47045082798655
 20
-96.37895776670388
 10
73.47045082798655
 20
-96.39928383006685
 10
73.47251788527771
 20
-96.43752438995313
 10
73.47665199986001
 20
-96.46715221112628
 10
73.47665199986001
 20
-96.46715221112628
 10
73.2820041049434
 20
-96.46715221112628
 10
73.2820041049434
 20
-96.46715221112628
 10
73.28854978636537
 20
-96.42650008440032
 10
73.29061684365652
 20
-96.38102482399502
 10
73.29061684365652
 20
-96.37447914257305
 10
73.29061684365652
 20
-96.30419919467396
 10
73.26925725164797
 20
-96.09163680323404
 10
73.03257919181131
 20
-96.09163680323404
 10
72.8548122647724
 20
-96.09163680323404
 10
72.79969073700842
 20
-96.2318521894837
 10
72.79969073700842
 20
-96.34932994553073
 10
72.79969073700842
 20
-96.63217228486974
 10
73.03257919181131
 20
-96.64112953313139
 10
73.1042371779045
 20
-96.64560815726222
 10
73.1042371779045
 20
-96.64560815726222
 10
73.1042371779045
 20
-96.86264917283296
 10
73.1042371779045
 20
-96.86264917283296
 10
72.97952472133845
 20
-96.85369192457131
 10
72.60297578480065
 20
-96.82440861294668
 10
72.60297578480065
 20
-96.33589407313825
 10
72.60297578480065
 20
-96.09611542736486
 10
72.73009980820636
 20
-95.83842228506818
 10
73.02603351038933
 20
-95.83842228506818
 10
73.21241317614134
 20
-95.83842228506818
 10
73.29475095823882
 20
-95.94039711143157
 10
73.35607365787627
 20
-96.04650605237727
 10
73.38363442175826
 20
-95.98104923815752
 10
73.46390514656458
 20
-95.78640134324091
 10
73.7412353331272
 20
-95.78640134324091
 10
74.07954370977873
 20
-95.78640134324091
 10
74.24663084081334
 20
-96.0509846765081
 10
74.24663084081334
 20
-96.34726288823958
 97
        0
 97
        0
 75
     2
 76
     1
 98
        0
  0
ENDBLK
  5
B8
330
B5
100
AcDbEntity
  8
0
100
AcDbBlockEnd
  0
BLOCK
  5
C9
330
C7
100
AcDbEntity
  8
0
100
AcDbBlockBegin
  2
block 5
 70
     0
 10
0.0
 20
0.0
 30
0.0
  3
block 5
  1

  0
SPLINE
  5
CB
330
C7
100
AcDbEntity
  8
_U+30EC_U+30A4_U+30E4_U+30FC 1
370
     0
100
AcDbSpline
210
0.0
220
0.0
230
1.0
 70
    11
 71
     3
 72
    44
 73
    40
 74
     0
 42
0.0000000001
 43
0.0000000001
 12
1.0
 22
0.0
 32
0.0
 13
1.0
 23
0.0
 33
0.0
 40
0.0
 40
0.0
 40
0.0
 40
0.0
 40
1.0
 40
1.0
 40
1.0
 40
2.0
 40
2.0
 40
2.0
 40
3.0
 40
3.0
 40
3.0
 40
4.0
 40
4.0
 40
4.0
 40
5.0
 40
5.0
 40
5.0
 40
6.0
 40
6.0
 40
6.0
 40
7.0
 40
7.0
 40
7.0
 40
8.0
 40
8.0
 40
8.0
 40
9.0
 40
9.0
 40
9.0
 40
10.0
 40
10.0
 40
10.0
 40
11.0
 40
11.0
 40
11.0
 40
12.0
 40
12.0
 40
12.0
 40
13.0
 40
13.0
 40
13.0
 40
13.0
 10
60.51809758686701
 20
-78.1049655295189
 30
0.0
 10
60.28520913206412
 20
-78.26361217661466
 30
0.0
 10
60.1856458725404
 20
-78.33768172954753
 30
0.0
 10
60.13396944026165
 20
-78.48151446605671
 30
0.0
 10
60.13396944026165
 20
-78.48151446605671
 30
0.0
 10
60.96561549040096
 20
-78.48151446605671
 30
0.0
 10
60.96561549040096
 20
-78.48151446605671
 30
0.0
 10
60.96561549040096
 20
-78.48151446605671
 30
0.0
 10
60.96561549040096
 20
-78.68666990220333
 30
0.0
 10
60.96561549040096
 20
-78.68666990220333
 30
0.0
 10
60.96561549040096
 20
-78.68666990220333
 30
0.0
 10
59.86697454015479
 20
-78.68666990220333
 30
0.0
 10
59.86697454015479
 20
-78.68666990220333
 30
0.0
 10
59.90108098545876
 20
-78.3290689908344
 30
0.0
 10
59.97101642380933
 20
-78.25086532331923
 30
0.0
 10
60.38236082474816
 20
-77.9525200542966
 30
0.0
 10
60.655901406277
 20
-77.75373804479769
 30
0.0
 10
60.7261813541761
 20
-77.68604191851252
 30
0.0
 10
60.7261813541761
 20
-77.54858260865105
 30
0.0
 10
60.7261813541761
 20
-77.43007132395846
 30
0.0
 10
60.64935572485503
 20
-77.2989854407447
 30
0.0
 10
60.43886039070626
 20
-77.2989854407447
 30
0.0
 10
60.1608411850466
 20
-77.2989854407447
 30
0.0
 10
60.15188393678495
 20
-77.52946232870792
 30
0.0
 10
60.14740531265412
 20
-77.64590655610937
 30
0.0
 10
60.14740531265412
 20
-77.64590655610937
 30
0.0
 10
59.90762666688074
 20
-77.64590655610937
 30
0.0
 10
59.90762666688074
 20
-77.64590655610937
 30
0.0
 10
59.91692842469091
 20
-77.51895478747791
 30
0.0
 10
59.92795273024371
 20
-77.40681692943302
 30
0.0
 10
60.01408011737495
 20
-77.28830564474043
 30
0.0
 10
60.13155787342198
 20
-77.12759194035353
 30
0.0
 10
60.33033988292089
 20
-77.0936577498238
 30
0.0
 10
60.45470782993841
 20
-77.0936577498238
 30
0.0
 10
60.7509860416699
 20
-77.0936577498238
 30
0.0
 10
60.97250568137146
 20
-77.27779810351042
 30
0.0
 10
60.97250568137146
 20
-77.5506496659422
 30
0.0
 10
60.97250568137146
 20
-77.77905949661427
 30
0.0
 10
60.84813773435394
 20
-77.87862275613799
 30
0.0
 10
60.51809758686701
 20
-78.1049655295189
 30
0.0
  0
HATCH
  5
CC
330
C7
100
AcDbEntity
  8
_U+30EC_U+30A4_U+30E4_U+30FC 1
 62
   179
420
  2234388
100
AcDbHatch
 10
0.0
 20
0.0
 30
0.0
210
0.0
220
0.0
230
1.0
  2
SOLID
 70
     1
 71
     0
 91
        1
 92
        1
 93
        1
 72
     4
 94
        3
 73
     0
 74
     1
 95
       44
 96
       40
 40
0.0
 40
0.0
 40
0.0
 40
0.0
 40
1.0
 40
1.0
 40
1.0
 40
2.0
 40
2.0
 40
2.0
 40
3.0
 40
3.0
 40
3.0
 40
4.0
 40
4.0
 40
4.0
 40
5.0
 40
5.0
 40
5.0
 40
6.0
 40
6.0
 40
6.0
 40
7.0
 40
7.0
 40
7.0
 40
8.0
 40
8.0
 40
8.0
 40
9.0
 40
9.0
 40
9.0
 40
10.0
 40
10.0
 40
10.0
 40
11.0
 40
11.0
 40
11.0
 40
12.0
 40
12.0
 40
12.0
 40
13.0
 40
13.0
 40
13.0
 40
13.0
 10
60.51809758686701
 20
-78.1049655295189
 10
60.28520913206412
 20
-78.26361217661466
 10
60.1856458725404
 20
-78.33768172954753
 10
60.13396944026165
 20
-78.48151446605671
 10
60.13396944026165
 20
-78.48151446605671
 10
60.96561549040096
 20
-78.48151446605671
 10
60.96561549040096
 20
-78.48151446605671
 10
60.96561549040096
 20
-78.48151446605671
 10
60.96561549040096
 20
-78.68666990220333
 10
60.96561549040096
 20
-78.68666990220333
 10
60.96561549040096
 20
-78.68666990220333
 10
59.86697454015479
 20
-78.68666990220333
 10
59.86697454015479
 20
-78.68666990220333
 10
59.90108098545876
 20
-78.3290689908344
 10
59.97101642380933
 20
-78.25086532331923
 10
60.38236082474816
 20
-77.9525200542966
 10
60.655901406277
 20
-77.75373804479769
 10
60.7261813541761
 20
-77.68604191851252
 10
60.7261813541761
 20
-77.54858260865105
 10
60.7261813541761
 20
-77.43007132395846
 10
60.64935572485503
 20
-77.2989854407447
 10
60.43886039070626
 20
-77.2989854407447
 10
60.1608411850466
 20
-77.2989854407447
 10
60.15188393678495
 20
-77.52946232870792
 10
60.14740531265412
 20
-77.64590655610937
 10
60.14740531265412
 20
-77.64590655610937
 10
59.90762666688074
 20
-77.64590655610937
 10
59.90762666688074
 20
-77.64590655610937
 10
59.91692842469091
 20
-77.51895478747791
 10
59.92795273024371
 20
-77.40681692943302
 10
60.01408011737495
 20
-77.28830564474043
 10
60.13155787342198
 20
-77.12759194035353
 10
60.33033988292089
 20
-77.0936577498238
 10
60.45470782993841
 20
-77.0936577498238
 10
60.7509860416699
 20
-77.0936577498238
 10
60.97250568137146
 20
-77.27779810351042
 10
60.97250568137146
 20
-77.5506496659422
 10
60.97250568137146
 20
-77.77905949661427
 10
60.84813773435394
 20
-77.87862275613799
 10
60.51809758686701
 20
-78.1049655295189
 97
        0
 97
        0
 75
     2
 76
     1
 98
        0
  0
SPLINE
  5
CD
330
C7
100
AcDbEntity
  8
_U+30EC_U+30A4_U+30E4_U+30FC 1
370
     0
100
AcDbSpline
210
0.0
220
0.0
230
1.0
 70
    11
 71
     3
 72
    26
 73
    22
 74
     0
 42
0.0000000001
 43
0.0000000001
 12
1.0
 22
0.0
 32
0.0
 13
1.0
 23
0.0
 33
0.0
 40
0.0
 40
0.0
 40
0.0
 40
0.0
 40
1.0
 40
1.0
 40
1.0
 40
2.0
 40
2.0
 40
2.0
 40
3.0
 40
3.0
 40
3.0
 40
4.0
 40
4.0
 40
4.0
 40
5.0
 40
5.0
 40
5.0
 40
6.0
 40
6.0
 40
6.0
 40
7.0
 40
7.0
 40
7.0
 40
7.0
 10
61.62431774718073
 20
-78.68666990220333
 30
0.0
 10
61.62431774718073
 20
-78.68666990220333
 30
0.0
 10
61.62431774718073
 20
-77.5823445444065
 30
0.0
 10
61.62431774718073
 20
-77.5823445444065
 30
0.0
 10
61.62431774718073
 20
-77.5823445444065
 30
0.0
 10
61.27188447903967
 20
-77.5823445444065
 30
0.0
 10
61.27188447903967
 20
-77.5823445444065
 30
0.0
 10
61.27188447903967
 20
-77.5823445444065
 30
0.0
 10
61.27188447903967
 20
-77.43437769331501
 30
0.0
 10
61.27188447903967
 20
-77.43437769331501
 30
0.0
 10
61.6267293140204
 20
-77.41956378272845
 30
0.0
 10
61.676338689008
 20
-77.25661076627613
 30
0.0
 10
61.7080335674723
 20
-77.1424058509401
 30
0.0
 10
61.7080335674723
 20
-77.1424058509401
 30
0.0
 10
61.86409639295412
 20
-77.1424058509401
 30
0.0
 10
61.86409639295412
 20
-77.1424058509401
 30
0.0
 10
61.86409639295412
 20
-77.1424058509401
 30
0.0
 10
61.86409639295412
 20
-78.68666990220333
 30
0.0
 10
61.86409639295412
 20
-78.68666990220333
 30
0.0
 10
61.86409639295412
 20
-78.68666990220333
 30
0.0
 10
61.62431774718073
 20
-78.68666990220333
 30
0.0
 10
61.62431774718073
 20
-78.68666990220333
 30
0.0
  0
HATCH
  5
CE
330
C7
100
AcDbEntity
  8
_U+30EC_U+30A4_U+30E4_U+30FC 1
 62
   179
420
  2234388
100
AcDbHatch
 10
0.0
 20
0.0
 30
0.0
210
0.0
220
0.0
230
1.0
  2
SOLID
 70
     1
 71
     0
 91
        1
 92
        1
 93
        1
 72
     4
 94
        3
 73
     0
 74
     1
 95
       26
 96
       22
 40
0.0
 40
0.0
 40
0.0
 40
0.0
 40
1.0
 40
1.0
 40
1.0
 40
2.0
 40
2.0
 40
2.0
 40
3.0
 40
3.0
 40
3.0
 40
4.0
 40
4.0
 40
4.0
 40
5.0
 40
5.0
 40
5.0
 40
6.0
 40
6.0
 40
6.0
 40
7.0
 40
7.0
 40
7.0
 40
7.0
 10
61.62431774718073
 20
-78.68666990220333
 10
61.62431774718073
 20
-78.68666990220333
 10
61.62431774718073
 20
-77.5823445444065
 10
61.62431774718073
 20
-77.5823445444065
 10
61.62431774718073
 20
-77.5823445444065
 10
61.27188447903967
 20
-77.5823445444065
 10
61.27188447903967
 20
-77.5823445444065
 10
61.27188447903967
 20
-77.5823445444065
 10
61.27188447903967
 20
-77.43437769331501
 10
61.27188447903967
 20
-77.43437769331501
 10
61.6267293140204
 20
-77.41956378272845
 10
61.676338689008
 20
-77.25661076627613
 10
61.7080335674723
 20
-77.1424058509401
 10
61.7080335674723
 20
-77.1424058509401
 10
61.86409639295412
 20
-77.1424058509401
 10
61.86409639295412
 20
-77.1424058509401
 10
61.86409639295412
 20
-77.1424058509401
 10
61.86409639295412
 20
-78.68666990220333
 10
61.86409639295412
 20
-78.68666990220333
 10
61.86409639295412
 20
-78.68666990220333
 10
61.62431774718073
 20
-78.68666990220333
 10
61.62431774718073
 20
-78.68666990220333
 97
        0
 97
        0
 75
     2
 76
     1
 98
        0
  0
ENDBLK
  5
CA
330
C7
100
AcDbEntity
  8
0
100
AcDbBlockEnd
  0
BLOCK
  5
DD
330
DB
100
AcDbEntity
  8
0
100
AcDbBlockBegin
  2
block 6
 70
     0
 10
0.0
 20
0.0
 30
0.0
  3
block 6
  1

  0
SPLINE
  5
DF
330
DB
100
AcDbEntity
  8
_U+30EC_U+30A4_U+30E4_U+30FC 1
370
     0
100
AcDbSpline
210
0.0
220
0.0
230
1.0
 70
    11
 71
     3
 72
    32
 73
    28
 74
     0
 42
0.0000000001
 43
0.0000000001
 12
1.0
 22
0.0
 32
0.0
 13
1.0
 23
0.0
 33
0.0
 40
0.0
 40
0.0
 40
0.0
 40
0.0
 40
1.0
 40
1.0
 40
1.0
 40
2.0
 40
2.0
 40
2.0
 40
3.0
 40
3.0
 40
3.0
 40
4.0
 40
4.0
 40
4.0
 40
5.0
 40
5.0
 40
5.0
 40
6.0
 40
6.0
 40
6.0
 40
7.0
 40
7.0
 40
7.0
 40
8.0
 40
8.0
 40
8.0
 40
9.0
 40
9.0
 40
9.0
 40
9.0
 10
53.5522867704661
 20
-100.5371880174004
 30
0.0
 10
53.00055472850334
 20
-100.5371880174004
 30
0.0
 10
52.99159748024169
 20
-99.98321666337226
 30
0.0
 10
52.99159748024169
 20
-99.76927623373824
 30
0.0
 10
52.99159748024169
 20
-99.53879934577503
 30
0.0
 10
53.01192354360466
 20
-98.89146590409658
 30
0.0
 10
53.59293889719205
 20
-98.89146590409658
 30
0.0
 10
53.77845728907275
 20
-98.89146590409658
 30
0.0
 10
54.04062905550026
 20
-98.96140134244716
 30
0.0
 10
54.08128118222621
 20
-99.29350854722524
 30
0.0
 10
54.08128118222621
 20
-99.29350854722524
 30
0.0
 10
53.85304360632841
 20
-99.29350854722524
 30
0.0
 10
53.85304360632841
 20
-99.29350854722524
 30
0.0
 10
53.84167479122708
 20
-99.23631996217009
 30
0.0
 10
53.80774060069737
 20
-99.08818085630435
 30
0.0
 10
53.59069958512664
 20
-99.08818085630435
 30
0.0
 10
53.27874618893726
 20
-99.08818085630435
 30
0.0
 10
53.2358547501459
 20
-99.41615394650013
 30
0.0
 10
53.22224662297916
 20
-99.6211371278725
 30
0.0
 10
53.32163762772862
 20
-99.54293346035733
 30
0.0
 10
53.39398463291887
 20
-99.48367781801103
 30
0.0
 10
53.58846027306122
 20
-99.48367781801103
 30
0.0
 10
53.78069660113816
 20
-99.48367781801103
 30
0.0
 10
54.10401881242886
 20
-99.59185381624788
 30
0.0
 10
54.10401881242886
 20
-99.99803057395883
 30
0.0
 10
54.10401881242886
 20
-100.3173909254415
 30
0.0
 10
53.89145642098894
 20
-100.5371880174004
 30
0.0
 10
53.5522867704661
 20
-100.5371880174004
 30
0.0
  0
SPLINE
  5
E0
330
DB
100
AcDbEntity
  8
_U+30EC_U+30A4_U+30E4_U+30FC 1
370
     0
100
AcDbSpline
210
0.0
220
0.0
230
1.0
 70
    11
 71
     3
 72
    17
 73
    13
 74
     0
 42
0.0000000001
 43
0.0000000001
 12
1.0
 22
0.0
 32
0.0
 13
1.0
 23
0.0
 33
0.0
 40
0.0
 40
0.0
 40
0.0
 40
0.0
 40
1.0
 40
1.0
 40
1.0
 40
2.0
 40
2.0
 40
2.0
 40
3.0
 40
3.0
 40
3.0
 40
4.0
 40
4.0
 40
4.0
 40
4.0
 10
53.57037352176366
 20
-99.67832571292764
 30
0.0
 10
53.28994274926432
 20
-99.67832571292764
 30
0.0
 10
53.24929062253837
 20
-99.88985457572198
 30
0.0
 10
53.24929062253837
 20
-100.0062988031234
 30
0.0
 10
53.24929062253837
 20
-100.1819986728712
 30
0.0
 10
53.35109319412751
 20
-100.3449516893235
 30
0.0
 10
53.54780814633527
 20
-100.3449516893235
 30
0.0
 10
53.67665471748361
 20
-100.3449516893235
 30
0.0
 10
53.86424016665547
 20
-100.2856960469772
 30
0.0
 10
53.86424016665547
 20
-100.00009763125
 30
0.0
 10
53.86424016665547
 20
-99.77582191516022
 30
0.0
 10
53.71506753214415
 20
-99.67832571292764
 30
0.0
 10
53.57037352176366
 20
-99.67832571292764
 30
0.0
  0
HATCH
  5
E1
330
DB
100
AcDbEntity
  8
_U+30EC_U+30A4_U+30E4_U+30FC 1
 62
   179
420
  2234388
100
AcDbHatch
 10
0.0
 20
0.0
 30
0.0
210
0.0
220
0.0
230
1.0
  2
SOLID
 70
     1
 71
     0
 91
        2
 92
        1
 93
        1
 72
     4
 94
        3
 73
     0
 74
     1
 95
       32
 96
       28
 40
0.0
 40
0.0
 40
0.0
 40
0.0
 40
1.0
 40
1.0
 40
1.0
 40
2.0
 40
2.0
 40
2.0
 40
3.0
 40
3.0
 40
3.0
 40
4.0
 40
4.0
 40
4.0
 40
5.0
 40
5.0
 40
5.0
 40
6.0
 40
6.0
 40
6.0
 40
7.0
 40
7.0
 40
7.0
 40
8.0
 40
8.0
 40
8.0
 40
9.0
 40
9.0
 40
9.0
 40
9.0
 10
53.5522867704661
 20
-100.5371880174004
 10
53.00055472850334
 20
-100.5371880174004
 10
52.99159748024169
 20
-99.98321666337226
 10
52.99159748024169
 20
-99.76927623373824
 10
52.99159748024169
 20
-99.53879934577503
 10
53.01192354360466
 20
-98.89146590409658
 10
53.59293889719205
 20
-98.89146590409658
 10
53.77845728907275
 20
-98.89146590409658
 10
54.04062905550026
 20
-98.96140134244716
 10
54.08128118222621
 20
-99.29350854722524
 10
54.08128118222621
 20
-99.29350854722524
 10
53.85304360632841
 20
-99.29350854722524
 10
53.85304360632841
 20
-99.29350854722524
 10
53.84167479122708
 20
-99.23631996217009
 10
53.80774060069737
 20
-99.08818085630435
 10
53.59069958512664
 20
-99.08818085630435
 10
53.27874618893726
 20
-99.08818085630435
 10
53.2358547501459
 20
-99.41615394650013
 10
53.22224662297916
 20
-99.6211371278725
 10
53.32163762772862
 20
-99.54293346035733
 10
53.39398463291887
 20
-99.48367781801103
 10
53.58846027306122
 20
-99.48367781801103
 10
53.78069660113816
 20
-99.48367781801103
 10
54.10401881242886
 20
-99.59185381624788
 10
54.10401881242886
 20
-99.99803057395883
 10
54.10401881242886
 20
-100.3173909254415
 10
53.89145642098894
 20
-100.5371880174004
 10
53.5522867704661
 20
-100.5371880174004
 97
        0
 97
        0
 92
        1
 93
        1
 72
     4
 94
        3
 73
     0
 74
     1
 95
       17
 96
       13
 40
0.0
 40
0.0
 40
0.0
 40
0.0
 40
1.0
 40
1.0
 40
1.0
 40
2.0
 40
2.0
 40
2.0
 40
3.0
 40
3.0
 40
3.0
 40
4.0
 40
4.0
 40
4.0
 40
4.0
 10
53.57037352176366
 20
-99.67832571292764
 10
53.28994274926432
 20
-99.67832571292764
 10
53.24929062253837
 20
-99.88985457572198
 10
53.24929062253837
 20
-100.0062988031234
 10
53.24929062253837
 20
-100.1819986728712
 10
53.35109319412751
 20
-100.3449516893235
 10
53.54780814633527
 20
-100.3449516893235
 10
53.67665471748361
 20
-100.3449516893235
 10
53.86424016665547
 20
-100.2856960469772
 10
53.86424016665547
 20
-100.00009763125
 10
53.86424016665547
 20
-99.77582191516022
 10
53.71506753214415
 20
-99.67832571292764
 10
53.57037352176366
 20
-99.67832571292764
 97
        0
 97
        0
 75
     2
 76
     1
 98
        0
  0
ENDBLK
  5
DE
330
DB
100
AcDbEntity
  8
0
100
AcDbBlockEnd
  0
ENDSEC
  0
SECTION
  2
ENTITIES
  0
POLYLINE
  5
41
330
1F
100
AcDbEntity
  8
_U+30EC_U+30A4_U+30E4_U+30FC 1
 62
   179
420
  2234388
370
    25
100
AcDb2dPolyline
 66
     1
 10
0.0
 20
0.0
 30
0.0
  0
VERTEX
  5
42
330
41
100
AcDbEntity
  8
_U+30EC_U+30A4_U+30E4_U+30FC 1
 62
   179
420
  2234388
370
    25
100
AcDbVertex
100
AcDb2dVertex
 10
50.54797426596929
 20
-84.03812247899063
 30
0.0
  0
VERTEX
  5
43
330
41
100
AcDbEntity
  8
_U+30EC_U+30A4_U+30E4_U+30FC 1
 62
   179
420
  2234388
370
    25
100
AcDbVertex
100
AcDb2dVertex
 10
71.54774123022061
 20
-84.03812247899063
 30
0.0
  0
SEQEND
  5
44
330
41
100
AcDbEntity
  8
_U+30EC_U+30A4_U+30E4_U+30FC 1
 62
   179
420
  2234388
370
    25
  0
POLYLINE
  5
45
330
1F
100
AcDbEntity
  8
_U+30EC_U+30A4_U+30E4_U+30FC 1
 62
   179
420
  2234388
370
    25
100
AcDb2dPolyline
 66
     1
 10
0.0
 20
0.0
 30
0.0
  0
VERTEX
  5
46
330
45
100
AcDbEntity
  8
_U+30EC_U+30A4_U+30E4_U+30FC 1
 62
   179
420
  2234388
370
    25
100
AcDbVertex
100
AcDb2dVertex
 10
51.34793313444953
 20
-84.83804608990174
 30
0.0
  0
VERTEX
  5
47
330
45
100
AcDbEntity
  8
_U+30EC_U+30A4_U+30E4_U+30FC 1
 62
   179
420
  2234388
370
    25
100
AcDbVertex
100
AcDb2dVertex
 10
71.54774123022061
 20
-84.83804608990174
 30
0.0
  0
SEQEND
  5
48
330
45
100
AcDbEntity
  8
_U+30EC_U+30A4_U+30E4_U+30FC 1
 62
   179
420
  2234388
370
    25
  0
POLYLINE
  5
49
330
1F
100
AcDbEntity
  8
_U+30EC_U+30A4_U+30E4_U+30FC 1
 62
   179
420
  2234388
370
    25
100
AcDb2dPolyline
 66
     1
 10
0.0
 20
0.0
 30
0.0
  0
VERTEX
  5
4A
330
49
100
AcDbEntity
  8
_U+30EC_U+30A4_U+30E4_U+30FC 1
 62
   179
420
  2234388
370
    25
100
AcDbVertex
100
AcDb2dVertex
 10
71.54774123022061
 20
-84.03812247899063
 30
0.0
  0
VERTEX
  5
4B
330
49
100
AcDbEntity
  8
_U+30EC_U+30A4_U+30E4_U+30FC 1
 62
   179
420
  2234388
370
    25
100
AcDbVertex
100
AcDb2dVertex
 10
71.54774123022061
 20
-84.83804608990174
 30
0.0
  0
SEQEND
  5
4C
330
49
100
AcDbEntity
  8
_U+30EC_U+30A4_U+30E4_U+30FC 1
 62
   179
420
  2234388
370
    25
  0
POLYLINE
  5
4D
330
1F
100
AcDbEntity
  8
_U+30EC_U+30A4_U+30E4_U+30FC 1
 62
   179
420
  2234388
370
    25
100
AcDb2dPolyline
 66
     1
 10
0.0
 20
0.0
 30
0.0
  0
VERTEX
  5
4E
330
4D
100
AcDbEntity
  8
_U+30EC_U+30A4_U+30E4_U+30FC 1
 62
   179
420
  2234388
370
    25
100
AcDbVertex
100
AcDb2dVertex
 10
50.54797426596929
 20
-84.03812247899063
 30
0.0
  0
VERTEX
  5
4F
330
4D
100
AcDbEntity
  8
_U+30EC_U+30A4_U+30E4_U+30FC 1
 62
   179
420
  2234388
370
    25
100
AcDbVertex
100
AcDb2dVertex
 10
50.54797426596929
 20
-97.8382952533183
 30
0.0
  0
SEQEND
  5
50
330
4D
100
AcDbEntity
  8
_U+30EC_U+30A4_U+30E4_U+30FC 1
 62
   179
420
  2234388
370
    25
  0
POLYLINE
  5
51
330
1F
100
AcDbEntity
  8
_U+30EC_U+30A4_U+30E4_U+30FC 1
 62
   179
420
  2234388
370
    25
100
AcDb2dPolyline
 66
     1
 10
0.0
 20
0.0
 30
0.0
  0
VERTEX
  5
52
330
51
100
AcDbEntity
  8
_U+30EC_U+30A4_U+30E4_U+30FC 1
 62
   179
420
  2234388
370
    25
100
AcDbVertex
100
AcDb2dVertex
 10
51.34793313444953
 20
-84.83804608990174
 30
0.0
  0
VERTEX
  5
53
330
51
100
AcDbEntity
  8
_U+30EC_U+30A4_U+30E4_U+30FC 1
 62
   179
420
  2234388
370
    25
100
AcDbVertex
100
AcDb2dVertex
 10
51.34793313444953
 20
-97.03833636462903
 30
0.0
  0
SEQEND
  5
54
330
51
100
AcDbEntity
  8
_U+30EC_U+30A4_U+30E4_U+30FC 1
 62
   179
420
  2234388
370
    25
  0
POLYLINE
  5
55
330
1F
100
AcDbEntity
  8
_U+30EC_U+30A4_U+30E4_U+30FC 1
 62
   179
420
  2234388
370
    25
100
AcDb2dPolyline
 66
     1
 10
0.0
 20
0.0
 30
0.0
  0
VERTEX
  5
56
330
55
100
AcDbEntity
  8
_U+30EC_U+30A4_U+30E4_U+30FC 1
 62
   179
420
  2234388
370
    25
100
AcDbVertex
100
AcDb2dVertex
 10
54.5456872195347
 20
-94.83830830962395
 30
0.0
  0
VERTEX
  5
57
330
55
100
AcDbEntity
  8
_U+30EC_U+30A4_U+30E4_U+30FC 1
 62
   179
420
  2234388
370
    25
100
AcDbVertex
100
AcDb2dVertex
 10
56.54798327956298
 20
-94.83830830962395
 30
0.0
  0
SEQEND
  5
58
330
55
100
AcDbEntity
  8
_U+30EC_U+30A4_U+30E4_U+30FC 1
 62
   179
420
  2234388
370
    25
  0
POLYLINE
  5
59
330
1F
100
AcDbEntity
  8
_U+30EC_U+30A4_U+30E4_U+30FC 1
 62
   179
420
  2234388
370
    25
100
AcDb2dPolyline
 66
     1
 10
0.0
 20
0.0
 30
0.0
  0
VERTEX
  5
5A
330
59
100
AcDbEntity
  8
_U+30EC_U+30A4_U+30E4_U+30FC 1
 62
   179
420
  2234388
370
    25
100
AcDbVertex
100
AcDb2dVertex
 10
50.54797426596929
 20
-97.8382952533183
 30
0.0
  0
VERTEX
  5
5B
330
59
100
AcDbEntity
  8
_U+30EC_U+30A4_U+30E4_U+30FC 1
 62
   179
420
  2234388
370
    25
100
AcDbVertex
100
AcDb2dVertex
 10
56.54798327956298
 20
-97.8382952533183
 30
0.0
  0
SEQEND
  5
5C
330
59
100
AcDbEntity
  8
_U+30EC_U+30A4_U+30E4_U+30FC 1
 62
   179
420
  2234388
370
    25
  0
POLYLINE
  5
5D
330
1F
100
AcDbEntity
  8
_U+30EC_U+30A4_U+30E4_U+30FC 1
 62
   179
420
  2234388
370
    25
100
AcDb2dPolyline
 66
     1
 10
0.0
 20
0.0
 30
0.0
  0
VERTEX
  5
5E
330
5D
100
AcDbEntity
  8
_U+30EC_U+30A4_U+30E4_U+30FC 1
 62
   179
420
  2234388
370
    25
100
AcDbVertex
100
AcDb2dVertex
 10
56.54798327956298
 20
-94.83830830962395
 30
0.0
  0
VERTEX
  5
5F
330
5D
100
AcDbEntity
  8
_U+30EC_U+30A4_U+30E4_U+30FC 1
 62
   179
420
  2234388
370
    25
100
AcDbVertex
100
AcDb2dVertex
 10
56.54798327956298
 20
-97.8382952533183
 30
0.0
  0
SEQEND
  5
60
330
5D
100
AcDbEntity
  8
_U+30EC_U+30A4_U+30E4_U+30FC 1
 62
   179
420
  2234388
370
    25
  0
POLYLINE
  5
61
330
1F
100
AcDbEntity
  8
_U+30EC_U+30A4_U+30E4_U+30FC 1
 62
   179
420
  2234388
370
    25
100
AcDb2dPolyline
 66
     1
 10
0.0
 20
0.0
 30
0.0
  0
VERTEX
  5
62
330
61
100
AcDbEntity
  8
_U+30EC_U+30A4_U+30E4_U+30FC 1
 62
   179
420
  2234388
370
    25
100
AcDbVertex
100
AcDb2dVertex
 10
54.5456872195347
 20
-94.83830830962395
 30
0.0
  0
VERTEX
  5
63
330
61
100
AcDbEntity
  8
_U+30EC_U+30A4_U+30E4_U+30FC 1
 62
   179
420
  2234388
370
    25
100
AcDbVertex
100
AcDb2dVertex
 10
54.5456872195347
 20
-95.63826719831258
 30
0.0
  0
SEQEND
  5
64
330
61
100
AcDbEntity
  8
_U+30EC_U+30A4_U+30E4_U+30FC 1
 62
   179
420
  2234388
370
    25
  0
POLYLINE
  5
65
330
1F
100
AcDbEntity
  8
_U+30EC_U+30A4_U+30E4_U+30FC 1
 62
   179
420
  2234388
370
    25
100
AcDb2dPolyline
 66
     1
 10
0.0
 20
0.0
 30
0.0
  0
VERTEX
  5
66
330
65
100
AcDbEntity
  8
_U+30EC_U+30A4_U+30E4_U+30FC 1
 62
   179
420
  2234388
370
    25
100
AcDbVertex
100
AcDb2dVertex
 10
51.34793313444953
 20
-97.03833636462903
 30
0.0
  0
VERTEX
  5
67
330
65
100
AcDbEntity
  8
_U+30EC_U+30A4_U+30E4_U+30FC 1
 62
   179
420
  2234388
370
    25
100
AcDbVertex
100
AcDb2dVertex
 10
55.74802441108274
 20
-97.03833636462903
 30
0.0
  0
SEQEND
  5
68
330
65
100
AcDbEntity
  8
_U+30EC_U+30A4_U+30E4_U+30FC 1
 62
   179
420
  2234388
370
    25
  0
POLYLINE
  5
69
330
1F
100
AcDbEntity
  8
_U+30EC_U+30A4_U+30E4_U+30FC 1
 62
   179
420
  2234388
370
    25
100
AcDb2dPolyline
 66
     1
 10
0.0
 20
0.0
 30
0.0
  0
VERTEX
  5
6A
330
69
100
AcDbEntity
  8
_U+30EC_U+30A4_U+30E4_U+30FC 1
 62
   179
420
  2234388
370
    25
100
AcDbVertex
100
AcDb2dVertex
 10
55.74802441108274
 20
-95.63826719831258
 30
0.0
  0
VERTEX
  5
6B
330
69
100
AcDbEntity
  8
_U+30EC_U+30A4_U+30E4_U+30FC 1
 62
   179
420
  2234388
370
    25
100
AcDbVertex
100
AcDb2dVertex
 10
55.74802441108274
 20
-97.03833636462903
 30
0.0
  0
SEQEND
  5
6C
330
69
100
AcDbEntity
  8
_U+30EC_U+30A4_U+30E4_U+30FC 1
 62
   179
420
  2234388
370
    25
  0
POLYLINE
  5
6D
330
1F
100
AcDbEntity
  8
_U+30EC_U+30A4_U+30E4_U+30FC 1
 62
   179
420
  2234388
370
    25
100
AcDb2dPolyline
 66
     1
 10
0.0
 20
0.0
 30
0.0
  0
VERTEX
  5
6E
330
6D
100
AcDbEntity
  8
_U+30EC_U+30A4_U+30E4_U+30FC 1
 62
   179
420
  2234388
370
    25
100
AcDbVertex
100
AcDb2dVertex
 10
54.5456872195347
 20
-95.63826719831258
 30
0.0
  0
VERTEX
  5
6F
330
6D
100
AcDbEntity
  8
_U+30EC_U+30A4_U+30E4_U+30FC 1
 62
   179
420
  2234388
370
    25
100
AcDbVertex
100
AcDb2dVertex
 10
55.74802441108274
 20
-95.63826719831258
 30
0.0
  0
SEQEND
  5
70
330
6D
100
AcDbEntity
  8
_U+30EC_U+30A4_U+30E4_U+30FC 1
 62
   179
420
  2234388
370
    25
  0
SPLINE
  5
71
330
1F
100
AcDbEntity
  8
_U+30EC_U+30A4_U+30E4_U+30FC 1
 62
   179
420
  2234388
370
     9
100
AcDbSpline
210
0.0
220
0.0
230
1.0
 70
    11
 71
     3
 72
    17
 73
    13
 74
     0
 42
0.0000000001
 43
0.0000000001
 12
1.0
 22
0.0
 32
0.0
 13
1.0
 23
0.0
 33
0.0
 40
0.0
 40
0.0
 40
0.0
 40
0.0
 40
1.0
 40
1.0
 40
1.0
 40
2.0
 40
2.0
 40
2.0
 40
3.0
 40
3.0
 40
3.0
 40
4.0
 40
4.0
 40
4.0
 40
4.0
 10
75.64807723672344
 20
-84.03812247899063
 30
0.0
 10
75.64807723672344
 20
-83.98263053455979
 30
0.0
 10
75.60330973786554
 20
-83.93821581234867
 30
0.0
 10
75.5481705726056
 20
-83.93821581234867
 30
0.0
 10
75.49306668512253
 20
-83.93821581234867
 30
0.0
 10
75.44826390848776
 20
-83.98263053455979
 30
0.0
 10
75.44826390848776
 20
-84.03812247899063
 30
0.0
 10
75.44826390848776
 20
-84.09357914564332
 30
0.0
 10
75.49306668512253
 20
-84.1383466456322
 30
0.0
 10
75.5481705726056
 20
-84.1383466456322
 30
0.0
 10
75.60330973786554
 20
-84.1383466456322
 30
0.0
 10
75.64807723672344
 20
-84.09357914564332
 30
0.0
 10
75.64807723672344
 20
-84.03812247899063
 30
0.0
  0
SPLINE
  5
72
330
1F
100
AcDbEntity
  8
_U+30EC_U+30A4_U+30E4_U+30FC 1
 62
   179
420
  2234388
370
     9
100
AcDbSpline
210
0.0
220
0.0
230
1.0
 70
    11
 71
     3
 72
    17
 73
    13
 74
     0
 42
0.0000000001
 43
0.0000000001
 12
1.0
 22
0.0
 32
0.0
 13
1.0
 23
0.0
 33
0.0
 40
0.0
 40
0.0
 40
0.0
 40
0.0
 40
1.0
 40
1.0
 40
1.0
 40
2.0
 40
2.0
 40
2.0
 40
3.0
 40
3.0
 40
3.0
 40
4.0
 40
4.0
 40
4.0
 40
4.0
 10
75.64807723672344
 20
-84.83804608990174
 30
0.0
 10
75.64807723672344
 20
-84.7829422010265
 30
0.0
 10
75.60330973786554
 20
-84.73813942325978
 30
0.0
 10
75.5481705726056
 20
-84.73813942325978
 30
0.0
 10
75.49306668512253
 20
-84.73813942325978
 30
0.0
 10
75.44826390848776
 20
-84.7829422010265
 30
0.0
 10
75.44826390848776
 20
-84.83804608990174
 30
0.0
 10
75.44826390848776
 20
-84.89353803433225
 30
0.0
 10
75.49306668512253
 20
-84.93830553432113
 30
0.0
 10
75.5481705726056
 20
-84.93830553432113
 30
0.0
 10
75.60330973786554
 20
-84.93830553432113
 30
0.0
 10
75.64807723672344
 20
-84.89353803433225
 30
0.0
 10
75.64807723672344
 20
-84.83804608990174
 30
0.0
  0
SPLINE
  5
73
330
1F
100
AcDbEntity
  8
_U+30EC_U+30A4_U+30E4_U+30FC 1
 62
   179
420
  2234388
370
     9
100
AcDbSpline
210
0.0
220
0.0
230
1.0
 70
    11
 71
     3
 72
    17
 73
    13
 74
     0
 42
0.0000000001
 43
0.0000000001
 12
1.0
 22
0.0
 32
0.0
 13
1.0
 23
0.0
 33
0.0
 40
0.0
 40
0.0
 40
0.0
 40
0.0
 40
1.0
 40
1.0
 40
1.0
 40
2.0
 40
2.0
 40
2.0
 40
3.0
 40
3.0
 40
3.0
 40
4.0
 40
4.0
 40
4.0
 40
4.0
 10
71.648353449876
 20
-80.038010535546
 30
0.0
 10
71.648353449876
 20
-79.98287136889323
 30
0.0
 10
71.60355067324123
 20
-79.93810386890435
 30
0.0
 10
71.54774123022061
 20
-79.93810386890435
 30
0.0
 10
71.49263734273754
 20
-79.93810386890435
 30
0.0
 10
71.44783456610277
 20
-79.98287136889323
 30
0.0
 10
71.44783456610277
 20
-80.038010535546
 30
0.0
 10
71.44783456610277
 20
-80.09311442442123
 30
0.0
 10
71.49263734273754
 20
-80.13791720218762
 30
0.0
 10
71.54774123022061
 20
-80.13791720218762
 30
0.0
 10
71.60355067324123
 20
-80.13791720218762
 30
0.0
 10
71.648353449876
 20
-80.09311442442123
 30
0.0
 10
71.648353449876
 20
-80.038010535546
 30
0.0
  0
SPLINE
  5
74
330
1F
100
AcDbEntity
  8
_U+30EC_U+30A4_U+30E4_U+30FC 1
 62
   179
420
  2234388
370
     9
100
AcDbSpline
210
0.0
220
0.0
230
1.0
 70
    11
 71
     3
 72
    17
 73
    13
 74
     0
 42
0.0000000001
 43
0.0000000001
 12
1.0
 22
0.0
 32
0.0
 13
1.0
 23
0.0
 33
0.0
 40
0.0
 40
0.0
 40
0.0
 40
0.0
 40
1.0
 40
1.0
 40
1.0
 40
2.0
 40
2.0
 40
2.0
 40
3.0
 40
3.0
 40
3.0
 40
4.0
 40
4.0
 40
4.0
 40
4.0
 10
56.64820744367272
 20
-101.8384071967629
 30
0.0
 10
56.64820744367272
 20
-101.7829505301096
 30
0.0
 10
56.60343994481483
 20
-101.7381477523435
 30
0.0
 10
56.54798327956298
 20
-101.7381477523435
 30
0.0
 10
56.49284411430303
 20
-101.7381477523435
 30
0.0
 10
56.44807661544515
 20
-101.7829505301096
 30
0.0
 10
56.44807661544515
 20
-101.8384071967629
 30
0.0
 10
56.44807661544515
 20
-101.8935110856379
 30
0.0
 10
56.49284411430303
 20
-101.9383138634046
 30
0.0
 10
56.54798327956298
 20
-101.9383138634046
 30
0.0
 10
56.60343994481483
 20
-101.9383138634046
 30
0.0
 10
56.64820744367272
 20
-101.8935110856379
 30
0.0
 10
56.64820744367272
 20
-101.8384071967629
 30
0.0
  0
SPLINE
  5
75
330
1F
100
AcDbEntity
  8
_U+30EC_U+30A4_U+30E4_U+30FC 1
 62
   179
420
  2234388
370
     9
100
AcDbSpline
210
0.0
220
0.0
230
1.0
 70
    11
 71
     3
 72
    17
 73
    13
 74
     0
 42
0.0000000001
 43
0.0000000001
 12
1.0
 22
0.0
 32
0.0
 13
1.0
 23
0.0
 33
0.0
 40
0.0
 40
0.0
 40
0.0
 40
0.0
 40
1.0
 40
1.0
 40
1.0
 40
2.0
 40
2.0
 40
2.0
 40
3.0
 40
3.0
 40
3.0
 40
4.0
 40
4.0
 40
4.0
 40
4.0
 10
50.64788093008713
 20
-101.8384071967629
 30
0.0
 10
50.64788093008713
 20
-101.7829505301096
 30
0.0
 10
50.60311343122925
 20
-101.7381477523435
 30
0.0
 10
50.54797426596929
 20
-101.7381477523435
 30
0.0
 10
50.49287037848622
 20
-101.7381477523435
 30
0.0
 10
50.44806760185146
 20
-101.7829505301096
 30
0.0
 10
50.44806760185146
 20
-101.8384071967629
 30
0.0
 10
50.44806760185146
 20
-101.8935110856379
 30
0.0
 10
50.49287037848622
 20
-101.9383138634046
 30
0.0
 10
50.54797426596929
 20
-101.9383138634046
 30
0.0
 10
50.60311343122925
 20
-101.9383138634046
 30
0.0
 10
50.64788093008713
 20
-101.8935110856379
 30
0.0
 10
50.64788093008713
 20
-101.8384071967629
 30
0.0
  0
SPLINE
  5
76
330
1F
100
AcDbEntity
  8
_U+30EC_U+30A4_U+30E4_U+30FC 1
 62
   179
420
  2234388
370
     9
100
AcDbSpline
210
0.0
220
0.0
230
1.0
 70
    11
 71
     3
 72
    17
 73
    13
 74
     0
 42
0.0000000001
 43
0.0000000001
 12
1.0
 22
0.0
 32
0.0
 13
1.0
 23
0.0
 33
0.0
 40
0.0
 40
0.0
 40
0.0
 40
0.0
 40
1.0
 40
1.0
 40
1.0
 40
2.0
 40
2.0
 40
2.0
 40
3.0
 40
3.0
 40
3.0
 40
4.0
 40
4.0
 40
4.0
 40
4.0
 10
50.64788093008713
 20
-80.038010535546
 30
0.0
 10
50.64788093008713
 20
-79.98287136889323
 30
0.0
 10
50.60311343122925
 20
-79.93810386890435
 30
0.0
 10
50.54797426596929
 20
-79.93810386890435
 30
0.0
 10
50.49287037848622
 20
-79.93810386890435
 30
0.0
 10
50.44806760185146
 20
-79.98287136889323
 30
0.0
 10
50.44806760185146
 20
-80.038010535546
 30
0.0
 10
50.44806760185146
 20
-80.09311442442123
 30
0.0
 10
50.49287037848622
 20
-80.13791720218762
 30
0.0
 10
50.54797426596929
 20
-80.13791720218762
 30
0.0
 10
50.60311343122925
 20
-80.13791720218762
 30
0.0
 10
50.64788093008713
 20
-80.09311442442123
 30
0.0
 10
50.64788093008713
 20
-80.038010535546
 30
0.0
  0
SPLINE
  5
77
330
1F
100
AcDbEntity
  8
_U+30EC_U+30A4_U+30E4_U+30FC 1
 62
   179
420
  2234388
370
     9
100
AcDbSpline
210
0.0
220
0.0
230
1.0
 70
    11
 71
     3
 72
    17
 73
    13
 74
     0
 42
0.0000000001
 43
0.0000000001
 12
1.0
 22
0.0
 32
0.0
 13
1.0
 23
0.0
 33
0.0
 40
0.0
 40
0.0
 40
0.0
 40
0.0
 40
1.0
 40
1.0
 40
1.0
 40
2.0
 40
2.0
 40
2.0
 40
3.0
 40
3.0
 40
3.0
 40
4.0
 40
4.0
 40
4.0
 40
4.0
 10
75.64807723672344
 20
-97.8382952533183
 30
0.0
 10
75.64807723672344
 20
-97.78319136444338
 30
0.0
 10
75.60330973786554
 20
-97.73838858667665
 30
0.0
 10
75.5481705726056
 20
-97.73838858667665
 30
0.0
 10
75.49306668512253
 20
-97.73838858667665
 30
0.0
 10
75.44826390848776
 20
-97.78319136444338
 30
0.0
 10
75.44826390848776
 20
-97.8382952533183
 30
0.0
 10
75.44826390848776
 20
-97.89343441997137
 30
0.0
 10
75.49306668512253
 20
-97.93820191995994
 30
0.0
 10
75.5481705726056
 20
-97.93820191995994
 30
0.0
 10
75.60330973786554
 20
-97.93820191995994
 30
0.0
 10
75.64807723672344
 20
-97.89343441997137
 30
0.0
 10
75.64807723672344
 20
-97.8382952533183
 30
0.0
  0
SPLINE
  5
78
330
1F
100
AcDbEntity
  8
_U+30EC_U+30A4_U+30E4_U+30FC 1
 62
   179
420
  2234388
370
     9
100
AcDbSpline
210
0.0
220
0.0
230
1.0
 70
    11
 71
     3
 72
    17
 73
    13
 74
     0
 42
0.0000000001
 43
0.0000000001
 12
1.0
 22
0.0
 32
0.0
 13
1.0
 23
0.0
 33
0.0
 40
0.0
 40
0.0
 40
0.0
 40
0.0
 40
1.0
 40
1.0
 40
1.0
 40
2.0
 40
2.0
 40
2.0
 40
3.0
 40
3.0
 40
3.0
 40
4.0
 40
4.0
 40
4.0
 40
4.0
 10
75.64807723672344
 20
-94.83830830962395
 30
0.0
 10
75.64807723672344
 20
-94.78320442074839
 30
0.0
 10
75.60330973786554
 20
-94.73840164298231
 30
0.0
 10
75.5481705726056
 20
-94.73840164298231
 30
0.0
 10
75.49306668512253
 20
-94.73840164298231
 30
0.0
 10
75.44826390848776
 20
-94.78320442074839
 30
0.0
 10
75.44826390848776
 20
-94.83830830962395
 30
0.0
 10
75.44826390848776
 20
-94.89344747627639
 30
0.0
 10
75.49306668512253
 20
-94.93821497626558
 30
0.0
 10
75.5481705726056
 20
-94.93821497626558
 30
0.0
 10
75.60330973786554
 20
-94.93821497626558
 30
0.0
 10
75.64807723672344
 20
-94.89344747627639
 30
0.0
 10
75.64807723672344
 20
-94.83830830962395
 30
0.0
  0
POLYLINE
  5
79
330
1F
100
AcDbEntity
  8
_U+30EC_U+30A4_U+30E4_U+30FC 1
 62
   179
420
  2234388
370
     9
100
AcDb2dPolyline
 66
     1
 10
0.0
 20
0.0
 30
0.0
  0
VERTEX
  5
7A
330
79
100
AcDbEntity
  8
_U+30EC_U+30A4_U+30E4_U+30FC 1
 62
   179
420
  2234388
370
     9
100
AcDbVertex
100
AcDb2dVertex
 10
75.5481705726056
 20
-84.03812247899063
 30
0.0
  0
VERTEX
  5
7B
330
79
100
AcDbEntity
  8
_U+30EC_U+30A4_U+30E4_U+30FC 1
 62
   179
420
  2234388
370
     9
100
AcDbVertex
100
AcDb2dVertex
 10
75.5481705726056
 20
-78.78053414697165
 30
0.0
  0
SEQEND
  5
7C
330
79
100
AcDbEntity
  8
_U+30EC_U+30A4_U+30E4_U+30FC 1
 62
   179
420
  2234388
370
     9
  0
POLYLINE
  5
7D
330
1F
100
AcDbEntity
  8
_U+30EC_U+30A4_U+30E4_U+30FC 1
 62
   179
420
  2234388
370
     9
100
AcDb2dPolyline
 66
     1
 10
0.0
 20
0.0
 30
0.0
  0
VERTEX
  5
7E
330
7D
100
AcDbEntity
  8
_U+30EC_U+30A4_U+30E4_U+30FC 1
 62
   179
420
  2234388
370
     9
100
AcDbVertex
100
AcDb2dVertex
 10
75.5481705726056
 20
-84.03812247899063
 30
0.0
  0
VERTEX
  5
7F
330
7D
100
AcDbEntity
  8
_U+30EC_U+30A4_U+30E4_U+30FC 1
 62
   179
420
  2234388
370
     9
100
AcDbVertex
100
AcDb2dVertex
 10
75.5481705726056
 20
-84.83804608990174
 30
0.0
  0
SEQEND
  5
80
330
7D
100
AcDbEntity
  8
_U+30EC_U+30A4_U+30E4_U+30FC 1
 62
   179
420
  2234388
370
     9
  0
POLYLINE
  5
81
330
1F
100
AcDbEntity
  8
_U+30EC_U+30A4_U+30E4_U+30FC 1
 62
   179
420
  2234388
370
     9
100
AcDb2dPolyline
 66
     1
 10
0.0
 20
0.0
 30
0.0
  0
VERTEX
  5
82
330
81
100
AcDbEntity
  8
_U+30EC_U+30A4_U+30E4_U+30FC 1
 62
   179
420
  2234388
370
     9
100
AcDbVertex
100
AcDb2dVertex
 10
74.08816449874234
 20
-84.03812247899063
 30
0.0
  0
VERTEX
  5
83
330
81
100
AcDbEntity
  8
_U+30EC_U+30A4_U+30E4_U+30FC 1
 62
   179
420
  2234388
370
     9
100
AcDbVertex
100
AcDb2dVertex
 10
76.54794276932151
 20
-84.03812247899063
 30
0.0
  0
SEQEND
  5
84
330
81
100
AcDbEntity
  8
_U+30EC_U+30A4_U+30E4_U+30FC 1
 62
   179
420
  2234388
370
     9
  0
POLYLINE
  5
85
330
1F
100
AcDbEntity
  8
_U+30EC_U+30A4_U+30E4_U+30FC 1
 62
   179
420
  2234388
370
     9
100
AcDb2dPolyline
 66
     1
 10
0.0
 20
0.0
 30
0.0
  0
VERTEX
  5
86
330
85
100
AcDbEntity
  8
_U+30EC_U+30A4_U+30E4_U+30FC 1
 62
   179
420
  2234388
370
     9
100
AcDbVertex
100
AcDb2dVertex
 10
74.08816449874234
 20
-84.83804608990174
 30
0.0
  0
VERTEX
  5
87
330
85
100
AcDbEntity
  8
_U+30EC_U+30A4_U+30E4_U+30FC 1
 62
   179
420
  2234388
370
     9
100
AcDbVertex
100
AcDb2dVertex
 10
76.54794276932151
 20
-84.83804608990174
 30
0.0
  0
SEQEND
  5
88
330
85
100
AcDbEntity
  8
_U+30EC_U+30A4_U+30E4_U+30FC 1
 62
   179
420
  2234388
370
     9
  0
INSERT
  5
8A
330
1F
100
AcDbEntity
  8
_U+30EC_U+30A4_U+30E4_U+30FC 1
100
AcDbBlockReference
  2
block 2
 10
0.0
 20
0.0
 30
0.0
  0
POLYLINE
  5
9C
330
1F
100
AcDbEntity
  8
_U+30EC_U+30A4_U+30E4_U+30FC 1
 62
   179
420
  2234388
370
     9
100
AcDb2dPolyline
 66
     1
 10
0.0
 20
0.0
 30
0.0
  0
VERTEX
  5
9D
330
9C
100
AcDbEntity
  8
_U+30EC_U+30A4_U+30E4_U+30FC 1
 62
   179
420
  2234388
370
     9
100
AcDbVertex
100
AcDb2dVertex
 10
75.5481705726056
 20
-94.83830830962395
 30
0.0
  0
VERTEX
  5
9E
330
9C
100
AcDbEntity
  8
_U+30EC_U+30A4_U+30E4_U+30FC 1
 62
   179
420
  2234388
370
     9
100
AcDbVertex
100
AcDb2dVertex
 10
75.5481705726056
 20
-84.83804608990174
 30
0.0
  0
SEQEND
  5
9F
330
9C
100
AcDbEntity
  8
_U+30EC_U+30A4_U+30E4_U+30FC 1
 62
   179
420
  2234388
370
     9
  0
POLYLINE
  5
A0
330
1F
100
AcDbEntity
  8
_U+30EC_U+30A4_U+30E4_U+30FC 1
 62
   179
420
  2234388
370
     9
100
AcDb2dPolyline
 66
     1
 10
0.0
 20
0.0
 30
0.0
  0
VERTEX
  5
A1
330
A0
100
AcDbEntity
  8
_U+30EC_U+30A4_U+30E4_U+30FC 1
 62
   179
420
  2234388
370
     9
100
AcDbVertex
100
AcDb2dVertex
 10
59.08805377031594
 20
-94.83830830962395
 30
0.0
  0
VERTEX
  5
A2
330
A0
100
AcDbEntity
  8
_U+30EC_U+30A4_U+30E4_U+30FC 1
 62
   179
420
  2234388
370
     9
100
AcDbVertex
100
AcDb2dVertex
 10
76.54794276932151
 20
-94.83830830962395
 30
0.0
  0
SEQEND
  5
A3
330
A0
100
AcDbEntity
  8
_U+30EC_U+30A4_U+30E4_U+30FC 1
 62
   179
420
  2234388
370
     9
  0
INSERT
  5
A5
330
1F
100
AcDbEntity
  8
_U+30EC_U+30A4_U+30E4_U+30FC 1
100
AcDbBlockReference
  2
block 3
 10
0.0
 20
0.0
 30
0.0
  0
POLYLINE
  5
AD
330
1F
100
AcDbEntity
  8
_U+30EC_U+30A4_U+30E4_U+30FC 1
 62
   179
420
  2234388
370
     9
100
AcDb2dPolyline
 66
     1
 10
0.0
 20
0.0
 30
0.0
  0
VERTEX
  5
AE
330
AD
100
AcDbEntity
  8
_U+30EC_U+30A4_U+30E4_U+30FC 1
 62
   179
420
  2234388
370
     9
100
AcDbVertex
100
AcDb2dVertex
 10
75.5481705726056
 20
-94.83830830962395
 30
0.0
  0
VERTEX
  5
AF
330
AD
100
AcDbEntity
  8
_U+30EC_U+30A4_U+30E4_U+30FC 1
 62
   179
420
  2234388
370
     9
100
AcDbVertex
100
AcDb2dVertex
 10
75.5481705726056
 20
-97.8382952533183
 30
0.0
  0
SEQEND
  5
B0
330
AD
100
AcDbEntity
  8
_U+30EC_U+30A4_U+30E4_U+30FC 1
 62
   179
420
  2234388
370
     9
  0
POLYLINE
  5
B1
330
1F
100
AcDbEntity
  8
_U+30EC_U+30A4_U+30E4_U+30FC 1
 62
   179
420
  2234388
370
     9
100
AcDb2dPolyline
 66
     1
 10
0.0
 20
0.0
 30
0.0
  0
VERTEX
  5
B2
330
B1
100
AcDbEntity
  8
_U+30EC_U+30A4_U+30E4_U+30FC 1
 62
   179
420
  2234388
370
     9
100
AcDbVertex
100
AcDb2dVertex
 10
59.08805377031594
 20
-97.8382952533183
 30
0.0
  0
VERTEX
  5
B3
330
B1
100
AcDbEntity
  8
_U+30EC_U+30A4_U+30E4_U+30FC 1
 62
   179
420
  2234388
370
     9
100
AcDbVertex
100
AcDb2dVertex
 10
76.54794276932151
 20
-97.8382952533183
 30
0.0
  0
SEQEND
  5
B4
330
B1
100
AcDbEntity
  8
_U+30EC_U+30A4_U+30E4_U+30FC 1
 62
   179
420
  2234388
370
     9
  0
INSERT
  5
B6
330
1F
100
AcDbEntity
  8
_U+30EC_U+30A4_U+30E4_U+30FC 1
100
AcDbBlockReference
  2
block 4
 10
0.0
 20
0.0
 30
0.0
  0
POLYLINE
  5
BB
330
1F
100
AcDbEntity
  8
_U+30EC_U+30A4_U+30E4_U+30FC 1
 62
   179
420
  2234388
370
     9
100
AcDb2dPolyline
 66
     1
 10
0.0
 20
0.0
 30
0.0
  0
VERTEX
  5
BC
330
BB
100
AcDbEntity
  8
_U+30EC_U+30A4_U+30E4_U+30FC 1
 62
   179
420
  2234388
370
     9
100
AcDbVertex
100
AcDb2dVertex
 10
50.54797426596929
 20
-80.038010535546
 30
0.0
  0
VERTEX
  5
BD
330
BB
100
AcDbEntity
  8
_U+30EC_U+30A4_U+30E4_U+30FC 1
 62
   179
420
  2234388
370
     9
100
AcDbVertex
100
AcDb2dVertex
 10
71.54774123022061
 20
-80.038010535546
 30
0.0
  0
SEQEND
  5
BE
330
BB
100
AcDbEntity
  8
_U+30EC_U+30A4_U+30E4_U+30FC 1
 62
   179
420
  2234388
370
     9
  0
POLYLINE
  5
BF
330
1F
100
AcDbEntity
  8
_U+30EC_U+30A4_U+30E4_U+30FC 1
 62
   179
420
  2234388
370
     9
100
AcDb2dPolyline
 66
     1
 10
0.0
 20
0.0
 30
0.0
  0
VERTEX
  5
C0
330
BF
100
AcDbEntity
  8
_U+30EC_U+30A4_U+30E4_U+30FC 1
 62
   179
420
  2234388
370
     9
100
AcDbVertex
100
AcDb2dVertex
 10
50.54797426596929
 20
-81.49805192407001
 30
0.0
  0
VERTEX
  5
C1
330
BF
100
AcDbEntity
  8
_U+30EC_U+30A4_U+30E4_U+30FC 1
 62
   179
420
  2234388
370
     9
100
AcDbVertex
100
AcDb2dVertex
 10
50.54797426596929
 20
-79.03823831357377
 30
0.0
  0
SEQEND
  5
C2
330
BF
100
AcDbEntity
  8
_U+30EC_U+30A4_U+30E4_U+30FC 1
 62
   179
420
  2234388
370
     9
  0
POLYLINE
  5
C3
330
1F
100
AcDbEntity
  8
_U+30EC_U+30A4_U+30E4_U+30FC 1
 62
   179
420
  2234388
370
     9
100
AcDb2dPolyline
 66
     1
 10
0.0
 20
0.0
 30
0.0
  0
VERTEX
  5
C4
330
C3
100
AcDbEntity
  8
_U+30EC_U+30A4_U+30E4_U+30FC 1
 62
   179
420
  2234388
370
     9
100
AcDbVertex
100
AcDb2dVertex
 10
71.54774123022061
 20
-81.49805192407001
 30
0.0
  0
VERTEX
  5
C5
330
C3
100
AcDbEntity
  8
_U+30EC_U+30A4_U+30E4_U+30FC 1
 62
   179
420
  2234388
370
     9
100
AcDbVertex
100
AcDb2dVertex
 10
71.54774123022061
 20
-79.03823831357377
 30
0.0
  0
SEQEND
  5
C6
330
C3
100
AcDbEntity
  8
_U+30EC_U+30A4_U+30E4_U+30FC 1
 62
   179
420
  2234388
370
     9
  0
INSERT
  5
C8
330
1F
100
AcDbEntity
  8
_U+30EC_U+30A4_U+30E4_U+30FC 1
100
AcDbBlockReference
  2
block 5
 10
0.0
 20
0.0
 30
0.0
  0
POLYLINE
  5
CF
330
1F
100
AcDbEntity
  8
_U+30EC_U+30A4_U+30E4_U+30FC 1
 62
   179
420
  2234388
370
     9
100
AcDb2dPolyline
 66
     1
 10
0.0
 20
0.0
 30
0.0
  0
VERTEX
  5
D0
330
CF
100
AcDbEntity
  8
_U+30EC_U+30A4_U+30E4_U+30FC 1
 62
   179
420
  2234388
370
     9
100
AcDbVertex
100
AcDb2dVertex
 10
50.54797426596929
 20
-101.8384071967629
 30
0.0
  0
VERTEX
  5
D1
330
CF
100
AcDbEntity
  8
_U+30EC_U+30A4_U+30E4_U+30FC 1
 62
   179
420
  2234388
370
     9
100
AcDbVertex
100
AcDb2dVertex
 10
56.54798327956298
 20
-101.8384071967629
 30
0.0
  0
SEQEND
  5
D2
330
CF
100
AcDbEntity
  8
_U+30EC_U+30A4_U+30E4_U+30FC 1
 62
   179
420
  2234388
370
     9
  0
POLYLINE
  5
D3
330
1F
100
AcDbEntity
  8
_U+30EC_U+30A4_U+30E4_U+30FC 1
 62
   179
420
  2234388
370
     9
100
AcDb2dPolyline
 66
     1
 10
0.0
 20
0.0
 30
0.0
  0
VERTEX
  5
D4
330
D3
100
AcDbEntity
  8
_U+30EC_U+30A4_U+30E4_U+30FC 1
 62
   179
420
  2234388
370
     9
100
AcDbVertex
100
AcDb2dVertex
 10
50.54797426596929
 20
-100.3783658082386
 30
0.0
  0
VERTEX
  5
D5
330
D3
100
AcDbEntity
  8
_U+30EC_U+30A4_U+30E4_U+30FC 1
 62
   179
420
  2234388
370
     9
100
AcDbVertex
100
AcDb2dVertex
 10
50.54797426596929
 20
-102.8381794187348
 30
0.0
  0
SEQEND
  5
D6
330
D3
100
AcDbEntity
  8
_U+30EC_U+30A4_U+30E4_U+30FC 1
 62
   179
420
  2234388
370
     9
  0
POLYLINE
  5
D7
330
1F
100
AcDbEntity
  8
_U+30EC_U+30A4_U+30E4_U+30FC 1
 62
   179
420
  2234388
370
     9
100
AcDb2dPolyline
 66
     1
 10
0.0
 20
0.0
 30
0.0
  0
VERTEX
  5
D8
330
D7
100
AcDbEntity
  8
_U+30EC_U+30A4_U+30E4_U+30FC 1
 62
   179
420
  2234388
370
     9
100
AcDbVertex
100
AcDb2dVertex
 10
56.54798327956298
 20
-100.3783658082386
 30
0.0
  0
VERTEX
  5
D9
330
D7
100
AcDbEntity
  8
_U+30EC_U+30A4_U+30E4_U+30FC 1
 62
   179
420
  2234388
370
     9
100
AcDbVertex
100
AcDb2dVertex
 10
56.54798327956298
 20
-102.8381794187348
 30
0.0
  0
SEQEND
  5
DA
330
D7
100
AcDbEntity
  8
_U+30EC_U+30A4_U+30E4_U+30FC 1
 62
   179
420
  2234388
370
     9
  0
INSERT
  5
DC
330
1F
100
AcDbEntity
  8
_U+30EC_U+30A4_U+30E4_U+30FC 1
100
AcDbBlockReference
  2
block 6
 10
0.0
 20
0.0
 30
0.0
  0
ENDSEC
  0
SECTION
  2
OBJECTS
  0
DICTIONARY
  5
C
330
0
100
AcDbDictionary
281
     1
  3
ACAD_GROUP
350
D
  3
ACAD_LAYOUT
350
1A
  3
ACAD_MATERIAL
350
3B
  3
ACAD_MLEADERSTYLE
350
E3
  3
ACAD_MLINESTYLE
350
17
  3
ACAD_PLOTSETTINGS
350
19
  3
ACAD_PLOTSTYLENAME
350
E
  3
ACAD_TABLESTYLE
350
E2
  3
ACAD_VISUALSTYLE
350
2A
  0
SUN
  5
3F
330
29
100
AcDbSun
 90
        1
290
     0
 63
     7
421
 16777215
 40
1.0
291
     1
 91
  2455826
 92
 54000000
292
     0
 70
     2
 71
   256
280
     1
  0
DICTIONARY
  5
D
102
{ACAD_REACTORS
330
C
102
}
330
C
100
AcDbDictionary
281
     1
  0
DICTIONARY
  5
1A
102
{ACAD_REACTORS
330
C
102
}
330
C
100
AcDbDictionary
281
     1
  3
Layout1
350
1E
  3
Layout2
350
26
  3
Model
350
22
  0
DICTIONARY
  5
3B
102
{ACAD_REACTORS
330
C
102
}
330
C
100
AcDbDictionary
281
     1
  3
ByBlock
350
3D
  3
ByLayer
350
3C
  3
Global
350
3E
  0
DICTIONARY
  5
E3
102
{ACAD_REACTORS
330
C
102
}
330
C
100
AcDbDictionary
281
     1
  0
DICTIONARY
  5
17
102
{ACAD_REACTORS
330
C
102
}
330
C
100
AcDbDictionary
281
     1
  3
Standard
350
18
  0
DICTIONARY
  5
19
102
{ACAD_REACTORS
330
C
102
}
330
C
100
AcDbDictionary
281
     1
  0
ACDBDICTIONARYWDFLT
  5
E
102
{ACAD_REACTORS
330
C
102
}
330
C
100
AcDbDictionary
281
     1
  3
Normal
350
F
100
AcDbDictionaryWithDefault
340
F
  0
DICTIONARY
  5
E2
102
{ACAD_REACTORS
330
C
102
}
330
C
100
AcDbDictionary
281
     1
  0
DICTIONARY
  5
2A
102
{ACAD_REACTORS
330
C
102
}
330
C
100
AcDbDictionary
281
     1
  3
2dWireframe
350
2F
  3
3D Hidden
350
31
  3
3dWireframe
350
30
  3
Basic
350
32
  3
Brighten
350
36
  3
ColorChange
350
3A
  3
Conceptual
350
34
  3
Dim
350
35
  3
Facepattern
350
39
  3
Flat
350
2B
  3
FlatWithEdges
350
2C
  3
Gouraud
350
2D
  3
GouraudWithEdges
350
2E
  3
Linepattern
350
38
  3
Realistic
350
33
  3
Thicken
350
37
  0
LAYOUT
  5
1E
102
{ACAD_REACTORS
330
1A
102
}
330
1A
100
AcDbPlotSettings
  1

  2
none_device
  4

  6

 40
0.0
 41
0.0
 42
0.0
 43
0.0
 44
0.0
 45
0.0
 46
0.0
 47
0.0
 48
0.0
 49
0.0
140
0.0
141
0.0
142
1.0
143
1.0
 70
   688
 72
     0
 73
     0
 74
     5
  7

 75
    16
 76
     0
 77
     2
 78
   300
147
1.0
148
0.0
149
0.0
100
AcDbLayout
  1
Layout1
 70
     1
 71
     1
 10
0.0
 20
0.0
 11
12.0
 21
9.0
 12
0.0
 22
0.0
 32
0.0
 14
1.000000000000000E+20
 24
1.000000000000000E+20
 34
1.000000000000000E+20
 15
-1.000000000000000E+20
 25
-1.000000000000000E+20
 35
-1.000000000000000E+20
146
0.0
 13
0.0
 23
0.0
 33
0.0
 16
1.0
 26
0.0
 36
0.0
 17
0.0
 27
1.0
 37
0.0
 76
     0
330
1B
  0
LAYOUT
  5
26
102
{ACAD_REACTORS
330
1A
102
}
330
1A
100
AcDbPlotSettings
  1

  2
none_device
  4

  6

 40
0.0
 41
0.0
 42
0.0
 43
0.0
 44
0.0
 45
0.0
 46
0.0
 47
0.0
 48
0.0
 49
0.0
140
0.0
141
0.0
142
1.0
143
1.0
 70
   688
 72
     0
 73
     0
 74
     5
  7

 75
    16
 76
     0
 77
     2
 78
   300
147
1.0
148
0.0
149
0.0
100
AcDbLayout
  1
Layout2
 70
     1
 71
     2
 10
0.0
 20
0.0
 11
0.0
 21
0.0
 12
0.0
 22
0.0
 32
0.0
 14
0.0
 24
0.0
 34
0.0
 15
0.0
 25
0.0
 35
0.0
146
0.0
 13
0.0
 23
0.0
 33
0.0
 16
1.0
 26
0.0
 36
0.0
 17
0.0
 27
1.0
 37
0.0
 76
     0
330
23
  0
LAYOUT
  5
22
102
{ACAD_REACTORS
330
1A
102
}
330
1A
100
AcDbPlotSettings
  1

  2
none_device
  4

  6

 40
0.0
 41
0.0
 42
0.0
 43
0.0
 44
0.0
 45
0.0
 46
0.0
 47
0.0
 48
0.0
 49
0.0
140
0.0
141
0.0
142
1.0
143
1.0
 70
  1712
 72
     0
 73
     0
 74
     0
  7

 75
     0
 76
     0
 77
     2
 78
   300
147
1.0
148
0.0
149
0.0
100
AcDbLayout
  1
Model
 70
     1
 71
     0
 10
0.0
 20
0.0
 11
12.0
 21
9.0
 12
0.0
 22
0.0
 32
0.0
 14
1.000000000000000E+20
 24
1.000000000000000E+20
 34
1.000000000000000E+20
 15
-1.000000000000000E+20
 25
-1.000000000000000E+20
 35
-1.000000000000000E+20
146
0.0
 13
0.0
 23
0.0
 33
0.0
 16
1.0
 26
0.0
 36
0.0
 17
0.0
 27
1.0
 37
0.0
 76
     0
330
1F
331
29
  0
MATERIAL
  5
3D
102
{ACAD_REACTORS
330
3B
102
}
330
3B
100
AcDbMaterial
  1
ByBlock
 72
     1
 94
      127
  0
MATERIAL
  5
3C
102
{ACAD_REACTORS
330
3B
102
}
330
3B
100
AcDbMaterial
  1
ByLayer
 72
     1
 94
      127
  0
MATERIAL
  5
3E
102
{ACAD_REACTORS
330
3B
102
}
330
3B
100
AcDbMaterial
  1
Global
 72
     1
 94
      127
  0
MLINESTYLE
  5
18
102
{ACAD_REACTORS
330
17
102
}
330
17
100
AcDbMlineStyle
  2
Standard
 70
     0
  3

 62
   256
 51
90.0
 52
90.0
 71
     2
 49
0.5
 62
   256
  6
BYLAYER
 49
-0.5
 62
   256
  6
BYLAYER
  0
ACDBPLACEHOLDER
  5
F
102
{ACAD_REACTORS
330
E
102
}
330
E
  0
VISUALSTYLE
  5
2F
102
{ACAD_REACTORS
330
2A
102
}
330
2A
100
AcDbVisualStyle
  2
2dWireframe
 70
     4
177
     2
291
     0
 71
     0
176
     1
 72
     2
176
     1
 73
     0
176
     1
 90
        0
176
     1
 40
-0.6
176
     1
 41
-30.0
176
     1
 62
     5
 63
     7
421
 16777215
176
     1
 74
     1
176
     1
 91
        4
176
     1
 64
     7
176
     1
 65
   257
176
     1
 75
     1
176
     1
175
     1
176
     1
 42
1.0
176
     1
 92
        0
176
     1
 66
   257
176
     1
 43
1.0
176
     1
 76
     1
176
     1
 77
     6
176
     1
 78
     2
176
     1
 67
     7
176
     1
 79
     5
176
     1
170
     0
176
     1
171
     0
176
     1
290
     0
176
     1
 93
        1
176
     1
 44
0.0
176
     1
173
     0
176
     1
  0
VISUALSTYLE
  5
31
102
{ACAD_REACTORS
330
2A
102
}
330
2A
100
AcDbVisualStyle
  2
3D Hidden
 70
     6
177
     2
291
     0
 71
     1
176
     1
 72
     2
176
     1
 73
     2
176
     1
 90
        0
176
     1
 40
-0.6
176
     1
 41
-30.0
176
     1
 62
     5
 63
     7
421
 16777215
176
     1
 74
     2
176
     1
 91
        2
176
     1
 64
     7
176
     1
 65
   257
176
     1
 75
     2
176
     1
175
     1
176
     1
 42
40.0
176
     1
 92
        0
176
     1
 66
   257
176
     1
 43
1.0
176
     1
 76
     1
176
     1
 77
     6
176
     1
 78
     2
176
     1
 67
     7
176
     1
 79
     3
176
     1
170
     0
176
     1
171
     0
176
     1
290
     0
176
     1
 93
        1
176
     1
 44
0.0
176
     1
173
     0
176
     1
  0
VISUALSTYLE
  5
30
102
{ACAD_REACTORS
330
2A
102
}
330
2A
100
AcDbVisualStyle
  2
3dWireframe
 70
     5
177
     2
291
     0
 71
     0
176
     1
 72
     2
176
     1
 73
     0
176
     1
 90
        0
176
     1
 40
-0.6
176
     1
 41
-30.0
176
     1
 62
     5
 63
     7
421
 16777215
176
     1
 74
     1
176
     1
 91
        4
176
     1
 64
     7
176
     1
 65
   257
176
     1
 75
     1
176
     1
175
     1
176
     1
 42
1.0
176
     1
 92
        0
176
     1
 66
   257
176
     1
 43
1.0
176
     1
 76
     1
176
     1
 77
     6
176
     1
 78
     2
176
     1
 67
     7
176
     1
 79
     5
176
     1
170
     0
176
     1
171
     0
176
     1
290
     0
176
     1
 93
        1
176
     1
 44
0.0
176
     1
173
     0
176
     1
  0
VISUALSTYLE
  5
32
102
{ACAD_REACTORS
330
2A
102
}
330
2A
100
AcDbVisualStyle
  2
Basic
 70
     7
177
     2
291
     1
 71
     1
176
     1
 72
     0
176
     1
 73
     1
176
     1
 90
        0
176
     1
 40
-0.6
176
     1
 41
-30.0
176
     1
 62
     5
 63
     7
421
 16777215
176
     1
 74
     0
176
     1
 91
        4
176
     1
 64
     7
176
     1
 65
   257
176
     1
 75
     1
176
     1
175
     1
176
     1
 42
1.0
176
     1
 92
        8
176
     1
 66
     7
176
     1
 43
1.0
176
     1
 76
     1
176
     1
 77
     6
176
     1
 78
     2
176
     1
 67
     7
176
     1
 79
     5
176
     1
170
     0
176
     1
171
     0
176
     1
290
     0
176
     1
 93
        1
176
     1
 44
0.0
176
     1
173
     0
176
     1
  0
VISUALSTYLE
  5
36
102
{ACAD_REACTORS
330
2A
102
}
330
2A
100
AcDbVisualStyle
  2
Brighten
 70
    12
177
     2
291
     1
 71
     2
176
     1
 72
     2
176
     1
 73
     0
176
     1
 90
        0
176
     1
 40
-0.6
176
     1
 41
-30.0
176
     1
 62
     5
 63
     7
421
 16777215
176
     1
 74
     1
176
     1
 91
        4
176
     1
 64
     7
176
     1
 65
   257
176
     1
 75
     1
176
     1
175
     1
176
     1
 42
1.0
176
     1
 92
        8
176
     1
 66
     7
176
     1
 43
1.0
176
     1
 76
     1
176
     1
 77
     6
176
     1
 78
     2
176
     1
 67
     7
176
     1
 79
     5
176
     1
170
     0
176
     1
171
     0
176
     1
290
     0
176
     1
 93
        1
176
     1
 44
50.0
176
     1
173
     0
176
     1
  0
VISUALSTYLE
  5
3A
102
{ACAD_REACTORS
330
2A
102
}
330
2A
100
AcDbVisualStyle
  2
ColorChange
 70
    16
177
     2
291
     1
 71
     2
176
     1
 72
     2
176
     1
 73
     3
176
     1
 90
        0
176
     1
 40
-0.6
176
     1
 41
-30.0
176
     1
 62
     5
 63
     8
421
  8421504
176
     1
 74
     1
176
     1
 91
        4
176
     1
 64
     7
176
     1
 65
   257
176
     1
 75
     1
176
     1
175
     1
176
     1
 42
1.0
176
     1
 92
        8
176
     1
 66
     8
424
  8421504
176
     1
 43
1.0
176
     1
 76
     1
176
     1
 77
     6
176
     1
 78
     2
176
     1
 67
     7
176
     1
 79
     5
176
     1
170
     0
176
     1
171
     0
176
     1
290
     0
176
     1
 93
        1
176
     1
 44
0.0
176
     1
173
     0
176
     1
  0
VISUALSTYLE
  5
34
102
{ACAD_REACTORS
330
2A
102
}
330
2A
100
AcDbVisualStyle
  2
Conceptual
 70
     9
177
     2
291
     0
 71
     3
176
     1
 72
     2
176
     1
 73
     0
176
     1
 90
        0
176
     1
 40
-0.6
176
     1
 41
-30.0
176
     1
 62
     5
 63
     7
421
 16777215
176
     1
 74
     2
176
     1
 91
        2
176
     1
 64
     7
176
     1
 65
   257
176
     1
 75
     1
176
     1
175
     1
176
     1
 42
40.0
176
     1
 92
        8
176
     1
 66
     7
176
     1
 43
1.0
176
     1
 76
     1
176
     1
 77
     6
176
     1
 78
     2
176
     1
 67
     7
176
     1
 79
     3
176
     1
170
     0
176
     1
171
     0
176
     1
290
     0
176
     1
 93
        1
176
     1
 44
0.0
176
     1
173
     0
176
     1
  0
VISUALSTYLE
  5
35
102
{ACAD_REACTORS
330
2A
102
}
330
2A
100
AcDbVisualStyle
  2
Dim
 70
    11
177
     2
291
     1
 71
     2
176
     1
 72
     2
176
     1
 73
     0
176
     1
 90
        0
176
     1
 40
-0.6
176
     1
 41
-30.0
176
     1
 62
     5
 63
     7
421
 16777215
176
     1
 74
     1
176
     1
 91
        4
176
     1
 64
     7
176
     1
 65
   257
176
     1
 75
     1
176
     1
175
     1
176
     1
 42
1.0
176
     1
 92
        8
176
     1
 66
     7
176
     1
 43
1.0
176
     1
 76
     1
176
     1
 77
     6
176
     1
 78
     2
176
     1
 67
     7
176
     1
 79
     5
176
     1
170
     0
176
     1
171
     0
176
     1
290
     0
176
     1
 93
        1
176
     1
 44
-50.0
176
     1
173
     0
176
     1
  0
VISUALSTYLE
  5
39
102
{ACAD_REACTORS
330
2A
102
}
330
2A
100
AcDbVisualStyle
  2
Facepattern
 70
    15
177
     2
291
     1
 71
     2
176
     1
 72
     2
176
     1
 73
     0
176
     1
 90
        0
176
     1
 40
-0.6
176
     1
 41
-30.0
176
     1
 62
     5
 63
     7
421
 16777215
176
     1
 74
     1
176
     1
 91
        4
176
     1
 64
     7
176
     1
 65
   257
176
     1
 75
     1
176
     1
175
     1
176
     1
 42
1.0
176
     1
 92
        8
176
     1
 66
     7
176
     1
 43
1.0
176
     1
 76
     1
176
     1
 77
     6
176
     1
 78
     2
176
     1
 67
     7
176
     1
 79
     5
176
     1
170
     0
176
     1
171
     0
176
     1
290
     0
176
     1
 93
        1
176
     1
 44
0.0
176
     1
173
     0
176
     1
  0
VISUALSTYLE
  5
2B
102
{ACAD_REACTORS
330
2A
102
}
330
2A
100
AcDbVisualStyle
  2
Flat
 70
     0
177
     2
291
     1
 71
     2
176
     1
 72
     1
176
     1
 73
     1
176
     1
 90
        2
176
     1
 40
-0.6
176
     1
 41
30.0
176
     1
 62
     5
 63
     7
421
 16777215
176
     1
 74
     0
176
     1
 91
        4
176
     1
 64
     7
176
     1
 65
   257
176
     1
 75
     1
176
     1
175
     1
176
     1
 42
1.0
176
     1
 92
        8
176
     1
 66
     7
176
     1
 43
1.0
176
     1
 76
     1
176
     1
 77
     6
176
     1
 78
     2
176
     1
 67
     7
176
     1
 79
     5
176
     1
170
     0
176
     1
171
     0
176
     1
290
     0
176
     1
 93
       13
176
     1
 44
0.0
176
     1
173
     0
176
     1
  0
VISUALSTYLE
  5
2C
102
{ACAD_REACTORS
330
2A
102
}
330
2A
100
AcDbVisualStyle
  2
FlatWithEdges
 70
     1
177
     2
291
     1
 71
     2
176
     1
 72
     1
176
     1
 73
     1
176
     1
 90
        2
176
     1
 40
-0.6
176
     1
 41
30.0
176
     1
 62
     5
 63
     7
421
 16777215
176
     1
 74
     1
176
     1
 91
        4
176
     1
 64
     7
176
     1
 65
   257
176
     1
 75
     1
176
     1
175
     1
176
     1
 42
1.0
176
     1
 92
        0
176
     1
 66
   257
176
     1
 43
1.0
176
     1
 76
     1
176
     1
 77
     6
176
     1
 78
     2
176
     1
 67
     7
176
     1
 79
     5
176
     1
170
     0
176
     1
171
     0
176
     1
290
     0
176
     1
 93
       13
176
     1
 44
0.0
176
     1
173
     0
176
     1
  0
VISUALSTYLE
  5
2D
102
{ACAD_REACTORS
330
2A
102
}
330
2A
100
AcDbVisualStyle
  2
Gouraud
 70
     2
177
     2
291
     1
 71
     2
176
     1
 72
     2
176
     1
 73
     1
176
     1
 90
        2
176
     1
 40
-0.6
176
     1
 41
30.0
176
     1
 62
     5
 63
     7
421
 16777215
176
     1
 74
     0
176
     1
 91
        4
176
     1
 64
     7
176
     1
 65
   257
176
     1
 75
     1
176
     1
175
     1
176
     1
 42
1.0
176
     1
 92
        0
176
     1
 66
     7
176
     1
 43
1.0
176
     1
 76
     1
176
     1
 77
     6
176
     1
 78
     2
176
     1
 67
     7
176
     1
 79
     5
176
     1
170
     0
176
     1
171
     0
176
     1
290
     0
176
     1
 93
       13
176
     1
 44
0.0
176
     1
173
     0
176
     1
  0
VISUALSTYLE
  5
2E
102
{ACAD_REACTORS
330
2A
102
}
330
2A
100
AcDbVisualStyle
  2
GouraudWithEdges
 70
     3
177
     2
291
     1
 71
     2
176
     1
 72
     2
176
     1
 73
     1
176
     1
 90
        2
176
     1
 40
-0.6
176
     1
 41
30.0
176
     1
 62
     5
 63
     7
421
 16777215
176
     1
 74
     1
176
     1
 91
        4
176
     1
 64
     7
176
     1
 65
   257
176
     1
 75
     1
176
     1
175
     1
176
     1
 42
1.0
176
     1
 92
        0
176
     1
 66
   257
176
     1
 43
1.0
176
     1
 76
     1
176
     1
 77
     6
176
     1
 78
     2
176
     1
 67
     7
176
     1
 79
     5
176
     1
170
     0
176
     1
171
     0
176
     1
290
     0
176
     1
 93
       13
176
     1
 44
0.0
176
     1
173
     0
176
     1
  0
VISUALSTYLE
  5
38
102
{ACAD_REACTORS
330
2A
102
}
330
2A
100
AcDbVisualStyle
  2
Linepattern
 70
    14
177
     2
291
     1
 71
     2
176
     1
 72
     2
176
     1
 73
     0
176
     1
 90
        0
176
     1
 40
-0.6
176
     1
 41
-30.0
176
     1
 62
     5
 63
     7
421
 16777215
176
     1
 74
     1
176
     1
 91
        4
176
     1
 64
     7
176
     1
 65
   257
176
     1
 75
     7
176
     1
175
     7
176
     1
 42
1.0
176
     1
 92
        8
176
     1
 66
     7
176
     1
 43
1.0
176
     1
 76
     1
176
     1
 77
     6
176
     1
 78
     2
176
     1
 67
     7
176
     1
 79
     5
176
     1
170
     0
176
     1
171
     0
176
     1
290
     0
176
     1
 93
        1
176
     1
 44
0.0
176
     1
173
     0
176
     1
  0
VISUALSTYLE
  5
33
102
{ACAD_REACTORS
330
2A
102
}
330
2A
100
AcDbVisualStyle
  2
Realistic
 70
     8
177
     2
291
     0
 71
     2
176
     1
 72
     2
176
     1
 73
     0
176
     1
 90
        0
176
     1
 40
-0.6
176
     1
 41
-30.0
176
     1
 62
     5
 63
     7
421
 16777215
176
     1
 74
     1
176
     1
 91
        0
176
     1
 64
     7
176
     1
 65
   257
176
     1
 75
     1
176
     1
175
     1
176
     1
 42
1.0
176
     1
 92
        8
176
     1
 66
     8
424
  7895160
176
     1
 43
1.0
176
     1
 76
     1
176
     1
 77
     6
176
     1
 78
     2
176
     1
 67
     7
176
     1
 79
     5
176
     1
170
     0
176
     1
171
     0
176
     1
290
     0
176
     1
 93
       13
176
     1
 44
0.0
176
     1
173
     0
176
     1
  0
VISUALSTYLE
  5
37
102
{ACAD_REACTORS
330
2A
102
}
330
2A
100
AcDbVisualStyle
  2
Thicken
 70
    13
177
     2
291
     1
 71
     2
176
     1
 72
     2
176
     1
 73
     0
176
     1
 90
        0
176
     1
 40
-0.6
176
     1
 41
-30.0
176
     1
 62
     5
 63
     7
421
 16777215
176
     1
 74
     1
176
     1
 91
        4
176
     1
 64
     7
176
     1
 65
   257
176
     1
 75
     1
176
     1
175
     1
176
     1
 42
1.0
176
     1
 92
       12
176
     1
 66
     7
176
     1
 43
1.0
176
     1
 76
     1
176
     1
 77
     6
176
     1
 78
     2
176
     1
 67
     7
176
     1
 79
     5
176
     1
170
     0
176
     1
171
     0
176
     1
290
     0
176
     1
 93
        1
176
     1
 44
0.0
176
     1
173
     0
176
     1
  0
ENDSEC
  0
EOF
