  0
SECTION
  2
HEADER
  9
$ACADVER
  1
AC1024
  9
$ACADMAINTVER
 70
     6
  9
$DWGCODEPAGE
  3
UNDEFINED
  9
$INSBASE
 10
0.0
 20
0.0
 30
0.0
  9
$EXTMIN
 10
1.000000000000000E+20
 20
1.000000000000000E+20
 30
1.000000000000000E+20
  9
$EXTMAX
 10
-1.000000000000000E+20
 20
-1.000000000000000E+20
 30
-1.000000000000000E+20
  9
$LIMMIN
 10
0.0
 20
0.0
  9
$LIMMAX
 10
12.0
 20
9.0
  9
$ORTHOMODE
 70
     0
  9
$REGENMODE
 70
     1
  9
$FILLMODE
 70
     1
  9
$QTEXTMODE
 70
     0
  9
$MIRRTEXT
 70
     1
  9
$LTSCALE
 40
1.0
  9
$ATTMODE
 70
     1
  9
$TEXTSIZE
 40
0.2
  9
$TRACEWID
 40
0.05
  9
$TEXTSTYLE
  7
Standard
  9
$CLAYER
  8
0
  9
$CELTYPE
  6
ByLayer
  9
$CECOLOR
 62
   256
  9
$CELTSCALE
 40
1.0
  9
$DISPSILH
 70
     0
  9
$DIMSCALE
 40
1.0
  9
$DIMASZ
 40
0.18
  9
$DIMEXO
 40
0.0625
  9
$DIMDLI
 40
0.38
  9
$DIMRND
 40
0.0
  9
$DIMDLE
 40
0.0
  9
$DIMEXE
 40
0.18
  9
$DIMTP
 40
0.0
  9
$DIMTM
 40
0.0
  9
$DIMTXT
 40
0.18
  9
$DIMCEN
 40
0.09
  9
$DIMTSZ
 40
0.0
  9
$DIMTOL
 70
     0
  9
$DIMLIM
 70
     0
  9
$DIMTIH
 70
     1
  9
$DIMTOH
 70
     1
  9
$DIMSE1
 70
     0
  9
$DIMSE2
 70
     0
  9
$DIMTAD
 70
     0
  9
$DIMZIN
 70
     0
  9
$DIMBLK
  1

  9
$DIMASO
 70
     1
  9
$DIMSHO
 70
     1
  9
$DIMPOST
  1

  9
$DIMAPOST
  1

  9
$DIMALT
 70
     0
  9
$DIMALTD
 70
     2
  9
$DIMALTF
 40
25.4
  9
$DIMLFAC
 40
1.0
  9
$DIMTOFL
 70
     0
  9
$DIMTVP
 40
0.0
  9
$DIMTIX
 70
     0
  9
$DIMSOXD
 70
     0
  9
$DIMSAH
 70
     0
  9
$DIMBLK1
  1

  9
$DIMBLK2
  1

  9
$DIMSTYLE
  2
Standard
  9
$DIMCLRD
 70
     0
  9
$DIMCLRE
 70
     0
  9
$DIMCLRT
 70
     0
  9
$DIMTFAC
 40
1.0
  9
$DIMGAP
 40
0.09
  9
$DIMJUST
 70
     0
  9
$DIMSD1
 70
     0
  9
$DIMSD2
 70
     0
  9
$DIMTOLJ
 70
     1
  9
$DIMTZIN
 70
     0
  9
$DIMALTZ
 70
     0
  9
$DIMALTTZ
 70
     0
  9
$DIMUPT
 70
     0
  9
$DIMDEC
 70
     4
  9
$DIMTDEC
 70
     4
  9
$DIMALTU
 70
     2
  9
$DIMALTTD
 70
     2
  9
$DIMTXSTY
  7
Standard
  9
$DIMAUNIT
 70
     0
  9
$DIMADEC
 70
     0
  9
$DIMALTRND
 40
0.0
  9
$DIMAZIN
 70
     0
  9
$DIMDSEP
 70
    46
  9
$DIMATFIT
 70
     3
  9
$DIMFRAC
 70
     0
  9
$DIMLDRBLK
  1

  9
$DIMLUNIT
 70
     2
  9
$DIMLWD
 70
    -2
  9
$DIMLWE
 70
    -2
  9
$DIMTMOVE
 70
     0
  9
$DIMFXL
 40
1.0
  9
$DIMFXLON
 70
     0
  9
$DIMJOGANG
 40
0.7853981633974483
  9
$DIMTFILL
 70
     0
  9
$DIMTFILLCLR
 70
     0
  9
$DIMARCSYM
 70
     0
  9
$DIMLTYPE
  6

  9
$DIMLTEX1
  6

  9
$DIMLTEX2
  6

  9
$DIMTXTDIRECTION
 70
     0
  9
$LUNITS
 70
     2
  9
$LUPREC
 70
     4
  9
$SKETCHINC
 40
0.1
  9
$FILLETRAD
 40
0.5
  9
$AUNITS
 70
     0
  9
$AUPREC
 70
     0
  9
$MENU
  1
.
  9
$ELEVATION
 40
0.0
  9
$PELEVATION
 40
0.0
  9
$THICKNESS
 40
0.0
  9
$LIMCHECK
 70
     0
  9
$CHAMFERA
 40
0.5
  9
$CHAMFERB
 40
0.5
  9
$CHAMFERC
 40
1.0
  9
$CHAMFERD
 40
0.0
  9
$SKPOLY
 70
     0
  9
$TDCREATE
 40
2457917.589606482
  9
$TDUCREATE
 40
2457917.214606482
  9
$TDUPDATE
 40
2457917.589606482
  9
$TDUUPDATE
 40
2457917.214606482
  9
$TDINDWG
 40
0.0000000116
  9
$TDUSRTIMER
 40
0.0000000116
  9
$USRTIMER
 70
     1
  9
$ANGBASE
 50
0.0
  9
$ANGDIR
 70
     0
  9
$PDMODE
 70
     0
  9
$PDSIZE
 40
0.0
  9
$PLINEWID
 40
0.0
  9
$SPLFRAME
 70
     0
  9
$SPLINETYPE
 70
     6
  9
$SPLINESEGS
 70
     8
  9
$HANDSEED
  5
134
  9
$SURFTAB1
 70
     6
  9
$SURFTAB2
 70
     6
  9
$SURFTYPE
 70
     6
  9
$SURFU
 70
     6
  9
$SURFV
 70
     6
  9
$UCSBASE
  2

  9
$UCSNAME
  2

  9
$UCSORG
 10
0.0
 20
0.0
 30
0.0
  9
$UCSXDIR
 10
1.0
 20
0.0
 30
0.0
  9
$UCSYDIR
 10
0.0
 20
1.0
 30
0.0
  9
$UCSORTHOREF
  2

  9
$UCSORTHOVIEW
 70
     0
  9
$UCSORGTOP
 10
0.0
 20
0.0
 30
0.0
  9
$UCSORGBOTTOM
 10
0.0
 20
0.0
 30
0.0
  9
$UCSORGLEFT
 10
0.0
 20
0.0
 30
0.0
  9
$UCSORGRIGHT
 10
0.0
 20
0.0
 30
0.0
  9
$UCSORGFRONT
 10
0.0
 20
0.0
 30
0.0
  9
$UCSORGBACK
 10
0.0
 20
0.0
 30
0.0
  9
$PUCSBASE
  2

  9
$PUCSNAME
  2

  9
$PUCSORG
 10
0.0
 20
0.0
 30
0.0
  9
$PUCSXDIR
 10
1.0
 20
0.0
 30
0.0
  9
$PUCSYDIR
 10
0.0
 20
1.0
 30
0.0
  9
$PUCSORTHOREF
  2

  9
$PUCSORTHOVIEW
 70
     0
  9
$PUCSORGTOP
 10
0.0
 20
0.0
 30
0.0
  9
$PUCSORGBOTTOM
 10
0.0
 20
0.0
 30
0.0
  9
$PUCSORGLEFT
 10
0.0
 20
0.0
 30
0.0
  9
$PUCSORGRIGHT
 10
0.0
 20
0.0
 30
0.0
  9
$PUCSORGFRONT
 10
0.0
 20
0.0
 30
0.0
  9
$PUCSORGBACK
 10
0.0
 20
0.0
 30
0.0
  9
$USERI1
 70
     0
  9
$USERI2
 70
     0
  9
$USERI3
 70
     0
  9
$USERI4
 70
     0
  9
$USERI5
 70
     0
  9
$USERR1
 40
0.0
  9
$USERR2
 40
0.0
  9
$USERR3
 40
0.0
  9
$USERR4
 40
0.0
  9
$USERR5
 40
0.0
  9
$WORLDVIEW
 70
     1
  9
$SHADEDGE
 70
     3
  9
$SHADEDIF
 70
    70
  9
$TILEMODE
 70
     1
  9
$MAXACTVP
 70
    64
  9
$PINSBASE
 10
0.0
 20
0.0
 30
0.0
  9
$PLIMCHECK
 70
     0
  9
$PEXTMIN
 10
1.000000000000000E+20
 20
1.000000000000000E+20
 30
1.000000000000000E+20
  9
$PEXTMAX
 10
-1.000000000000000E+20
 20
-1.000000000000000E+20
 30
-1.000000000000000E+20
  9
$PLIMMIN
 10
0.0
 20
0.0
  9
$PLIMMAX
 10
12.0
 20
9.0
  9
$UNITMODE
 70
     0
  9
$VISRETAIN
 70
     1
  9
$PLINEGEN
 70
     0
  9
$PSLTSCALE
 70
     1
  9
$TREEDEPTH
 70
  3020
  9
$CMLSTYLE
  2
Standard
  9
$CMLJUST
 70
     0
  9
$CMLSCALE
 40
1.0
  9
$PROXYGRAPHICS
 70
     1
  9
$MEASUREMENT
 70
     0
  9
$CELWEIGHT
370
    -1
  9
$ENDCAPS
280
     0
  9
$JOINSTYLE
280
     0
  9
$LWDISPLAY
290
     1
  9
$INSUNITS
 70
     1
  9
$HYPERLINKBASE
  1

  9
$STYLESHEET
  1

  9
$XEDIT
290
     1
  9
$CEPSNTYPE
380
     0
  9
$PSTYLEMODE
290
     1
  9
$FINGERPRINTGUID
  2
{0EDC6894-00F7-3CD5-BBF1-72C76A9175BE}
  9
$VERSIONGUID
  2
{FAEB1C32-E019-11D5-929B-00C0DF256EC4}
  9
$EXTNAMES
290
     1
  9
$PSVPSCALE
 40
0.0
  9
$OLESTARTUP
290
     0
  9
$SORTENTS
280
   127
  9
$INDEXCTL
280
     0
  9
$HIDETEXT
280
     1
  9
$XCLIPFRAME
280
     2
  9
$HALOGAP
280
     0
  9
$OBSCOLOR
 70
   257
  9
$OBSLTYPE
280
     0
  9
$INTERSECTIONDISPLAY
280
     0
  9
$INTERSECTIONCOLOR
 70
   257
  9
$DIMASSOC
280
     2
  9
$PROJECTNAME
  1

  9
$CAMERADISPLAY
290
     0
  9
$LENSLENGTH
 40
50.0
  9
$CAMERAHEIGHT
 40
0.0
  9
$STEPSPERSEC
 40
2.0
  9
$STEPSIZE
 40
6.0
  9
$3DDWFPREC
 40
2.0
  9
$PSOLWIDTH
 40
0.25
  9
$PSOLHEIGHT
 40
4.0
  9
$LOFTANG1
 40
1.570796326794897
  9
$LOFTANG2
 40
1.570796326794897
  9
$LOFTMAG1
 40
0.0
  9
$LOFTMAG2
 40
0.0
  9
$LOFTPARAM
 70
     7
  9
$LOFTNORMALS
280
     1
  9
$LATITUDE
 40
37.795
  9
$LONGITUDE
 40
-122.394
  9
$NORTHDIRECTION
 40
0.0
  9
$TIMEZONE
 70
 -8000
  9
$LIGHTGLYPHDISPLAY
280
     1
  9
$TILEMODELIGHTSYNCH
280
     1
  9
$CMATERIAL
347
3C
  9
$SOLIDHIST
280
     1
  9
$SHOWHIST
280
     1
  9
$DWFFRAME
280
     2
  9
$DGNFRAME
280
     2
  9
$REALWORLDSCALE
290
     1
  9
$INTERFERECOLOR
 62
   256
  9
$CSHADOW
280
     0
  9
$SHADOWPLANELOCATION
 40
0.0
  0
ENDSEC
  0
SECTION
  2
CLASSES
  0
CLASS
  1
ACDBDICTIONARYWDFLT
  2
AcDbDictionaryWithDefault
  3
ObjectDBX Classes
 90
        0
 91
        4
280
     0
281
     0
  0
CLASS
  1
VISUALSTYLE
  2
AcDbVisualStyle
  3
ObjectDBX Classes
 90
     4095
 91
        4
280
     0
281
     0
  0
CLASS
  1
MATERIAL
  2
AcDbMaterial
  3
ObjectDBX Classes
 90
     1153
 91
        4
280
     0
281
     0
  0
CLASS
  1
SUN
  2
AcDbSun
  3
SCENEOE
 90
     1024
 91
        4
280
     0
281
     0
  0
ENDSEC
  0
SECTION
  2
TABLES
  0
TABLE
  2
VPORT
  5
8
330
0
100
AcDbSymbolTable
 70
     1
  0
VPORT
  5
29
330
8
100
AcDbSymbolTableRecord
100
AcDbViewportTableRecord
  2
*Active
 70
     0
 10
0.0
 20
0.0
 11
1.0
 21
1.0
 12
0.0
 22
0.0
 13
0.0
 23
0.0
 14
0.5
 24
0.5
 15
0.5
 25
0.5
 16
0.0
 26
0.0
 36
1.0
 17
91.00082462281999
 27
-128.4993055234307
 37
0.0
 40
256.9986110468615
 41
0.7081814508812795
 42
50.0
 43
0.0
 44
0.0
 50
0.0
 51
0.0
 71
     0
 72
   100
 73
     1
 74
     3
 75
     0
 76
     0
 77
     0
 78
     0
281
     0
 65
     1
110
0.0
120
0.0
130
0.0
111
1.0
121
0.0
131
0.0
112
0.0
122
1.0
132
0.0
 79
     0
146
0.0
 60
     3
 61
     5
292
     1
282
     1
141
0.0
142
0.0
 63
   250
361
3F
  0
ENDTAB
  0
TABLE
  2
LTYPE
  5
5
330
0
100
AcDbSymbolTable
 70
     2
  0
LTYPE
  5
14
330
5
100
AcDbSymbolTableRecord
100
AcDbLinetypeTableRecord
  2
ByBlock
 70
     0
  3

 72
    65
 73
     0
 40
0.0
  0
LTYPE
  5
15
330
5
100
AcDbSymbolTableRecord
100
AcDbLinetypeTableRecord
  2
ByLayer
 70
     0
  3

 72
    65
 73
     0
 40
0.0
  0
LTYPE
  5
16
330
5
100
AcDbSymbolTableRecord
100
AcDbLinetypeTableRecord
  2
Continuous
 70
     0
  3
Solid line
 72
    65
 73
     0
 40
0.0
  0
LTYPE
  5
FC
330
5
100
AcDbSymbolTableRecord
100
AcDbLinetypeTableRecord
  2
AI-Linetype-1
 70
     0
  3
Adobe Illustrator Linetype No. 1
 72
    65
 73
     2
 40
1.411111110758333
 49
0.7055555553791667
 74
     0
 49
-0.7055555553791667
 74
     0
  0
ENDTAB
  0
TABLE
  2
LAYER
  5
2
330
0
100
AcDbSymbolTable
 70
     2
  0
LAYER
  5
10
330
2
100
AcDbSymbolTableRecord
100
AcDbLayerTableRecord
  2
0
 70
     0
 62
     7
  6
Continuous
370
    -3
390
F
347
3E
  0
LAYER
  5
40
330
2
100
AcDbSymbolTableRecord
100
AcDbLayerTableRecord
  2
_U+30EC_U+30A4_U+30E4_U+30FC 1
 70
     0
 62
     7
  6
Continuous
370
    -3
390
F
347
3E
  0
ENDTAB
  0
TABLE
  2
STYLE
  5
3
330
0
100
AcDbSymbolTable
 70
     1
  0
STYLE
  5
11
330
3
100
AcDbSymbolTableRecord
100
AcDbTextStyleTableRecord
  2
Standard
 70
     0
 40
0.0
 41
1.0
 50
0.0
 71
     0
 42
0.2
  3
txt
  4

  0
ENDTAB
  0
TABLE
  2
VIEW
  5
6
330
0
100
AcDbSymbolTable
 70
     0
  0
ENDTAB
  0
TABLE
  2
UCS
  5
7
330
0
100
AcDbSymbolTable
 70
     0
  0
ENDTAB
  0
TABLE
  2
APPID
  5
9
330
0
100
AcDbSymbolTable
 70
     1
  0
APPID
  5
12
330
9
100
AcDbSymbolTableRecord
100
AcDbRegAppTableRecord
  2
ACAD
 70
     0
  0
ENDTAB
  0
TABLE
  2
DIMSTYLE
  5
A
330
0
100
AcDbSymbolTable
 70
     1
100
AcDbDimStyleTable
  0
DIMSTYLE
105
27
330
A
100
AcDbSymbolTableRecord
100
AcDbDimStyleTableRecord
  2
Standard
 70
     0
178
     0
340
11
  0
ENDTAB
  0
TABLE
  2
BLOCK_RECORD
  5
1
330
0
100
AcDbSymbolTable
 70
    12
  0
BLOCK_RECORD
  5
1F
330
1
100
AcDbSymbolTableRecord
100
AcDbBlockTableRecord
  2
*Model_Space
340
22
 70
     0
280
     1
281
     0
  0
BLOCK_RECORD
  5
1B
330
1
100
AcDbSymbolTableRecord
100
AcDbBlockTableRecord
  2
*Paper_Space
340
1E
 70
     0
280
     1
281
     0
  0
BLOCK_RECORD
  5
23
330
1
100
AcDbSymbolTableRecord
100
AcDbBlockTableRecord
  2
*Paper_Space0
340
26
 70
     0
280
     1
281
     0
  0
BLOCK_RECORD
  5
79
330
1
100
AcDbSymbolTableRecord
100
AcDbBlockTableRecord
  2
block 2
340
0
102
{BLKREFS
331
7A
102
}
 70
     0
280
     1
281
     0
  0
BLOCK_RECORD
  5
85
330
1
100
AcDbSymbolTableRecord
100
AcDbBlockTableRecord
  2
block 3
340
0
102
{BLKREFS
331
86
102
}
 70
     0
280
     1
281
     0
  0
BLOCK_RECORD
  5
8B
330
1
100
AcDbSymbolTableRecord
100
AcDbBlockTableRecord
  2
block 4
340
0
102
{BLKREFS
331
8C
102
}
 70
     0
280
     1
281
     0
  0
BLOCK_RECORD
  5
9B
330
1
100
AcDbSymbolTableRecord
100
AcDbBlockTableRecord
  2
block 5
340
0
102
{BLKREFS
331
9C
102
}
 70
     0
280
     1
281
     0
  0
BLOCK_RECORD
  5
A4
330
1
100
AcDbSymbolTableRecord
100
AcDbBlockTableRecord
  2
block 6
340
0
102
{BLKREFS
331
A5
102
}
 70
     0
280
     1
281
     0
  0
BLOCK_RECORD
  5
B4
330
1
100
AcDbSymbolTableRecord
100
AcDbBlockTableRecord
  2
block 7
340
0
102
{BLKREFS
331
B5
102
}
 70
     0
280
     1
281
     0
  0
BLOCK_RECORD
  5
BA
330
1
100
AcDbSymbolTableRecord
100
AcDbBlockTableRecord
  2
block 8
340
0
102
{BLKREFS
331
BB
102
}
 70
     0
280
     1
281
     0
  0
BLOCK_RECORD
  5
CE
330
1
100
AcDbSymbolTableRecord
100
AcDbBlockTableRecord
  2
block 9
340
0
102
{BLKREFS
331
CF
102
}
 70
     0
280
     1
281
     0
  0
BLOCK_RECORD
  5
E1
330
1
100
AcDbSymbolTableRecord
100
AcDbBlockTableRecord
  2
block 10
340
0
102
{BLKREFS
331
E2
102
}
 70
     0
280
     1
281
     0
  0
BLOCK_RECORD
  5
F1
330
1
100
AcDbSymbolTableRecord
100
AcDbBlockTableRecord
  2
block 11
340
0
102
{BLKREFS
331
F2
102
}
 70
     0
280
     1
281
     0
  0
BLOCK_RECORD
  5
10A
330
1
100
AcDbSymbolTableRecord
100
AcDbBlockTableRecord
  2
block 12
340
0
102
{BLKREFS
331
10B
102
}
 70
     0
280
     1
281
     0
  0
ENDTAB
  0
ENDSEC
  0
SECTION
  2
BLOCKS
  0
BLOCK
  5
20
330
1F
100
AcDbEntity
  8
0
100
AcDbBlockBegin
  2
*Model_Space
 70
     0
 10
0.0
 20
0.0
 30
0.0
  3
*Model_Space
  1

  0
ENDBLK
  5
21
330
1F
100
AcDbEntity
  8
0
100
AcDbBlockEnd
  0
BLOCK
  5
1C
330
1B
100
AcDbEntity
 67
     1
  8
0
100
AcDbBlockBegin
  2
*Paper_Space
 70
     0
 10
0.0
 20
0.0
 30
0.0
  3
*Paper_Space
  1

  0
ENDBLK
  5
1D
330
1B
100
AcDbEntity
 67
     1
  8
0
100
AcDbBlockEnd
  0
BLOCK
  5
24
330
23
100
AcDbEntity
  8
0
100
AcDbBlockBegin
  2
*Paper_Space0
 70
     0
 10
0.0
 20
0.0
 30
0.0
  3
*Paper_Space0
  1

  0
ENDBLK
  5
25
330
23
100
AcDbEntity
  8
0
100
AcDbBlockEnd
  0
BLOCK
  5
7B
330
79
100
AcDbEntity
  8
0
100
AcDbBlockBegin
  2
block 2
 70
     0
 10
0.0
 20
0.0
 30
0.0
  3
block 2
  1

  0
POLYLINE
  5
7D
330
79
100
AcDbEntity
  8
_U+30EC_U+30A4_U+30E4_U+30FC 1
 62
   179
420
  2234388
370
     9
100
AcDb2dPolyline
 66
     1
 10
0.0
 20
0.0
 30
0.0
  0
VERTEX
  5
7E
330
7D
100
AcDbEntity
  8
_U+30EC_U+30A4_U+30E4_U+30FC 1
 62
   179
420
  2234388
370
     9
100
AcDbVertex
100
AcDb2dVertex
 10
104.3512406711114
 20
-135.8046277438268
 30
0.0
  0
VERTEX
  5
7F
330
7D
100
AcDbEntity
  8
_U+30EC_U+30A4_U+30E4_U+30FC 1
 62
   179
420
  2234388
370
     9
100
AcDbVertex
100
AcDb2dVertex
 10
104.3512406711114
 20
-138.8046146875212
 30
0.0
  0
SEQEND
  5
80
330
7D
100
AcDbEntity
  8
_U+30EC_U+30A4_U+30E4_U+30FC 1
 62
   179
420
  2234388
370
     9
  0
POLYLINE
  5
81
330
79
100
AcDbEntity
  8
_U+30EC_U+30A4_U+30E4_U+30FC 1
 62
   179
420
  2234388
370
     9
100
AcDb2dPolyline
 66
     1
 10
0.0
 20
0.0
 30
0.0
  0
VERTEX
  5
82
330
81
100
AcDbEntity
  8
_U+30EC_U+30A4_U+30E4_U+30FC 1
 62
   179
420
  2234388
370
     9
100
AcDbVertex
100
AcDb2dVertex
 10
97.89170333590792
 20
-138.8046146875212
 30
0.0
  0
VERTEX
  5
83
330
81
100
AcDbEntity
  8
_U+30EC_U+30A4_U+30E4_U+30FC 1
 62
   179
420
  2234388
370
     9
100
AcDbVertex
100
AcDb2dVertex
 10
105.3517184233649
 20
-138.8046146875212
 30
0.0
  0
SEQEND
  5
84
330
81
100
AcDbEntity
  8
_U+30EC_U+30A4_U+30E4_U+30FC 1
 62
   179
420
  2234388
370
     9
  0
INSERT
  5
86
330
79
100
AcDbEntity
  8
_U+30EC_U+30A4_U+30E4_U+30FC 1
100
AcDbBlockReference
  2
block 3
 10
0.0
 20
0.0
 30
0.0
  0
ENDBLK
  5
7C
330
79
100
AcDbEntity
  8
0
100
AcDbBlockEnd
  0
BLOCK
  5
87
330
85
100
AcDbEntity
  8
0
100
AcDbBlockBegin
  2
block 3
 70
     0
 10
0.0
 20
0.0
 30
0.0
  3
block 3
  1

  0
SPLINE
  5
89
330
85
100
AcDbEntity
  8
_U+30EC_U+30A4_U+30E4_U+30FC 1
370
     0
100
AcDbSpline
210
0.0
220
0.0
230
1.0
 70
    11
 71
     3
 72
    62
 73
    58
 74
     0
 42
0.0000000001
 43
0.0000000001
 12
1.0
 22
0.0
 32
0.0
 13
1.0
 23
0.0
 33
0.0
 40
0.0
 40
0.0
 40
0.0
 40
0.0
 40
1.0
 40
1.0
 40
1.0
 40
2.0
 40
2.0
 40
2.0
 40
3.0
 40
3.0
 40
3.0
 40
4.0
 40
4.0
 40
4.0
 40
5.0
 40
5.0
 40
5.0
 40
6.0
 40
6.0
 40
6.0
 40
7.0
 40
7.0
 40
7.0
 40
8.0
 40
8.0
 40
8.0
 40
9.0
 40
9.0
 40
9.0
 40
10.0
 40
10.0
 40
10.0
 40
11.0
 40
11.0
 40
11.0
 40
12.0
 40
12.0
 40
12.0
 40
13.0
 40
13.0
 40
13.0
 40
14.0
 40
14.0
 40
14.0
 40
15.0
 40
15.0
 40
15.0
 40
16.0
 40
16.0
 40
16.0
 40
17.0
 40
17.0
 40
17.0
 40
18.0
 40
18.0
 40
18.0
 40
19.0
 40
19.0
 40
19.0
 40
19.0
 10
103.0503851738902
 20
-137.3135823224424
 30
0.0
 10
103.0503851738902
 20
-137.4152126392573
 30
0.0
 10
103.0293700914302
 20
-137.6481010940602
 30
0.0
 10
102.8433349352267
 20
-137.7814262893394
 30
0.0
 10
102.7310248224075
 20
-137.8606634855001
 30
0.0
 10
102.6318060724323
 20
-137.8651421096309
 30
0.0
 10
102.5470567234952
 20
-137.8696207337618
 30
0.0
 10
102.5470567234952
 20
-137.8696207337618
 30
0.0
 10
102.5470567234952
 20
-137.6346652216677
 30
0.0
 10
102.5470567234952
 20
-137.6346652216677
 30
0.0
 10
102.6211262764281
 20
-137.632253654828
 30
0.0
 10
102.8557372789736
 20
-137.6208848397267
 30
0.0
 10
102.8557372789736
 20
-137.3180609465733
 30
0.0
 10
102.8557372789736
 20
-137.1709553693531
 30
0.0
 10
102.7861463501715
 20
-137.0083468624493
 30
0.0
 10
102.5577365194995
 20
-137.0083468624493
 30
0.0
 10
102.441292292098
 20
-137.0083468624493
 30
0.0
 10
102.392716445756
 20
-137.0489989891753
 30
0.0
 10
102.3610215672917
 20
-137.0831054344792
 30
0.0
 10
102.2869520143588
 20
-137.1619981210914
 30
0.0
 10
102.2742051610634
 20
-137.286366068109
 30
0.0
 10
102.2742051610634
 20
-137.3452772009067
 30
0.0
 10
102.2742051610634
 20
-137.3656032642697
 30
0.0
 10
102.2762722183545
 20
-137.403843824156
 30
0.0
 10
102.2804063329368
 20
-137.4334716453291
 30
0.0
 10
102.2804063329368
 20
-137.4334716453291
 30
0.0
 10
102.0857584380202
 20
-137.4334716453291
 30
0.0
 10
102.0857584380202
 20
-137.4334716453291
 30
0.0
 10
102.0923041194422
 20
-137.3928195186032
 30
0.0
 10
102.0943711767334
 20
-137.3473442581979
 30
0.0
 10
102.0943711767334
 20
-137.3407985767759
 30
0.0
 10
102.0943711767334
 20
-137.2705186288768
 30
0.0
 10
102.0730115847248
 20
-137.0579562374369
 30
0.0
 10
101.8363335248881
 20
-137.0579562374369
 30
0.0
 10
101.6585665978493
 20
-137.0579562374369
 30
0.0
 10
101.6034450700853
 20
-137.1981716236866
 30
0.0
 10
101.6034450700853
 20
-137.3156493797336
 30
0.0
 10
101.6034450700853
 20
-137.5984917190726
 30
0.0
 10
101.8363335248881
 20
-137.6074489673342
 30
0.0
 10
101.9079915109813
 20
-137.6119275914651
 30
0.0
 10
101.9079915109813
 20
-137.6119275914651
 30
0.0
 10
101.9079915109813
 20
-137.8289686070358
 30
0.0
 10
101.9079915109813
 20
-137.8289686070358
 30
0.0
 10
101.7832790544153
 20
-137.8200113587742
 30
0.0
 10
101.4067301178775
 20
-137.7907280471495
 30
0.0
 10
101.4067301178775
 20
-137.3022135073411
 30
0.0
 10
101.4067301178775
 20
-137.0624348615677
 30
0.0
 10
101.5338541412832
 20
-136.804741719271
 30
0.0
 10
101.8297878434662
 20
-136.804741719271
 30
0.0
 10
102.0161675092182
 20
-136.804741719271
 30
0.0
 10
102.0985052913157
 20
-136.9067165456344
 30
0.0
 10
102.1598279909531
 20
-137.0128254865801
 30
0.0
 10
102.1873887548351
 20
-136.9473686723604
 30
0.0
 10
102.2676594796414
 20
-136.7527207774438
 30
0.0
 10
102.544989666204
 20
-136.7527207774438
 30
0.0
 10
102.8832980428556
 20
-136.7527207774438
 30
0.0
 10
103.0503851738902
 20
-137.017304110711
 30
0.0
 10
103.0503851738902
 20
-137.3135823224424
 30
0.0
  0
HATCH
  5
8A
330
85
100
AcDbEntity
  8
_U+30EC_U+30A4_U+30E4_U+30FC 1
 62
   179
420
  2234388
100
AcDbHatch
 10
0.0
 20
0.0
 30
0.0
210
0.0
220
0.0
230
1.0
  2
SOLID
 70
     1
 71
     0
 91
        1
 92
        1
 93
        1
 72
     4
 94
        3
 73
     0
 74
     1
 95
       62
 96
       58
 40
0.0
 40
0.0
 40
0.0
 40
0.0
 40
1.0
 40
1.0
 40
1.0
 40
2.0
 40
2.0
 40
2.0
 40
3.0
 40
3.0
 40
3.0
 40
4.0
 40
4.0
 40
4.0
 40
5.0
 40
5.0
 40
5.0
 40
6.0
 40
6.0
 40
6.0
 40
7.0
 40
7.0
 40
7.0
 40
8.0
 40
8.0
 40
8.0
 40
9.0
 40
9.0
 40
9.0
 40
10.0
 40
10.0
 40
10.0
 40
11.0
 40
11.0
 40
11.0
 40
12.0
 40
12.0
 40
12.0
 40
13.0
 40
13.0
 40
13.0
 40
14.0
 40
14.0
 40
14.0
 40
15.0
 40
15.0
 40
15.0
 40
16.0
 40
16.0
 40
16.0
 40
17.0
 40
17.0
 40
17.0
 40
18.0
 40
18.0
 40
18.0
 40
19.0
 40
19.0
 40
19.0
 40
19.0
 10
103.0503851738902
 20
-137.3135823224424
 10
103.0503851738902
 20
-137.4152126392573
 10
103.0293700914302
 20
-137.6481010940602
 10
102.8433349352267
 20
-137.7814262893394
 10
102.7310248224075
 20
-137.8606634855001
 10
102.6318060724323
 20
-137.8651421096309
 10
102.5470567234952
 20
-137.8696207337618
 10
102.5470567234952
 20
-137.8696207337618
 10
102.5470567234952
 20
-137.6346652216677
 10
102.5470567234952
 20
-137.6346652216677
 10
102.6211262764281
 20
-137.632253654828
 10
102.8557372789736
 20
-137.6208848397267
 10
102.8557372789736
 20
-137.3180609465733
 10
102.8557372789736
 20
-137.1709553693531
 10
102.7861463501715
 20
-137.0083468624493
 10
102.5577365194995
 20
-137.0083468624493
 10
102.441292292098
 20
-137.0083468624493
 10
102.392716445756
 20
-137.0489989891753
 10
102.3610215672917
 20
-137.0831054344792
 10
102.2869520143588
 20
-137.1619981210914
 10
102.2742051610634
 20
-137.286366068109
 10
102.2742051610634
 20
-137.3452772009067
 10
102.2742051610634
 20
-137.3656032642697
 10
102.2762722183545
 20
-137.403843824156
 10
102.2804063329368
 20
-137.4334716453291
 10
102.2804063329368
 20
-137.4334716453291
 10
102.0857584380202
 20
-137.4334716453291
 10
102.0857584380202
 20
-137.4334716453291
 10
102.0923041194422
 20
-137.3928195186032
 10
102.0943711767334
 20
-137.3473442581979
 10
102.0943711767334
 20
-137.3407985767759
 10
102.0943711767334
 20
-137.2705186288768
 10
102.0730115847248
 20
-137.0579562374369
 10
101.8363335248881
 20
-137.0579562374369
 10
101.6585665978493
 20
-137.0579562374369
 10
101.6034450700853
 20
-137.1981716236866
 10
101.6034450700853
 20
-137.3156493797336
 10
101.6034450700853
 20
-137.5984917190726
 10
101.8363335248881
 20
-137.6074489673342
 10
101.9079915109813
 20
-137.6119275914651
 10
101.9079915109813
 20
-137.6119275914651
 10
101.9079915109813
 20
-137.8289686070358
 10
101.9079915109813
 20
-137.8289686070358
 10
101.7832790544153
 20
-137.8200113587742
 10
101.4067301178775
 20
-137.7907280471495
 10
101.4067301178775
 20
-137.3022135073411
 10
101.4067301178775
 20
-137.0624348615677
 10
101.5338541412832
 20
-136.804741719271
 10
101.8297878434662
 20
-136.804741719271
 10
102.0161675092182
 20
-136.804741719271
 10
102.0985052913157
 20
-136.9067165456344
 10
102.1598279909531
 20
-137.0128254865801
 10
102.1873887548351
 20
-136.9473686723604
 10
102.2676594796414
 20
-136.7527207774438
 10
102.544989666204
 20
-136.7527207774438
 10
102.8832980428556
 20
-136.7527207774438
 10
103.0503851738902
 20
-137.017304110711
 10
103.0503851738902
 20
-137.3135823224424
 97
        0
 97
        0
 75
     2
 76
     1
 98
        0
  0
ENDBLK
  5
88
330
85
100
AcDbEntity
  8
0
100
AcDbBlockEnd
  0
BLOCK
  5
8D
330
8B
100
AcDbEntity
  8
0
100
AcDbBlockBegin
  2
block 4
 70
     0
 10
0.0
 20
0.0
 30
0.0
  3
block 4
  1

  0
POLYLINE
  5
8F
330
8B
100
AcDbEntity
  8
_U+30EC_U+30A4_U+30E4_U+30FC 1
 62
   179
420
  2234388
370
     9
100
AcDb2dPolyline
 66
     1
 10
0.0
 20
0.0
 30
0.0
  0
VERTEX
  5
90
330
8F
100
AcDbEntity
  8
_U+30EC_U+30A4_U+30E4_U+30FC 1
 62
   179
420
  2234388
370
     9
100
AcDbVertex
100
AcDb2dVertex
 10
90.35174880604596
 20
-118.0045194149434
 30
0.0
  0
VERTEX
  5
91
330
8F
100
AcDbEntity
  8
_U+30EC_U+30A4_U+30E4_U+30FC 1
 62
   179
420
  2234388
370
     9
100
AcDbVertex
100
AcDb2dVertex
 10
100.3514816064871
 20
-118.0045194149434
 30
0.0
  0
SEQEND
  5
92
330
8F
100
AcDbEntity
  8
_U+30EC_U+30A4_U+30E4_U+30FC 1
 62
   179
420
  2234388
370
     9
  0
POLYLINE
  5
93
330
8B
100
AcDbEntity
  8
_U+30EC_U+30A4_U+30E4_U+30FC 1
 62
   179
420
  2234388
370
     9
100
AcDb2dPolyline
 66
     1
 10
0.0
 20
0.0
 30
0.0
  0
VERTEX
  5
94
330
93
100
AcDbEntity
  8
_U+30EC_U+30A4_U+30E4_U+30FC 1
 62
   179
420
  2234388
370
     9
100
AcDbVertex
100
AcDb2dVertex
 10
90.35174880604596
 20
-119.4645255256896
 30
0.0
  0
VERTEX
  5
95
330
93
100
AcDbEntity
  8
_U+30EC_U+30A4_U+30E4_U+30FC 1
 62
   179
420
  2234388
370
     9
100
AcDbVertex
100
AcDb2dVertex
 10
90.35174880604596
 20
-117.0047471929712
 30
0.0
  0
SEQEND
  5
96
330
93
100
AcDbEntity
  8
_U+30EC_U+30A4_U+30E4_U+30FC 1
 62
   179
420
  2234388
370
     9
  0
POLYLINE
  5
97
330
8B
100
AcDbEntity
  8
_U+30EC_U+30A4_U+30E4_U+30FC 1
 62
   179
420
  2234388
370
     9
100
AcDb2dPolyline
 66
     1
 10
0.0
 20
0.0
 30
0.0
  0
VERTEX
  5
98
330
97
100
AcDbEntity
  8
_U+30EC_U+30A4_U+30E4_U+30FC 1
 62
   179
420
  2234388
370
     9
100
AcDbVertex
100
AcDb2dVertex
 10
100.3514816064871
 20
-119.4645255256896
 30
0.0
  0
VERTEX
  5
99
330
97
100
AcDbEntity
  8
_U+30EC_U+30A4_U+30E4_U+30FC 1
 62
   179
420
  2234388
370
     9
100
AcDbVertex
100
AcDb2dVertex
 10
100.3514816064871
 20
-117.0047471929712
 30
0.0
  0
SEQEND
  5
9A
330
97
100
AcDbEntity
  8
_U+30EC_U+30A4_U+30E4_U+30FC 1
 62
   179
420
  2234388
370
     9
  0
INSERT
  5
9C
330
8B
100
AcDbEntity
  8
_U+30EC_U+30A4_U+30E4_U+30FC 1
100
AcDbBlockReference
  2
block 5
 10
0.0
 20
0.0
 30
0.0
  0
ENDBLK
  5
8E
330
8B
100
AcDbEntity
  8
0
100
AcDbBlockEnd
  0
BLOCK
  5
9D
330
9B
100
AcDbEntity
  8
0
100
AcDbBlockBegin
  2
block 5
 70
     0
 10
0.0
 20
0.0
 30
0.0
  3
block 5
  1

  0
SPLINE
  5
9F
330
9B
100
AcDbEntity
  8
_U+30EC_U+30A4_U+30E4_U+30FC 1
370
     0
100
AcDbSpline
210
0.0
220
0.0
230
1.0
 70
    11
 71
     3
 72
    26
 73
    22
 74
     0
 42
0.0000000001
 43
0.0000000001
 12
1.0
 22
0.0
 32
0.0
 13
1.0
 23
0.0
 33
0.0
 40
0.0
 40
0.0
 40
0.0
 40
0.0
 40
1.0
 40
1.0
 40
1.0
 40
2.0
 40
2.0
 40
2.0
 40
3.0
 40
3.0
 40
3.0
 40
4.0
 40
4.0
 40
4.0
 40
5.0
 40
5.0
 40
5.0
 40
6.0
 40
6.0
 40
6.0
 40
7.0
 40
7.0
 40
7.0
 40
7.0
 10
94.67019040601996
 20
-116.6526556783021
 30
0.0
 10
94.67019040601996
 20
-116.6526556783021
 30
0.0
 10
94.67019040601996
 20
-115.5483303205053
 30
0.0
 10
94.67019040601996
 20
-115.5483303205053
 30
0.0
 10
94.67019040601996
 20
-115.5483303205053
 30
0.0
 10
94.31741262833037
 20
-115.5483303205053
 30
0.0
 10
94.31741262833037
 20
-115.5483303205053
 30
0.0
 10
94.31741262833037
 20
-115.5483303205053
 30
0.0
 10
94.31741262833037
 20
-115.4003634694138
 30
0.0
 10
94.31741262833037
 20
-115.4003634694138
 30
0.0
 10
94.67260197285964
 20
-115.3855495588272
 30
0.0
 10
94.72221134784724
 20
-115.2225965423749
 30
0.0
 10
94.75390622631153
 20
-115.1083916270389
 30
0.0
 10
94.75390622631153
 20
-115.1083916270389
 30
0.0
 10
94.90996905179334
 20
-115.1083916270389
 30
0.0
 10
94.90996905179334
 20
-115.1083916270389
 30
0.0
 10
94.90996905179334
 20
-115.1083916270389
 30
0.0
 10
94.90996905179334
 20
-116.6526556783021
 30
0.0
 10
94.90996905179334
 20
-116.6526556783021
 30
0.0
 10
94.90996905179334
 20
-116.6526556783021
 30
0.0
 10
94.67019040601996
 20
-116.6526556783021
 30
0.0
 10
94.67019040601996
 20
-116.6526556783021
 30
0.0
  0
HATCH
  5
A0
330
9B
100
AcDbEntity
  8
_U+30EC_U+30A4_U+30E4_U+30FC 1
 62
   179
420
  2234388
100
AcDbHatch
 10
0.0
 20
0.0
 30
0.0
210
0.0
220
0.0
230
1.0
  2
SOLID
 70
     1
 71
     0
 91
        1
 92
        1
 93
        1
 72
     4
 94
        3
 73
     0
 74
     1
 95
       26
 96
       22
 40
0.0
 40
0.0
 40
0.0
 40
0.0
 40
1.0
 40
1.0
 40
1.0
 40
2.0
 40
2.0
 40
2.0
 40
3.0
 40
3.0
 40
3.0
 40
4.0
 40
4.0
 40
4.0
 40
5.0
 40
5.0
 40
5.0
 40
6.0
 40
6.0
 40
6.0
 40
7.0
 40
7.0
 40
7.0
 40
7.0
 10
94.67019040601996
 20
-116.6526556783021
 10
94.67019040601996
 20
-116.6526556783021
 10
94.67019040601996
 20
-115.5483303205053
 10
94.67019040601996
 20
-115.5483303205053
 10
94.67019040601996
 20
-115.5483303205053
 10
94.31741262833037
 20
-115.5483303205053
 10
94.31741262833037
 20
-115.5483303205053
 10
94.31741262833037
 20
-115.5483303205053
 10
94.31741262833037
 20
-115.4003634694138
 10
94.31741262833037
 20
-115.4003634694138
 10
94.67260197285964
 20
-115.3855495588272
 10
94.72221134784724
 20
-115.2225965423749
 10
94.75390622631153
 20
-115.1083916270389
 10
94.75390622631153
 20
-115.1083916270389
 10
94.90996905179334
 20
-115.1083916270389
 10
94.90996905179334
 20
-115.1083916270389
 10
94.90996905179334
 20
-115.1083916270389
 10
94.90996905179334
 20
-116.6526556783021
 10
94.90996905179334
 20
-116.6526556783021
 10
94.90996905179334
 20
-116.6526556783021
 10
94.67019040601996
 20
-116.6526556783021
 10
94.67019040601996
 20
-116.6526556783021
 97
        0
 97
        0
 75
     2
 76
     1
 98
        0
  0
SPLINE
  5
A1
330
9B
100
AcDbEntity
  8
_U+30EC_U+30A4_U+30E4_U+30FC 1
370
     0
100
AcDbSpline
210
0.0
220
0.0
230
1.0
 70
    11
 71
     3
 72
    29
 73
    25
 74
     0
 42
0.0000000001
 43
0.0000000001
 12
1.0
 22
0.0
 32
0.0
 13
1.0
 23
0.0
 33
0.0
 40
0.0
 40
0.0
 40
0.0
 40
0.0
 40
1.0
 40
1.0
 40
1.0
 40
2.0
 40
2.0
 40
2.0
 40
3.0
 40
3.0
 40
3.0
 40
4.0
 40
4.0
 40
4.0
 40
5.0
 40
5.0
 40
5.0
 40
6.0
 40
6.0
 40
6.0
 40
7.0
 40
7.0
 40
7.0
 40
8.0
 40
8.0
 40
8.0
 40
8.0
 10
96.40514049239178
 20
-116.4748887512632
 30
0.0
 10
96.2897297936359
 20
-116.6843505567664
 30
0.0
 10
96.10438365652946
 20
-116.7034708367096
 30
0.0
 10
95.98001570951195
 20
-116.7034708367096
 30
0.0
 10
95.80810544479797
 20
-116.7034708367096
 30
0.0
 10
95.65686575299551
 20
-116.6569620476587
 30
0.0
 10
95.55489092663211
 20
-116.4748887512632
 30
0.0
 10
95.4443033615556
 20
-116.2802408563466
 30
0.0
 10
95.42397729819263
 20
-116.0433905417357
 30
0.0
 10
95.42397729819263
 20
-115.8804375252834
 30
0.0
 10
95.42397729819263
 20
-115.7366047887742
 30
0.0
 10
95.44189179471591
 20
-115.4849405635767
 30
0.0
 10
95.55489092663211
 20
-115.2859862993035
 30
0.0
 10
95.67030162538798
 20
-115.082897920448
 30
0.0
 10
95.84221189010195
 20
-115.0596435259226
 30
0.0
 10
95.98001570951195
 20
-115.0596435259226
 30
0.0
 10
96.14951440738623
 20
-115.0596435259226
 30
0.0
 10
96.3035101755769
 20
-115.1040852576823
 30
0.0
 10
96.40514049239178
 20
-115.2859862993035
 30
0.0
 10
96.51124943333747
 20
-115.478567136929
 30
0.0
 10
96.5363986303798
 20
-115.706976967601
 30
0.0
 10
96.5363986303798
 20
-115.8804375252834
 30
0.0
 10
96.5363986303798
 20
-116.0518310256745
 30
0.0
 10
96.51366100017715
 20
-116.282480168412
 30
0.0
 10
96.40514049239178
 20
-116.4748887512632
 30
0.0
  0
SPLINE
  5
A2
330
9B
100
AcDbEntity
  8
_U+30EC_U+30A4_U+30E4_U+30FC 1
370
     0
100
AcDbSpline
210
0.0
220
0.0
230
1.0
 70
    11
 71
     3
 72
    17
 73
    13
 74
     0
 42
0.0000000001
 43
0.0000000001
 12
1.0
 22
0.0
 32
0.0
 13
1.0
 23
0.0
 33
0.0
 40
0.0
 40
0.0
 40
0.0
 40
0.0
 40
1.0
 40
1.0
 40
1.0
 40
2.0
 40
2.0
 40
2.0
 40
3.0
 40
3.0
 40
3.0
 40
4.0
 40
4.0
 40
4.0
 40
4.0
 10
95.98001570951195
 20
-115.2522243635481
 30
0.0
 10
95.7133653189536
 20
-115.2522243635481
 30
0.0
 10
95.66341143441748
 20
-115.5357557219841
 30
0.0
 10
95.66341143441748
 20
-115.8804375252834
 30
0.0
 10
95.66341143441748
 20
-116.1999701315403
 30
0.0
 10
95.70199650385229
 20
-116.5088229417929
 30
0.0
 10
95.98001570951195
 20
-116.5088229417929
 30
0.0
 10
96.24459904277913
 20
-116.5088229417929
 30
0.0
 10
96.29661998460641
 20
-116.227358640648
 30
0.0
 10
96.29661998460641
 20
-115.8804375252834
 30
0.0
 10
96.29661998460641
 20
-115.5610771738007
 30
0.0
 10
96.25596785788046
 20
-115.2522243635481
 30
0.0
 10
95.98001570951195
 20
-115.2522243635481
 30
0.0
  0
HATCH
  5
A3
330
9B
100
AcDbEntity
  8
_U+30EC_U+30A4_U+30E4_U+30FC 1
 62
   179
420
  2234388
100
AcDbHatch
 10
0.0
 20
0.0
 30
0.0
210
0.0
220
0.0
230
1.0
  2
SOLID
 70
     1
 71
     0
 91
        2
 92
        1
 93
        1
 72
     4
 94
        3
 73
     0
 74
     1
 95
       29
 96
       25
 40
0.0
 40
0.0
 40
0.0
 40
0.0
 40
1.0
 40
1.0
 40
1.0
 40
2.0
 40
2.0
 40
2.0
 40
3.0
 40
3.0
 40
3.0
 40
4.0
 40
4.0
 40
4.0
 40
5.0
 40
5.0
 40
5.0
 40
6.0
 40
6.0
 40
6.0
 40
7.0
 40
7.0
 40
7.0
 40
8.0
 40
8.0
 40
8.0
 40
8.0
 10
96.40514049239178
 20
-116.4748887512632
 10
96.2897297936359
 20
-116.6843505567664
 10
96.10438365652946
 20
-116.7034708367096
 10
95.98001570951195
 20
-116.7034708367096
 10
95.80810544479797
 20
-116.7034708367096
 10
95.65686575299551
 20
-116.6569620476587
 10
95.55489092663211
 20
-116.4748887512632
 10
95.4443033615556
 20
-116.2802408563466
 10
95.42397729819263
 20
-116.0433905417357
 10
95.42397729819263
 20
-115.8804375252834
 10
95.42397729819263
 20
-115.7366047887742
 10
95.44189179471591
 20
-115.4849405635767
 10
95.55489092663211
 20
-115.2859862993035
 10
95.67030162538798
 20
-115.082897920448
 10
95.84221189010195
 20
-115.0596435259226
 10
95.98001570951195
 20
-115.0596435259226
 10
96.14951440738623
 20
-115.0596435259226
 10
96.3035101755769
 20
-115.1040852576823
 10
96.40514049239178
 20
-115.2859862993035
 10
96.51124943333747
 20
-115.478567136929
 10
96.5363986303798
 20
-115.706976967601
 10
96.5363986303798
 20
-115.8804375252834
 10
96.5363986303798
 20
-116.0518310256745
 10
96.51366100017715
 20
-116.282480168412
 10
96.40514049239178
 20
-116.4748887512632
 97
        0
 97
        0
 92
        1
 93
        1
 72
     4
 94
        3
 73
     0
 74
     1
 95
       17
 96
       13
 40
0.0
 40
0.0
 40
0.0
 40
0.0
 40
1.0
 40
1.0
 40
1.0
 40
2.0
 40
2.0
 40
2.0
 40
3.0
 40
3.0
 40
3.0
 40
4.0
 40
4.0
 40
4.0
 40
4.0
 10
95.98001570951195
 20
-115.2522243635481
 10
95.7133653189536
 20
-115.2522243635481
 10
95.66341143441748
 20
-115.5357557219841
 10
95.66341143441748
 20
-115.8804375252834
 10
95.66341143441748
 20
-116.1999701315403
 10
95.70199650385229
 20
-116.5088229417929
 10
95.98001570951195
 20
-116.5088229417929
 10
96.24459904277913
 20
-116.5088229417929
 10
96.29661998460641
 20
-116.227358640648
 10
96.29661998460641
 20
-115.8804375252834
 10
96.29661998460641
 20
-115.5610771738007
 10
96.25596785788046
 20
-115.2522243635481
 10
95.98001570951195
 20
-115.2522243635481
 97
        0
 97
        0
 75
     2
 76
     1
 98
        0
  0
ENDBLK
  5
9E
330
9B
100
AcDbEntity
  8
0
100
AcDbBlockEnd
  0
BLOCK
  5
A6
330
A4
100
AcDbEntity
  8
0
100
AcDbBlockBegin
  2
block 6
 70
     0
 10
0.0
 20
0.0
 30
0.0
  3
block 6
  1

  0
POLYLINE
  5
A8
330
A4
100
AcDbEntity
  8
_U+30EC_U+30A4_U+30E4_U+30FC 1
 62
   179
420
  2234388
370
     9
100
AcDb2dPolyline
 66
     1
 10
0.0
 20
0.0
 30
0.0
  0
VERTEX
  5
A9
330
A8
100
AcDbEntity
  8
_U+30EC_U+30A4_U+30E4_U+30FC 1
 62
   179
420
  2234388
370
     9
100
AcDbVertex
100
AcDb2dVertex
 10
90.35174880604596
 20
-142.8050794087429
 30
0.0
  0
VERTEX
  5
AA
330
A8
100
AcDbEntity
  8
_U+30EC_U+30A4_U+30E4_U+30FC 1
 62
   179
420
  2234388
370
     9
100
AcDbVertex
100
AcDb2dVertex
 10
95.35128006738618
 20
-142.8050794087429
 30
0.0
  0
SEQEND
  5
AB
330
A8
100
AcDbEntity
  8
_U+30EC_U+30A4_U+30E4_U+30FC 1
 62
   179
420
  2234388
370
     9
  0
POLYLINE
  5
AC
330
A4
100
AcDbEntity
  8
_U+30EC_U+30A4_U+30E4_U+30FC 1
 62
   179
420
  2234388
370
     9
100
AcDb2dPolyline
 66
     1
 10
0.0
 20
0.0
 30
0.0
  0
VERTEX
  5
AD
330
AC
100
AcDbEntity
  8
_U+30EC_U+30A4_U+30E4_U+30FC 1
 62
   179
420
  2234388
370
     9
100
AcDbVertex
100
AcDb2dVertex
 10
90.35174880604596
 20
-141.3450380202192
 30
0.0
  0
VERTEX
  5
AE
330
AC
100
AcDbEntity
  8
_U+30EC_U+30A4_U+30E4_U+30FC 1
 62
   179
420
  2234388
370
     9
100
AcDbVertex
100
AcDb2dVertex
 10
90.35174880604596
 20
-143.8048163529379
 30
0.0
  0
SEQEND
  5
AF
330
AC
100
AcDbEntity
  8
_U+30EC_U+30A4_U+30E4_U+30FC 1
 62
   179
420
  2234388
370
     9
  0
POLYLINE
  5
B0
330
A4
100
AcDbEntity
  8
_U+30EC_U+30A4_U+30E4_U+30FC 1
 62
   179
420
  2234388
370
     9
100
AcDb2dPolyline
 66
     1
 10
0.0
 20
0.0
 30
0.0
  0
VERTEX
  5
B1
330
B0
100
AcDbEntity
  8
_U+30EC_U+30A4_U+30E4_U+30FC 1
 62
   179
420
  2234388
370
     9
100
AcDbVertex
100
AcDb2dVertex
 10
95.35128006738618
 20
-141.3450380202192
 30
0.0
  0
VERTEX
  5
B2
330
B0
100
AcDbEntity
  8
_U+30EC_U+30A4_U+30E4_U+30FC 1
 62
   179
420
  2234388
370
     9
100
AcDbVertex
100
AcDb2dVertex
 10
95.35128006738618
 20
-143.8048163529379
 30
0.0
  0
SEQEND
  5
B3
330
B0
100
AcDbEntity
  8
_U+30EC_U+30A4_U+30E4_U+30FC 1
 62
   179
420
  2234388
370
     9
  0
INSERT
  5
B5
330
A4
100
AcDbEntity
  8
_U+30EC_U+30A4_U+30E4_U+30FC 1
100
AcDbBlockReference
  2
block 7
 10
0.0
 20
0.0
 30
0.0
  0
ENDBLK
  5
A7
330
A4
100
AcDbEntity
  8
0
100
AcDbBlockEnd
  0
BLOCK
  5
B6
330
B4
100
AcDbEntity
  8
0
100
AcDbBlockBegin
  2
block 7
 70
     0
 10
0.0
 20
0.0
 30
0.0
  3
block 7
  1

  0
SPLINE
  5
B8
330
B4
100
AcDbEntity
  8
_U+30EC_U+30A4_U+30E4_U+30FC 1
370
     0
100
AcDbSpline
210
0.0
220
0.0
230
1.0
 70
    11
 71
     3
 72
    53
 73
    49
 74
     0
 42
0.0000000001
 43
0.0000000001
 12
1.0
 22
0.0
 32
0.0
 13
1.0
 23
0.0
 33
0.0
 40
0.0
 40
0.0
 40
0.0
 40
0.0
 40
1.0
 40
1.0
 40
1.0
 40
2.0
 40
2.0
 40
2.0
 40
3.0
 40
3.0
 40
3.0
 40
4.0
 40
4.0
 40
4.0
 40
5.0
 40
5.0
 40
5.0
 40
6.0
 40
6.0
 40
6.0
 40
7.0
 40
7.0
 40
7.0
 40
8.0
 40
8.0
 40
8.0
 40
9.0
 40
9.0
 40
9.0
 40
10.0
 40
10.0
 40
10.0
 40
11.0
 40
11.0
 40
11.0
 40
12.0
 40
12.0
 40
12.0
 40
13.0
 40
13.0
 40
13.0
 40
14.0
 40
14.0
 40
14.0
 40
15.0
 40
15.0
 40
15.0
 40
16.0
 40
16.0
 40
16.0
 40
16.0
 10
92.83085392644507
 20
-141.5038519611518
 30
0.0
 10
92.7471381061535
 20
-141.5038519611518
 30
0.0
 10
92.63861759836813
 20
-141.4869709932741
 30
0.0
 10
92.53009709058276
 20
-141.4235812363455
 30
0.0
 10
92.34475095347632
 20
-141.313682690366
 30
0.0
 10
92.32201332327367
 20
-141.182424552378
 30
0.0
 10
92.3016872599107
 20
-141.0745930636897
 30
0.0
 10
92.3016872599107
 20
-141.0745930636897
 30
0.0
 10
92.53905433884441
 20
-141.0745930636897
 30
0.0
 10
92.53905433884441
 20
-141.0745930636897
 30
0.0
 10
92.59796547164218
 20
-141.2733750731886
 30
0.0
 10
92.7333577242125
 20
-141.3030028943618
 30
0.0
 10
92.83292098373622
 20
-141.3030028943618
 30
0.0
 10
92.98209361824753
 20
-141.3030028943618
 30
0.0
 10
93.14504663469985
 20
-141.203439634838
 30
0.0
 10
93.14504663469985
 20
-140.9708956895837
 30
0.0
 10
93.14504663469985
 20
-140.7149250950296
 30
0.0
 10
92.95281030662291
 20
-140.644989656679
 30
0.0
 10
92.82396373547456
 20
-140.644989656679
 30
0.0
 10
92.7898572901706
 20
-140.644989656679
 30
0.0
 10
92.63861759836813
 20
-140.644989656679
 30
0.0
 10
92.54353296297523
 20
-140.7741807373759
 30
0.0
 10
92.54353296297523
 20
-140.7741807373759
 30
0.0
 10
92.35577525902912
 20
-140.755232712207
 30
0.0
 10
92.35577525902912
 20
-140.755232712207
 30
0.0
 10
92.35577525902912
 20
-140.755232712207
 30
0.0
 10
92.48496633972599
 20
-139.9087727514811
 30
0.0
 10
92.48496633972599
 20
-139.9087727514811
 30
0.0
 10
92.48496633972599
 20
-139.9087727514811
 30
0.0
 10
93.31695689941382
 20
-139.9087727514811
 30
0.0
 10
93.31695689941382
 20
-139.9087727514811
 30
0.0
 10
93.31695689941382
 20
-139.9087727514811
 30
0.0
 10
93.31695689941382
 20
-140.1034206463978
 30
0.0
 10
93.31695689941382
 20
-140.1034206463978
 30
0.0
 10
93.31695689941382
 20
-140.1034206463978
 30
0.0
 10
92.6589436617311
 20
-140.1034206463978
 30
0.0
 10
92.6589436617311
 20
-140.1034206463978
 30
0.0
 10
92.6589436617311
 20
-140.1034206463978
 30
0.0
 10
92.588663713832
 20
-140.5264783719864
 30
0.0
 10
92.588663713832
 20
-140.5264783719864
 30
0.0
 10
92.65446503760027
 20
-140.492716436231
 30
0.0
 10
92.74265948202267
 20
-140.4524088190536
 30
0.0
 10
92.86909448633133
 20
-140.4524088190536
 30
0.0
 10
93.14056801056903
 20
-140.4524088190536
 30
0.0
 10
93.39378252873489
 20
-140.6387884848056
 30
0.0
 10
93.39378252873489
 20
-140.9519476644148
 30
0.0
 10
93.39378252873489
 20
-141.2692409586063
 30
0.0
 10
93.1540038829615
 20
-141.5038519611518
 30
0.0
 10
92.83085392644507
 20
-141.5038519611518
 30
0.0
  0
HATCH
  5
B9
330
B4
100
AcDbEntity
  8
_U+30EC_U+30A4_U+30E4_U+30FC 1
 62
   179
420
  2234388
100
AcDbHatch
 10
0.0
 20
0.0
 30
0.0
210
0.0
220
0.0
230
1.0
  2
SOLID
 70
     1
 71
     0
 91
        1
 92
        1
 93
        1
 72
     4
 94
        3
 73
     0
 74
     1
 95
       53
 96
       49
 40
0.0
 40
0.0
 40
0.0
 40
0.0
 40
1.0
 40
1.0
 40
1.0
 40
2.0
 40
2.0
 40
2.0
 40
3.0
 40
3.0
 40
3.0
 40
4.0
 40
4.0
 40
4.0
 40
5.0
 40
5.0
 40
5.0
 40
6.0
 40
6.0
 40
6.0
 40
7.0
 40
7.0
 40
7.0
 40
8.0
 40
8.0
 40
8.0
 40
9.0
 40
9.0
 40
9.0
 40
10.0
 40
10.0
 40
10.0
 40
11.0
 40
11.0
 40
11.0
 40
12.0
 40
12.0
 40
12.0
 40
13.0
 40
13.0
 40
13.0
 40
14.0
 40
14.0
 40
14.0
 40
15.0
 40
15.0
 40
15.0
 40
16.0
 40
16.0
 40
16.0
 40
16.0
 10
92.83085392644507
 20
-141.5038519611518
 10
92.7471381061535
 20
-141.5038519611518
 10
92.63861759836813
 20
-141.4869709932741
 10
92.53009709058276
 20
-141.4235812363455
 10
92.34475095347632
 20
-141.313682690366
 10
92.32201332327367
 20
-141.182424552378
 10
92.3016872599107
 20
-141.0745930636897
 10
92.3016872599107
 20
-141.0745930636897
 10
92.53905433884441
 20
-141.0745930636897
 10
92.53905433884441
 20
-141.0745930636897
 10
92.59796547164218
 20
-141.2733750731886
 10
92.7333577242125
 20
-141.3030028943618
 10
92.83292098373622
 20
-141.3030028943618
 10
92.98209361824753
 20
-141.3030028943618
 10
93.14504663469985
 20
-141.203439634838
 10
93.14504663469985
 20
-140.9708956895837
 10
93.14504663469985
 20
-140.7149250950296
 10
92.95281030662291
 20
-140.644989656679
 10
92.82396373547456
 20
-140.644989656679
 10
92.7898572901706
 20
-140.644989656679
 10
92.63861759836813
 20
-140.644989656679
 10
92.54353296297523
 20
-140.7741807373759
 10
92.54353296297523
 20
-140.7741807373759
 10
92.35577525902912
 20
-140.755232712207
 10
92.35577525902912
 20
-140.755232712207
 10
92.35577525902912
 20
-140.755232712207
 10
92.48496633972599
 20
-139.9087727514811
 10
92.48496633972599
 20
-139.9087727514811
 10
92.48496633972599
 20
-139.9087727514811
 10
93.31695689941382
 20
-139.9087727514811
 10
93.31695689941382
 20
-139.9087727514811
 10
93.31695689941382
 20
-139.9087727514811
 10
93.31695689941382
 20
-140.1034206463978
 10
93.31695689941382
 20
-140.1034206463978
 10
93.31695689941382
 20
-140.1034206463978
 10
92.6589436617311
 20
-140.1034206463978
 10
92.6589436617311
 20
-140.1034206463978
 10
92.6589436617311
 20
-140.1034206463978
 10
92.588663713832
 20
-140.5264783719864
 10
92.588663713832
 20
-140.5264783719864
 10
92.65446503760027
 20
-140.492716436231
 10
92.74265948202267
 20
-140.4524088190536
 10
92.86909448633133
 20
-140.4524088190536
 10
93.14056801056903
 20
-140.4524088190536
 10
93.39378252873489
 20
-140.6387884848056
 10
93.39378252873489
 20
-140.9519476644148
 10
93.39378252873489
 20
-141.2692409586063
 10
93.1540038829615
 20
-141.5038519611518
 10
92.83085392644507
 20
-141.5038519611518
 97
        0
 97
        0
 75
     2
 76
     1
 98
        0
  0
ENDBLK
  5
B7
330
B4
100
AcDbEntity
  8
0
100
AcDbBlockEnd
  0
BLOCK
  5
BC
330
BA
100
AcDbEntity
  8
0
100
AcDbBlockBegin
  2
block 8
 70
     0
 10
0.0
 20
0.0
 30
0.0
  3
block 8
  1

  0
POLYLINE
  5
BE
330
BA
100
AcDbEntity
  8
_U+30EC_U+30A4_U+30E4_U+30FC 1
 62
   179
420
  2234388
370
     9
100
AcDb2dPolyline
 66
     1
 10
0.0
 20
0.0
 30
0.0
  0
VERTEX
  5
BF
330
BE
100
AcDbEntity
  8
_U+30EC_U+30A4_U+30E4_U+30FC 1
 62
   179
420
  2234388
370
     9
100
AcDbVertex
100
AcDb2dVertex
 10
104.3512406711114
 20
-122.0042785806099
 30
0.0
  0
VERTEX
  5
C0
330
BE
100
AcDbEntity
  8
_U+30EC_U+30A4_U+30E4_U+30FC 1
 62
   179
420
  2234388
370
     9
100
AcDbVertex
100
AcDb2dVertex
 10
104.3512406711114
 20
-116.746690248591
 30
0.0
  0
SEQEND
  5
C1
330
BE
100
AcDbEntity
  8
_U+30EC_U+30A4_U+30E4_U+30FC 1
 62
   179
420
  2234388
370
     9
  0
POLYLINE
  5
C2
330
BA
100
AcDbEntity
  8
_U+30EC_U+30A4_U+30E4_U+30FC 1
 62
   179
420
  2234388
370
     9
100
AcDb2dPolyline
 66
     1
 10
0.0
 20
0.0
 30
0.0
  0
VERTEX
  5
C3
330
C2
100
AcDbEntity
  8
_U+30EC_U+30A4_U+30E4_U+30FC 1
 62
   179
420
  2234388
370
     9
100
AcDbVertex
100
AcDb2dVertex
 10
104.3512406711114
 20
-122.8042021915211
 30
0.0
  0
VERTEX
  5
C4
330
C2
100
AcDbEntity
  8
_U+30EC_U+30A4_U+30E4_U+30FC 1
 62
   179
420
  2234388
370
     9
100
AcDbVertex
100
AcDb2dVertex
 10
104.3512406711114
 20
-122.0042785806099
 30
0.0
  0
SEQEND
  5
C5
330
C2
100
AcDbEntity
  8
_U+30EC_U+30A4_U+30E4_U+30FC 1
 62
   179
420
  2234388
370
     9
  0
POLYLINE
  5
C6
330
BA
100
AcDbEntity
  8
_U+30EC_U+30A4_U+30E4_U+30FC 1
 62
   179
420
  2234388
370
     9
100
AcDb2dPolyline
 66
     1
 10
0.0
 20
0.0
 30
0.0
  0
VERTEX
  5
C7
330
C6
100
AcDbEntity
  8
_U+30EC_U+30A4_U+30E4_U+30FC 1
 62
   179
420
  2234388
370
     9
100
AcDbVertex
100
AcDb2dVertex
 10
102.8919048750088
 20
-122.8042021915211
 30
0.0
  0
VERTEX
  5
C8
330
C6
100
AcDbEntity
  8
_U+30EC_U+30A4_U+30E4_U+30FC 1
 62
   179
420
  2234388
370
     9
100
AcDbVertex
100
AcDb2dVertex
 10
105.3517184233649
 20
-122.8042021915211
 30
0.0
  0
SEQEND
  5
C9
330
C6
100
AcDbEntity
  8
_U+30EC_U+30A4_U+30E4_U+30FC 1
 62
   179
420
  2234388
370
     9
  0
POLYLINE
  5
CA
330
BA
100
AcDbEntity
  8
_U+30EC_U+30A4_U+30E4_U+30FC 1
 62
   179
420
  2234388
370
     9
100
AcDb2dPolyline
 66
     1
 10
0.0
 20
0.0
 30
0.0
  0
VERTEX
  5
CB
330
CA
100
AcDbEntity
  8
_U+30EC_U+30A4_U+30E4_U+30FC 1
 62
   179
420
  2234388
370
     9
100
AcDbVertex
100
AcDb2dVertex
 10
102.8919048750088
 20
-122.0042785806099
 30
0.0
  0
VERTEX
  5
CC
330
CA
100
AcDbEntity
  8
_U+30EC_U+30A4_U+30E4_U+30FC 1
 62
   179
420
  2234388
370
     9
100
AcDbVertex
100
AcDb2dVertex
 10
105.3517184233649
 20
-122.0042785806099
 30
0.0
  0
SEQEND
  5
CD
330
CA
100
AcDbEntity
  8
_U+30EC_U+30A4_U+30E4_U+30FC 1
 62
   179
420
  2234388
370
     9
  0
INSERT
  5
CF
330
BA
100
AcDbEntity
  8
_U+30EC_U+30A4_U+30E4_U+30FC 1
100
AcDbBlockReference
  2
block 9
 10
0.0
 20
0.0
 30
0.0
  0
ENDBLK
  5
BD
330
BA
100
AcDbEntity
  8
0
100
AcDbBlockEnd
  0
BLOCK
  5
D0
330
CE
100
AcDbEntity
  8
0
100
AcDbBlockBegin
  2
block 9
 70
     0
 10
0.0
 20
0.0
 30
0.0
  3
block 9
  1

  0
SPLINE
  5
D2
330
CE
100
AcDbEntity
  8
_U+30EC_U+30A4_U+30E4_U+30FC 1
370
     0
100
AcDbSpline
210
0.0
220
0.0
230
1.0
 70
    11
 71
     3
 72
    29
 73
    25
 74
     0
 42
0.0000000001
 43
0.0000000001
 12
1.0
 22
0.0
 32
0.0
 13
1.0
 23
0.0
 33
0.0
 40
0.0
 40
0.0
 40
0.0
 40
0.0
 40
1.0
 40
1.0
 40
1.0
 40
2.0
 40
2.0
 40
2.0
 40
3.0
 40
3.0
 40
3.0
 40
4.0
 40
4.0
 40
4.0
 40
5.0
 40
5.0
 40
5.0
 40
6.0
 40
6.0
 40
6.0
 40
7.0
 40
7.0
 40
7.0
 40
8.0
 40
8.0
 40
8.0
 40
8.0
 10
102.8219753432181
 20
-119.5010606255067
 30
0.0
 10
103.0314371487213
 20
-119.6164713242625
 30
0.0
 10
103.0503851738902
 20
-119.801817461369
 30
0.0
 10
103.0503851738902
 20
-119.9261854083865
 30
0.0
 10
103.0503851738902
 20
-120.097751163552
 30
0.0
 10
103.0038763848393
 20
-120.2493353649029
 30
0.0
 10
102.8219753432181
 20
-120.3509656817178
 30
0.0
 10
102.6273274483015
 20
-120.4618977563429
 30
0.0
 10
102.3903048789163
 20
-120.4822238197058
 30
0.0
 10
102.2276963720125
 20
-120.4822238197058
 30
0.0
 10
102.0836913807291
 20
-120.4822238197058
 30
0.0
 10
101.8318549007573
 20
-120.463964813634
 30
0.0
 10
101.6330728912584
 20
-120.3509656817178
 30
0.0
 10
101.4301567671772
 20
-120.2358994925105
 30
0.0
 10
101.4067301178775
 20
-120.0639892277965
 30
0.0
 10
101.4067301178775
 20
-119.9261854083865
 30
0.0
 10
101.4067301178775
 20
-119.7563422009637
 30
0.0
 10
101.4511718496372
 20
-119.6026909423216
 30
0.0
 10
101.6330728912584
 20
-119.5010606255067
 30
0.0
 10
101.8256537288839
 20
-119.3946071750125
 30
0.0
 10
102.0540635595559
 20
-119.3698024875187
 30
0.0
 10
102.2276963720125
 20
-119.3698024875187
 30
0.0
 10
102.3989176176294
 20
-119.3698024875187
 30
0.0
 10
102.6293945055927
 20
-119.3925401177213
 30
0.0
 10
102.8219753432181
 20
-119.5010606255067
 30
0.0
  0
SPLINE
  5
D3
330
CE
100
AcDbEntity
  8
_U+30EC_U+30A4_U+30E4_U+30FC 1
370
     0
100
AcDbSpline
210
0.0
220
0.0
230
1.0
 70
    11
 71
     3
 72
    17
 73
    13
 74
     0
 42
0.0000000001
 43
0.0000000001
 12
1.0
 22
0.0
 32
0.0
 13
1.0
 23
0.0
 33
0.0
 40
0.0
 40
0.0
 40
0.0
 40
0.0
 40
1.0
 40
1.0
 40
1.0
 40
2.0
 40
2.0
 40
2.0
 40
3.0
 40
3.0
 40
3.0
 40
4.0
 40
4.0
 40
4.0
 40
4.0
 10
101.599310955503
 20
-119.9261854083865
 30
0.0
 10
101.599310955503
 20
-120.1928357989449
 30
0.0
 10
101.882842313939
 20
-120.2424451739325
 30
0.0
 10
102.2276963720125
 20
-120.2424451739325
 30
0.0
 10
102.5470567234952
 20
-120.2424451739325
 30
0.0
 10
102.8557372789736
 20
-120.2042046140462
 30
0.0
 10
102.8557372789736
 20
-119.9261854083865
 30
0.0
 10
102.8557372789736
 20
-119.6616020751193
 30
0.0
 10
102.5746174873772
 20
-119.6095811332921
 30
0.0
 10
102.2276963720125
 20
-119.6095811332921
 30
0.0
 10
101.9079915109813
 20
-119.6095811332921
 30
0.0
 10
101.599310955503
 20
-119.650233260018
 30
0.0
 10
101.599310955503
 20
-119.9261854083865
 30
0.0
  0
HATCH
  5
D4
330
CE
100
AcDbEntity
  8
_U+30EC_U+30A4_U+30E4_U+30FC 1
 62
   179
420
  2234388
100
AcDbHatch
 10
0.0
 20
0.0
 30
0.0
210
0.0
220
0.0
230
1.0
  2
SOLID
 70
     1
 71
     0
 91
        2
 92
        1
 93
        1
 72
     4
 94
        3
 73
     0
 74
     1
 95
       29
 96
       25
 40
0.0
 40
0.0
 40
0.0
 40
0.0
 40
1.0
 40
1.0
 40
1.0
 40
2.0
 40
2.0
 40
2.0
 40
3.0
 40
3.0
 40
3.0
 40
4.0
 40
4.0
 40
4.0
 40
5.0
 40
5.0
 40
5.0
 40
6.0
 40
6.0
 40
6.0
 40
7.0
 40
7.0
 40
7.0
 40
8.0
 40
8.0
 40
8.0
 40
8.0
 10
102.8219753432181
 20
-119.5010606255067
 10
103.0314371487213
 20
-119.6164713242625
 10
103.0503851738902
 20
-119.801817461369
 10
103.0503851738902
 20
-119.9261854083865
 10
103.0503851738902
 20
-120.097751163552
 10
103.0038763848393
 20
-120.2493353649029
 10
102.8219753432181
 20
-120.3509656817178
 10
102.6273274483015
 20
-120.4618977563429
 10
102.3903048789163
 20
-120.4822238197058
 10
102.2276963720125
 20
-120.4822238197058
 10
102.0836913807291
 20
-120.4822238197058
 10
101.8318549007573
 20
-120.463964813634
 10
101.6330728912584
 20
-120.3509656817178
 10
101.4301567671772
 20
-120.2358994925105
 10
101.4067301178775
 20
-120.0639892277965
 10
101.4067301178775
 20
-119.9261854083865
 10
101.4067301178775
 20
-119.7563422009637
 10
101.4511718496372
 20
-119.6026909423216
 10
101.6330728912584
 20
-119.5010606255067
 10
101.8256537288839
 20
-119.3946071750125
 10
102.0540635595559
 20
-119.3698024875187
 10
102.2276963720125
 20
-119.3698024875187
 10
102.3989176176294
 20
-119.3698024875187
 10
102.6293945055927
 20
-119.3925401177213
 10
102.8219753432181
 20
-119.5010606255067
 97
        0
 97
        0
 92
        1
 93
        1
 72
     4
 94
        3
 73
     0
 74
     1
 95
       17
 96
       13
 40
0.0
 40
0.0
 40
0.0
 40
0.0
 40
1.0
 40
1.0
 40
1.0
 40
2.0
 40
2.0
 40
2.0
 40
3.0
 40
3.0
 40
3.0
 40
4.0
 40
4.0
 40
4.0
 40
4.0
 10
101.599310955503
 20
-119.9261854083865
 10
101.599310955503
 20
-120.1928357989449
 10
101.882842313939
 20
-120.2424451739325
 10
102.2276963720125
 20
-120.2424451739325
 10
102.5470567234952
 20
-120.2424451739325
 10
102.8557372789736
 20
-120.2042046140462
 10
102.8557372789736
 20
-119.9261854083865
 10
102.8557372789736
 20
-119.6616020751193
 10
102.5746174873772
 20
-119.6095811332921
 10
102.2276963720125
 20
-119.6095811332921
 10
101.9079915109813
 20
-119.6095811332921
 10
101.599310955503
 20
-119.650233260018
 10
101.599310955503
 20
-119.9261854083865
 97
        0
 97
        0
 75
     2
 76
     1
 98
        0
  0
POLYLINE
  5
D5
330
CE
100
AcDbEntity
  8
_U+30EC_U+30A4_U+30E4_U+30FC 1
370
     0
100
AcDb2dPolyline
 66
     1
 10
0.0
 20
0.0
 30
0.0
  0
VERTEX
  5
D6
330
D5
100
AcDbEntity
  8
_U+30EC_U+30A4_U+30E4_U+30FC 1
370
     0
100
AcDbVertex
100
AcDb2dVertex
 10
102.999742270257
 20
-119.1386365804584
 30
0.0
  0
VERTEX
  5
D7
330
D5
100
AcDbEntity
  8
_U+30EC_U+30A4_U+30E4_U+30FC 1
370
     0
100
AcDbVertex
100
AcDb2dVertex
 10
102.7479057902852
 20
-119.1386365804584
 30
0.0
  0
VERTEX
  5
D8
330
D5
100
AcDbEntity
  8
_U+30EC_U+30A4_U+30E4_U+30FC 1
370
     0
100
AcDbVertex
100
AcDb2dVertex
 10
102.7479057902852
 20
-118.8695746230604
 30
0.0
  0
VERTEX
  5
D9
330
D5
100
AcDbEntity
  8
_U+30EC_U+30A4_U+30E4_U+30FC 1
370
     0
100
AcDbVertex
100
AcDb2dVertex
 10
102.999742270257
 20
-118.8695746230604
 30
0.0
  0
VERTEX
  5
DA
330
D5
100
AcDbEntity
  8
_U+30EC_U+30A4_U+30E4_U+30FC 1
370
     0
100
AcDbVertex
100
AcDb2dVertex
 10
102.999742270257
 20
-119.1386365804584
 30
0.0
  0
SEQEND
  5
DB
330
D5
100
AcDbEntity
  8
_U+30EC_U+30A4_U+30E4_U+30FC 1
370
     0
  0
HATCH
  5
DC
330
CE
100
AcDbEntity
  8
_U+30EC_U+30A4_U+30E4_U+30FC 1
 62
   179
420
  2234388
100
AcDbHatch
 10
0.0
 20
0.0
 30
0.0
210
0.0
220
0.0
230
1.0
  2
SOLID
 70
     1
 71
     0
 91
        1
 92
        1
 93
        4
 72
     1
 10
102.999742270257
 20
-119.1386365804584
 11
102.7479057902852
 21
-119.1386365804584
 72
     1
 10
102.7479057902852
 20
-119.1386365804584
 11
102.7479057902852
 21
-118.8695746230604
 72
     1
 10
102.7479057902852
 20
-118.8695746230604
 11
102.999742270257
 21
-118.8695746230604
 72
     1
 10
102.999742270257
 20
-118.8695746230604
 11
102.999742270257
 21
-119.1386365804584
 97
        0
 75
     2
 76
     1
 98
        0
  0
SPLINE
  5
DD
330
CE
100
AcDbEntity
  8
_U+30EC_U+30A4_U+30E4_U+30FC 1
370
     0
100
AcDbSpline
210
0.0
220
0.0
230
1.0
 70
    11
 71
     3
 72
    29
 73
    25
 74
     0
 42
0.0000000001
 43
0.0000000001
 12
1.0
 22
0.0
 32
0.0
 13
1.0
 23
0.0
 33
0.0
 40
0.0
 40
0.0
 40
0.0
 40
0.0
 40
1.0
 40
1.0
 40
1.0
 40
2.0
 40
2.0
 40
2.0
 40
3.0
 40
3.0
 40
3.0
 40
4.0
 40
4.0
 40
4.0
 40
5.0
 40
5.0
 40
5.0
 40
6.0
 40
6.0
 40
6.0
 40
7.0
 40
7.0
 40
7.0
 40
8.0
 40
8.0
 40
8.0
 40
8.0
 10
103.0503851738902
 20
-118.0823703046808
 30
0.0
 10
103.0503851738902
 20
-118.367279701311
 30
0.0
 10
102.9129258640287
 20
-118.6384087160001
 30
0.0
 10
102.5639376913729
 20
-118.6384087160001
 30
0.0
 10
102.3079670968188
 20
-118.6384087160001
 30
0.0
 10
102.2128824614259
 20
-118.4868245146491
 30
0.0
 10
102.1515597617885
 20
-118.3738253827329
 30
0.0
 10
102.0923041194422
 20
-118.5071505780121
 30
0.0
 10
101.9779269493319
 20
-118.5887993410125
 30
0.0
 10
101.8170409901707
 20
-118.5887993410125
 30
0.0
 10
101.5421223704478
 20
-118.5887993410125
 30
0.0
 10
101.4067301178775
 20
-118.3762369495726
 30
0.0
 10
101.4067301178775
 20
-118.0823703046808
 30
0.0
 10
101.4067301178775
 20
-117.7792019019788
 30
0.0
 10
101.5507351091609
 20
-117.5759412683491
 30
0.0
 10
101.8170409901707
 20
-117.5759412683491
 30
0.0
 10
101.9779269493319
 20
-117.5759412683491
 30
0.0
 10
102.0923041194422
 20
-117.6593125790921
 30
0.0
 10
102.1515597617885
 20
-117.7929822839198
 30
0.0
 10
102.2022026654217
 20
-117.6978976485269
 30
0.0
 10
102.2972873008146
 20
-117.5283989506526
 30
0.0
 10
102.5598035767906
 20
-117.5283989506526
 30
0.0
 10
102.9342854560373
 20
-117.5283989506526
 30
0.0
 10
103.0503851738902
 20
-117.8267442196753
 30
0.0
 10
103.0503851738902
 20
-118.0823703046808
 30
0.0
  0
SPLINE
  5
DE
330
CE
100
AcDbEntity
  8
_U+30EC_U+30A4_U+30E4_U+30FC 1
370
     0
100
AcDbSpline
210
0.0
220
0.0
230
1.0
 70
    11
 71
     3
 72
    17
 73
    13
 74
     0
 42
0.0000000001
 43
0.0000000001
 12
1.0
 22
0.0
 32
0.0
 13
1.0
 23
0.0
 33
0.0
 40
0.0
 40
0.0
 40
0.0
 40
0.0
 40
1.0
 40
1.0
 40
1.0
 40
2.0
 40
2.0
 40
2.0
 40
3.0
 40
3.0
 40
3.0
 40
4.0
 40
4.0
 40
4.0
 40
4.0
 10
101.599310955503
 20
-118.0823703046808
 30
0.0
 10
101.599310955503
 20
-118.2584146839771
 30
0.0
 10
101.6943955908959
 20
-118.3490206952391
 30
0.0
 10
101.8297878434662
 20
-118.3490206952391
 30
0.0
 10
101.9524332427411
 20
-118.3490206952391
 30
0.0
 10
102.0709445274337
 20
-118.2721950659181
 30
0.0
 10
102.0709445274337
 20
-118.0823703046808
 30
0.0
 10
102.0709445274337
 20
-117.892201033895
 30
0.0
 10
101.9524332427411
 20
-117.8153754045739
 30
0.0
 10
101.8297878434662
 20
-117.8153754045739
 30
0.0
 10
101.6943955908959
 20
-117.8153754045739
 30
0.0
 10
101.599310955503
 20
-117.9080484731272
 30
0.0
 10
101.599310955503
 20
-118.0823703046808
 30
0.0
  0
SPLINE
  5
DF
330
CE
100
AcDbEntity
  8
_U+30EC_U+30A4_U+30E4_U+30FC 1
370
     0
100
AcDbSpline
210
0.0
220
0.0
230
1.0
 70
    11
 71
     3
 72
    17
 73
    13
 74
     0
 42
0.0000000001
 43
0.0000000001
 12
1.0
 22
0.0
 32
0.0
 13
1.0
 23
0.0
 33
0.0
 40
0.0
 40
0.0
 40
0.0
 40
0.0
 40
1.0
 40
1.0
 40
1.0
 40
2.0
 40
2.0
 40
2.0
 40
3.0
 40
3.0
 40
3.0
 40
4.0
 40
4.0
 40
4.0
 40
4.0
 10
102.2593912504768
 20
-118.0823703046808
 30
0.0
 10
102.2593912504768
 20
-118.236021563323
 30
0.0
 10
102.3462076567051
 20
-118.3986300702267
 30
0.0
 10
102.5491237807863
 20
-118.3986300702267
 30
0.0
 10
102.7544514717072
 20
-118.3986300702267
 30
0.0
 10
102.8557372789736
 20
-118.2632378176564
 30
0.0
 10
102.8557372789736
 20
-118.0823703046808
 30
0.0
 10
102.8557372789736
 20
-117.8832437856334
 30
0.0
 10
102.7330918796987
 20
-117.7657660295863
 30
0.0
 10
102.5553249526598
 20
-117.7657660295863
 30
0.0
 10
102.3334608034097
 20
-117.7657660295863
 30
0.0
 10
102.2593912504768
 20
-117.9397433515915
 30
0.0
 10
102.2593912504768
 20
-118.0823703046808
 30
0.0
  0
HATCH
  5
E0
330
CE
100
AcDbEntity
  8
_U+30EC_U+30A4_U+30E4_U+30FC 1
 62
   179
420
  2234388
100
AcDbHatch
 10
0.0
 20
0.0
 30
0.0
210
0.0
220
0.0
230
1.0
  2
SOLID
 70
     1
 71
     0
 91
        3
 92
        1
 93
        1
 72
     4
 94
        3
 73
     0
 74
     1
 95
       29
 96
       25
 40
0.0
 40
0.0
 40
0.0
 40
0.0
 40
1.0
 40
1.0
 40
1.0
 40
2.0
 40
2.0
 40
2.0
 40
3.0
 40
3.0
 40
3.0
 40
4.0
 40
4.0
 40
4.0
 40
5.0
 40
5.0
 40
5.0
 40
6.0
 40
6.0
 40
6.0
 40
7.0
 40
7.0
 40
7.0
 40
8.0
 40
8.0
 40
8.0
 40
8.0
 10
103.0503851738902
 20
-118.0823703046808
 10
103.0503851738902
 20
-118.367279701311
 10
102.9129258640287
 20
-118.6384087160001
 10
102.5639376913729
 20
-118.6384087160001
 10
102.3079670968188
 20
-118.6384087160001
 10
102.2128824614259
 20
-118.4868245146491
 10
102.1515597617885
 20
-118.3738253827329
 10
102.0923041194422
 20
-118.5071505780121
 10
101.9779269493319
 20
-118.5887993410125
 10
101.8170409901707
 20
-118.5887993410125
 10
101.5421223704478
 20
-118.5887993410125
 10
101.4067301178775
 20
-118.3762369495726
 10
101.4067301178775
 20
-118.0823703046808
 10
101.4067301178775
 20
-117.7792019019788
 10
101.5507351091609
 20
-117.5759412683491
 10
101.8170409901707
 20
-117.5759412683491
 10
101.9779269493319
 20
-117.5759412683491
 10
102.0923041194422
 20
-117.6593125790921
 10
102.1515597617885
 20
-117.7929822839198
 10
102.2022026654217
 20
-117.6978976485269
 10
102.2972873008146
 20
-117.5283989506526
 10
102.5598035767906
 20
-117.5283989506526
 10
102.9342854560373
 20
-117.5283989506526
 10
103.0503851738902
 20
-117.8267442196753
 10
103.0503851738902
 20
-118.0823703046808
 97
        0
 97
        0
 92
        1
 93
        1
 72
     4
 94
        3
 73
     0
 74
     1
 95
       17
 96
       13
 40
0.0
 40
0.0
 40
0.0
 40
0.0
 40
1.0
 40
1.0
 40
1.0
 40
2.0
 40
2.0
 40
2.0
 40
3.0
 40
3.0
 40
3.0
 40
4.0
 40
4.0
 40
4.0
 40
4.0
 10
101.599310955503
 20
-118.0823703046808
 10
101.599310955503
 20
-118.2584146839771
 10
101.6943955908959
 20
-118.3490206952391
 10
101.8297878434662
 20
-118.3490206952391
 10
101.9524332427411
 20
-118.3490206952391
 10
102.0709445274337
 20
-118.2721950659181
 10
102.0709445274337
 20
-118.0823703046808
 10
102.0709445274337
 20
-117.892201033895
 10
101.9524332427411
 20
-117.8153754045739
 10
101.8297878434662
 20
-117.8153754045739
 10
101.6943955908959
 20
-117.8153754045739
 10
101.599310955503
 20
-117.9080484731272
 10
101.599310955503
 20
-118.0823703046808
 97
        0
 97
        0
 92
        1
 93
        1
 72
     4
 94
        3
 73
     0
 74
     1
 95
       17
 96
       13
 40
0.0
 40
0.0
 40
0.0
 40
0.0
 40
1.0
 40
1.0
 40
1.0
 40
2.0
 40
2.0
 40
2.0
 40
3.0
 40
3.0
 40
3.0
 40
4.0
 40
4.0
 40
4.0
 40
4.0
 10
102.2593912504768
 20
-118.0823703046808
 10
102.2593912504768
 20
-118.236021563323
 10
102.3462076567051
 20
-118.3986300702267
 10
102.5491237807863
 20
-118.3986300702267
 10
102.7544514717072
 20
-118.3986300702267
 10
102.8557372789736
 20
-118.2632378176564
 10
102.8557372789736
 20
-118.0823703046808
 10
102.8557372789736
 20
-117.8832437856334
 10
102.7330918796987
 20
-117.7657660295863
 10
102.5553249526598
 20
-117.7657660295863
 10
102.3334608034097
 20
-117.7657660295863
 10
102.2593912504768
 20
-117.9397433515915
 10
102.2593912504768
 20
-118.0823703046808
 97
        0
 97
        0
 75
     2
 76
     1
 98
        0
  0
ENDBLK
  5
D1
330
CE
100
AcDbEntity
  8
0
100
AcDbBlockEnd
  0
BLOCK
  5
E3
330
E1
100
AcDbEntity
  8
0
100
AcDbBlockBegin
  2
block 10
 70
     0
 10
0.0
 20
0.0
 30
0.0
  3
block 10
  1

  0
POLYLINE
  5
E5
330
E1
100
AcDbEntity
  8
_U+30EC_U+30A4_U+30E4_U+30FC 1
 62
   179
420
  2234388
370
     9
100
AcDb2dPolyline
 66
     1
 10
0.0
 20
0.0
 30
0.0
  0
VERTEX
  5
E6
330
E5
100
AcDbEntity
  8
_U+30EC_U+30A4_U+30E4_U+30FC 1
 62
   179
420
  2234388
370
     9
100
AcDbVertex
100
AcDb2dVertex
 10
104.3512406711114
 20
-122.8042021915211
 30
0.0
  0
VERTEX
  5
E7
330
E5
100
AcDbEntity
  8
_U+30EC_U+30A4_U+30E4_U+30FC 1
 62
   179
420
  2234388
370
     9
100
AcDbVertex
100
AcDb2dVertex
 10
104.3512406711114
 20
-135.8046277438268
 30
0.0
  0
SEQEND
  5
E8
330
E5
100
AcDbEntity
  8
_U+30EC_U+30A4_U+30E4_U+30FC 1
 62
   179
420
  2234388
370
     9
  0
POLYLINE
  5
E9
330
E1
100
AcDbEntity
  8
_U+30EC_U+30A4_U+30E4_U+30FC 1
 62
   179
420
  2234388
370
     9
100
AcDb2dPolyline
 66
     1
 10
0.0
 20
0.0
 30
0.0
  0
VERTEX
  5
EA
330
E9
100
AcDbEntity
  8
_U+30EC_U+30A4_U+30E4_U+30FC 1
 62
   179
420
  2234388
370
     9
100
AcDbVertex
100
AcDb2dVertex
 10
102.8919048750088
 20
-122.8042021915211
 30
0.0
  0
VERTEX
  5
EB
330
E9
100
AcDbEntity
  8
_U+30EC_U+30A4_U+30E4_U+30FC 1
 62
   179
420
  2234388
370
     9
100
AcDbVertex
100
AcDb2dVertex
 10
105.3517184233649
 20
-122.8042021915211
 30
0.0
  0
SEQEND
  5
EC
330
E9
100
AcDbEntity
  8
_U+30EC_U+30A4_U+30E4_U+30FC 1
 62
   179
420
  2234388
370
     9
  0
POLYLINE
  5
ED
330
E1
100
AcDbEntity
  8
_U+30EC_U+30A4_U+30E4_U+30FC 1
 62
   179
420
  2234388
370
     9
100
AcDb2dPolyline
 66
     1
 10
0.0
 20
0.0
 30
0.0
  0
VERTEX
  5
EE
330
ED
100
AcDbEntity
  8
_U+30EC_U+30A4_U+30E4_U+30FC 1
 62
   179
420
  2234388
370
     9
100
AcDbVertex
100
AcDb2dVertex
 10
97.89170333590792
 20
-135.8046277438268
 30
0.0
  0
VERTEX
  5
EF
330
ED
100
AcDbEntity
  8
_U+30EC_U+30A4_U+30E4_U+30FC 1
 62
   179
420
  2234388
370
     9
100
AcDbVertex
100
AcDb2dVertex
 10
105.3517184233649
 20
-135.8046277438268
 30
0.0
  0
SEQEND
  5
F0
330
ED
100
AcDbEntity
  8
_U+30EC_U+30A4_U+30E4_U+30FC 1
 62
   179
420
  2234388
370
     9
  0
INSERT
  5
F2
330
E1
100
AcDbEntity
  8
_U+30EC_U+30A4_U+30E4_U+30FC 1
100
AcDbBlockReference
  2
block 11
 10
0.0
 20
0.0
 30
0.0
  0
ENDBLK
  5
E4
330
E1
100
AcDbEntity
  8
0
100
AcDbBlockEnd
  0
BLOCK
  5
F3
330
F1
100
AcDbEntity
  8
0
100
AcDbBlockBegin
  2
block 11
 70
     0
 10
0.0
 20
0.0
 30
0.0
  3
block 11
  1

  0
SPLINE
  5
F5
330
F1
100
AcDbEntity
  8
_U+30EC_U+30A4_U+30E4_U+30FC 1
370
     0
100
AcDbSpline
210
0.0
220
0.0
230
1.0
 70
    11
 71
     3
 72
    26
 73
    22
 74
     0
 42
0.0000000001
 43
0.0000000001
 12
1.0
 22
0.0
 32
0.0
 13
1.0
 23
0.0
 33
0.0
 40
0.0
 40
0.0
 40
0.0
 40
0.0
 40
1.0
 40
1.0
 40
1.0
 40
2.0
 40
2.0
 40
2.0
 40
3.0
 40
3.0
 40
3.0
 40
4.0
 40
4.0
 40
4.0
 40
5.0
 40
5.0
 40
5.0
 40
6.0
 40
6.0
 40
6.0
 40
7.0
 40
7.0
 40
7.0
 40
7.0
 10
102.999742270257
 20
-129.9855197157675
 30
0.0
 10
102.999742270257
 20
-129.9855197157675
 30
0.0
 10
101.8955891672344
 20
-129.9855197157675
 30
0.0
 10
101.8955891672344
 20
-129.9855197157675
 30
0.0
 10
101.8955891672344
 20
-129.9855197157675
 30
0.0
 10
101.8955891672344
 20
-130.3379529839086
 30
0.0
 10
101.8955891672344
 20
-130.3379529839086
 30
0.0
 10
101.8955891672344
 20
-130.3379529839086
 30
0.0
 10
101.7474500613687
 20
-130.3379529839086
 30
0.0
 10
101.7474500613687
 20
-130.3379529839086
 30
0.0
 10
101.7326361507821
 20
-129.9831081489278
 30
0.0
 10
101.5696831343298
 20
-129.9334987739402
 30
0.0
 10
101.4553059642195
 20
-129.901803895476
 30
0.0
 10
101.4553059642195
 20
-129.901803895476
 30
0.0
 10
101.4553059642195
 20
-129.7457410699941
 30
0.0
 10
101.4553059642195
 20
-129.7457410699941
 30
0.0
 10
101.4553059642195
 20
-129.7457410699941
 30
0.0
 10
102.999742270257
 20
-129.7457410699941
 30
0.0
 10
102.999742270257
 20
-129.7457410699941
 30
0.0
 10
102.999742270257
 20
-129.7457410699941
 30
0.0
 10
102.999742270257
 20
-129.9855197157675
 30
0.0
 10
102.999742270257
 20
-129.9855197157675
 30
0.0
  0
HATCH
  5
F6
330
F1
100
AcDbEntity
  8
_U+30EC_U+30A4_U+30E4_U+30FC 1
 62
   179
420
  2234388
100
AcDbHatch
 10
0.0
 20
0.0
 30
0.0
210
0.0
220
0.0
230
1.0
  2
SOLID
 70
     1
 71
     0
 91
        1
 92
        1
 93
        1
 72
     4
 94
        3
 73
     0
 74
     1
 95
       26
 96
       22
 40
0.0
 40
0.0
 40
0.0
 40
0.0
 40
1.0
 40
1.0
 40
1.0
 40
2.0
 40
2.0
 40
2.0
 40
3.0
 40
3.0
 40
3.0
 40
4.0
 40
4.0
 40
4.0
 40
5.0
 40
5.0
 40
5.0
 40
6.0
 40
6.0
 40
6.0
 40
7.0
 40
7.0
 40
7.0
 40
7.0
 10
102.999742270257
 20
-129.9855197157675
 10
102.999742270257
 20
-129.9855197157675
 10
101.8955891672344
 20
-129.9855197157675
 10
101.8955891672344
 20
-129.9855197157675
 10
101.8955891672344
 20
-129.9855197157675
 10
101.8955891672344
 20
-130.3379529839086
 10
101.8955891672344
 20
-130.3379529839086
 10
101.8955891672344
 20
-130.3379529839086
 10
101.7474500613687
 20
-130.3379529839086
 10
101.7474500613687
 20
-130.3379529839086
 10
101.7326361507821
 20
-129.9831081489278
 10
101.5696831343298
 20
-129.9334987739402
 10
101.4553059642195
 20
-129.901803895476
 10
101.4553059642195
 20
-129.901803895476
 10
101.4553059642195
 20
-129.7457410699941
 10
101.4553059642195
 20
-129.7457410699941
 10
101.4553059642195
 20
-129.7457410699941
 10
102.999742270257
 20
-129.7457410699941
 10
102.999742270257
 20
-129.7457410699941
 10
102.999742270257
 20
-129.7457410699941
 10
102.999742270257
 20
-129.9855197157675
 10
102.999742270257
 20
-129.9855197157675
 97
        0
 97
        0
 75
     2
 76
     1
 98
        0
  0
SPLINE
  5
F7
330
F1
100
AcDbEntity
  8
_U+30EC_U+30A4_U+30E4_U+30FC 1
370
     0
100
AcDbSpline
210
0.0
220
0.0
230
1.0
 70
    11
 71
     3
 72
    62
 73
    58
 74
     0
 42
0.0000000001
 43
0.0000000001
 12
1.0
 22
0.0
 32
0.0
 13
1.0
 23
0.0
 33
0.0
 40
0.0
 40
0.0
 40
0.0
 40
0.0
 40
1.0
 40
1.0
 40
1.0
 40
2.0
 40
2.0
 40
2.0
 40
3.0
 40
3.0
 40
3.0
 40
4.0
 40
4.0
 40
4.0
 40
5.0
 40
5.0
 40
5.0
 40
6.0
 40
6.0
 40
6.0
 40
7.0
 40
7.0
 40
7.0
 40
8.0
 40
8.0
 40
8.0
 40
9.0
 40
9.0
 40
9.0
 40
10.0
 40
10.0
 40
10.0
 40
11.0
 40
11.0
 40
11.0
 40
12.0
 40
12.0
 40
12.0
 40
13.0
 40
13.0
 40
13.0
 40
14.0
 40
14.0
 40
14.0
 40
15.0
 40
15.0
 40
15.0
 40
16.0
 40
16.0
 40
16.0
 40
17.0
 40
17.0
 40
17.0
 40
18.0
 40
18.0
 40
18.0
 40
19.0
 40
19.0
 40
19.0
 40
19.0
 10
103.0503851738902
 20
-128.6846516605372
 30
0.0
 10
103.0503851738902
 20
-128.786281977352
 30
0.0
 10
103.0293700914302
 20
-129.0191704321549
 30
0.0
 10
102.8433349352267
 20
-129.1524956274341
 30
0.0
 10
102.7310248224075
 20
-129.2317328235949
 30
0.0
 10
102.6318060724323
 20
-129.2362114477257
 30
0.0
 10
102.5470567234952
 20
-129.2406900718565
 30
0.0
 10
102.5470567234952
 20
-129.2406900718565
 30
0.0
 10
102.5470567234952
 20
-129.0057345597625
 30
0.0
 10
102.5470567234952
 20
-129.0057345597625
 30
0.0
 10
102.6211262764281
 20
-129.0033229929228
 30
0.0
 10
102.8557372789736
 20
-128.9919541778215
 30
0.0
 10
102.8557372789736
 20
-128.689130284668
 30
0.0
 10
102.8557372789736
 20
-128.5420247074478
 30
0.0
 10
102.7861463501715
 20
-128.379416200544
 30
0.0
 10
102.5577365194995
 20
-128.379416200544
 30
0.0
 10
102.441292292098
 20
-128.379416200544
 30
0.0
 10
102.392716445756
 20
-128.42006832727
 30
0.0
 10
102.3610215672917
 20
-128.4538302630254
 30
0.0
 10
102.2869520143588
 20
-128.5330674591862
 30
0.0
 10
102.2742051610634
 20
-128.6574354062037
 30
0.0
 10
102.2742051610634
 20
-128.7163465390015
 30
0.0
 10
102.2742051610634
 20
-128.7366726023645
 30
0.0
 10
102.2762722183545
 20
-128.7749131622507
 30
0.0
 10
102.2804063329368
 20
-128.8045409834239
 30
0.0
 10
102.2804063329368
 20
-128.8045409834239
 30
0.0
 10
102.0857584380202
 20
-128.8045409834239
 30
0.0
 10
102.0857584380202
 20
-128.8045409834239
 30
0.0
 10
102.0923041194422
 20
-128.7638888566979
 30
0.0
 10
102.0943711767334
 20
-128.7184135962926
 30
0.0
 10
102.0943711767334
 20
-128.7118679148707
 30
0.0
 10
102.0943711767334
 20
-128.6415879669715
 30
0.0
 10
102.0730115847248
 20
-128.4290255755316
 30
0.0
 10
101.8363335248881
 20
-128.4290255755316
 30
0.0
 10
101.6585665978493
 20
-128.4290255755316
 30
0.0
 10
101.6034450700853
 20
-128.5692409617813
 30
0.0
 10
101.6034450700853
 20
-128.6867187178283
 30
0.0
 10
101.6034450700853
 20
-128.9695610571673
 30
0.0
 10
101.8363335248881
 20
-128.978518305429
 30
0.0
 10
101.9079915109813
 20
-128.9829969295598
 30
0.0
 10
101.9079915109813
 20
-128.9829969295598
 30
0.0
 10
101.9079915109813
 20
-129.2000379451306
 30
0.0
 10
101.9079915109813
 20
-129.2000379451306
 30
0.0
 10
101.7832790544153
 20
-129.1910806968689
 30
0.0
 10
101.4067301178775
 20
-129.1617973852443
 30
0.0
 10
101.4067301178775
 20
-128.6732828454359
 30
0.0
 10
101.4067301178775
 20
-128.4335041996625
 30
0.0
 10
101.5338541412832
 20
-128.1758110573658
 30
0.0
 10
101.8297878434662
 20
-128.1758110573658
 30
0.0
 10
102.0161675092182
 20
-128.1758110573658
 30
0.0
 10
102.0985052913157
 20
-128.2777858837292
 30
0.0
 10
102.1598279909531
 20
-128.3838948246749
 30
0.0
 10
102.1873887548351
 20
-128.3184380104551
 30
0.0
 10
102.2676594796414
 20
-128.1237901155385
 30
0.0
 10
102.544989666204
 20
-128.1237901155385
 30
0.0
 10
102.8832980428556
 20
-128.1237901155385
 30
0.0
 10
103.0503851738902
 20
-128.3883734488057
 30
0.0
 10
103.0503851738902
 20
-128.6846516605372
 30
0.0
  0
HATCH
  5
F8
330
F1
100
AcDbEntity
  8
_U+30EC_U+30A4_U+30E4_U+30FC 1
 62
   179
420
  2234388
100
AcDbHatch
 10
0.0
 20
0.0
 30
0.0
210
0.0
220
0.0
230
1.0
  2
SOLID
 70
     1
 71
     0
 91
        1
 92
        1
 93
        1
 72
     4
 94
        3
 73
     0
 74
     1
 95
       62
 96
       58
 40
0.0
 40
0.0
 40
0.0
 40
0.0
 40
1.0
 40
1.0
 40
1.0
 40
2.0
 40
2.0
 40
2.0
 40
3.0
 40
3.0
 40
3.0
 40
4.0
 40
4.0
 40
4.0
 40
5.0
 40
5.0
 40
5.0
 40
6.0
 40
6.0
 40
6.0
 40
7.0
 40
7.0
 40
7.0
 40
8.0
 40
8.0
 40
8.0
 40
9.0
 40
9.0
 40
9.0
 40
10.0
 40
10.0
 40
10.0
 40
11.0
 40
11.0
 40
11.0
 40
12.0
 40
12.0
 40
12.0
 40
13.0
 40
13.0
 40
13.0
 40
14.0
 40
14.0
 40
14.0
 40
15.0
 40
15.0
 40
15.0
 40
16.0
 40
16.0
 40
16.0
 40
17.0
 40
17.0
 40
17.0
 40
18.0
 40
18.0
 40
18.0
 40
19.0
 40
19.0
 40
19.0
 40
19.0
 10
103.0503851738902
 20
-128.6846516605372
 10
103.0503851738902
 20
-128.786281977352
 10
103.0293700914302
 20
-129.0191704321549
 10
102.8433349352267
 20
-129.1524956274341
 10
102.7310248224075
 20
-129.2317328235949
 10
102.6318060724323
 20
-129.2362114477257
 10
102.5470567234952
 20
-129.2406900718565
 10
102.5470567234952
 20
-129.2406900718565
 10
102.5470567234952
 20
-129.0057345597625
 10
102.5470567234952
 20
-129.0057345597625
 10
102.6211262764281
 20
-129.0033229929228
 10
102.8557372789736
 20
-128.9919541778215
 10
102.8557372789736
 20
-128.689130284668
 10
102.8557372789736
 20
-128.5420247074478
 10
102.7861463501715
 20
-128.379416200544
 10
102.5577365194995
 20
-128.379416200544
 10
102.441292292098
 20
-128.379416200544
 10
102.392716445756
 20
-128.42006832727
 10
102.3610215672917
 20
-128.4538302630254
 10
102.2869520143588
 20
-128.5330674591862
 10
102.2742051610634
 20
-128.6574354062037
 10
102.2742051610634
 20
-128.7163465390015
 10
102.2742051610634
 20
-128.7366726023645
 10
102.2762722183545
 20
-128.7749131622507
 10
102.2804063329368
 20
-128.8045409834239
 10
102.2804063329368
 20
-128.8045409834239
 10
102.0857584380202
 20
-128.8045409834239
 10
102.0857584380202
 20
-128.8045409834239
 10
102.0923041194422
 20
-128.7638888566979
 10
102.0943711767334
 20
-128.7184135962926
 10
102.0943711767334
 20
-128.7118679148707
 10
102.0943711767334
 20
-128.6415879669715
 10
102.0730115847248
 20
-128.4290255755316
 10
101.8363335248881
 20
-128.4290255755316
 10
101.6585665978493
 20
-128.4290255755316
 10
101.6034450700853
 20
-128.5692409617813
 10
101.6034450700853
 20
-128.6867187178283
 10
101.6034450700853
 20
-128.9695610571673
 10
101.8363335248881
 20
-128.978518305429
 10
101.9079915109813
 20
-128.9829969295598
 10
101.9079915109813
 20
-128.9829969295598
 10
101.9079915109813
 20
-129.2000379451306
 10
101.9079915109813
 20
-129.2000379451306
 10
101.7832790544153
 20
-129.1910806968689
 10
101.4067301178775
 20
-129.1617973852443
 10
101.4067301178775
 20
-128.6732828454359
 10
101.4067301178775
 20
-128.4335041996625
 10
101.5338541412832
 20
-128.1758110573658
 10
101.8297878434662
 20
-128.1758110573658
 10
102.0161675092182
 20
-128.1758110573658
 10
102.0985052913157
 20
-128.2777858837292
 10
102.1598279909531
 20
-128.3838948246749
 10
102.1873887548351
 20
-128.3184380104551
 10
102.2676594796414
 20
-128.1237901155385
 10
102.544989666204
 20
-128.1237901155385
 10
102.8832980428556
 20
-128.1237901155385
 10
103.0503851738902
 20
-128.3883734488057
 10
103.0503851738902
 20
-128.6846516605372
 97
        0
 97
        0
 75
     2
 76
     1
 98
        0
  0
ENDBLK
  5
F4
330
F1
100
AcDbEntity
  8
0
100
AcDbBlockEnd
  0
BLOCK
  5
10C
330
10A
100
AcDbEntity
  8
0
100
AcDbBlockBegin
  2
block 12
 70
     0
 10
0.0
 20
0.0
 30
0.0
  3
block 12
  1

  0
SPLINE
  5
10E
330
10A
100
AcDbEntity
  8
_U+30EC_U+30A4_U+30E4_U+30FC 1
370
     0
100
AcDbSpline
210
0.0
220
0.0
230
1.0
 70
    11
 71
     3
 72
   242
 73
   238
 74
     0
 42
0.0000000001
 43
0.0000000001
 12
1.0
 22
0.0
 32
0.0
 13
1.0
 23
0.0
 33
0.0
 40
0.0
 40
0.0
 40
0.0
 40
0.0
 40
1.0
 40
1.0
 40
1.0
 40
2.0
 40
2.0
 40
2.0
 40
3.0
 40
3.0
 40
3.0
 40
4.0
 40
4.0
 40
4.0
 40
5.0
 40
5.0
 40
5.0
 40
6.0
 40
6.0
 40
6.0
 40
7.0
 40
7.0
 40
7.0
 40
8.0
 40
8.0
 40
8.0
 40
9.0
 40
9.0
 40
9.0
 40
10.0
 40
10.0
 40
10.0
 40
11.0
 40
11.0
 40
11.0
 40
12.0
 40
12.0
 40
12.0
 40
13.0
 40
13.0
 40
13.0
 40
14.0
 40
14.0
 40
14.0
 40
15.0
 40
15.0
 40
15.0
 40
16.0
 40
16.0
 40
16.0
 40
17.0
 40
17.0
 40
17.0
 40
18.0
 40
18.0
 40
18.0
 40
19.0
 40
19.0
 40
19.0
 40
20.0
 40
20.0
 40
20.0
 40
21.0
 40
21.0
 40
21.0
 40
22.0
 40
22.0
 40
22.0
 40
23.0
 40
23.0
 40
23.0
 40
24.0
 40
24.0
 40
24.0
 40
25.0
 40
25.0
 40
25.0
 40
26.0
 40
26.0
 40
26.0
 40
27.0
 40
27.0
 40
27.0
 40
28.0
 40
28.0
 40
28.0
 40
29.0
 40
29.0
 40
29.0
 40
30.0
 40
30.0
 40
30.0
 40
31.0
 40
31.0
 40
31.0
 40
32.0
 40
32.0
 40
32.0
 40
33.0
 40
33.0
 40
33.0
 40
34.0
 40
34.0
 40
34.0
 40
35.0
 40
35.0
 40
35.0
 40
36.0
 40
36.0
 40
36.0
 40
37.0
 40
37.0
 40
37.0
 40
38.0
 40
38.0
 40
38.0
 40
39.0
 40
39.0
 40
39.0
 40
40.0
 40
40.0
 40
40.0
 40
41.0
 40
41.0
 40
41.0
 40
42.0
 40
42.0
 40
42.0
 40
43.0
 40
43.0
 40
43.0
 40
44.0
 40
44.0
 40
44.0
 40
45.0
 40
45.0
 40
45.0
 40
46.0
 40
46.0
 40
46.0
 40
47.0
 40
47.0
 40
47.0
 40
48.0
 40
48.0
 40
48.0
 40
49.0
 40
49.0
 40
49.0
 40
50.0
 40
50.0
 40
50.0
 40
51.0
 40
51.0
 40
51.0
 40
52.0
 40
52.0
 40
52.0
 40
53.0
 40
53.0
 40
53.0
 40
54.0
 40
54.0
 40
54.0
 40
55.0
 40
55.0
 40
55.0
 40
56.0
 40
56.0
 40
56.0
 40
57.0
 40
57.0
 40
57.0
 40
58.0
 40
58.0
 40
58.0
 40
59.0
 40
59.0
 40
59.0
 40
60.0
 40
60.0
 40
60.0
 40
61.0
 40
61.0
 40
61.0
 40
62.0
 40
62.0
 40
62.0
 40
63.0
 40
63.0
 40
63.0
 40
64.0
 40
64.0
 40
64.0
 40
65.0
 40
65.0
 40
65.0
 40
66.0
 40
66.0
 40
66.0
 40
67.0
 40
67.0
 40
67.0
 40
68.0
 40
68.0
 40
68.0
 40
69.0
 40
69.0
 40
69.0
 40
70.0
 40
70.0
 40
70.0
 40
71.0
 40
71.0
 40
71.0
 40
72.0
 40
72.0
 40
72.0
 40
73.0
 40
73.0
 40
73.0
 40
74.0
 40
74.0
 40
74.0
 40
75.0
 40
75.0
 40
75.0
 40
76.0
 40
76.0
 40
76.0
 40
77.0
 40
77.0
 40
77.0
 40
78.0
 40
78.0
 40
78.0
 40
79.0
 40
79.0
 40
79.0
 40
79.0
 10
78.66496580064626
 20
-138.4129122917857
 30
0.0
 10
78.66496580064626
 20
-138.4129122917857
 30
0.0
 10
78.41106226338334
 20
-138.4129122917857
 30
0.0
 10
78.41106226338334
 20
-138.4129122917857
 30
0.0
 10
78.41106226338334
 20
-138.4129122917857
 30
0.0
 10
78.13407658636926
 20
-138.4129122917857
 30
0.0
 10
78.13407658636926
 20
-138.4129122917857
 30
0.0
 10
78.13407658636926
 20
-138.4129122917857
 30
0.0
 10
78.26085610022646
 20
-138.4549424567057
 30
0.0
 10
78.26085610022646
 20
-138.4549424567057
 30
0.0
 10
78.27153589623073
 20
-138.4594210808365
 30
0.0
 10
78.28428274952616
 20
-138.46562225271
 30
0.0
 10
78.28428274952616
 20
-138.4783691060054
 30
0.0
 10
78.28428274952616
 20
-138.499728698014
 30
0.0
 10
78.25224336151334
 20
-138.5059298698874
 30
0.0
 10
78.23122827905331
 20
-138.5100639844697
 30
0.0
 10
78.22054848304903
 20
-138.5334906337694
 30
0.0
 10
78.19092066187588
 20
-138.5989474479892
 30
0.0
 10
78.17197263670701
 20
-138.6433891797489
 30
0.0
 10
78.17197263670701
 20
-138.6433891797489
 30
0.0
 10
78.44275714184765
 20
-138.6433891797489
 30
0.0
 10
78.44275714184765
 20
-138.6433891797489
 30
0.0
 10
78.53370766265824
 20
-138.6433891797489
 30
0.0
 10
78.73042261486601
 20
-138.6389105556181
 30
0.0
 10
78.8723605488583
 20
-138.6306423264535
 30
0.0
 10
78.8723605488583
 20
-138.6306423264535
 30
0.0
 10
78.8723605488583
 20
-138.8084092534924
 30
0.0
 10
78.8723605488583
 20
-138.8084092534924
 30
0.0
 10
78.7896782572123
 20
-138.80427513891
 30
0.0
 10
78.76866317475228
 20
-138.80427513891
 30
0.0
 10
78.58882919042225
 20
-138.8001410243278
 30
0.0
 10
78.55713431195794
 20
-138.9544813020669
 30
0.0
 10
78.51269258019822
 20
-139.0347520268733
 30
0.0
 10
78.4682508484385
 20
-139.1046874652238
 30
0.0
 10
78.58882919042225
 20
-139.1639431075701
 30
0.0
 10
78.69459362181941
 20
-139.231466979081
 30
0.0
 10
78.79829099592543
 20
-139.314149270727
 30
0.0
 10
78.79829099592543
 20
-139.314149270727
 30
0.0
 10
78.67977971123284
 20
-139.4808918922131
 30
0.0
 10
78.67977971123284
 20
-139.4808918922131
 30
0.0
 10
78.65635306193313
 20
-139.4622883765928
 30
0.0
 10
78.6436062086377
 20
-139.4536756378797
 30
0.0
 10
78.53164060536709
 20
-139.3689262889425
 30
0.0
 10
78.48306475902507
 20
-139.3306857290562
 30
0.0
 10
78.42380911667877
 20
-139.2948567360096
 30
0.0
 10
78.34319388232393
 20
-139.2507595137984
 30
0.0
 10
78.13166501952959
 20
-139.4367946700019
 30
0.0
 10
77.92668183815722
 20
-139.4602213193016
 30
0.0
 10
77.63660479829919
 20
-139.4898491404748
 30
0.0
 10
77.63660479829919
 20
-139.4898491404748
 30
0.0
 10
77.5332519337417
 20
-139.3100151561447
 30
0.0
 10
77.5332519337417
 20
-139.3100151561447
 30
0.0
 10
77.8505452279332
 20
-139.3055365320139
 30
0.0
 10
78.02590058813242
 20
-139.2803873349716
 30
0.0
 10
78.17817380858045
 20
-139.1701442794436
 30
0.0
 10
78.06000703343639
 20
-139.1191568662619
 30
0.0
 10
77.97112356991694
 20
-139.0919406119284
 30
0.0
 10
77.93495006732182
 20
-139.079193758633
 30
0.0
 10
77.91600204215295
 20
-139.106754522515
 30
0.0
 10
77.90118813156637
 20
-139.1257025476839
 30
0.0
 10
77.87362736768438
 20
-139.1598089929878
 30
0.0
 10
77.87362736768438
 20
-139.1598089929878
 30
0.0
 10
77.67691241547661
 20
-139.0771267013418
 30
0.0
 10
77.67691241547661
 20
-139.0771267013418
 30
0.0
 10
77.7595947071226
 20
-138.996511466987
 30
0.0
 10
77.82091740676005
 20
-138.9014268315941
 30
0.0
 10
77.87776148226668
 20
-138.8001410243278
 30
0.0
 10
77.68759221148089
 20
-138.80427513891
 30
0.0
 10
77.66623261947234
 20
-138.80427513891
 30
0.0
 10
77.58389483737486
 20
-138.8084092534924
 30
0.0
 10
77.58389483737486
 20
-138.8084092534924
 30
0.0
 10
77.58389483737486
 20
-138.6306423264535
 30
0.0
 10
77.58389483737486
 20
-138.6306423264535
 30
0.0
 10
77.72342120452748
 20
-138.6368434983269
 30
0.0
 10
77.93288301003066
 20
-138.6413221224577
 30
0.0
 10
77.95837671662152
 20
-138.6413221224577
 30
0.0
 10
77.97525768449924
 20
-138.6072156771538
 30
0.0
 10
78.03037921226324
 20
-138.48663733517
 30
0.0
 10
78.04932723743211
 20
-138.4129122917857
 30
0.0
 10
78.03037921226324
 20
-138.4129122917857
 30
0.0
 10
77.85261228522435
 20
-138.4191134636591
 30
0.0
 10
77.65796439030774
 20
-138.4318603169546
 30
0.0
 10
77.65796439030774
 20
-138.4318603169546
 30
0.0
 10
77.65796439030774
 20
-138.5651855122337
 30
0.0
 10
77.65796439030774
 20
-138.5651855122337
 30
0.0
 10
77.60938854396571
 20
-138.5906792188246
 30
0.0
 10
77.55013290161942
 20
-138.6223740972889
 30
0.0
 10
77.41680770634025
 20
-138.6878309115086
 30
0.0
 10
77.41680770634025
 20
-138.6878309115086
 30
0.0
 10
77.41680770634025
 20
-138.8339029600832
 30
0.0
 10
77.41680770634025
 20
-138.8339029600832
 30
0.0
 10
77.41680770634025
 20
-138.8339029600832
 30
0.0
 10
77.41680770634025
 20
-139.3014024174316
 30
0.0
 10
77.41680770634025
 20
-139.3014024174316
 30
0.0
 10
77.41680770634025
 20
-139.4281819312888
 30
0.0
 10
77.38063420374512
 20
-139.4874375736351
 30
0.0
 10
77.0974473548576
 20
-139.478824834922
 30
0.0
 10
77.0974473548576
 20
-139.478824834922
 30
0.0
 10
76.99374998075156
 20
-139.2717745962584
 30
0.0
 10
76.99374998075156
 20
-139.2717745962584
 30
0.0
 10
77.05713973768016
 20
-139.2845214495539
 30
0.0
 10
77.10571558402219
 20
-139.2886555641362
 30
0.0
 10
77.14602320119961
 20
-139.2886555641362
 30
0.0
 10
77.22215981142364
 20
-139.2886555641362
 30
0.0
 10
77.2328396074279
 20
-139.2652289148365
 30
0.0
 10
77.2328396074279
 20
-139.1997721006167
 30
0.0
 10
77.2328396074279
 20
-139.1997721006167
 30
0.0
 10
77.2328396074279
 20
-138.7705132031546
 30
0.0
 10
77.2328396074279
 20
-138.7705132031546
 30
0.0
 10
77.13534340519533
 20
-138.8104763107835
 30
0.0
 10
77.1184624373176
 20
-138.816677482657
 30
0.0
 10
77.07195364826674
 20
-138.8359700173743
 30
0.0
 10
77.06781953368444
 20
-138.8569850998344
 30
0.0
 10
77.06334090955362
 20
-138.8866129210075
 30
0.0
 10
77.04439288438473
 20
-138.8866129210075
 30
0.0
 10
77.03612465522014
 20
-138.8866129210075
 30
0.0
 10
77.02544485921587
 20
-138.8824788064252
 30
0.0
 10
77.01889917779388
 20
-138.8593966666741
 30
0.0
 10
77.01889917779388
 20
-138.8593966666741
 30
0.0
 10
76.96618921686957
 20
-138.6664713195001
 30
0.0
 10
76.96618921686957
 20
-138.6664713195001
 30
0.0
 10
77.11226126544416
 20
-138.6203070399977
 30
0.0
 10
77.1777180796639
 20
-138.596880390698
 30
0.0
 10
77.2328396074279
 20
-138.5755207986895
 30
0.0
 10
77.2328396074279
 20
-138.5755207986895
 30
0.0
 10
77.2328396074279
 20
-138.1631428691051
 30
0.0
 10
77.2328396074279
 20
-138.1631428691051
 30
0.0
 10
77.2328396074279
 20
-138.1631428691051
 30
0.0
 10
77.17978513695506
 20
-138.1631428691051
 30
0.0
 10
77.17978513695506
 20
-138.1631428691051
 30
0.0
 10
77.17978513695506
 20
-138.1631428691051
 30
0.0
 10
77.10158146943989
 20
-138.1631428691051
 30
0.0
 10
77.10158146943989
 20
-138.1631428691051
 30
0.0
 10
77.03371308838047
 20
-138.1631428691051
 30
0.0
 10
77.02544485921587
 20
-138.1631428691051
 30
0.0
 10
76.98927135662075
 20
-138.169688550527
 30
0.0
 10
76.98927135662075
 20
-138.169688550527
 30
0.0
 10
76.98927135662075
 20
-137.9746961460619
 30
0.0
 10
76.98927135662075
 20
-137.9746961460619
 30
0.0
 10
77.01683212050274
 20
-137.9812418274839
 30
0.0
 10
77.02544485921587
 20
-137.9812418274839
 30
0.0
 10
77.09503578801791
 20
-137.9812418274839
 30
0.0
 10
77.09503578801791
 20
-137.9812418274839
 30
0.0
 10
77.22836098329708
 20
-137.9812418274839
 30
0.0
 10
77.22836098329708
 20
-137.9812418274839
 30
0.0
 10
77.22836098329708
 20
-137.9113063891333
 30
0.0
 10
77.22836098329708
 20
-137.8289686070358
 30
0.0
 10
77.22629392600594
 20
-137.824489982905
 30
0.0
 10
77.21802569684134
 20
-137.644655998575
 30
0.0
 10
77.21802569684134
 20
-137.6260524829546
 30
0.0
 10
77.21561413000165
 20
-137.5791991843552
 30
0.0
 10
77.21561413000165
 20
-137.5791991843552
 30
0.0
 10
77.43162161692682
 20
-137.5878119230683
 30
0.0
 10
77.43162161692682
 20
-137.5878119230683
 30
0.0
 10
77.4423014129311
 20
-137.5878119230683
 30
0.0
 10
77.46331649539111
 20
-137.5898789803595
 30
0.0
 10
77.46331649539111
 20
-137.6067599482372
 30
0.0
 10
77.46331649539111
 20
-137.6260524829546
 30
0.0
 10
77.44850258480454
 20
-137.6363877694104
 30
0.0
 10
77.4230088782137
 20
-137.6556803041277
 30
0.0
 10
77.4230088782137
 20
-137.7059786982124
 30
0.0
 10
77.41680770634025
 20
-137.934733038433
 30
0.0
 10
77.4188747636314
 20
-137.9812418274839
 30
0.0
 10
77.54806584432826
 20
-137.9812418274839
 30
0.0
 10
77.56046818807516
 20
-137.9812418274839
 30
0.0
 10
77.65796439030774
 20
-137.9726290887707
 30
0.0
 10
77.65796439030774
 20
-137.9726290887707
 30
0.0
 10
77.65796439030774
 20
-138.1676214932359
 30
0.0
 10
77.65796439030774
 20
-138.1676214932359
 30
0.0
 10
77.61972383042146
 20
-138.1652099263962
 30
0.0
 10
77.55219995891056
 20
-138.1610758118139
 30
0.0
 10
77.41680770634025
 20
-138.1631428691051
 30
0.0
 10
77.41680770634025
 20
-138.1631428691051
 30
0.0
 10
77.41680770634025
 20
-138.5017957553051
 30
0.0
 10
77.41680770634025
 20
-138.5017957553051
 30
0.0
 10
77.47192923410424
 20
-138.4783691060054
 30
0.0
 10
77.537386048324
 20
-138.4508083421234
 30
0.0
 10
77.58596189466601
 20
-138.4273816928237
 30
0.0
 10
77.58596189466601
 20
-138.4273816928237
 30
0.0
 10
77.58596189466601
 20
-138.2499592753333
 30
0.0
 10
77.58596189466601
 20
-138.2499592753333
 30
0.0
 10
77.7003390647763
 20
-138.2627061286288
 30
0.0
 10
77.8188503494689
 20
-138.2627061286288
 30
0.0
 10
77.93495006732182
 20
-138.2627061286288
 30
0.0
 10
77.91186792757065
 20
-138.1676214932359
 30
0.0
 10
77.88430716368865
 20
-138.0849392015899
 30
0.0
 10
77.82091740676005
 20
-137.9516140063107
 30
0.0
 10
77.77647567500033
 20
-137.9536810636019
 30
0.0
 10
77.69379338335433
 20
-137.9581596877327
 30
0.0
 10
77.65589733301658
 20
-137.9602267450238
 30
0.0
 10
77.65589733301658
 20
-137.9602267450238
 30
0.0
 10
77.65589733301658
 20
-137.7803927606938
 30
0.0
 10
77.65589733301658
 20
-137.7803927606938
 30
0.0
 10
77.78060978958263
 20
-137.7886609898584
 30
0.0
 10
77.95424260203922
 20
-137.7927951044407
 30
0.0
 10
78.0365803841367
 20
-137.7927951044407
 30
0.0
 10
78.0365803841367
 20
-137.7927951044407
 30
0.0
 10
78.1192626757827
 20
-137.7927951044407
 30
0.0
 10
78.1192626757827
 20
-137.7927951044407
 30
0.0
 10
78.1192626757827
 20
-137.6301865975369
 30
0.0
 10
78.1192626757827
 20
-137.6195068015326
 30
0.0
 10
78.11685110894301
 20
-137.5647297833171
 30
0.0
 10
78.11685110894301
 20
-137.5647297833171
 30
0.0
 10
78.34112682503277
 20
-137.5898789803595
 30
0.0
 10
78.34112682503277
 20
-137.5898789803595
 30
0.0
 10
78.3456054491636
 20
-137.5898789803595
 30
0.0
 10
78.36662053162362
 20
-137.5919460376506
 30
0.0
 10
78.36662053162362
 20
-137.6088270055284
 30
0.0
 10
78.36662053162362
 20
-137.6236409161149
 30
0.0
 10
78.35594073561936
 20
-137.632253654828
 30
0.0
 10
78.32837997173735
 20
-137.6470675654146
 30
0.0
 10
78.3221787998639
 20
-137.7125243796344
 30
0.0
 10
78.32011174257275
 20
-137.7335394620944
 30
0.0
 10
78.32011174257275
 20
-137.7927951044407
 30
0.0
 10
78.32011174257275
 20
-137.7927951044407
 30
0.0
 10
78.41519637796564
 20
-137.7927951044407
 30
0.0
 10
78.41519637796564
 20
-137.7927951044407
 30
0.0
 10
78.49787866961165
 20
-137.7927951044407
 30
0.0
 10
78.67116697251971
 20
-137.7886609898584
 30
0.0
 10
78.79622393863428
 20
-137.7803927606938
 30
0.0
 10
78.79622393863428
 20
-137.7803927606938
 30
0.0
 10
78.79622393863428
 20
-137.9602267450238
 30
0.0
 10
78.79622393863428
 20
-137.9602267450238
 30
0.0
 10
78.76659611746113
 20
-137.9581596877327
 30
0.0
 10
78.64808483276853
 20
-137.9536810636019
 30
0.0
 10
78.60777721559111
 20
-137.9516140063107
 30
0.0
 10
78.59296330500455
 20
-138.0022569099439
 30
0.0
 10
78.5592013692491
 20
-138.114567022763
 30
0.0
 10
78.49340004548083
 20
-138.2540933899157
 30
0.0
 10
78.53577471994939
 20
-138.2540933899157
 30
0.0
 10
78.81310490651201
 20
-138.2351453647468
 30
0.0
 10
78.87442760614945
 20
-138.2330783074556
 30
0.0
 10
78.87442760614945
 20
-138.2330783074556
 30
0.0
 10
78.87442760614945
 20
-138.417046406368
 30
0.0
 10
78.87442760614945
 20
-138.417046406368
 30
0.0
 10
78.8447997849763
 20
-138.417046406368
 30
0.0
 10
78.82791881709858
 20
-138.4129122917857
 30
0.0
 10
78.66496580064626
 20
-138.4129122917857
 30
0.0
  0
SPLINE
  5
10F
330
10A
100
AcDbEntity
  8
_U+30EC_U+30A4_U+30E4_U+30FC 1
370
     0
100
AcDbSpline
210
0.0
220
0.0
230
1.0
 70
    11
 71
     3
 72
    20
 73
    16
 74
     0
 42
0.0000000001
 43
0.0000000001
 12
1.0
 22
0.0
 32
0.0
 13
1.0
 23
0.0
 33
0.0
 40
0.0
 40
0.0
 40
0.0
 40
0.0
 40
1.0
 40
1.0
 40
1.0
 40
2.0
 40
2.0
 40
2.0
 40
3.0
 40
3.0
 40
3.0
 40
4.0
 40
4.0
 40
4.0
 40
5.0
 40
5.0
 40
5.0
 40
5.0
 10
78.0365803841367
 20
-137.9474798917284
 30
0.0
 10
78.0365803841367
 20
-137.9474798917284
 30
0.0
 10
78.00488550567239
 20
-137.9474798917284
 30
0.0
 10
78.00488550567239
 20
-137.9474798917284
 30
0.0
 10
78.05139429472327
 20
-138.0470431512521
 30
0.0
 10
78.08308917318756
 20
-138.1269693665099
 30
0.0
 10
78.11685110894301
 20
-138.2540933899157
 30
0.0
 10
78.11685110894301
 20
-138.2540933899157
 30
0.0
 10
78.32424585715505
 20
-138.2540933899157
 30
0.0
 10
78.32424585715505
 20
-138.2540933899157
 30
0.0
 10
78.35594073561936
 20
-138.1610758118139
 30
0.0
 10
78.37936738491905
 20
-138.0766709724253
 30
0.0
 10
78.40244952467023
 20
-137.9474798917284
 30
0.0
 10
78.40244952467023
 20
-137.9474798917284
 30
0.0
 10
78.0365803841367
 20
-137.9474798917284
 30
0.0
 10
78.0365803841367
 20
-137.9474798917284
 30
0.0
  0
SPLINE
  5
110
330
10A
100
AcDbEntity
  8
_U+30EC_U+30A4_U+30E4_U+30FC 1
370
     0
100
AcDbSpline
210
0.0
220
0.0
230
1.0
 70
    11
 71
     3
 72
    17
 73
    13
 74
     0
 42
0.0000000001
 43
0.0000000001
 12
1.0
 22
0.0
 32
0.0
 13
1.0
 23
0.0
 33
0.0
 40
0.0
 40
0.0
 40
0.0
 40
0.0
 40
1.0
 40
1.0
 40
1.0
 40
2.0
 40
2.0
 40
2.0
 40
3.0
 40
3.0
 40
3.0
 40
4.0
 40
4.0
 40
4.0
 40
4.0
 10
78.09997014106528
 20
-138.7980739670366
 30
0.0
 10
78.08308917318756
 20
-138.8273572786612
 30
0.0
 10
78.0324462695544
 20
-138.9207193663115
 30
0.0
 10
78.02176647355012
 20
-138.9393228819318
 30
0.0
 10
78.21228025388443
 20
-138.9985785242781
 30
0.0
 10
78.23329533634445
 20
-139.0051242057001
 30
0.0
 10
78.30529783198618
 20
-139.0326849695821
 30
0.0
 10
78.36041935975018
 20
-138.9458685633538
 30
0.0
 10
78.38350149950135
 20
-138.8717990104209
 30
0.0
 10
78.39831541008793
 20
-138.7980739670366
 30
0.0
 10
78.39831541008793
 20
-138.7980739670366
 30
0.0
 10
78.09997014106528
 20
-138.7980739670366
 30
0.0
 10
78.09997014106528
 20
-138.7980739670366
 30
0.0
  0
HATCH
  5
111
330
10A
100
AcDbEntity
  8
_U+30EC_U+30A4_U+30E4_U+30FC 1
 62
   179
420
  2234388
100
AcDbHatch
 10
0.0
 20
0.0
 30
0.0
210
0.0
220
0.0
230
1.0
  2
SOLID
 70
     1
 71
     0
 91
        3
 92
        1
 93
        1
 72
     4
 94
        3
 73
     0
 74
     1
 95
      242
 96
      238
 40
0.0
 40
0.0
 40
0.0
 40
0.0
 40
1.0
 40
1.0
 40
1.0
 40
2.0
 40
2.0
 40
2.0
 40
3.0
 40
3.0
 40
3.0
 40
4.0
 40
4.0
 40
4.0
 40
5.0
 40
5.0
 40
5.0
 40
6.0
 40
6.0
 40
6.0
 40
7.0
 40
7.0
 40
7.0
 40
8.0
 40
8.0
 40
8.0
 40
9.0
 40
9.0
 40
9.0
 40
10.0
 40
10.0
 40
10.0
 40
11.0
 40
11.0
 40
11.0
 40
12.0
 40
12.0
 40
12.0
 40
13.0
 40
13.0
 40
13.0
 40
14.0
 40
14.0
 40
14.0
 40
15.0
 40
15.0
 40
15.0
 40
16.0
 40
16.0
 40
16.0
 40
17.0
 40
17.0
 40
17.0
 40
18.0
 40
18.0
 40
18.0
 40
19.0
 40
19.0
 40
19.0
 40
20.0
 40
20.0
 40
20.0
 40
21.0
 40
21.0
 40
21.0
 40
22.0
 40
22.0
 40
22.0
 40
23.0
 40
23.0
 40
23.0
 40
24.0
 40
24.0
 40
24.0
 40
25.0
 40
25.0
 40
25.0
 40
26.0
 40
26.0
 40
26.0
 40
27.0
 40
27.0
 40
27.0
 40
28.0
 40
28.0
 40
28.0
 40
29.0
 40
29.0
 40
29.0
 40
30.0
 40
30.0
 40
30.0
 40
31.0
 40
31.0
 40
31.0
 40
32.0
 40
32.0
 40
32.0
 40
33.0
 40
33.0
 40
33.0
 40
34.0
 40
34.0
 40
34.0
 40
35.0
 40
35.0
 40
35.0
 40
36.0
 40
36.0
 40
36.0
 40
37.0
 40
37.0
 40
37.0
 40
38.0
 40
38.0
 40
38.0
 40
39.0
 40
39.0
 40
39.0
 40
40.0
 40
40.0
 40
40.0
 40
41.0
 40
41.0
 40
41.0
 40
42.0
 40
42.0
 40
42.0
 40
43.0
 40
43.0
 40
43.0
 40
44.0
 40
44.0
 40
44.0
 40
45.0
 40
45.0
 40
45.0
 40
46.0
 40
46.0
 40
46.0
 40
47.0
 40
47.0
 40
47.0
 40
48.0
 40
48.0
 40
48.0
 40
49.0
 40
49.0
 40
49.0
 40
50.0
 40
50.0
 40
50.0
 40
51.0
 40
51.0
 40
51.0
 40
52.0
 40
52.0
 40
52.0
 40
53.0
 40
53.0
 40
53.0
 40
54.0
 40
54.0
 40
54.0
 40
55.0
 40
55.0
 40
55.0
 40
56.0
 40
56.0
 40
56.0
 40
57.0
 40
57.0
 40
57.0
 40
58.0
 40
58.0
 40
58.0
 40
59.0
 40
59.0
 40
59.0
 40
60.0
 40
60.0
 40
60.0
 40
61.0
 40
61.0
 40
61.0
 40
62.0
 40
62.0
 40
62.0
 40
63.0
 40
63.0
 40
63.0
 40
64.0
 40
64.0
 40
64.0
 40
65.0
 40
65.0
 40
65.0
 40
66.0
 40
66.0
 40
66.0
 40
67.0
 40
67.0
 40
67.0
 40
68.0
 40
68.0
 40
68.0
 40
69.0
 40
69.0
 40
69.0
 40
70.0
 40
70.0
 40
70.0
 40
71.0
 40
71.0
 40
71.0
 40
72.0
 40
72.0
 40
72.0
 40
73.0
 40
73.0
 40
73.0
 40
74.0
 40
74.0
 40
74.0
 40
75.0
 40
75.0
 40
75.0
 40
76.0
 40
76.0
 40
76.0
 40
77.0
 40
77.0
 40
77.0
 40
78.0
 40
78.0
 40
78.0
 40
79.0
 40
79.0
 40
79.0
 40
79.0
 10
78.66496580064626
 20
-138.4129122917857
 10
78.66496580064626
 20
-138.4129122917857
 10
78.41106226338334
 20
-138.4129122917857
 10
78.41106226338334
 20
-138.4129122917857
 10
78.41106226338334
 20
-138.4129122917857
 10
78.13407658636926
 20
-138.4129122917857
 10
78.13407658636926
 20
-138.4129122917857
 10
78.13407658636926
 20
-138.4129122917857
 10
78.26085610022646
 20
-138.4549424567057
 10
78.26085610022646
 20
-138.4549424567057
 10
78.27153589623073
 20
-138.4594210808365
 10
78.28428274952616
 20
-138.46562225271
 10
78.28428274952616
 20
-138.4783691060054
 10
78.28428274952616
 20
-138.499728698014
 10
78.25224336151334
 20
-138.5059298698874
 10
78.23122827905331
 20
-138.5100639844697
 10
78.22054848304903
 20
-138.5334906337694
 10
78.19092066187588
 20
-138.5989474479892
 10
78.17197263670701
 20
-138.6433891797489
 10
78.17197263670701
 20
-138.6433891797489
 10
78.44275714184765
 20
-138.6433891797489
 10
78.44275714184765
 20
-138.6433891797489
 10
78.53370766265824
 20
-138.6433891797489
 10
78.73042261486601
 20
-138.6389105556181
 10
78.8723605488583
 20
-138.6306423264535
 10
78.8723605488583
 20
-138.6306423264535
 10
78.8723605488583
 20
-138.8084092534924
 10
78.8723605488583
 20
-138.8084092534924
 10
78.7896782572123
 20
-138.80427513891
 10
78.76866317475228
 20
-138.80427513891
 10
78.58882919042225
 20
-138.8001410243278
 10
78.55713431195794
 20
-138.9544813020669
 10
78.51269258019822
 20
-139.0347520268733
 10
78.4682508484385
 20
-139.1046874652238
 10
78.58882919042225
 20
-139.1639431075701
 10
78.69459362181941
 20
-139.231466979081
 10
78.79829099592543
 20
-139.314149270727
 10
78.79829099592543
 20
-139.314149270727
 10
78.67977971123284
 20
-139.4808918922131
 10
78.67977971123284
 20
-139.4808918922131
 10
78.65635306193313
 20
-139.4622883765928
 10
78.6436062086377
 20
-139.4536756378797
 10
78.53164060536709
 20
-139.3689262889425
 10
78.48306475902507
 20
-139.3306857290562
 10
78.42380911667877
 20
-139.2948567360096
 10
78.34319388232393
 20
-139.2507595137984
 10
78.13166501952959
 20
-139.4367946700019
 10
77.92668183815722
 20
-139.4602213193016
 10
77.63660479829919
 20
-139.4898491404748
 10
77.63660479829919
 20
-139.4898491404748
 10
77.5332519337417
 20
-139.3100151561447
 10
77.5332519337417
 20
-139.3100151561447
 10
77.8505452279332
 20
-139.3055365320139
 10
78.02590058813242
 20
-139.2803873349716
 10
78.17817380858045
 20
-139.1701442794436
 10
78.06000703343639
 20
-139.1191568662619
 10
77.97112356991694
 20
-139.0919406119284
 10
77.93495006732182
 20
-139.079193758633
 10
77.91600204215295
 20
-139.106754522515
 10
77.90118813156637
 20
-139.1257025476839
 10
77.87362736768438
 20
-139.1598089929878
 10
77.87362736768438
 20
-139.1598089929878
 10
77.67691241547661
 20
-139.0771267013418
 10
77.67691241547661
 20
-139.0771267013418
 10
77.7595947071226
 20
-138.996511466987
 10
77.82091740676005
 20
-138.9014268315941
 10
77.87776148226668
 20
-138.8001410243278
 10
77.68759221148089
 20
-138.80427513891
 10
77.66623261947234
 20
-138.80427513891
 10
77.58389483737486
 20
-138.8084092534924
 10
77.58389483737486
 20
-138.8084092534924
 10
77.58389483737486
 20
-138.6306423264535
 10
77.58389483737486
 20
-138.6306423264535
 10
77.72342120452748
 20
-138.6368434983269
 10
77.93288301003066
 20
-138.6413221224577
 10
77.95837671662152
 20
-138.6413221224577
 10
77.97525768449924
 20
-138.6072156771538
 10
78.03037921226324
 20
-138.48663733517
 10
78.04932723743211
 20
-138.4129122917857
 10
78.03037921226324
 20
-138.4129122917857
 10
77.85261228522435
 20
-138.4191134636591
 10
77.65796439030774
 20
-138.4318603169546
 10
77.65796439030774
 20
-138.4318603169546
 10
77.65796439030774
 20
-138.5651855122337
 10
77.65796439030774
 20
-138.5651855122337
 10
77.60938854396571
 20
-138.5906792188246
 10
77.55013290161942
 20
-138.6223740972889
 10
77.41680770634025
 20
-138.6878309115086
 10
77.41680770634025
 20
-138.6878309115086
 10
77.41680770634025
 20
-138.8339029600832
 10
77.41680770634025
 20
-138.8339029600832
 10
77.41680770634025
 20
-138.8339029600832
 10
77.41680770634025
 20
-139.3014024174316
 10
77.41680770634025
 20
-139.3014024174316
 10
77.41680770634025
 20
-139.4281819312888
 10
77.38063420374512
 20
-139.4874375736351
 10
77.0974473548576
 20
-139.478824834922
 10
77.0974473548576
 20
-139.478824834922
 10
76.99374998075156
 20
-139.2717745962584
 10
76.99374998075156
 20
-139.2717745962584
 10
77.05713973768016
 20
-139.2845214495539
 10
77.10571558402219
 20
-139.2886555641362
 10
77.14602320119961
 20
-139.2886555641362
 10
77.22215981142364
 20
-139.2886555641362
 10
77.2328396074279
 20
-139.2652289148365
 10
77.2328396074279
 20
-139.1997721006167
 10
77.2328396074279
 20
-139.1997721006167
 10
77.2328396074279
 20
-138.7705132031546
 10
77.2328396074279
 20
-138.7705132031546
 10
77.13534340519533
 20
-138.8104763107835
 10
77.1184624373176
 20
-138.816677482657
 10
77.07195364826674
 20
-138.8359700173743
 10
77.06781953368444
 20
-138.8569850998344
 10
77.06334090955362
 20
-138.8866129210075
 10
77.04439288438473
 20
-138.8866129210075
 10
77.03612465522014
 20
-138.8866129210075
 10
77.02544485921587
 20
-138.8824788064252
 10
77.01889917779388
 20
-138.8593966666741
 10
77.01889917779388
 20
-138.8593966666741
 10
76.96618921686957
 20
-138.6664713195001
 10
76.96618921686957
 20
-138.6664713195001
 10
77.11226126544416
 20
-138.6203070399977
 10
77.1777180796639
 20
-138.596880390698
 10
77.2328396074279
 20
-138.5755207986895
 10
77.2328396074279
 20
-138.5755207986895
 10
77.2328396074279
 20
-138.1631428691051
 10
77.2328396074279
 20
-138.1631428691051
 10
77.2328396074279
 20
-138.1631428691051
 10
77.17978513695506
 20
-138.1631428691051
 10
77.17978513695506
 20
-138.1631428691051
 10
77.17978513695506
 20
-138.1631428691051
 10
77.10158146943989
 20
-138.1631428691051
 10
77.10158146943989
 20
-138.1631428691051
 10
77.03371308838047
 20
-138.1631428691051
 10
77.02544485921587
 20
-138.1631428691051
 10
76.98927135662075
 20
-138.169688550527
 10
76.98927135662075
 20
-138.169688550527
 10
76.98927135662075
 20
-137.9746961460619
 10
76.98927135662075
 20
-137.9746961460619
 10
77.01683212050274
 20
-137.9812418274839
 10
77.02544485921587
 20
-137.9812418274839
 10
77.09503578801791
 20
-137.9812418274839
 10
77.09503578801791
 20
-137.9812418274839
 10
77.22836098329708
 20
-137.9812418274839
 10
77.22836098329708
 20
-137.9812418274839
 10
77.22836098329708
 20
-137.9113063891333
 10
77.22836098329708
 20
-137.8289686070358
 10
77.22629392600594
 20
-137.824489982905
 10
77.21802569684134
 20
-137.644655998575
 10
77.21802569684134
 20
-137.6260524829546
 10
77.21561413000165
 20
-137.5791991843552
 10
77.21561413000165
 20
-137.5791991843552
 10
77.43162161692682
 20
-137.5878119230683
 10
77.43162161692682
 20
-137.5878119230683
 10
77.4423014129311
 20
-137.5878119230683
 10
77.46331649539111
 20
-137.5898789803595
 10
77.46331649539111
 20
-137.6067599482372
 10
77.46331649539111
 20
-137.6260524829546
 10
77.44850258480454
 20
-137.6363877694104
 10
77.4230088782137
 20
-137.6556803041277
 10
77.4230088782137
 20
-137.7059786982124
 10
77.41680770634025
 20
-137.934733038433
 10
77.4188747636314
 20
-137.9812418274839
 10
77.54806584432826
 20
-137.9812418274839
 10
77.56046818807516
 20
-137.9812418274839
 10
77.65796439030774
 20
-137.9726290887707
 10
77.65796439030774
 20
-137.9726290887707
 10
77.65796439030774
 20
-138.1676214932359
 10
77.65796439030774
 20
-138.1676214932359
 10
77.61972383042146
 20
-138.1652099263962
 10
77.55219995891056
 20
-138.1610758118139
 10
77.41680770634025
 20
-138.1631428691051
 10
77.41680770634025
 20
-138.1631428691051
 10
77.41680770634025
 20
-138.5017957553051
 10
77.41680770634025
 20
-138.5017957553051
 10
77.47192923410424
 20
-138.4783691060054
 10
77.537386048324
 20
-138.4508083421234
 10
77.58596189466601
 20
-138.4273816928237
 10
77.58596189466601
 20
-138.4273816928237
 10
77.58596189466601
 20
-138.2499592753333
 10
77.58596189466601
 20
-138.2499592753333
 10
77.7003390647763
 20
-138.2627061286288
 10
77.8188503494689
 20
-138.2627061286288
 10
77.93495006732182
 20
-138.2627061286288
 10
77.91186792757065
 20
-138.1676214932359
 10
77.88430716368865
 20
-138.0849392015899
 10
77.82091740676005
 20
-137.9516140063107
 10
77.77647567500033
 20
-137.9536810636019
 10
77.69379338335433
 20
-137.9581596877327
 10
77.65589733301658
 20
-137.9602267450238
 10
77.65589733301658
 20
-137.9602267450238
 10
77.65589733301658
 20
-137.7803927606938
 10
77.65589733301658
 20
-137.7803927606938
 10
77.78060978958263
 20
-137.7886609898584
 10
77.95424260203922
 20
-137.7927951044407
 10
78.0365803841367
 20
-137.7927951044407
 10
78.0365803841367
 20
-137.7927951044407
 10
78.1192626757827
 20
-137.7927951044407
 10
78.1192626757827
 20
-137.7927951044407
 10
78.1192626757827
 20
-137.6301865975369
 10
78.1192626757827
 20
-137.6195068015326
 10
78.11685110894301
 20
-137.5647297833171
 10
78.11685110894301
 20
-137.5647297833171
 10
78.34112682503277
 20
-137.5898789803595
 10
78.34112682503277
 20
-137.5898789803595
 10
78.3456054491636
 20
-137.5898789803595
 10
78.36662053162362
 20
-137.5919460376506
 10
78.36662053162362
 20
-137.6088270055284
 10
78.36662053162362
 20
-137.6236409161149
 10
78.35594073561936
 20
-137.632253654828
 10
78.32837997173735
 20
-137.6470675654146
 10
78.3221787998639
 20
-137.7125243796344
 10
78.32011174257275
 20
-137.7335394620944
 10
78.32011174257275
 20
-137.7927951044407
 10
78.32011174257275
 20
-137.7927951044407
 10
78.41519637796564
 20
-137.7927951044407
 10
78.41519637796564
 20
-137.7927951044407
 10
78.49787866961165
 20
-137.7927951044407
 10
78.67116697251971
 20
-137.7886609898584
 10
78.79622393863428
 20
-137.7803927606938
 10
78.79622393863428
 20
-137.7803927606938
 10
78.79622393863428
 20
-137.9602267450238
 10
78.79622393863428
 20
-137.9602267450238
 10
78.76659611746113
 20
-137.9581596877327
 10
78.64808483276853
 20
-137.9536810636019
 10
78.60777721559111
 20
-137.9516140063107
 10
78.59296330500455
 20
-138.0022569099439
 10
78.5592013692491
 20
-138.114567022763
 10
78.49340004548083
 20
-138.2540933899157
 10
78.53577471994939
 20
-138.2540933899157
 10
78.81310490651201
 20
-138.2351453647468
 10
78.87442760614945
 20
-138.2330783074556
 10
78.87442760614945
 20
-138.2330783074556
 10
78.87442760614945
 20
-138.417046406368
 10
78.87442760614945
 20
-138.417046406368
 10
78.8447997849763
 20
-138.417046406368
 10
78.82791881709858
 20
-138.4129122917857
 10
78.66496580064626
 20
-138.4129122917857
 97
        0
 97
        0
 92
        1
 93
        1
 72
     4
 94
        3
 73
     0
 74
     1
 95
       20
 96
       16
 40
0.0
 40
0.0
 40
0.0
 40
0.0
 40
1.0
 40
1.0
 40
1.0
 40
2.0
 40
2.0
 40
2.0
 40
3.0
 40
3.0
 40
3.0
 40
4.0
 40
4.0
 40
4.0
 40
5.0
 40
5.0
 40
5.0
 40
5.0
 10
78.0365803841367
 20
-137.9474798917284
 10
78.0365803841367
 20
-137.9474798917284
 10
78.00488550567239
 20
-137.9474798917284
 10
78.00488550567239
 20
-137.9474798917284
 10
78.05139429472327
 20
-138.0470431512521
 10
78.08308917318756
 20
-138.1269693665099
 10
78.11685110894301
 20
-138.2540933899157
 10
78.11685110894301
 20
-138.2540933899157
 10
78.32424585715505
 20
-138.2540933899157
 10
78.32424585715505
 20
-138.2540933899157
 10
78.35594073561936
 20
-138.1610758118139
 10
78.37936738491905
 20
-138.0766709724253
 10
78.40244952467023
 20
-137.9474798917284
 10
78.40244952467023
 20
-137.9474798917284
 10
78.0365803841367
 20
-137.9474798917284
 10
78.0365803841367
 20
-137.9474798917284
 97
        0
 97
        0
 92
        1
 93
        1
 72
     4
 94
        3
 73
     0
 74
     1
 95
       17
 96
       13
 40
0.0
 40
0.0
 40
0.0
 40
0.0
 40
1.0
 40
1.0
 40
1.0
 40
2.0
 40
2.0
 40
2.0
 40
3.0
 40
3.0
 40
3.0
 40
4.0
 40
4.0
 40
4.0
 40
4.0
 10
78.09997014106528
 20
-138.7980739670366
 10
78.08308917318756
 20
-138.8273572786612
 10
78.0324462695544
 20
-138.9207193663115
 10
78.02176647355012
 20
-138.9393228819318
 10
78.21228025388443
 20
-138.9985785242781
 10
78.23329533634445
 20
-139.0051242057001
 10
78.30529783198618
 20
-139.0326849695821
 10
78.36041935975018
 20
-138.9458685633538
 10
78.38350149950135
 20
-138.8717990104209
 10
78.39831541008793
 20
-138.7980739670366
 10
78.39831541008793
 20
-138.7980739670366
 10
78.09997014106528
 20
-138.7980739670366
 10
78.09997014106528
 20
-138.7980739670366
 97
        0
 97
        0
 75
     2
 76
     1
 98
        0
  0
SPLINE
  5
112
330
10A
100
AcDbEntity
  8
_U+30EC_U+30A4_U+30E4_U+30FC 1
370
     0
100
AcDbSpline
210
0.0
220
0.0
230
1.0
 70
    11
 71
     3
 72
   203
 73
   199
 74
     0
 42
0.0000000001
 43
0.0000000001
 12
1.0
 22
0.0
 32
0.0
 13
1.0
 23
0.0
 33
0.0
 40
0.0
 40
0.0
 40
0.0
 40
0.0
 40
1.0
 40
1.0
 40
1.0
 40
2.0
 40
2.0
 40
2.0
 40
3.0
 40
3.0
 40
3.0
 40
4.0
 40
4.0
 40
4.0
 40
5.0
 40
5.0
 40
5.0
 40
6.0
 40
6.0
 40
6.0
 40
7.0
 40
7.0
 40
7.0
 40
8.0
 40
8.0
 40
8.0
 40
9.0
 40
9.0
 40
9.0
 40
10.0
 40
10.0
 40
10.0
 40
11.0
 40
11.0
 40
11.0
 40
12.0
 40
12.0
 40
12.0
 40
13.0
 40
13.0
 40
13.0
 40
14.0
 40
14.0
 40
14.0
 40
15.0
 40
15.0
 40
15.0
 40
16.0
 40
16.0
 40
16.0
 40
17.0
 40
17.0
 40
17.0
 40
18.0
 40
18.0
 40
18.0
 40
19.0
 40
19.0
 40
19.0
 40
20.0
 40
20.0
 40
20.0
 40
21.0
 40
21.0
 40
21.0
 40
22.0
 40
22.0
 40
22.0
 40
23.0
 40
23.0
 40
23.0
 40
24.0
 40
24.0
 40
24.0
 40
25.0
 40
25.0
 40
25.0
 40
26.0
 40
26.0
 40
26.0
 40
27.0
 40
27.0
 40
27.0
 40
28.0
 40
28.0
 40
28.0
 40
29.0
 40
29.0
 40
29.0
 40
30.0
 40
30.0
 40
30.0
 40
31.0
 40
31.0
 40
31.0
 40
32.0
 40
32.0
 40
32.0
 40
33.0
 40
33.0
 40
33.0
 40
34.0
 40
34.0
 40
34.0
 40
35.0
 40
35.0
 40
35.0
 40
36.0
 40
36.0
 40
36.0
 40
37.0
 40
37.0
 40
37.0
 40
38.0
 40
38.0
 40
38.0
 40
39.0
 40
39.0
 40
39.0
 40
40.0
 40
40.0
 40
40.0
 40
41.0
 40
41.0
 40
41.0
 40
42.0
 40
42.0
 40
42.0
 40
43.0
 40
43.0
 40
43.0
 40
44.0
 40
44.0
 40
44.0
 40
45.0
 40
45.0
 40
45.0
 40
46.0
 40
46.0
 40
46.0
 40
47.0
 40
47.0
 40
47.0
 40
48.0
 40
48.0
 40
48.0
 40
49.0
 40
49.0
 40
49.0
 40
50.0
 40
50.0
 40
50.0
 40
51.0
 40
51.0
 40
51.0
 40
52.0
 40
52.0
 40
52.0
 40
53.0
 40
53.0
 40
53.0
 40
54.0
 40
54.0
 40
54.0
 40
55.0
 40
55.0
 40
55.0
 40
56.0
 40
56.0
 40
56.0
 40
57.0
 40
57.0
 40
57.0
 40
58.0
 40
58.0
 40
58.0
 40
59.0
 40
59.0
 40
59.0
 40
60.0
 40
60.0
 40
60.0
 40
61.0
 40
61.0
 40
61.0
 40
62.0
 40
62.0
 40
62.0
 40
63.0
 40
63.0
 40
63.0
 40
64.0
 40
64.0
 40
64.0
 40
65.0
 40
65.0
 40
65.0
 40
66.0
 40
66.0
 40
66.0
 40
66.0
 10
80.35650768390393
 20
-138.4804361632966
 30
0.0
 10
80.35650768390393
 20
-138.4804361632966
 30
0.0
 10
79.79771319619641
 20
-138.4804361632966
 30
0.0
 10
79.79771319619641
 20
-138.4804361632966
 30
0.0
 10
79.78737790974066
 20
-138.5248778950563
 30
0.0
 10
79.77876517102753
 20
-138.5565727735206
 30
0.0
 10
79.7660183177321
 20
-138.5948133334068
 30
0.0
 10
79.79151202432296
 20
-138.5948133334068
 30
0.0
 10
79.80632593490954
 20
-138.596880390698
 30
0.0
 10
79.81252710678298
 20
-138.596880390698
 30
0.0
 10
79.81252710678298
 20
-138.596880390698
 30
0.0
 10
80.00097382982615
 20
-138.596880390698
 30
0.0
 10
80.00097382982615
 20
-138.596880390698
 30
0.0
 10
80.00097382982615
 20
-138.596880390698
 30
0.0
 10
80.37545570907281
 20
-138.596880390698
 30
0.0
 10
80.37545570907281
 20
-138.596880390698
 30
0.0
 10
80.42609861270599
 20
-138.596880390698
 30
0.0
 10
80.70962997114204
 20
-138.5841335374026
 30
0.0
 10
80.74132484960634
 20
-138.5841335374026
 30
0.0
 10
80.73925779231519
 20
-138.6116943012846
 30
0.0
 10
80.73719073502404
 20
-138.6306423264535
 30
0.0
 10
80.73719073502404
 20
-138.6602701476266
 30
0.0
 10
80.73512367773289
 20
-138.6919650260909
 30
0.0
 10
80.73512367773289
 20
-138.8273572786612
 30
0.0
 10
80.73512367773289
 20
-138.8549180425432
 30
0.0
 10
80.73512367773289
 20
-138.8549180425432
 30
0.0
 10
80.73512367773289
 20
-139.1005533506415
 30
0.0
 10
80.73512367773289
 20
-139.1005533506415
 30
0.0
 10
80.73512367773289
 20
-139.1446505728527
 30
0.0
 10
80.73925779231519
 20
-139.341710034609
 30
0.0
 10
80.74339190689749
 20
-139.4939832550571
 30
0.0
 10
80.74339190689749
 20
-139.4939832550571
 30
0.0
 10
80.51704913351658
 20
-139.4939832550571
 30
0.0
 10
80.51704913351658
 20
-139.4939832550571
 30
0.0
 10
80.51704913351658
 20
-139.4939832550571
 30
0.0
 10
80.51911619080772
 20
-139.4602213193016
 30
0.0
 10
80.51911619080772
 20
-139.4602213193016
 30
0.0
 10
80.51911619080772
 20
-139.4602213193016
 30
0.0
 10
79.8170057309138
 20
-139.4602213193016
 30
0.0
 10
79.8170057309138
 20
-139.4602213193016
 30
0.0
 10
79.8170057309138
 20
-139.4602213193016
 30
0.0
 10
79.81907278820496
 20
-139.4939832550571
 30
0.0
 10
79.81907278820496
 20
-139.4939832550571
 30
0.0
 10
79.81907278820496
 20
-139.4939832550571
 30
0.0
 10
79.60099824398864
 20
-139.4939832550571
 30
0.0
 10
79.60099824398864
 20
-139.4939832550571
 30
0.0
 10
79.60547686811947
 20
-139.4388617272931
 30
0.0
 10
79.60547686811947
 20
-139.4261148739976
 30
0.0
 10
79.61167803999292
 20
-139.3120822134359
 30
0.0
 10
79.61374509728407
 20
-139.2845214495539
 30
0.0
 10
79.61581215457522
 20
-139.1511962542747
 30
0.0
 10
79.61581215457522
 20
-139.1322482291058
 30
0.0
 10
79.61581215457522
 20
-139.1322482291058
 30
0.0
 10
79.61581215457522
 20
-138.9289875954761
 30
0.0
 10
79.61581215457522
 20
-138.9289875954761
 30
0.0
 10
79.4762857874226
 20
-139.1784125086082
 30
0.0
 10
79.30713159909683
 20
-139.3100151561447
 30
0.0
 10
79.20136716769966
 20
-139.3754719703645
 30
0.0
 10
79.20136716769966
 20
-139.3754719703645
 30
0.0
 10
79.02773435524307
 20
-139.2356010936633
 30
0.0
 10
79.02773435524307
 20
-139.2356010936633
 30
0.0
 10
79.11661781876252
 20
-139.1849581900302
 30
0.0
 10
79.26062281004596
 20
-139.0981417838019
 30
0.0
 10
79.39808211990743
 20
-138.9034938888852
 30
0.0
 10
79.48903264071802
 20
-138.7767143750281
 30
0.0
 10
79.55448945493777
 20
-138.6327093837446
 30
0.0
 10
79.58859590024174
 20
-138.4804361632966
 30
0.0
 10
79.35984156002115
 20
-138.4825032205877
 30
0.0
 10
79.1800075756911
 20
-138.4890489020097
 30
0.0
 10
79.08492294029821
 20
-138.4911159593008
 30
0.0
 10
79.08492294029821
 20
-138.4911159593008
 30
0.0
 10
79.08492294029821
 20
-138.313349032262
 30
0.0
 10
79.08492294029821
 20
-138.313349032262
 30
0.0
 10
79.28163789250598
 20
-138.3198947136839
 30
0.0
 10
79.56516925094205
 20
-138.3240288282662
 30
0.0
 10
79.71537541409894
 20
-138.3240288282662
 30
0.0
 10
79.71537541409894
 20
-138.3240288282662
 30
0.0
 10
79.92897133418442
 20
-138.3240288282662
 30
0.0
 10
79.92897133418442
 20
-138.3240288282662
 30
0.0
 10
79.92897133418442
 20
-138.3240288282662
 30
0.0
 10
79.92897133418442
 20
-138.2158528300294
 30
0.0
 10
79.92897133418442
 20
-138.2158528300294
 30
0.0
 10
79.92897133418442
 20
-138.2158528300294
 30
0.0
 10
79.78289928560983
 20
-138.2158528300294
 30
0.0
 10
79.78289928560983
 20
-138.2158528300294
 30
0.0
 10
79.61374509728407
 20
-138.2158528300294
 30
0.0
 10
79.4445909089583
 20
-138.2203314541602
 30
0.0
 10
79.27750377792368
 20
-138.2268771355822
 30
0.0
 10
79.27750377792368
 20
-138.2268771355822
 30
0.0
 10
79.27750377792368
 20
-138.0553113804167
 30
0.0
 10
79.27750377792368
 20
-138.0553113804167
 30
0.0
 10
79.43184405566288
 20
-138.0656466668725
 30
0.0
 10
79.61787921186637
 20
-138.0656466668725
 30
0.0
 10
79.78289928560983
 20
-138.0656466668725
 30
0.0
 10
79.78289928560983
 20
-138.0656466668725
 30
0.0
 10
79.92897133418442
 20
-138.0656466668725
 30
0.0
 10
79.92897133418442
 20
-138.0656466668725
 30
0.0
 10
79.92897133418442
 20
-138.0656466668725
 30
0.0
 10
79.92897133418442
 20
-137.9474798917284
 30
0.0
 10
79.92897133418442
 20
-137.9474798917284
 30
0.0
 10
79.92897133418442
 20
-137.9474798917284
 30
0.0
 10
79.79771319619641
 20
-137.9474798917284
 30
0.0
 10
79.79771319619641
 20
-137.9474798917284
 30
0.0
 10
79.75120440714554
 20
-137.9474798917284
 30
0.0
 10
79.54828828306432
 20
-137.9560926304415
 30
0.0
 10
79.50591360859575
 20
-137.9560926304415
 30
0.0
 10
79.30299748451453
 20
-137.9602267450238
 30
0.0
 10
79.22651636474198
 20
-137.962293802315
 30
0.0
 10
79.14831269722681
 20
-137.9643608596061
 30
0.0
 10
79.14831269722681
 20
-137.9643608596061
 30
0.0
 10
79.14831269722681
 20
-137.7803927606938
 30
0.0
 10
79.14831269722681
 20
-137.7803927606938
 30
0.0
 10
79.26268986733712
 20
-137.7886609898584
 30
0.0
 10
79.30713159909683
 20
-137.7886609898584
 30
0.0
 10
79.68988170750809
 20
-137.7972737285715
 30
0.0
 10
79.62649195057949
 20
-137.7018445836301
 30
0.0
 10
79.5989311866975
 20
-137.6742838197481
 30
0.0
 10
79.56310219365089
 20
-137.6384548267015
 30
0.0
 10
79.56310219365089
 20
-137.6384548267015
 30
0.0
 10
79.73845755385011
 20
-137.5557725350555
 30
0.0
 10
79.73845755385011
 20
-137.5557725350555
 30
0.0
 10
79.77876517102753
 20
-137.5919460376506
 30
0.0
 10
79.82320690278726
 20
-137.6343207121192
 30
0.0
 10
79.89727645572013
 20
-137.7442192580987
 30
0.0
 10
79.89727645572013
 20
-137.7442192580987
 30
0.0
 10
79.78289928560983
 20
-137.7993407858627
 30
0.0
 10
79.78289928560983
 20
-137.7993407858627
 30
0.0
 10
79.78289928560983
 20
-137.7993407858627
 30
0.0
 10
79.79357908161411
 20
-137.7993407858627
 30
0.0
 10
79.79357908161411
 20
-137.7993407858627
 30
0.0
 10
79.79357908161411
 20
-137.7993407858627
 30
0.0
 10
80.31620006672651
 20
-137.7993407858627
 30
0.0
 10
80.31620006672651
 20
-137.7993407858627
 30
0.0
 10
80.31620006672651
 20
-137.7993407858627
 30
0.0
 10
80.22111543133362
 20
-137.7548990541029
 30
0.0
 10
80.22111543133362
 20
-137.7548990541029
 30
0.0
 10
80.24833168566708
 20
-137.7170030037652
 30
0.0
 10
80.30552027072224
 20
-137.6363877694104
 30
0.0
 10
80.32033418130881
 20
-137.5623182164775
 30
0.0
 10
80.32033418130881
 20
-137.5623182164775
 30
0.0
 10
80.5339301013943
 20
-137.6260524829546
 30
0.0
 10
80.5339301013943
 20
-137.6260524829546
 30
0.0
 10
80.54254284010743
 20
-137.6281195402458
 30
0.0
 10
80.56355792256744
 20
-137.6384548267015
 30
0.0
 10
80.56355792256744
 20
-137.6598144187101
 30
0.0
 10
80.56355792256744
 20
-137.6977104690478
 30
0.0
 10
80.4981011083477
 20
-137.6977104690478
 30
0.0
 10
80.47915308317883
 20
-137.6977104690478
 30
0.0
 10
80.46847328717455
 20
-137.7170030037652
 30
0.0
 10
80.44504663787485
 20
-137.7569661113941
 30
0.0
 10
80.4154188167017
 20
-137.7972737285715
 30
0.0
 10
80.81539440253921
 20
-137.7907280471495
 30
0.0
 10
80.84502222371236
 20
-137.7886609898584
 30
0.0
 10
80.92115883393637
 20
-137.7824598179849
 30
0.0
 10
80.92115883393637
 20
-137.7824598179849
 30
0.0
 10
80.92115883393637
 20
-137.9643608596061
 30
0.0
 10
80.92115883393637
 20
-137.9643608596061
 30
0.0
 10
80.9022108087675
 20
-137.9643608596061
 30
0.0
 10
80.87671710217666
 20
-137.962293802315
 30
0.0
 10
80.65692001021772
 20
-137.9536810636019
 30
0.0
 10
80.60593259703602
 20
-137.9516140063107
 30
0.0
 10
80.38613550507708
 20
-137.9474798917284
 30
0.0
 10
80.34169377331736
 20
-137.9474798917284
 30
0.0
 10
80.34169377331736
 20
-137.9474798917284
 30
0.0
 10
80.1256862863922
 20
-137.9474798917284
 30
0.0
 10
80.1256862863922
 20
-137.9474798917284
 30
0.0
 10
80.1256862863922
 20
-137.9474798917284
 30
0.0
 10
80.1256862863922
 20
-138.0656466668725
 30
0.0
 10
80.1256862863922
 20
-138.0656466668725
 30
0.0
 10
80.1256862863922
 20
-138.0656466668725
 30
0.0
 10
80.29931909884878
 20
-138.0656466668725
 30
0.0
 10
80.29931909884878
 20
-138.0656466668725
 30
0.0
 10
80.4622721153011
 20
-138.0656466668725
 30
0.0
 10
80.65244138608689
 20
-138.0656466668725
 30
0.0
 10
80.80919323066576
 20
-138.0553113804167
 30
0.0
 10
80.80919323066576
 20
-138.0553113804167
 30
0.0
 10
80.80919323066576
 20
-138.2268771355822
 30
0.0
 10
80.80919323066576
 20
-138.2268771355822
 30
0.0
 10
80.59973142516257
 20
-138.218264396869
 30
0.0
 10
80.4030164729548
 20
-138.2158528300294
 30
0.0
 10
80.29931909884878
 20
-138.2158528300294
 30
0.0
 10
80.29931909884878
 20
-138.2158528300294
 30
0.0
 10
80.1256862863922
 20
-138.2158528300294
 30
0.0
 10
80.1256862863922
 20
-138.2158528300294
 30
0.0
 10
80.1256862863922
 20
-138.2158528300294
 30
0.0
 10
80.1256862863922
 20
-138.3240288282662
 30
0.0
 10
80.1256862863922
 20
-138.3240288282662
 30
0.0
 10
80.1256862863922
 20
-138.3240288282662
 30
0.0
 10
80.35650768390393
 20
-138.3240288282662
 30
0.0
 10
80.35650768390393
 20
-138.3240288282662
 30
0.0
 10
80.48948836963457
 20
-138.3240288282662
 30
0.0
 10
80.77749835220146
 20
-138.3198947136839
 30
0.0
 10
80.98661564815613
 20
-138.313349032262
 30
0.0
 10
80.98661564815613
 20
-138.313349032262
 30
0.0
 10
80.98661564815613
 20
-138.4911159593008
 30
0.0
 10
80.98661564815613
 20
-138.4911159593008
 30
0.0
 10
80.79437932007919
 20
-138.4845702778789
 30
0.0
 10
80.48122014046997
 20
-138.4804361632966
 30
0.0
 10
80.35650768390393
 20
-138.4804361632966
 30
0.0
  0
POLYLINE
  5
113
330
10A
100
AcDbEntity
  8
_U+30EC_U+30A4_U+30E4_U+30FC 1
370
     0
100
AcDb2dPolyline
 66
     1
 10
0.0
 20
0.0
 30
0.0
  0
VERTEX
  5
114
330
113
100
AcDbEntity
  8
_U+30EC_U+30A4_U+30E4_U+30FC 1
370
     0
100
AcDbVertex
100
AcDb2dVertex
 10
80.5215277576474
 20
-138.7364067578506
 30
0.0
  0
VERTEX
  5
115
330
113
100
AcDbEntity
  8
_U+30EC_U+30A4_U+30E4_U+30FC 1
370
     0
100
AcDbVertex
100
AcDb2dVertex
 10
79.81493867362266
 20
-138.7364067578506
 30
0.0
  0
VERTEX
  5
116
330
113
100
AcDbEntity
  8
_U+30EC_U+30A4_U+30E4_U+30FC 1
370
     0
100
AcDbVertex
100
AcDb2dVertex
 10
79.81493867362266
 20
-138.8442382465389
 30
0.0
  0
VERTEX
  5
117
330
113
100
AcDbEntity
  8
_U+30EC_U+30A4_U+30E4_U+30FC 1
370
     0
100
AcDbVertex
100
AcDb2dVertex
 10
80.5215277576474
 20
-138.8442382465389
 30
0.0
  0
VERTEX
  5
118
330
113
100
AcDbEntity
  8
_U+30EC_U+30A4_U+30E4_U+30FC 1
370
     0
100
AcDbVertex
100
AcDb2dVertex
 10
80.5215277576474
 20
-138.7364067578506
 30
0.0
  0
SEQEND
  5
119
330
113
100
AcDbEntity
  8
_U+30EC_U+30A4_U+30E4_U+30FC 1
370
     0
  0
POLYLINE
  5
11A
330
10A
100
AcDbEntity
  8
_U+30EC_U+30A4_U+30E4_U+30FC 1
370
     0
100
AcDb2dPolyline
 66
     1
 10
0.0
 20
0.0
 30
0.0
  0
VERTEX
  5
11B
330
11A
100
AcDbEntity
  8
_U+30EC_U+30A4_U+30E4_U+30FC 1
370
     0
100
AcDbVertex
100
AcDb2dVertex
 10
80.5215277576474
 20
-138.968950703105
 30
0.0
  0
VERTEX
  5
11C
330
11A
100
AcDbEntity
  8
_U+30EC_U+30A4_U+30E4_U+30FC 1
370
     0
100
AcDbVertex
100
AcDb2dVertex
 10
79.81493867362266
 20
-138.968950703105
 30
0.0
  0
VERTEX
  5
11D
330
11A
100
AcDbEntity
  8
_U+30EC_U+30A4_U+30E4_U+30FC 1
370
     0
100
AcDbVertex
100
AcDb2dVertex
 10
79.81493867362266
 20
-139.0833278732153
 30
0.0
  0
VERTEX
  5
11E
330
11A
100
AcDbEntity
  8
_U+30EC_U+30A4_U+30E4_U+30FC 1
370
     0
100
AcDbVertex
100
AcDb2dVertex
 10
80.5215277576474
 20
-139.0833278732153
 30
0.0
  0
VERTEX
  5
11F
330
11A
100
AcDbEntity
  8
_U+30EC_U+30A4_U+30E4_U+30FC 1
370
     0
100
AcDbVertex
100
AcDb2dVertex
 10
80.5215277576474
 20
-138.968950703105
 30
0.0
  0
SEQEND
  5
120
330
11A
100
AcDbEntity
  8
_U+30EC_U+30A4_U+30E4_U+30FC 1
370
     0
  0
POLYLINE
  5
121
330
10A
100
AcDbEntity
  8
_U+30EC_U+30A4_U+30E4_U+30FC 1
370
     0
100
AcDb2dPolyline
 66
     1
 10
0.0
 20
0.0
 30
0.0
  0
VERTEX
  5
122
330
121
100
AcDbEntity
  8
_U+30EC_U+30A4_U+30E4_U+30FC 1
370
     0
100
AcDbVertex
100
AcDb2dVertex
 10
80.5215277576474
 20
-139.2125189539122
 30
0.0
  0
VERTEX
  5
123
330
121
100
AcDbEntity
  8
_U+30EC_U+30A4_U+30E4_U+30FC 1
370
     0
100
AcDbVertex
100
AcDb2dVertex
 10
79.81493867362266
 20
-139.2125189539122
 30
0.0
  0
VERTEX
  5
124
330
121
100
AcDbEntity
  8
_U+30EC_U+30A4_U+30E4_U+30FC 1
370
     0
100
AcDbVertex
100
AcDb2dVertex
 10
79.81493867362266
 20
-139.3265516144739
 30
0.0
  0
VERTEX
  5
125
330
121
100
AcDbEntity
  8
_U+30EC_U+30A4_U+30E4_U+30FC 1
370
     0
100
AcDbVertex
100
AcDb2dVertex
 10
80.5215277576474
 20
-139.3265516144739
 30
0.0
  0
VERTEX
  5
126
330
121
100
AcDbEntity
  8
_U+30EC_U+30A4_U+30E4_U+30FC 1
370
     0
100
AcDbVertex
100
AcDb2dVertex
 10
80.5215277576474
 20
-139.2125189539122
 30
0.0
  0
SEQEND
  5
127
330
121
100
AcDbEntity
  8
_U+30EC_U+30A4_U+30E4_U+30FC 1
370
     0
  0
HATCH
  5
128
330
10A
100
AcDbEntity
  8
_U+30EC_U+30A4_U+30E4_U+30FC 1
 62
   179
420
  2234388
100
AcDbHatch
 10
0.0
 20
0.0
 30
0.0
210
0.0
220
0.0
230
1.0
  2
SOLID
 70
     1
 71
     0
 91
        4
 92
        1
 93
        1
 72
     4
 94
        3
 73
     0
 74
     1
 95
      203
 96
      199
 40
0.0
 40
0.0
 40
0.0
 40
0.0
 40
1.0
 40
1.0
 40
1.0
 40
2.0
 40
2.0
 40
2.0
 40
3.0
 40
3.0
 40
3.0
 40
4.0
 40
4.0
 40
4.0
 40
5.0
 40
5.0
 40
5.0
 40
6.0
 40
6.0
 40
6.0
 40
7.0
 40
7.0
 40
7.0
 40
8.0
 40
8.0
 40
8.0
 40
9.0
 40
9.0
 40
9.0
 40
10.0
 40
10.0
 40
10.0
 40
11.0
 40
11.0
 40
11.0
 40
12.0
 40
12.0
 40
12.0
 40
13.0
 40
13.0
 40
13.0
 40
14.0
 40
14.0
 40
14.0
 40
15.0
 40
15.0
 40
15.0
 40
16.0
 40
16.0
 40
16.0
 40
17.0
 40
17.0
 40
17.0
 40
18.0
 40
18.0
 40
18.0
 40
19.0
 40
19.0
 40
19.0
 40
20.0
 40
20.0
 40
20.0
 40
21.0
 40
21.0
 40
21.0
 40
22.0
 40
22.0
 40
22.0
 40
23.0
 40
23.0
 40
23.0
 40
24.0
 40
24.0
 40
24.0
 40
25.0
 40
25.0
 40
25.0
 40
26.0
 40
26.0
 40
26.0
 40
27.0
 40
27.0
 40
27.0
 40
28.0
 40
28.0
 40
28.0
 40
29.0
 40
29.0
 40
29.0
 40
30.0
 40
30.0
 40
30.0
 40
31.0
 40
31.0
 40
31.0
 40
32.0
 40
32.0
 40
32.0
 40
33.0
 40
33.0
 40
33.0
 40
34.0
 40
34.0
 40
34.0
 40
35.0
 40
35.0
 40
35.0
 40
36.0
 40
36.0
 40
36.0
 40
37.0
 40
37.0
 40
37.0
 40
38.0
 40
38.0
 40
38.0
 40
39.0
 40
39.0
 40
39.0
 40
40.0
 40
40.0
 40
40.0
 40
41.0
 40
41.0
 40
41.0
 40
42.0
 40
42.0
 40
42.0
 40
43.0
 40
43.0
 40
43.0
 40
44.0
 40
44.0
 40
44.0
 40
45.0
 40
45.0
 40
45.0
 40
46.0
 40
46.0
 40
46.0
 40
47.0
 40
47.0
 40
47.0
 40
48.0
 40
48.0
 40
48.0
 40
49.0
 40
49.0
 40
49.0
 40
50.0
 40
50.0
 40
50.0
 40
51.0
 40
51.0
 40
51.0
 40
52.0
 40
52.0
 40
52.0
 40
53.0
 40
53.0
 40
53.0
 40
54.0
 40
54.0
 40
54.0
 40
55.0
 40
55.0
 40
55.0
 40
56.0
 40
56.0
 40
56.0
 40
57.0
 40
57.0
 40
57.0
 40
58.0
 40
58.0
 40
58.0
 40
59.0
 40
59.0
 40
59.0
 40
60.0
 40
60.0
 40
60.0
 40
61.0
 40
61.0
 40
61.0
 40
62.0
 40
62.0
 40
62.0
 40
63.0
 40
63.0
 40
63.0
 40
64.0
 40
64.0
 40
64.0
 40
65.0
 40
65.0
 40
65.0
 40
66.0
 40
66.0
 40
66.0
 40
66.0
 10
80.35650768390393
 20
-138.4804361632966
 10
80.35650768390393
 20
-138.4804361632966
 10
79.79771319619641
 20
-138.4804361632966
 10
79.79771319619641
 20
-138.4804361632966
 10
79.78737790974066
 20
-138.5248778950563
 10
79.77876517102753
 20
-138.5565727735206
 10
79.7660183177321
 20
-138.5948133334068
 10
79.79151202432296
 20
-138.5948133334068
 10
79.80632593490954
 20
-138.596880390698
 10
79.81252710678298
 20
-138.596880390698
 10
79.81252710678298
 20
-138.596880390698
 10
80.00097382982615
 20
-138.596880390698
 10
80.00097382982615
 20
-138.596880390698
 10
80.00097382982615
 20
-138.596880390698
 10
80.37545570907281
 20
-138.596880390698
 10
80.37545570907281
 20
-138.596880390698
 10
80.42609861270599
 20
-138.596880390698
 10
80.70962997114204
 20
-138.5841335374026
 10
80.74132484960634
 20
-138.5841335374026
 10
80.73925779231519
 20
-138.6116943012846
 10
80.73719073502404
 20
-138.6306423264535
 10
80.73719073502404
 20
-138.6602701476266
 10
80.73512367773289
 20
-138.6919650260909
 10
80.73512367773289
 20
-138.8273572786612
 10
80.73512367773289
 20
-138.8549180425432
 10
80.73512367773289
 20
-138.8549180425432
 10
80.73512367773289
 20
-139.1005533506415
 10
80.73512367773289
 20
-139.1005533506415
 10
80.73512367773289
 20
-139.1446505728527
 10
80.73925779231519
 20
-139.341710034609
 10
80.74339190689749
 20
-139.4939832550571
 10
80.74339190689749
 20
-139.4939832550571
 10
80.51704913351658
 20
-139.4939832550571
 10
80.51704913351658
 20
-139.4939832550571
 10
80.51704913351658
 20
-139.4939832550571
 10
80.51911619080772
 20
-139.4602213193016
 10
80.51911619080772
 20
-139.4602213193016
 10
80.51911619080772
 20
-139.4602213193016
 10
79.8170057309138
 20
-139.4602213193016
 10
79.8170057309138
 20
-139.4602213193016
 10
79.8170057309138
 20
-139.4602213193016
 10
79.81907278820496
 20
-139.4939832550571
 10
79.81907278820496
 20
-139.4939832550571
 10
79.81907278820496
 20
-139.4939832550571
 10
79.60099824398864
 20
-139.4939832550571
 10
79.60099824398864
 20
-139.4939832550571
 10
79.60547686811947
 20
-139.4388617272931
 10
79.60547686811947
 20
-139.4261148739976
 10
79.61167803999292
 20
-139.3120822134359
 10
79.61374509728407
 20
-139.2845214495539
 10
79.61581215457522
 20
-139.1511962542747
 10
79.61581215457522
 20
-139.1322482291058
 10
79.61581215457522
 20
-139.1322482291058
 10
79.61581215457522
 20
-138.9289875954761
 10
79.61581215457522
 20
-138.9289875954761
 10
79.4762857874226
 20
-139.1784125086082
 10
79.30713159909683
 20
-139.3100151561447
 10
79.20136716769966
 20
-139.3754719703645
 10
79.20136716769966
 20
-139.3754719703645
 10
79.02773435524307
 20
-139.2356010936633
 10
79.02773435524307
 20
-139.2356010936633
 10
79.11661781876252
 20
-139.1849581900302
 10
79.26062281004596
 20
-139.0981417838019
 10
79.39808211990743
 20
-138.9034938888852
 10
79.48903264071802
 20
-138.7767143750281
 10
79.55448945493777
 20
-138.6327093837446
 10
79.58859590024174
 20
-138.4804361632966
 10
79.35984156002115
 20
-138.4825032205877
 10
79.1800075756911
 20
-138.4890489020097
 10
79.08492294029821
 20
-138.4911159593008
 10
79.08492294029821
 20
-138.4911159593008
 10
79.08492294029821
 20
-138.313349032262
 10
79.08492294029821
 20
-138.313349032262
 10
79.28163789250598
 20
-138.3198947136839
 10
79.56516925094205
 20
-138.3240288282662
 10
79.71537541409894
 20
-138.3240288282662
 10
79.71537541409894
 20
-138.3240288282662
 10
79.92897133418442
 20
-138.3240288282662
 10
79.92897133418442
 20
-138.3240288282662
 10
79.92897133418442
 20
-138.3240288282662
 10
79.92897133418442
 20
-138.2158528300294
 10
79.92897133418442
 20
-138.2158528300294
 10
79.92897133418442
 20
-138.2158528300294
 10
79.78289928560983
 20
-138.2158528300294
 10
79.78289928560983
 20
-138.2158528300294
 10
79.61374509728407
 20
-138.2158528300294
 10
79.4445909089583
 20
-138.2203314541602
 10
79.27750377792368
 20
-138.2268771355822
 10
79.27750377792368
 20
-138.2268771355822
 10
79.27750377792368
 20
-138.0553113804167
 10
79.27750377792368
 20
-138.0553113804167
 10
79.43184405566288
 20
-138.0656466668725
 10
79.61787921186637
 20
-138.0656466668725
 10
79.78289928560983
 20
-138.0656466668725
 10
79.78289928560983
 20
-138.0656466668725
 10
79.92897133418442
 20
-138.0656466668725
 10
79.92897133418442
 20
-138.0656466668725
 10
79.92897133418442
 20
-138.0656466668725
 10
79.92897133418442
 20
-137.9474798917284
 10
79.92897133418442
 20
-137.9474798917284
 10
79.92897133418442
 20
-137.9474798917284
 10
79.79771319619641
 20
-137.9474798917284
 10
79.79771319619641
 20
-137.9474798917284
 10
79.75120440714554
 20
-137.9474798917284
 10
79.54828828306432
 20
-137.9560926304415
 10
79.50591360859575
 20
-137.9560926304415
 10
79.30299748451453
 20
-137.9602267450238
 10
79.22651636474198
 20
-137.962293802315
 10
79.14831269722681
 20
-137.9643608596061
 10
79.14831269722681
 20
-137.9643608596061
 10
79.14831269722681
 20
-137.7803927606938
 10
79.14831269722681
 20
-137.7803927606938
 10
79.26268986733712
 20
-137.7886609898584
 10
79.30713159909683
 20
-137.7886609898584
 10
79.68988170750809
 20
-137.7972737285715
 10
79.62649195057949
 20
-137.7018445836301
 10
79.5989311866975
 20
-137.6742838197481
 10
79.56310219365089
 20
-137.6384548267015
 10
79.56310219365089
 20
-137.6384548267015
 10
79.73845755385011
 20
-137.5557725350555
 10
79.73845755385011
 20
-137.5557725350555
 10
79.77876517102753
 20
-137.5919460376506
 10
79.82320690278726
 20
-137.6343207121192
 10
79.89727645572013
 20
-137.7442192580987
 10
79.89727645572013
 20
-137.7442192580987
 10
79.78289928560983
 20
-137.7993407858627
 10
79.78289928560983
 20
-137.7993407858627
 10
79.78289928560983
 20
-137.7993407858627
 10
79.79357908161411
 20
-137.7993407858627
 10
79.79357908161411
 20
-137.7993407858627
 10
79.79357908161411
 20
-137.7993407858627
 10
80.31620006672651
 20
-137.7993407858627
 10
80.31620006672651
 20
-137.7993407858627
 10
80.31620006672651
 20
-137.7993407858627
 10
80.22111543133362
 20
-137.7548990541029
 10
80.22111543133362
 20
-137.7548990541029
 10
80.24833168566708
 20
-137.7170030037652
 10
80.30552027072224
 20
-137.6363877694104
 10
80.32033418130881
 20
-137.5623182164775
 10
80.32033418130881
 20
-137.5623182164775
 10
80.5339301013943
 20
-137.6260524829546
 10
80.5339301013943
 20
-137.6260524829546
 10
80.54254284010743
 20
-137.6281195402458
 10
80.56355792256744
 20
-137.6384548267015
 10
80.56355792256744
 20
-137.6598144187101
 10
80.56355792256744
 20
-137.6977104690478
 10
80.4981011083477
 20
-137.6977104690478
 10
80.47915308317883
 20
-137.6977104690478
 10
80.46847328717455
 20
-137.7170030037652
 10
80.44504663787485
 20
-137.7569661113941
 10
80.4154188167017
 20
-137.7972737285715
 10
80.81539440253921
 20
-137.7907280471495
 10
80.84502222371236
 20
-137.7886609898584
 10
80.92115883393637
 20
-137.7824598179849
 10
80.92115883393637
 20
-137.7824598179849
 10
80.92115883393637
 20
-137.9643608596061
 10
80.92115883393637
 20
-137.9643608596061
 10
80.9022108087675
 20
-137.9643608596061
 10
80.87671710217666
 20
-137.962293802315
 10
80.65692001021772
 20
-137.9536810636019
 10
80.60593259703602
 20
-137.9516140063107
 10
80.38613550507708
 20
-137.9474798917284
 10
80.34169377331736
 20
-137.9474798917284
 10
80.34169377331736
 20
-137.9474798917284
 10
80.1256862863922
 20
-137.9474798917284
 10
80.1256862863922
 20
-137.9474798917284
 10
80.1256862863922
 20
-137.9474798917284
 10
80.1256862863922
 20
-138.0656466668725
 10
80.1256862863922
 20
-138.0656466668725
 10
80.1256862863922
 20
-138.0656466668725
 10
80.29931909884878
 20
-138.0656466668725
 10
80.29931909884878
 20
-138.0656466668725
 10
80.4622721153011
 20
-138.0656466668725
 10
80.65244138608689
 20
-138.0656466668725
 10
80.80919323066576
 20
-138.0553113804167
 10
80.80919323066576
 20
-138.0553113804167
 10
80.80919323066576
 20
-138.2268771355822
 10
80.80919323066576
 20
-138.2268771355822
 10
80.59973142516257
 20
-138.218264396869
 10
80.4030164729548
 20
-138.2158528300294
 10
80.29931909884878
 20
-138.2158528300294
 10
80.29931909884878
 20
-138.2158528300294
 10
80.1256862863922
 20
-138.2158528300294
 10
80.1256862863922
 20
-138.2158528300294
 10
80.1256862863922
 20
-138.2158528300294
 10
80.1256862863922
 20
-138.3240288282662
 10
80.1256862863922
 20
-138.3240288282662
 10
80.1256862863922
 20
-138.3240288282662
 10
80.35650768390393
 20
-138.3240288282662
 10
80.35650768390393
 20
-138.3240288282662
 10
80.48948836963457
 20
-138.3240288282662
 10
80.77749835220146
 20
-138.3198947136839
 10
80.98661564815613
 20
-138.313349032262
 10
80.98661564815613
 20
-138.313349032262
 10
80.98661564815613
 20
-138.4911159593008
 10
80.98661564815613
 20
-138.4911159593008
 10
80.79437932007919
 20
-138.4845702778789
 10
80.48122014046997
 20
-138.4804361632966
 10
80.35650768390393
 20
-138.4804361632966
 97
        0
 97
        0
 92
        1
 93
        4
 72
     1
 10
80.5215277576474
 20
-138.7364067578506
 11
79.81493867362266
 21
-138.7364067578506
 72
     1
 10
79.81493867362266
 20
-138.7364067578506
 11
79.81493867362266
 21
-138.8442382465389
 72
     1
 10
79.81493867362266
 20
-138.8442382465389
 11
80.5215277576474
 21
-138.8442382465389
 72
     1
 10
80.5215277576474
 20
-138.8442382465389
 11
80.5215277576474
 21
-138.7364067578506
 97
        0
 92
        1
 93
        4
 72
     1
 10
80.5215277576474
 20
-138.968950703105
 11
79.81493867362266
 21
-138.968950703105
 72
     1
 10
79.81493867362266
 20
-138.968950703105
 11
79.81493867362266
 21
-139.0833278732153
 72
     1
 10
79.81493867362266
 20
-139.0833278732153
 11
80.5215277576474
 21
-139.0833278732153
 72
     1
 10
80.5215277576474
 20
-139.0833278732153
 11
80.5215277576474
 21
-138.968950703105
 97
        0
 92
        1
 93
        4
 72
     1
 10
80.5215277576474
 20
-139.2125189539122
 11
79.81493867362266
 21
-139.2125189539122
 72
     1
 10
79.81493867362266
 20
-139.2125189539122
 11
79.81493867362266
 21
-139.3265516144739
 72
     1
 10
79.81493867362266
 20
-139.3265516144739
 11
80.5215277576474
 21
-139.3265516144739
 72
     1
 10
80.5215277576474
 20
-139.3265516144739
 11
80.5215277576474
 21
-139.2125189539122
 97
        0
 75
     2
 76
     1
 98
        0
  0
SPLINE
  5
129
330
10A
100
AcDbEntity
  8
_U+30EC_U+30A4_U+30E4_U+30FC 1
370
     0
100
AcDbSpline
210
0.0
220
0.0
230
1.0
 70
    11
 71
     3
 72
    47
 73
    43
 74
     0
 42
0.0000000001
 43
0.0000000001
 12
1.0
 22
0.0
 32
0.0
 13
1.0
 23
0.0
 33
0.0
 40
0.0
 40
0.0
 40
0.0
 40
0.0
 40
1.0
 40
1.0
 40
1.0
 40
2.0
 40
2.0
 40
2.0
 40
3.0
 40
3.0
 40
3.0
 40
4.0
 40
4.0
 40
4.0
 40
5.0
 40
5.0
 40
5.0
 40
6.0
 40
6.0
 40
6.0
 40
7.0
 40
7.0
 40
7.0
 40
8.0
 40
8.0
 40
8.0
 40
9.0
 40
9.0
 40
9.0
 40
10.0
 40
10.0
 40
10.0
 40
11.0
 40
11.0
 40
11.0
 40
12.0
 40
12.0
 40
12.0
 40
13.0
 40
13.0
 40
13.0
 40
14.0
 40
14.0
 40
14.0
 40
14.0
 10
82.3333034733403
 20
-138.4570095139969
 30
0.0
 10
82.3333034733403
 20
-138.4570095139969
 30
0.0
 10
82.23167315652542
 20
-138.4570095139969
 30
0.0
 10
82.23167315652542
 20
-138.4570095139969
 30
0.0
 10
82.23167315652542
 20
-138.5438259202252
 30
0.0
 10
82.21065807406539
 20
-138.9331217100584
 30
0.0
 10
82.01394312185762
 20
-139.1532633115659
 30
0.0
 10
81.86132539186106
 20
-139.3224174998916
 30
0.0
 10
81.65427515319755
 20
-139.3923529382422
 30
0.0
 10
81.5695258042604
 20
-139.4195691925757
 30
0.0
 10
81.5695258042604
 20
-139.4195691925757
 30
0.0
 10
81.37487790934378
 20
-139.2528265710896
 30
0.0
 10
81.37487790934378
 20
-139.2528265710896
 30
0.0
 10
81.47237411157636
 20
-139.2397352082456
 30
0.0
 10
81.64772947177558
 20
-139.2166530684945
 30
0.0
 10
81.83617619481873
 20
-139.0282063454513
 30
0.0
 10
81.9102457477516
 20
-138.9565483593581
 30
0.0
 10
82.01394312185762
 20
-138.816677482657
 30
0.0
 10
82.01394312185762
 20
-138.4570095139969
 30
0.0
 10
82.01394312185762
 20
-138.4570095139969
 30
0.0
 10
81.78312172434589
 20
-138.4570095139969
 30
0.0
 10
81.78312172434589
 20
-138.4570095139969
 30
0.0
 10
81.5970865681424
 20
-138.4570095139969
 30
0.0
 10
81.41070690239039
 20
-138.4614881381277
 30
0.0
 10
81.22467174618689
 20
-138.4763020487143
 30
0.0
 10
81.22467174618689
 20
-138.4763020487143
 30
0.0
 10
81.22467174618689
 20
-138.2565049567553
 30
0.0
 10
81.22467174618689
 20
-138.2565049567553
 30
0.0
 10
81.41311846923006
 20
-138.2709743577934
 30
0.0
 10
81.69871688495726
 20
-138.2751084723757
 30
0.0
 10
81.78312172434589
 20
-138.2751084723757
 30
0.0
 10
81.78312172434589
 20
-138.2751084723757
 30
0.0
 10
82.3333034733403
 20
-138.2751084723757
 30
0.0
 10
82.3333034733403
 20
-138.2751084723757
 30
0.0
 10
82.35225149850916
 20
-138.2751084723757
 30
0.0
 10
82.66954479270068
 20
-138.2751084723757
 30
0.0
 10
82.89795462337274
 20
-138.2565049567553
 30
0.0
 10
82.89795462337274
 20
-138.2565049567553
 30
0.0
 10
82.89795462337274
 20
-138.4763020487143
 30
0.0
 10
82.89795462337274
 20
-138.4763020487143
 30
0.0
 10
82.7098524098781
 20
-138.4614881381277
 30
0.0
 10
82.52140568683492
 20
-138.4570095139969
 30
0.0
 10
82.3333034733403
 20
-138.4570095139969
 30
0.0
  0
SPLINE
  5
12A
330
10A
100
AcDbEntity
  8
_U+30EC_U+30A4_U+30E4_U+30FC 1
370
     0
100
AcDbSpline
210
0.0
220
0.0
230
1.0
 70
    11
 71
     3
 72
    29
 73
    25
 74
     0
 42
0.0000000001
 43
0.0000000001
 12
1.0
 22
0.0
 32
0.0
 13
1.0
 23
0.0
 33
0.0
 40
0.0
 40
0.0
 40
0.0
 40
0.0
 40
1.0
 40
1.0
 40
1.0
 40
2.0
 40
2.0
 40
2.0
 40
3.0
 40
3.0
 40
3.0
 40
4.0
 40
4.0
 40
4.0
 40
5.0
 40
5.0
 40
5.0
 40
6.0
 40
6.0
 40
6.0
 40
7.0
 40
7.0
 40
7.0
 40
8.0
 40
8.0
 40
8.0
 40
8.0
 10
82.23167315652542
 20
-137.9285318665596
 30
0.0
 10
82.23167315652542
 20
-137.9285318665596
 30
0.0
 10
81.87820635973878
 20
-137.9285318665596
 30
0.0
 10
81.87820635973878
 20
-137.9285318665596
 30
0.0
 10
81.76624075646816
 20
-137.9285318665596
 30
0.0
 10
81.62671438931555
 20
-137.934733038433
 30
0.0
 10
81.51888290062723
 20
-137.9474798917284
 30
0.0
 10
81.51888290062723
 20
-137.9474798917284
 30
0.0
 10
81.51888290062723
 20
-137.7125243796344
 30
0.0
 10
81.51888290062723
 20
-137.7125243796344
 30
0.0
 10
81.6370496757713
 20
-137.727338290221
 30
0.0
 10
81.82136228423217
 20
-137.7314724048032
 30
0.0
 10
81.87820635973878
 20
-137.7314724048032
 30
0.0
 10
81.87820635973878
 20
-137.7314724048032
 30
0.0
 10
82.23167315652542
 20
-137.7314724048032
 30
0.0
 10
82.23167315652542
 20
-137.7314724048032
 30
0.0
 10
82.2506211816943
 20
-137.7314724048032
 30
0.0
 10
82.45388181532404
 20
-137.7314724048032
 30
0.0
 10
82.59547523976781
 20
-137.7125243796344
 30
0.0
 10
82.59547523976781
 20
-137.7125243796344
 30
0.0
 10
82.59547523976781
 20
-137.9474798917284
 30
0.0
 10
82.59547523976781
 20
-137.9474798917284
 30
0.0
 10
82.43906790473746
 20
-137.9285318665596
 30
0.0
 10
82.24855412440314
 20
-137.9285318665596
 30
0.0
 10
82.23167315652542
 20
-137.9285318665596
 30
0.0
  0
HATCH
  5
12B
330
10A
100
AcDbEntity
  8
_U+30EC_U+30A4_U+30E4_U+30FC 1
 62
   179
420
  2234388
100
AcDbHatch
 10
0.0
 20
0.0
 30
0.0
210
0.0
220
0.0
230
1.0
  2
SOLID
 70
     1
 71
     0
 91
        2
 92
        1
 93
        1
 72
     4
 94
        3
 73
     0
 74
     1
 95
       47
 96
       43
 40
0.0
 40
0.0
 40
0.0
 40
0.0
 40
1.0
 40
1.0
 40
1.0
 40
2.0
 40
2.0
 40
2.0
 40
3.0
 40
3.0
 40
3.0
 40
4.0
 40
4.0
 40
4.0
 40
5.0
 40
5.0
 40
5.0
 40
6.0
 40
6.0
 40
6.0
 40
7.0
 40
7.0
 40
7.0
 40
8.0
 40
8.0
 40
8.0
 40
9.0
 40
9.0
 40
9.0
 40
10.0
 40
10.0
 40
10.0
 40
11.0
 40
11.0
 40
11.0
 40
12.0
 40
12.0
 40
12.0
 40
13.0
 40
13.0
 40
13.0
 40
14.0
 40
14.0
 40
14.0
 40
14.0
 10
82.3333034733403
 20
-138.4570095139969
 10
82.3333034733403
 20
-138.4570095139969
 10
82.23167315652542
 20
-138.4570095139969
 10
82.23167315652542
 20
-138.4570095139969
 10
82.23167315652542
 20
-138.5438259202252
 10
82.21065807406539
 20
-138.9331217100584
 10
82.01394312185762
 20
-139.1532633115659
 10
81.86132539186106
 20
-139.3224174998916
 10
81.65427515319755
 20
-139.3923529382422
 10
81.5695258042604
 20
-139.4195691925757
 10
81.5695258042604
 20
-139.4195691925757
 10
81.37487790934378
 20
-139.2528265710896
 10
81.37487790934378
 20
-139.2528265710896
 10
81.47237411157636
 20
-139.2397352082456
 10
81.64772947177558
 20
-139.2166530684945
 10
81.83617619481873
 20
-139.0282063454513
 10
81.9102457477516
 20
-138.9565483593581
 10
82.01394312185762
 20
-138.816677482657
 10
82.01394312185762
 20
-138.4570095139969
 10
82.01394312185762
 20
-138.4570095139969
 10
81.78312172434589
 20
-138.4570095139969
 10
81.78312172434589
 20
-138.4570095139969
 10
81.5970865681424
 20
-138.4570095139969
 10
81.41070690239039
 20
-138.4614881381277
 10
81.22467174618689
 20
-138.4763020487143
 10
81.22467174618689
 20
-138.4763020487143
 10
81.22467174618689
 20
-138.2565049567553
 10
81.22467174618689
 20
-138.2565049567553
 10
81.41311846923006
 20
-138.2709743577934
 10
81.69871688495726
 20
-138.2751084723757
 10
81.78312172434589
 20
-138.2751084723757
 10
81.78312172434589
 20
-138.2751084723757
 10
82.3333034733403
 20
-138.2751084723757
 10
82.3333034733403
 20
-138.2751084723757
 10
82.35225149850916
 20
-138.2751084723757
 10
82.66954479270068
 20
-138.2751084723757
 10
82.89795462337274
 20
-138.2565049567553
 10
82.89795462337274
 20
-138.2565049567553
 10
82.89795462337274
 20
-138.4763020487143
 10
82.89795462337274
 20
-138.4763020487143
 10
82.7098524098781
 20
-138.4614881381277
 10
82.52140568683492
 20
-138.4570095139969
 10
82.3333034733403
 20
-138.4570095139969
 97
        0
 97
        0
 92
        1
 93
        1
 72
     4
 94
        3
 73
     0
 74
     1
 95
       29
 96
       25
 40
0.0
 40
0.0
 40
0.0
 40
0.0
 40
1.0
 40
1.0
 40
1.0
 40
2.0
 40
2.0
 40
2.0
 40
3.0
 40
3.0
 40
3.0
 40
4.0
 40
4.0
 40
4.0
 40
5.0
 40
5.0
 40
5.0
 40
6.0
 40
6.0
 40
6.0
 40
7.0
 40
7.0
 40
7.0
 40
8.0
 40
8.0
 40
8.0
 40
8.0
 10
82.23167315652542
 20
-137.9285318665596
 10
82.23167315652542
 20
-137.9285318665596
 10
81.87820635973878
 20
-137.9285318665596
 10
81.87820635973878
 20
-137.9285318665596
 10
81.76624075646816
 20
-137.9285318665596
 10
81.62671438931555
 20
-137.934733038433
 10
81.51888290062723
 20
-137.9474798917284
 10
81.51888290062723
 20
-137.9474798917284
 10
81.51888290062723
 20
-137.7125243796344
 10
81.51888290062723
 20
-137.7125243796344
 10
81.6370496757713
 20
-137.727338290221
 10
81.82136228423217
 20
-137.7314724048032
 10
81.87820635973878
 20
-137.7314724048032
 10
81.87820635973878
 20
-137.7314724048032
 10
82.23167315652542
 20
-137.7314724048032
 10
82.23167315652542
 20
-137.7314724048032
 10
82.2506211816943
 20
-137.7314724048032
 10
82.45388181532404
 20
-137.7314724048032
 10
82.59547523976781
 20
-137.7125243796344
 10
82.59547523976781
 20
-137.7125243796344
 10
82.59547523976781
 20
-137.9474798917284
 10
82.59547523976781
 20
-137.9474798917284
 10
82.43906790473746
 20
-137.9285318665596
 10
82.24855412440314
 20
-137.9285318665596
 10
82.23167315652542
 20
-137.9285318665596
 97
        0
 97
        0
 75
     2
 76
     1
 98
        0
  0
SPLINE
  5
12C
330
10A
100
AcDbEntity
  8
_U+30EC_U+30A4_U+30E4_U+30FC 1
370
     0
100
AcDbSpline
210
0.0
220
0.0
230
1.0
 70
    11
 71
     3
 72
    29
 73
    25
 74
     0
 42
0.0000000001
 43
0.0000000001
 12
1.0
 22
0.0
 32
0.0
 13
1.0
 23
0.0
 33
0.0
 40
0.0
 40
0.0
 40
0.0
 40
0.0
 40
1.0
 40
1.0
 40
1.0
 40
2.0
 40
2.0
 40
2.0
 40
3.0
 40
3.0
 40
3.0
 40
4.0
 40
4.0
 40
4.0
 40
5.0
 40
5.0
 40
5.0
 40
6.0
 40
6.0
 40
6.0
 40
7.0
 40
7.0
 40
7.0
 40
8.0
 40
8.0
 40
8.0
 40
8.0
 10
84.17918563433714
 20
-138.6203070399977
 30
0.0
 10
84.17918563433714
 20
-138.6203070399977
 30
0.0
 10
83.69480520911102
 20
-138.6203070399977
 30
0.0
 10
83.69480520911102
 20
-138.6203070399977
 30
0.0
 10
83.66724444522903
 20
-138.6203070399977
 30
0.0
 10
83.34995115103752
 20
-138.6203070399977
 30
0.0
 10
83.13842228824318
 20
-138.64545623704
 30
0.0
 10
83.13842228824318
 20
-138.64545623704
 30
0.0
 10
83.13842228824318
 20
-138.4149793490768
 30
0.0
 10
83.13842228824318
 20
-138.4149793490768
 30
0.0
 10
83.29689668056467
 20
-138.4384059983765
 30
0.0
 10
83.48741046089899
 20
-138.4404730556677
 30
0.0
 10
83.69480520911102
 20
-138.4404730556677
 30
0.0
 10
83.69480520911102
 20
-138.4404730556677
 30
0.0
 10
84.17918563433714
 20
-138.4404730556677
 30
0.0
 10
84.17918563433714
 20
-138.4404730556677
 30
0.0
 10
84.36522079054065
 20
-138.4404730556677
 30
0.0
 10
84.55160045629266
 20
-138.4384059983765
 30
0.0
 10
84.735568555205
 20
-138.4149793490768
 30
0.0
 10
84.735568555205
 20
-138.4149793490768
 30
0.0
 10
84.735568555205
 20
-138.64545623704
 30
0.0
 10
84.735568555205
 20
-138.64545623704
 30
0.0
 10
84.55160045629266
 20
-138.6223740972889
 30
0.0
 10
84.30389809090319
 20
-138.6203070399977
 30
0.0
 10
84.17918563433714
 20
-138.6203070399977
 30
0.0
  0
HATCH
  5
12D
330
10A
100
AcDbEntity
  8
_U+30EC_U+30A4_U+30E4_U+30FC 1
 62
   179
420
  2234388
100
AcDbHatch
 10
0.0
 20
0.0
 30
0.0
210
0.0
220
0.0
230
1.0
  2
SOLID
 70
     1
 71
     0
 91
        1
 92
        1
 93
        1
 72
     4
 94
        3
 73
     0
 74
     1
 95
       29
 96
       25
 40
0.0
 40
0.0
 40
0.0
 40
0.0
 40
1.0
 40
1.0
 40
1.0
 40
2.0
 40
2.0
 40
2.0
 40
3.0
 40
3.0
 40
3.0
 40
4.0
 40
4.0
 40
4.0
 40
5.0
 40
5.0
 40
5.0
 40
6.0
 40
6.0
 40
6.0
 40
7.0
 40
7.0
 40
7.0
 40
8.0
 40
8.0
 40
8.0
 40
8.0
 10
84.17918563433714
 20
-138.6203070399977
 10
84.17918563433714
 20
-138.6203070399977
 10
83.69480520911102
 20
-138.6203070399977
 10
83.69480520911102
 20
-138.6203070399977
 10
83.66724444522903
 20
-138.6203070399977
 10
83.34995115103752
 20
-138.6203070399977
 10
83.13842228824318
 20
-138.64545623704
 10
83.13842228824318
 20
-138.64545623704
 10
83.13842228824318
 20
-138.4149793490768
 10
83.13842228824318
 20
-138.4149793490768
 10
83.29689668056467
 20
-138.4384059983765
 10
83.48741046089899
 20
-138.4404730556677
 10
83.69480520911102
 20
-138.4404730556677
 10
83.69480520911102
 20
-138.4404730556677
 10
84.17918563433714
 20
-138.4404730556677
 10
84.17918563433714
 20
-138.4404730556677
 10
84.36522079054065
 20
-138.4404730556677
 10
84.55160045629266
 20
-138.4384059983765
 10
84.735568555205
 20
-138.4149793490768
 10
84.735568555205
 20
-138.4149793490768
 10
84.735568555205
 20
-138.64545623704
 10
84.735568555205
 20
-138.64545623704
 10
84.55160045629266
 20
-138.6223740972889
 10
84.30389809090319
 20
-138.6203070399977
 10
84.17918563433714
 20
-138.6203070399977
 97
        0
 97
        0
 75
     2
 76
     1
 98
        0
  0
SPLINE
  5
12E
330
10A
100
AcDbEntity
  8
_U+30EC_U+30A4_U+30E4_U+30FC 1
370
     0
100
AcDbSpline
210
0.0
220
0.0
230
1.0
 70
    11
 71
     3
 72
    44
 73
    40
 74
     0
 42
0.0000000001
 43
0.0000000001
 12
1.0
 22
0.0
 32
0.0
 13
1.0
 23
0.0
 33
0.0
 40
0.0
 40
0.0
 40
0.0
 40
0.0
 40
1.0
 40
1.0
 40
1.0
 40
2.0
 40
2.0
 40
2.0
 40
3.0
 40
3.0
 40
3.0
 40
4.0
 40
4.0
 40
4.0
 40
5.0
 40
5.0
 40
5.0
 40
6.0
 40
6.0
 40
6.0
 40
7.0
 40
7.0
 40
7.0
 40
8.0
 40
8.0
 40
8.0
 40
9.0
 40
9.0
 40
9.0
 40
10.0
 40
10.0
 40
10.0
 40
11.0
 40
11.0
 40
11.0
 40
12.0
 40
12.0
 40
12.0
 40
13.0
 40
13.0
 40
13.0
 40
13.0
 10
86.39059242631902
 20
-138.1820908942739
 30
0.0
 10
86.2786268230484
 20
-138.5503716016471
 30
0.0
 10
86.22798391941522
 20
-138.7091905035172
 30
0.0
 10
86.03126896720747
 20
-138.9586154166493
 30
0.0
 10
85.8469563587466
 20
-139.189436814161
 30
0.0
 10
85.61027829890993
 20
-139.3754719703645
 30
0.0
 10
85.33088105505617
 20
-139.4684895484662
 30
0.0
 10
85.33088105505617
 20
-139.4684895484662
 30
0.0
 10
85.13830021743071
 20
-139.2886555641362
 30
0.0
 10
85.13830021743071
 20
-139.2886555641362
 30
0.0
 10
85.7794324872357
 20
-139.1363823436881
 30
0.0
 10
86.10947263472264
 20
-138.5799994228203
 30
0.0
 10
86.17286239165124
 20
-138.1400607293539
 30
0.0
 10
86.17286239165124
 20
-138.1400607293539
 30
0.0
 10
85.4070176652802
 20
-138.1400607293539
 30
0.0
 10
85.4070176652802
 20
-138.1400607293539
 30
0.0
 10
85.31400008717844
 20
-138.1400607293539
 30
0.0
 10
85.13003198826611
 20
-138.1441948439362
 30
0.0
 10
84.97328014368723
 20
-138.1631428691051
 30
0.0
 10
84.97328014368723
 20
-138.1631428691051
 30
0.0
 10
84.97328014368723
 20
-137.9430012675976
 30
0.0
 10
84.97328014368723
 20
-137.9430012675976
 30
0.0
 10
85.06009654991554
 20
-137.9643608596061
 30
0.0
 10
85.3119330298873
 20
-137.9643608596061
 30
0.0
 10
85.4111517798625
 20
-137.9643608596061
 30
0.0
 10
85.4111517798625
 20
-137.9643608596061
 30
0.0
 10
85.8428222441643
 20
-137.9643608596061
 30
0.0
 10
85.8428222441643
 20
-137.9643608596061
 30
0.0
 10
85.88519691863287
 20
-137.9643608596061
 30
0.0
 10
86.11980792117839
 20
-137.962293802315
 30
0.0
 10
86.15804848106465
 20
-137.9560926304415
 30
0.0
 10
86.20042315553323
 20
-137.9495469490196
 30
0.0
 10
86.20249021282439
 20
-137.9474798917284
 30
0.0
 10
86.26381291246183
 20
-137.907172274551
 30
0.0
 10
86.26381291246183
 20
-137.907172274551
 30
0.0
 10
86.45191512595648
 20
-138.0615125522902
 30
0.0
 10
86.45191512595648
 20
-138.0615125522902
 30
0.0
 10
86.42263181433185
 20
-138.0911403734633
 30
0.0
 10
86.40781790374527
 20
-138.1228352519276
 30
0.0
 10
86.39059242631902
 20
-138.1820908942739
 30
0.0
  0
SPLINE
  5
12F
330
10A
100
AcDbEntity
  8
_U+30EC_U+30A4_U+30E4_U+30FC 1
370
     0
100
AcDbSpline
210
0.0
220
0.0
230
1.0
 70
    11
 71
     3
 72
    17
 73
    13
 74
     0
 42
0.0000000001
 43
0.0000000001
 12
1.0
 22
0.0
 32
0.0
 13
1.0
 23
0.0
 33
0.0
 40
0.0
 40
0.0
 40
0.0
 40
0.0
 40
1.0
 40
1.0
 40
1.0
 40
2.0
 40
2.0
 40
2.0
 40
3.0
 40
3.0
 40
3.0
 40
4.0
 40
4.0
 40
4.0
 40
4.0
 10
86.60005423182221
 20
-137.983308884775
 30
0.0
 10
86.47327471796501
 20
-137.983308884775
 30
0.0
 10
86.37164440115015
 20
-137.8816785679601
 30
0.0
 10
86.37164440115015
 20
-137.7548990541029
 30
0.0
 10
86.37164440115015
 20
-137.6281195402458
 30
0.0
 10
86.47327471796501
 20
-137.5240776565912
 30
0.0
 10
86.60005423182221
 20
-137.5240776565912
 30
0.0
 10
86.72717825522793
 20
-137.5240776565912
 30
0.0
 10
86.83087562933395
 20
-137.6281195402458
 30
0.0
 10
86.83087562933395
 20
-137.7548990541029
 30
0.0
 10
86.83087562933395
 20
-137.8816785679601
 30
0.0
 10
86.72717825522793
 20
-137.983308884775
 30
0.0
 10
86.60005423182221
 20
-137.983308884775
 30
0.0
  0
SPLINE
  5
130
330
10A
100
AcDbEntity
  8
_U+30EC_U+30A4_U+30E4_U+30FC 1
370
     0
100
AcDbSpline
210
0.0
220
0.0
230
1.0
 70
    11
 71
     3
 72
    17
 73
    13
 74
     0
 42
0.0000000001
 43
0.0000000001
 12
1.0
 22
0.0
 32
0.0
 13
1.0
 23
0.0
 33
0.0
 40
0.0
 40
0.0
 40
0.0
 40
0.0
 40
1.0
 40
1.0
 40
1.0
 40
2.0
 40
2.0
 40
2.0
 40
3.0
 40
3.0
 40
3.0
 40
4.0
 40
4.0
 40
4.0
 40
4.0
 10
86.59798717453106
 20
-137.6532687372881
 30
0.0
 10
86.5432101563156
 20
-137.6532687372881
 30
0.0
 10
86.49876842455586
 20
-137.6977104690478
 30
0.0
 10
86.49876842455586
 20
-137.7528319968118
 30
0.0
 10
86.49876842455586
 20
-137.810020581867
 30
0.0
 10
86.5432101563156
 20
-137.858596428209
 30
0.0
 10
86.60212128911336
 20
-137.858596428209
 30
0.0
 10
86.66137693145966
 20
-137.858596428209
 30
0.0
 10
86.70168454863709
 20
-137.8079535245758
 30
0.0
 10
86.70168454863709
 20
-137.7548990541029
 30
0.0
 10
86.70168454863709
 20
-137.6977104690478
 30
0.0
 10
86.65517575958621
 20
-137.6532687372881
 30
0.0
 10
86.59798717453106
 20
-137.6532687372881
 30
0.0
  0
HATCH
  5
131
330
10A
100
AcDbEntity
  8
_U+30EC_U+30A4_U+30E4_U+30FC 1
 62
   179
420
  2234388
100
AcDbHatch
 10
0.0
 20
0.0
 30
0.0
210
0.0
220
0.0
230
1.0
  2
SOLID
 70
     1
 71
     0
 91
        3
 92
        1
 93
        1
 72
     4
 94
        3
 73
     0
 74
     1
 95
       44
 96
       40
 40
0.0
 40
0.0
 40
0.0
 40
0.0
 40
1.0
 40
1.0
 40
1.0
 40
2.0
 40
2.0
 40
2.0
 40
3.0
 40
3.0
 40
3.0
 40
4.0
 40
4.0
 40
4.0
 40
5.0
 40
5.0
 40
5.0
 40
6.0
 40
6.0
 40
6.0
 40
7.0
 40
7.0
 40
7.0
 40
8.0
 40
8.0
 40
8.0
 40
9.0
 40
9.0
 40
9.0
 40
10.0
 40
10.0
 40
10.0
 40
11.0
 40
11.0
 40
11.0
 40
12.0
 40
12.0
 40
12.0
 40
13.0
 40
13.0
 40
13.0
 40
13.0
 10
86.39059242631902
 20
-138.1820908942739
 10
86.2786268230484
 20
-138.5503716016471
 10
86.22798391941522
 20
-138.7091905035172
 10
86.03126896720747
 20
-138.9586154166493
 10
85.8469563587466
 20
-139.189436814161
 10
85.61027829890993
 20
-139.3754719703645
 10
85.33088105505617
 20
-139.4684895484662
 10
85.33088105505617
 20
-139.4684895484662
 10
85.13830021743071
 20
-139.2886555641362
 10
85.13830021743071
 20
-139.2886555641362
 10
85.7794324872357
 20
-139.1363823436881
 10
86.10947263472264
 20
-138.5799994228203
 10
86.17286239165124
 20
-138.1400607293539
 10
86.17286239165124
 20
-138.1400607293539
 10
85.4070176652802
 20
-138.1400607293539
 10
85.4070176652802
 20
-138.1400607293539
 10
85.31400008717844
 20
-138.1400607293539
 10
85.13003198826611
 20
-138.1441948439362
 10
84.97328014368723
 20
-138.1631428691051
 10
84.97328014368723
 20
-138.1631428691051
 10
84.97328014368723
 20
-137.9430012675976
 10
84.97328014368723
 20
-137.9430012675976
 10
85.06009654991554
 20
-137.9643608596061
 10
85.3119330298873
 20
-137.9643608596061
 10
85.4111517798625
 20
-137.9643608596061
 10
85.4111517798625
 20
-137.9643608596061
 10
85.8428222441643
 20
-137.9643608596061
 10
85.8428222441643
 20
-137.9643608596061
 10
85.88519691863287
 20
-137.9643608596061
 10
86.11980792117839
 20
-137.962293802315
 10
86.15804848106465
 20
-137.9560926304415
 10
86.20042315553323
 20
-137.9495469490196
 10
86.20249021282439
 20
-137.9474798917284
 10
86.26381291246183
 20
-137.907172274551
 10
86.26381291246183
 20
-137.907172274551
 10
86.45191512595648
 20
-138.0615125522902
 10
86.45191512595648
 20
-138.0615125522902
 10
86.42263181433185
 20
-138.0911403734633
 10
86.40781790374527
 20
-138.1228352519276
 10
86.39059242631902
 20
-138.1820908942739
 97
        0
 97
        0
 92
        1
 93
        1
 72
     4
 94
        3
 73
     0
 74
     1
 95
       17
 96
       13
 40
0.0
 40
0.0
 40
0.0
 40
0.0
 40
1.0
 40
1.0
 40
1.0
 40
2.0
 40
2.0
 40
2.0
 40
3.0
 40
3.0
 40
3.0
 40
4.0
 40
4.0
 40
4.0
 40
4.0
 10
86.60005423182221
 20
-137.983308884775
 10
86.47327471796501
 20
-137.983308884775
 10
86.37164440115015
 20
-137.8816785679601
 10
86.37164440115015
 20
-137.7548990541029
 10
86.37164440115015
 20
-137.6281195402458
 10
86.47327471796501
 20
-137.5240776565912
 10
86.60005423182221
 20
-137.5240776565912
 10
86.72717825522793
 20
-137.5240776565912
 10
86.83087562933395
 20
-137.6281195402458
 10
86.83087562933395
 20
-137.7548990541029
 10
86.83087562933395
 20
-137.8816785679601
 10
86.72717825522793
 20
-137.983308884775
 10
86.60005423182221
 20
-137.983308884775
 97
        0
 97
        0
 92
        1
 93
        1
 72
     4
 94
        3
 73
     0
 74
     1
 95
       17
 96
       13
 40
0.0
 40
0.0
 40
0.0
 40
0.0
 40
1.0
 40
1.0
 40
1.0
 40
2.0
 40
2.0
 40
2.0
 40
3.0
 40
3.0
 40
3.0
 40
4.0
 40
4.0
 40
4.0
 40
4.0
 10
86.59798717453106
 20
-137.6532687372881
 10
86.5432101563156
 20
-137.6532687372881
 10
86.49876842455586
 20
-137.6977104690478
 10
86.49876842455586
 20
-137.7528319968118
 10
86.49876842455586
 20
-137.810020581867
 10
86.5432101563156
 20
-137.858596428209
 10
86.60212128911336
 20
-137.858596428209
 10
86.66137693145966
 20
-137.858596428209
 10
86.70168454863709
 20
-137.8079535245758
 10
86.70168454863709
 20
-137.7548990541029
 10
86.70168454863709
 20
-137.6977104690478
 10
86.65517575958621
 20
-137.6532687372881
 10
86.59798717453106
 20
-137.6532687372881
 97
        0
 97
        0
 75
     2
 76
     1
 98
        0
  0
ENDBLK
  5
10D
330
10A
100
AcDbEntity
  8
0
100
AcDbBlockEnd
  0
ENDSEC
  0
SECTION
  2
ENTITIES
  0
POLYLINE
  5
41
330
1F
100
AcDbEntity
  8
_U+30EC_U+30A4_U+30E4_U+30FC 1
 62
   179
420
  2234388
370
    25
100
AcDb2dPolyline
 66
     1
 10
0.0
 20
0.0
 30
0.0
  0
VERTEX
  5
42
330
41
100
AcDbEntity
  8
_U+30EC_U+30A4_U+30E4_U+30FC 1
 62
   179
420
  2234388
370
    25
100
AcDbVertex
100
AcDb2dVertex
 10
92.55110652771344
 20
-135.8046277438268
 30
0.0
  0
VERTEX
  5
43
330
41
100
AcDbEntity
  8
_U+30EC_U+30A4_U+30E4_U+30FC 1
 62
   179
420
  2234388
370
    25
100
AcDbVertex
100
AcDb2dVertex
 10
95.35128006738618
 20
-135.8046277438268
 30
0.0
  0
SEQEND
  5
44
330
41
100
AcDbEntity
  8
_U+30EC_U+30A4_U+30E4_U+30FC 1
 62
   179
420
  2234388
370
    25
  0
POLYLINE
  5
45
330
1F
100
AcDbEntity
  8
_U+30EC_U+30A4_U+30E4_U+30FC 1
 62
   179
420
  2234388
370
    25
100
AcDb2dPolyline
 66
     1
 10
0.0
 20
0.0
 30
0.0
  0
VERTEX
  5
46
330
45
100
AcDbEntity
  8
_U+30EC_U+30A4_U+30E4_U+30FC 1
 62
   179
420
  2234388
370
    25
100
AcDbVertex
100
AcDb2dVertex
 10
91.1517076745262
 20
-122.8042021915211
 30
0.0
  0
VERTEX
  5
47
330
45
100
AcDbEntity
  8
_U+30EC_U+30A4_U+30E4_U+30FC 1
 62
   179
420
  2234388
370
    25
100
AcDbVertex
100
AcDb2dVertex
 10
100.3514816064871
 20
-122.8042021915211
 30
0.0
  0
SEQEND
  5
48
330
45
100
AcDbEntity
  8
_U+30EC_U+30A4_U+30E4_U+30FC 1
 62
   179
420
  2234388
370
    25
  0
POLYLINE
  5
49
330
1F
100
AcDbEntity
  8
_U+30EC_U+30A4_U+30E4_U+30FC 1
 62
   179
420
  2234388
370
    25
100
AcDb2dPolyline
 66
     1
 10
0.0
 20
0.0
 30
0.0
  0
VERTEX
  5
4A
330
49
100
AcDbEntity
  8
_U+30EC_U+30A4_U+30E4_U+30FC 1
 62
   179
420
  2234388
370
    25
100
AcDbVertex
100
AcDb2dVertex
 10
90.35174880604596
 20
-138.8046146875212
 30
0.0
  0
VERTEX
  5
4B
330
49
100
AcDbEntity
  8
_U+30EC_U+30A4_U+30E4_U+30FC 1
 62
   179
420
  2234388
370
    25
100
AcDbVertex
100
AcDb2dVertex
 10
95.35128006738618
 20
-138.8046146875212
 30
0.0
  0
SEQEND
  5
4C
330
49
100
AcDbEntity
  8
_U+30EC_U+30A4_U+30E4_U+30FC 1
 62
   179
420
  2234388
370
    25
  0
POLYLINE
  5
4D
330
1F
100
AcDbEntity
  8
_U+30EC_U+30A4_U+30E4_U+30FC 1
 62
   179
420
  2234388
370
    25
100
AcDb2dPolyline
 66
     1
 10
0.0
 20
0.0
 30
0.0
  0
VERTEX
  5
4E
330
4D
100
AcDbEntity
  8
_U+30EC_U+30A4_U+30E4_U+30FC 1
 62
   179
420
  2234388
370
    25
100
AcDbVertex
100
AcDb2dVertex
 10
90.35174880604596
 20
-122.0042785806099
 30
0.0
  0
VERTEX
  5
4F
330
4D
100
AcDbEntity
  8
_U+30EC_U+30A4_U+30E4_U+30FC 1
 62
   179
420
  2234388
370
    25
100
AcDbVertex
100
AcDb2dVertex
 10
100.3514816064871
 20
-122.0042785806099
 30
0.0
  0
SEQEND
  5
50
330
4D
100
AcDbEntity
  8
_U+30EC_U+30A4_U+30E4_U+30FC 1
 62
   179
420
  2234388
370
    25
  0
POLYLINE
  5
51
330
1F
100
AcDbEntity
  8
_U+30EC_U+30A4_U+30E4_U+30FC 1
 62
   179
420
  2234388
370
    25
100
AcDb2dPolyline
 66
     1
 10
0.0
 20
0.0
 30
0.0
  0
VERTEX
  5
52
330
51
100
AcDbEntity
  8
_U+30EC_U+30A4_U+30E4_U+30FC 1
 62
   179
420
  2234388
370
    25
100
AcDbVertex
100
AcDb2dVertex
 10
95.35128006738618
 20
-135.8046277438268
 30
0.0
  0
VERTEX
  5
53
330
51
100
AcDbEntity
  8
_U+30EC_U+30A4_U+30E4_U+30FC 1
 62
   179
420
  2234388
370
    25
100
AcDbVertex
100
AcDb2dVertex
 10
95.35128006738618
 20
-138.8046146875212
 30
0.0
  0
SEQEND
  5
54
330
51
100
AcDbEntity
  8
_U+30EC_U+30A4_U+30E4_U+30FC 1
 62
   179
420
  2234388
370
    25
  0
POLYLINE
  5
55
330
1F
100
AcDbEntity
  8
_U+30EC_U+30A4_U+30E4_U+30FC 1
 62
   179
420
  2234388
370
    25
100
AcDb2dPolyline
 66
     1
 10
0.0
 20
0.0
 30
0.0
  0
VERTEX
  5
56
330
55
100
AcDbEntity
  8
_U+30EC_U+30A4_U+30E4_U+30FC 1
 62
   179
420
  2234388
370
    25
100
AcDbVertex
100
AcDb2dVertex
 10
92.55110652771344
 20
-135.8046277438268
 30
0.0
  0
VERTEX
  5
57
330
55
100
AcDbEntity
  8
_U+30EC_U+30A4_U+30E4_U+30FC 1
 62
   179
420
  2234388
370
    25
100
AcDbVertex
100
AcDb2dVertex
 10
92.55110652771344
 20
-136.6045866325154
 30
0.0
  0
SEQEND
  5
58
330
55
100
AcDbEntity
  8
_U+30EC_U+30A4_U+30E4_U+30FC 1
 62
   179
420
  2234388
370
    25
  0
POLYLINE
  5
59
330
1F
100
AcDbEntity
  8
_U+30EC_U+30A4_U+30E4_U+30FC 1
 62
   179
420
  2234388
370
    25
100
AcDb2dPolyline
 66
     1
 10
0.0
 20
0.0
 30
0.0
  0
VERTEX
  5
5A
330
59
100
AcDbEntity
  8
_U+30EC_U+30A4_U+30E4_U+30FC 1
 62
   179
420
  2234388
370
    25
100
AcDbVertex
100
AcDb2dVertex
 10
90.35174880604596
 20
-122.0042785806099
 30
0.0
  0
VERTEX
  5
5B
330
59
100
AcDbEntity
  8
_U+30EC_U+30A4_U+30E4_U+30FC 1
 62
   179
420
  2234388
370
    25
100
AcDbVertex
100
AcDb2dVertex
 10
90.35174880604596
 20
-138.8046146875212
 30
0.0
  0
SEQEND
  5
5C
330
59
100
AcDbEntity
  8
_U+30EC_U+30A4_U+30E4_U+30FC 1
 62
   179
420
  2234388
370
    25
  0
POLYLINE
  5
5D
330
1F
100
AcDbEntity
  8
_U+30EC_U+30A4_U+30E4_U+30FC 1
 62
   179
420
  2234388
370
    25
100
AcDb2dPolyline
 66
     1
 10
0.0
 20
0.0
 30
0.0
  0
VERTEX
  5
5E
330
5D
100
AcDbEntity
  8
_U+30EC_U+30A4_U+30E4_U+30FC 1
 62
   179
420
  2234388
370
    25
100
AcDbVertex
100
AcDb2dVertex
 10
100.3514816064871
 20
-122.0042785806099
 30
0.0
  0
VERTEX
  5
5F
330
5D
100
AcDbEntity
  8
_U+30EC_U+30A4_U+30E4_U+30FC 1
 62
   179
420
  2234388
370
    25
100
AcDbVertex
100
AcDb2dVertex
 10
100.3514816064871
 20
-122.8042021915211
 30
0.0
  0
SEQEND
  5
60
330
5D
100
AcDbEntity
  8
_U+30EC_U+30A4_U+30E4_U+30FC 1
 62
   179
420
  2234388
370
    25
  0
POLYLINE
  5
61
330
1F
100
AcDbEntity
  8
_U+30EC_U+30A4_U+30E4_U+30FC 1
 62
   179
420
  2234388
370
    25
100
AcDb2dPolyline
 66
     1
 10
0.0
 20
0.0
 30
0.0
  0
VERTEX
  5
62
330
61
100
AcDbEntity
  8
_U+30EC_U+30A4_U+30E4_U+30FC 1
 62
   179
420
  2234388
370
    25
100
AcDbVertex
100
AcDb2dVertex
 10
91.1517076745262
 20
-122.8042021915211
 30
0.0
  0
VERTEX
  5
63
330
61
100
AcDbEntity
  8
_U+30EC_U+30A4_U+30E4_U+30FC 1
 62
   179
420
  2234388
370
    25
100
AcDbVertex
100
AcDb2dVertex
 10
91.1517076745262
 20
-138.0046557988319
 30
0.0
  0
SEQEND
  5
64
330
61
100
AcDbEntity
  8
_U+30EC_U+30A4_U+30E4_U+30FC 1
 62
   179
420
  2234388
370
    25
  0
POLYLINE
  5
65
330
1F
100
AcDbEntity
  8
_U+30EC_U+30A4_U+30E4_U+30FC 1
 62
   179
420
  2234388
370
    25
100
AcDb2dPolyline
 66
     1
 10
0.0
 20
0.0
 30
0.0
  0
VERTEX
  5
66
330
65
100
AcDbEntity
  8
_U+30EC_U+30A4_U+30E4_U+30FC 1
 62
   179
420
  2234388
370
    25
100
AcDbVertex
100
AcDb2dVertex
 10
91.1517076745262
 20
-138.0046557988319
 30
0.0
  0
VERTEX
  5
67
330
65
100
AcDbEntity
  8
_U+30EC_U+30A4_U+30E4_U+30FC 1
 62
   179
420
  2234388
370
    25
100
AcDbVertex
100
AcDb2dVertex
 10
94.55132119890594
 20
-138.0046557988319
 30
0.0
  0
SEQEND
  5
68
330
65
100
AcDbEntity
  8
_U+30EC_U+30A4_U+30E4_U+30FC 1
 62
   179
420
  2234388
370
    25
  0
POLYLINE
  5
69
330
1F
100
AcDbEntity
  8
_U+30EC_U+30A4_U+30E4_U+30FC 1
 62
   179
420
  2234388
370
    25
100
AcDb2dPolyline
 66
     1
 10
0.0
 20
0.0
 30
0.0
  0
VERTEX
  5
6A
330
69
100
AcDbEntity
  8
_U+30EC_U+30A4_U+30E4_U+30FC 1
 62
   179
420
  2234388
370
    25
100
AcDbVertex
100
AcDb2dVertex
 10
94.55132119890594
 20
-136.6045866325154
 30
0.0
  0
VERTEX
  5
6B
330
69
100
AcDbEntity
  8
_U+30EC_U+30A4_U+30E4_U+30FC 1
 62
   179
420
  2234388
370
    25
100
AcDbVertex
100
AcDb2dVertex
 10
94.55132119890594
 20
-138.0046557988319
 30
0.0
  0
SEQEND
  5
6C
330
69
100
AcDbEntity
  8
_U+30EC_U+30A4_U+30E4_U+30FC 1
 62
   179
420
  2234388
370
    25
  0
POLYLINE
  5
6D
330
1F
100
AcDbEntity
  8
_U+30EC_U+30A4_U+30E4_U+30FC 1
 62
   179
420
  2234388
370
    25
100
AcDb2dPolyline
 66
     1
 10
0.0
 20
0.0
 30
0.0
  0
VERTEX
  5
6E
330
6D
100
AcDbEntity
  8
_U+30EC_U+30A4_U+30E4_U+30FC 1
 62
   179
420
  2234388
370
    25
100
AcDbVertex
100
AcDb2dVertex
 10
92.55110652771344
 20
-136.6045866325154
 30
0.0
  0
VERTEX
  5
6F
330
6D
100
AcDbEntity
  8
_U+30EC_U+30A4_U+30E4_U+30FC 1
 62
   179
420
  2234388
370
    25
100
AcDbVertex
100
AcDb2dVertex
 10
94.55132119890594
 20
-136.6045866325154
 30
0.0
  0
SEQEND
  5
70
330
6D
100
AcDbEntity
  8
_U+30EC_U+30A4_U+30E4_U+30FC 1
 62
   179
420
  2234388
370
    25
  0
SPLINE
  5
71
330
1F
100
AcDbEntity
  8
_U+30EC_U+30A4_U+30E4_U+30FC 1
 62
   179
420
  2234388
370
     9
100
AcDbSpline
210
0.0
220
0.0
230
1.0
 70
    11
 71
     3
 72
    17
 73
    13
 74
     0
 42
0.0000000001
 43
0.0000000001
 12
1.0
 22
0.0
 32
0.0
 13
1.0
 23
0.0
 33
0.0
 40
0.0
 40
0.0
 40
0.0
 40
0.0
 40
1.0
 40
1.0
 40
1.0
 40
2.0
 40
2.0
 40
2.0
 40
3.0
 40
3.0
 40
3.0
 40
4.0
 40
4.0
 40
4.0
 40
4.0
 10
104.4518555294429
 20
-122.0042785806099
 30
0.0
 10
104.4518555294429
 20
-121.9491394139572
 30
0.0
 10
104.4070527516761
 20
-121.9043719139683
 30
0.0
 10
104.3512406711114
 20
-121.9043719139683
 30
0.0
 10
104.2961367836283
 20
-121.9043719139683
 30
0.0
 10
104.2513340069936
 20
-121.9491394139572
 30
0.0
 10
104.2513340069936
 20
-122.0042785806099
 30
0.0
 10
104.2513340069936
 20
-122.0593824694852
 30
0.0
 10
104.2961367836283
 20
-122.1041852472516
 30
0.0
 10
104.3512406711114
 20
-122.1041852472516
 30
0.0
 10
104.4070527516761
 20
-122.1041852472516
 30
0.0
 10
104.4518555294429
 20
-122.0593824694852
 30
0.0
 10
104.4518555294429
 20
-122.0042785806099
 30
0.0
  0
SPLINE
  5
72
330
1F
100
AcDbEntity
  8
_U+30EC_U+30A4_U+30E4_U+30FC 1
 62
   179
420
  2234388
370
     9
100
AcDbSpline
210
0.0
220
0.0
230
1.0
 70
    11
 71
     3
 72
    17
 73
    13
 74
     0
 42
0.0000000001
 43
0.0000000001
 12
1.0
 22
0.0
 32
0.0
 13
1.0
 23
0.0
 33
0.0
 40
0.0
 40
0.0
 40
0.0
 40
0.0
 40
1.0
 40
1.0
 40
1.0
 40
2.0
 40
2.0
 40
2.0
 40
3.0
 40
3.0
 40
3.0
 40
4.0
 40
4.0
 40
4.0
 40
4.0
 10
104.4518555294429
 20
-135.8046277438268
 30
0.0
 10
104.4518555294429
 20
-135.7495238549513
 30
0.0
 10
104.4070527516761
 20
-135.7047210771852
 30
0.0
 10
104.3512406711114
 20
-135.7047210771852
 30
0.0
 10
104.2961367836283
 20
-135.7047210771852
 30
0.0
 10
104.2513340069936
 20
-135.7495238549513
 30
0.0
 10
104.2513340069936
 20
-135.8046277438268
 30
0.0
 10
104.2513340069936
 20
-135.8597669104793
 30
0.0
 10
104.2961367836283
 20
-135.9045344104684
 30
0.0
 10
104.3512406711114
 20
-135.9045344104684
 30
0.0
 10
104.4070527516761
 20
-135.9045344104684
 30
0.0
 10
104.4518555294429
 20
-135.8597669104793
 30
0.0
 10
104.4518555294429
 20
-135.8046277438268
 30
0.0
  0
SPLINE
  5
73
330
1F
100
AcDbEntity
  8
_U+30EC_U+30A4_U+30E4_U+30FC 1
 62
   179
420
  2234388
370
     9
100
AcDbSpline
210
0.0
220
0.0
230
1.0
 70
    11
 71
     3
 72
    17
 73
    13
 74
     0
 42
0.0000000001
 43
0.0000000001
 12
1.0
 22
0.0
 32
0.0
 13
1.0
 23
0.0
 33
0.0
 40
0.0
 40
0.0
 40
0.0
 40
0.0
 40
1.0
 40
1.0
 40
1.0
 40
2.0
 40
2.0
 40
2.0
 40
3.0
 40
3.0
 40
3.0
 40
4.0
 40
4.0
 40
4.0
 40
4.0
 10
104.4518555294429
 20
-138.8046146875212
 30
0.0
 10
104.4518555294429
 20
-138.7495107986462
 30
0.0
 10
104.4070527516761
 20
-138.7047080208795
 30
0.0
 10
104.3512406711114
 20
-138.7047080208795
 30
0.0
 10
104.2961367836283
 20
-138.7047080208795
 30
0.0
 10
104.2513340069936
 20
-138.7495107986462
 30
0.0
 10
104.2513340069936
 20
-138.8046146875212
 30
0.0
 10
104.2513340069936
 20
-138.8597538541742
 30
0.0
 10
104.2961367836283
 20
-138.9045213541628
 30
0.0
 10
104.3512406711114
 20
-138.9045213541628
 30
0.0
 10
104.4070527516761
 20
-138.9045213541628
 30
0.0
 10
104.4518555294429
 20
-138.8597538541742
 30
0.0
 10
104.4518555294429
 20
-138.8046146875212
 30
0.0
  0
SPLINE
  5
74
330
1F
100
AcDbEntity
  8
_U+30EC_U+30A4_U+30E4_U+30FC 1
 62
   179
420
  2234388
370
     9
100
AcDbSpline
210
0.0
220
0.0
230
1.0
 70
    11
 71
     3
 72
    17
 73
    13
 74
     0
 42
0.0000000001
 43
0.0000000001
 12
1.0
 22
0.0
 32
0.0
 13
1.0
 23
0.0
 33
0.0
 40
0.0
 40
0.0
 40
0.0
 40
0.0
 40
1.0
 40
1.0
 40
1.0
 40
2.0
 40
2.0
 40
2.0
 40
3.0
 40
3.0
 40
3.0
 40
4.0
 40
4.0
 40
4.0
 40
4.0
 10
95.45118673150402
 20
-142.8050794087429
 30
0.0
 10
95.45118673150402
 20
-142.7492699643125
 30
0.0
 10
95.40641923264613
 20
-142.7044671865464
 30
0.0
 10
95.35128006738618
 20
-142.7044671865464
 30
0.0
 10
95.29617617990311
 20
-142.7044671865464
 30
0.0
 10
95.25137340326835
 20
-142.7492699643125
 30
0.0
 10
95.25137340326835
 20
-142.8050794087429
 30
0.0
 10
95.25137340326835
 20
-142.8601832976185
 30
0.0
 10
95.29617617990311
 20
-142.9049860753846
 30
0.0
 10
95.35128006738618
 20
-142.9049860753846
 30
0.0
 10
95.40641923264613
 20
-142.9049860753846
 30
0.0
 10
95.45118673150402
 20
-142.8601832976185
 30
0.0
 10
95.45118673150402
 20
-142.8050794087429
 30
0.0
  0
SPLINE
  5
75
330
1F
100
AcDbEntity
  8
_U+30EC_U+30A4_U+30E4_U+30FC 1
 62
   179
420
  2234388
370
     9
100
AcDbSpline
210
0.0
220
0.0
230
1.0
 70
    11
 71
     3
 72
    17
 73
    13
 74
     0
 42
0.0000000001
 43
0.0000000001
 12
1.0
 22
0.0
 32
0.0
 13
1.0
 23
0.0
 33
0.0
 40
0.0
 40
0.0
 40
0.0
 40
0.0
 40
1.0
 40
1.0
 40
1.0
 40
2.0
 40
2.0
 40
2.0
 40
3.0
 40
3.0
 40
3.0
 40
4.0
 40
4.0
 40
4.0
 40
4.0
 10
104.4518555294429
 20
-122.8042021915211
 30
0.0
 10
104.4518555294429
 20
-122.7490983026461
 30
0.0
 10
104.4070527516761
 20
-122.7042955248794
 30
0.0
 10
104.3512406711114
 20
-122.7042955248794
 30
0.0
 10
104.2961367836283
 20
-122.7042955248794
 30
0.0
 10
104.2513340069936
 20
-122.7490983026461
 30
0.0
 10
104.2513340069936
 20
-122.8042021915211
 30
0.0
 10
104.2513340069936
 20
-122.8600116359518
 30
0.0
 10
104.2961367836283
 20
-122.9048144137182
 30
0.0
 10
104.3512406711114
 20
-122.9048144137182
 30
0.0
 10
104.4070527516761
 20
-122.9048144137182
 30
0.0
 10
104.4518555294429
 20
-122.8600116359518
 30
0.0
 10
104.4518555294429
 20
-122.8042021915211
 30
0.0
  0
SPLINE
  5
76
330
1F
100
AcDbEntity
  8
_U+30EC_U+30A4_U+30E4_U+30FC 1
 62
   179
420
  2234388
370
     9
100
AcDbSpline
210
0.0
220
0.0
230
1.0
 70
    11
 71
     3
 72
    17
 73
    13
 74
     0
 42
0.0000000001
 43
0.0000000001
 12
1.0
 22
0.0
 32
0.0
 13
1.0
 23
0.0
 33
0.0
 40
0.0
 40
0.0
 40
0.0
 40
0.0
 40
1.0
 40
1.0
 40
1.0
 40
2.0
 40
2.0
 40
2.0
 40
3.0
 40
3.0
 40
3.0
 40
4.0
 40
4.0
 40
4.0
 40
4.0
 10
100.4513882706049
 20
-118.0045194149434
 30
0.0
 10
100.4513882706049
 20
-117.9493802482903
 30
0.0
 10
100.406620771747
 20
-117.9046127483018
 30
0.0
 10
100.3514816064871
 20
-117.9046127483018
 30
0.0
 10
100.296377719004
 20
-117.9046127483018
 30
0.0
 10
100.2515749423692
 20
-117.9493802482903
 30
0.0
 10
100.2515749423692
 20
-118.0045194149434
 30
0.0
 10
100.2515749423692
 20
-118.0596233038183
 30
0.0
 10
100.296377719004
 20
-118.104426081585
 30
0.0
 10
100.3514816064871
 20
-118.104426081585
 30
0.0
 10
100.406620771747
 20
-118.104426081585
 30
0.0
 10
100.4513882706049
 20
-118.0596233038183
 30
0.0
 10
100.4513882706049
 20
-118.0045194149434
 30
0.0
  0
SPLINE
  5
77
330
1F
100
AcDbEntity
  8
_U+30EC_U+30A4_U+30E4_U+30FC 1
 62
   179
420
  2234388
370
     9
100
AcDbSpline
210
0.0
220
0.0
230
1.0
 70
    11
 71
     3
 72
    17
 73
    13
 74
     0
 42
0.0000000001
 43
0.0000000001
 12
1.0
 22
0.0
 32
0.0
 13
1.0
 23
0.0
 33
0.0
 40
0.0
 40
0.0
 40
0.0
 40
0.0
 40
1.0
 40
1.0
 40
1.0
 40
2.0
 40
2.0
 40
2.0
 40
3.0
 40
3.0
 40
3.0
 40
4.0
 40
4.0
 40
4.0
 40
4.0
 10
90.4516554701638
 20
-118.0045194149434
 30
0.0
 10
90.4516554701638
 20
-117.9493802482903
 30
0.0
 10
90.4068879713059
 20
-117.9046127483018
 30
0.0
 10
90.35174880604596
 20
-117.9046127483018
 30
0.0
 10
90.2959416440928
 20
-117.9046127483018
 30
0.0
 10
90.25117186416745
 20
-117.9493802482903
 30
0.0
 10
90.25117186416745
 20
-118.0045194149434
 30
0.0
 10
90.25117186416745
 20
-118.0596233038183
 30
0.0
 10
90.2959416440928
 20
-118.104426081585
 30
0.0
 10
90.35174880604596
 20
-118.104426081585
 30
0.0
 10
90.4068879713059
 20
-118.104426081585
 30
0.0
 10
90.4516554701638
 20
-118.0596233038183
 30
0.0
 10
90.4516554701638
 20
-118.0045194149434
 30
0.0
  0
SPLINE
  5
78
330
1F
100
AcDbEntity
  8
_U+30EC_U+30A4_U+30E4_U+30FC 1
 62
   179
420
  2234388
370
     9
100
AcDbSpline
210
0.0
220
0.0
230
1.0
 70
    11
 71
     3
 72
    17
 73
    13
 74
     0
 42
0.0000000001
 43
0.0000000001
 12
1.0
 22
0.0
 32
0.0
 13
1.0
 23
0.0
 33
0.0
 40
0.0
 40
0.0
 40
0.0
 40
0.0
 40
1.0
 40
1.0
 40
1.0
 40
2.0
 40
2.0
 40
2.0
 40
3.0
 40
3.0
 40
3.0
 40
4.0
 40
4.0
 40
4.0
 40
4.0
 10
90.4516554701638
 20
-142.8050794087429
 30
0.0
 10
90.4516554701638
 20
-142.7492699643125
 30
0.0
 10
90.4068879713059
 20
-142.7044671865464
 30
0.0
 10
90.35174880604596
 20
-142.7044671865464
 30
0.0
 10
90.2959416440928
 20
-142.7044671865464
 30
0.0
 10
90.25117186416745
 20
-142.7492699643125
 30
0.0
 10
90.25117186416745
 20
-142.8050794087429
 30
0.0
 10
90.25117186416745
 20
-142.8601832976185
 30
0.0
 10
90.2959416440928
 20
-142.9049860753846
 30
0.0
 10
90.35174880604596
 20
-142.9049860753846
 30
0.0
 10
90.4068879713059
 20
-142.9049860753846
 30
0.0
 10
90.4516554701638
 20
-142.8601832976185
 30
0.0
 10
90.4516554701638
 20
-142.8050794087429
 30
0.0
  0
INSERT
  5
7A
330
1F
100
AcDbEntity
  8
_U+30EC_U+30A4_U+30E4_U+30FC 1
100
AcDbBlockReference
  2
block 2
 10
0.0
 20
0.0
 30
0.0
  0
INSERT
  5
8C
330
1F
100
AcDbEntity
  8
_U+30EC_U+30A4_U+30E4_U+30FC 1
100
AcDbBlockReference
  2
block 4
 10
0.0
 20
0.0
 30
0.0
  0
INSERT
  5
A5
330
1F
100
AcDbEntity
  8
_U+30EC_U+30A4_U+30E4_U+30FC 1
100
AcDbBlockReference
  2
block 6
 10
0.0
 20
0.0
 30
0.0
  0
INSERT
  5
BB
330
1F
100
AcDbEntity
  8
_U+30EC_U+30A4_U+30E4_U+30FC 1
100
AcDbBlockReference
  2
block 8
 10
0.0
 20
0.0
 30
0.0
  0
INSERT
  5
E2
330
1F
100
AcDbEntity
  8
_U+30EC_U+30A4_U+30E4_U+30FC 1
100
AcDbBlockReference
  2
block 10
 10
0.0
 20
0.0
 30
0.0
  0
POLYLINE
  5
F9
330
1F
100
AcDbEntity
  8
_U+30EC_U+30A4_U+30E4_U+30FC 1
  6
AI-Linetype-1
 62
   154
420
    23468
370
    25
100
AcDb2dPolyline
 66
     1
 10
0.0
 20
0.0
 30
0.0
  0
VERTEX
  5
FA
330
F9
100
AcDbEntity
  8
_U+30EC_U+30A4_U+30E4_U+30FC 1
  6
AI-Linetype-1
 62
   154
420
    23468
370
    25
100
AcDbVertex
100
AcDb2dVertex
 10
89.54491077107456
 20
-122.0952246916984
 30
0.0
  0
VERTEX
  5
FB
330
F9
100
AcDbEntity
  8
_U+30EC_U+30A4_U+30E4_U+30FC 1
  6
AI-Linetype-1
 62
   154
420
    23468
370
    25
100
AcDbVertex
100
AcDb2dVertex
 10
89.54491077107456
 20
-130.0954133008096
 30
0.0
  0
SEQEND
  5
FD
330
F9
100
AcDbEntity
  8
_U+30EC_U+30A4_U+30E4_U+30FC 1
  6
AI-Linetype-1
 62
   154
420
    23468
370
    25
  0
POLYLINE
  5
FE
330
1F
100
AcDbEntity
  8
_U+30EC_U+30A4_U+30E4_U+30FC 1
 62
   179
420
  2234388
370
     9
100
AcDb2dPolyline
 66
     1
 10
0.0
 20
0.0
 30
0.0
  0
VERTEX
  5
FF
330
FE
100
AcDbEntity
  8
_U+30EC_U+30A4_U+30E4_U+30FC 1
 62
   179
420
  2234388
370
     9
100
AcDbVertex
100
AcDb2dVertex
 10
89.36577022008926
 20
-130.1574316341271
 30
0.0
  0
VERTEX
  5
100
330
FE
100
AcDbEntity
  8
_U+30EC_U+30A4_U+30E4_U+30FC 1
 62
   179
420
  2234388
370
     9
100
AcDbVertex
100
AcDb2dVertex
 10
88.49966551996322
 20
-130.6576705228914
 30
0.0
  0
SEQEND
  5
101
330
FE
100
AcDbEntity
  8
_U+30EC_U+30A4_U+30E4_U+30FC 1
 62
   179
420
  2234388
370
     9
  0
POLYLINE
  5
102
330
1F
100
AcDbEntity
  8
_U+30EC_U+30A4_U+30E4_U+30FC 1
 62
   179
420
  2234388
370
     9
100
AcDb2dPolyline
 66
     1
 10
0.0
 20
0.0
 30
0.0
  0
VERTEX
  5
103
330
102
100
AcDbEntity
  8
_U+30EC_U+30A4_U+30E4_U+30FC 1
 62
   179
420
  2234388
370
     9
100
AcDbVertex
100
AcDb2dVertex
 10
89.36577022008926
 20
-130.1574316341271
 30
0.0
  0
VERTEX
  5
104
330
102
100
AcDbEntity
  8
_U+30EC_U+30A4_U+30E4_U+30FC 1
 62
   179
420
  2234388
370
     9
100
AcDbVertex
100
AcDb2dVertex
 10
82.29504540047849
 20
-137.2288269101373
 30
0.0
  0
SEQEND
  5
105
330
102
100
AcDbEntity
  8
_U+30EC_U+30A4_U+30E4_U+30FC 1
 62
   179
420
  2234388
370
     9
  0
POLYLINE
  5
106
330
1F
100
AcDbEntity
  8
_U+30EC_U+30A4_U+30E4_U+30FC 1
 62
   179
420
  2234388
370
     9
100
AcDb2dPolyline
 66
     1
 10
0.0
 20
0.0
 30
0.0
  0
VERTEX
  5
107
330
106
100
AcDbEntity
  8
_U+30EC_U+30A4_U+30E4_U+30FC 1
 62
   179
420
  2234388
370
     9
100
AcDbVertex
100
AcDb2dVertex
 10
89.36577022008926
 20
-130.1574316341271
 30
0.0
  0
VERTEX
  5
108
330
106
100
AcDbEntity
  8
_U+30EC_U+30A4_U+30E4_U+30FC 1
 62
   179
420
  2234388
370
     9
100
AcDbVertex
100
AcDb2dVertex
 10
88.86553134396253
 20
-131.0235363561331
 30
0.0
  0
SEQEND
  5
109
330
106
100
AcDbEntity
  8
_U+30EC_U+30A4_U+30E4_U+30FC 1
 62
   179
420
  2234388
370
     9
  0
INSERT
  5
10B
330
1F
100
AcDbEntity
  8
_U+30EC_U+30A4_U+30E4_U+30FC 1
100
AcDbBlockReference
  2
block 12
 10
0.0
 20
0.0
 30
0.0
  0
ENDSEC
  0
SECTION
  2
OBJECTS
  0
DICTIONARY
  5
C
330
0
100
AcDbDictionary
281
     1
  3
ACAD_GROUP
350
D
  3
ACAD_LAYOUT
350
1A
  3
ACAD_MATERIAL
350
3B
  3
ACAD_MLEADERSTYLE
350
133
  3
ACAD_MLINESTYLE
350
17
  3
ACAD_PLOTSETTINGS
350
19
  3
ACAD_PLOTSTYLENAME
350
E
  3
ACAD_TABLESTYLE
350
132
  3
ACAD_VISUALSTYLE
350
2A
  0
SUN
  5
3F
330
29
100
AcDbSun
 90
        1
290
     0
 63
     7
421
 16777215
 40
1.0
291
     1
 91
  2455826
 92
 54000000
292
     0
 70
     2
 71
   256
280
     1
  0
DICTIONARY
  5
D
102
{ACAD_REACTORS
330
C
102
}
330
C
100
AcDbDictionary
281
     1
  0
DICTIONARY
  5
1A
102
{ACAD_REACTORS
330
C
102
}
330
C
100
AcDbDictionary
281
     1
  3
Layout1
350
1E
  3
Layout2
350
26
  3
Model
350
22
  0
DICTIONARY
  5
3B
102
{ACAD_REACTORS
330
C
102
}
330
C
100
AcDbDictionary
281
     1
  3
ByBlock
350
3D
  3
ByLayer
350
3C
  3
Global
350
3E
  0
DICTIONARY
  5
133
102
{ACAD_REACTORS
330
C
102
}
330
C
100
AcDbDictionary
281
     1
  0
DICTIONARY
  5
17
102
{ACAD_REACTORS
330
C
102
}
330
C
100
AcDbDictionary
281
     1
  3
Standard
350
18
  0
DICTIONARY
  5
19
102
{ACAD_REACTORS
330
C
102
}
330
C
100
AcDbDictionary
281
     1
  0
ACDBDICTIONARYWDFLT
  5
E
102
{ACAD_REACTORS
330
C
102
}
330
C
100
AcDbDictionary
281
     1
  3
Normal
350
F
100
AcDbDictionaryWithDefault
340
F
  0
DICTIONARY
  5
132
102
{ACAD_REACTORS
330
C
102
}
330
C
100
AcDbDictionary
281
     1
  0
DICTIONARY
  5
2A
102
{ACAD_REACTORS
330
C
102
}
330
C
100
AcDbDictionary
281
     1
  3
2dWireframe
350
2F
  3
3D Hidden
350
31
  3
3dWireframe
350
30
  3
Basic
350
32
  3
Brighten
350
36
  3
ColorChange
350
3A
  3
Conceptual
350
34
  3
Dim
350
35
  3
Facepattern
350
39
  3
Flat
350
2B
  3
FlatWithEdges
350
2C
  3
Gouraud
350
2D
  3
GouraudWithEdges
350
2E
  3
Linepattern
350
38
  3
Realistic
350
33
  3
Thicken
350
37
  0
LAYOUT
  5
1E
102
{ACAD_REACTORS
330
1A
102
}
330
1A
100
AcDbPlotSettings
  1

  2
none_device
  4

  6

 40
0.0
 41
0.0
 42
0.0
 43
0.0
 44
0.0
 45
0.0
 46
0.0
 47
0.0
 48
0.0
 49
0.0
140
0.0
141
0.0
142
1.0
143
1.0
 70
   688
 72
     0
 73
     0
 74
     5
  7

 75
    16
 76
     0
 77
     2
 78
   300
147
1.0
148
0.0
149
0.0
100
AcDbLayout
  1
Layout1
 70
     1
 71
     1
 10
0.0
 20
0.0
 11
12.0
 21
9.0
 12
0.0
 22
0.0
 32
0.0
 14
1.000000000000000E+20
 24
1.000000000000000E+20
 34
1.000000000000000E+20
 15
-1.000000000000000E+20
 25
-1.000000000000000E+20
 35
-1.000000000000000E+20
146
0.0
 13
0.0
 23
0.0
 33
0.0
 16
1.0
 26
0.0
 36
0.0
 17
0.0
 27
1.0
 37
0.0
 76
     0
330
1B
  0
LAYOUT
  5
26
102
{ACAD_REACTORS
330
1A
102
}
330
1A
100
AcDbPlotSettings
  1

  2
none_device
  4

  6

 40
0.0
 41
0.0
 42
0.0
 43
0.0
 44
0.0
 45
0.0
 46
0.0
 47
0.0
 48
0.0
 49
0.0
140
0.0
141
0.0
142
1.0
143
1.0
 70
   688
 72
     0
 73
     0
 74
     5
  7

 75
    16
 76
     0
 77
     2
 78
   300
147
1.0
148
0.0
149
0.0
100
AcDbLayout
  1
Layout2
 70
     1
 71
     2
 10
0.0
 20
0.0
 11
0.0
 21
0.0
 12
0.0
 22
0.0
 32
0.0
 14
0.0
 24
0.0
 34
0.0
 15
0.0
 25
0.0
 35
0.0
146
0.0
 13
0.0
 23
0.0
 33
0.0
 16
1.0
 26
0.0
 36
0.0
 17
0.0
 27
1.0
 37
0.0
 76
     0
330
23
  0
LAYOUT
  5
22
102
{ACAD_REACTORS
330
1A
102
}
330
1A
100
AcDbPlotSettings
  1

  2
none_device
  4

  6

 40
0.0
 41
0.0
 42
0.0
 43
0.0
 44
0.0
 45
0.0
 46
0.0
 47
0.0
 48
0.0
 49
0.0
140
0.0
141
0.0
142
1.0
143
1.0
 70
  1712
 72
     0
 73
     0
 74
     0
  7

 75
     0
 76
     0
 77
     2
 78
   300
147
1.0
148
0.0
149
0.0
100
AcDbLayout
  1
Model
 70
     1
 71
     0
 10
0.0
 20
0.0
 11
12.0
 21
9.0
 12
0.0
 22
0.0
 32
0.0
 14
1.000000000000000E+20
 24
1.000000000000000E+20
 34
1.000000000000000E+20
 15
-1.000000000000000E+20
 25
-1.000000000000000E+20
 35
-1.000000000000000E+20
146
0.0
 13
0.0
 23
0.0
 33
0.0
 16
1.0
 26
0.0
 36
0.0
 17
0.0
 27
1.0
 37
0.0
 76
     0
330
1F
331
29
  0
MATERIAL
  5
3D
102
{ACAD_REACTORS
330
3B
102
}
330
3B
100
AcDbMaterial
  1
ByBlock
 72
     1
 94
      127
  0
MATERIAL
  5
3C
102
{ACAD_REACTORS
330
3B
102
}
330
3B
100
AcDbMaterial
  1
ByLayer
 72
     1
 94
      127
  0
MATERIAL
  5
3E
102
{ACAD_REACTORS
330
3B
102
}
330
3B
100
AcDbMaterial
  1
Global
 72
     1
 94
      127
  0
MLINESTYLE
  5
18
102
{ACAD_REACTORS
330
17
102
}
330
17
100
AcDbMlineStyle
  2
Standard
 70
     0
  3

 62
   256
 51
90.0
 52
90.0
 71
     2
 49
0.5
 62
   256
  6
BYLAYER
 49
-0.5
 62
   256
  6
BYLAYER
  0
ACDBPLACEHOLDER
  5
F
102
{ACAD_REACTORS
330
E
102
}
330
E
  0
VISUALSTYLE
  5
2F
102
{ACAD_REACTORS
330
2A
102
}
330
2A
100
AcDbVisualStyle
  2
2dWireframe
 70
     4
177
     2
291
     0
 71
     0
176
     1
 72
     2
176
     1
 73
     0
176
     1
 90
        0
176
     1
 40
-0.6
176
     1
 41
-30.0
176
     1
 62
     5
 63
     7
421
 16777215
176
     1
 74
     1
176
     1
 91
        4
176
     1
 64
     7
176
     1
 65
   257
176
     1
 75
     1
176
     1
175
     1
176
     1
 42
1.0
176
     1
 92
        0
176
     1
 66
   257
176
     1
 43
1.0
176
     1
 76
     1
176
     1
 77
     6
176
     1
 78
     2
176
     1
 67
     7
176
     1
 79
     5
176
     1
170
     0
176
     1
171
     0
176
     1
290
     0
176
     1
 93
        1
176
     1
 44
0.0
176
     1
173
     0
176
     1
  0
VISUALSTYLE
  5
31
102
{ACAD_REACTORS
330
2A
102
}
330
2A
100
AcDbVisualStyle
  2
3D Hidden
 70
     6
177
     2
291
     0
 71
     1
176
     1
 72
     2
176
     1
 73
     2
176
     1
 90
        0
176
     1
 40
-0.6
176
     1
 41
-30.0
176
     1
 62
     5
 63
     7
421
 16777215
176
     1
 74
     2
176
     1
 91
        2
176
     1
 64
     7
176
     1
 65
   257
176
     1
 75
     2
176
     1
175
     1
176
     1
 42
40.0
176
     1
 92
        0
176
     1
 66
   257
176
     1
 43
1.0
176
     1
 76
     1
176
     1
 77
     6
176
     1
 78
     2
176
     1
 67
     7
176
     1
 79
     3
176
     1
170
     0
176
     1
171
     0
176
     1
290
     0
176
     1
 93
        1
176
     1
 44
0.0
176
     1
173
     0
176
     1
  0
VISUALSTYLE
  5
30
102
{ACAD_REACTORS
330
2A
102
}
330
2A
100
AcDbVisualStyle
  2
3dWireframe
 70
     5
177
     2
291
     0
 71
     0
176
     1
 72
     2
176
     1
 73
     0
176
     1
 90
        0
176
     1
 40
-0.6
176
     1
 41
-30.0
176
     1
 62
     5
 63
     7
421
 16777215
176
     1
 74
     1
176
     1
 91
        4
176
     1
 64
     7
176
     1
 65
   257
176
     1
 75
     1
176
     1
175
     1
176
     1
 42
1.0
176
     1
 92
        0
176
     1
 66
   257
176
     1
 43
1.0
176
     1
 76
     1
176
     1
 77
     6
176
     1
 78
     2
176
     1
 67
     7
176
     1
 79
     5
176
     1
170
     0
176
     1
171
     0
176
     1
290
     0
176
     1
 93
        1
176
     1
 44
0.0
176
     1
173
     0
176
     1
  0
VISUALSTYLE
  5
32
102
{ACAD_REACTORS
330
2A
102
}
330
2A
100
AcDbVisualStyle
  2
Basic
 70
     7
177
     2
291
     1
 71
     1
176
     1
 72
     0
176
     1
 73
     1
176
     1
 90
        0
176
     1
 40
-0.6
176
     1
 41
-30.0
176
     1
 62
     5
 63
     7
421
 16777215
176
     1
 74
     0
176
     1
 91
        4
176
     1
 64
     7
176
     1
 65
   257
176
     1
 75
     1
176
     1
175
     1
176
     1
 42
1.0
176
     1
 92
        8
176
     1
 66
     7
176
     1
 43
1.0
176
     1
 76
     1
176
     1
 77
     6
176
     1
 78
     2
176
     1
 67
     7
176
     1
 79
     5
176
     1
170
     0
176
     1
171
     0
176
     1
290
     0
176
     1
 93
        1
176
     1
 44
0.0
176
     1
173
     0
176
     1
  0
VISUALSTYLE
  5
36
102
{ACAD_REACTORS
330
2A
102
}
330
2A
100
AcDbVisualStyle
  2
Brighten
 70
    12
177
     2
291
     1
 71
     2
176
     1
 72
     2
176
     1
 73
     0
176
     1
 90
        0
176
     1
 40
-0.6
176
     1
 41
-30.0
176
     1
 62
     5
 63
     7
421
 16777215
176
     1
 74
     1
176
     1
 91
        4
176
     1
 64
     7
176
     1
 65
   257
176
     1
 75
     1
176
     1
175
     1
176
     1
 42
1.0
176
     1
 92
        8
176
     1
 66
     7
176
     1
 43
1.0
176
     1
 76
     1
176
     1
 77
     6
176
     1
 78
     2
176
     1
 67
     7
176
     1
 79
     5
176
     1
170
     0
176
     1
171
     0
176
     1
290
     0
176
     1
 93
        1
176
     1
 44
50.0
176
     1
173
     0
176
     1
  0
VISUALSTYLE
  5
3A
102
{ACAD_REACTORS
330
2A
102
}
330
2A
100
AcDbVisualStyle
  2
ColorChange
 70
    16
177
     2
291
     1
 71
     2
176
     1
 72
     2
176
     1
 73
     3
176
     1
 90
        0
176
     1
 40
-0.6
176
     1
 41
-30.0
176
     1
 62
     5
 63
     8
421
  8421504
176
     1
 74
     1
176
     1
 91
        4
176
     1
 64
     7
176
     1
 65
   257
176
     1
 75
     1
176
     1
175
     1
176
     1
 42
1.0
176
     1
 92
        8
176
     1
 66
     8
424
  8421504
176
     1
 43
1.0
176
     1
 76
     1
176
     1
 77
     6
176
     1
 78
     2
176
     1
 67
     7
176
     1
 79
     5
176
     1
170
     0
176
     1
171
     0
176
     1
290
     0
176
     1
 93
        1
176
     1
 44
0.0
176
     1
173
     0
176
     1
  0
VISUALSTYLE
  5
34
102
{ACAD_REACTORS
330
2A
102
}
330
2A
100
AcDbVisualStyle
  2
Conceptual
 70
     9
177
     2
291
     0
 71
     3
176
     1
 72
     2
176
     1
 73
     0
176
     1
 90
        0
176
     1
 40
-0.6
176
     1
 41
-30.0
176
     1
 62
     5
 63
     7
421
 16777215
176
     1
 74
     2
176
     1
 91
        2
176
     1
 64
     7
176
     1
 65
   257
176
     1
 75
     1
176
     1
175
     1
176
     1
 42
40.0
176
     1
 92
        8
176
     1
 66
     7
176
     1
 43
1.0
176
     1
 76
     1
176
     1
 77
     6
176
     1
 78
     2
176
     1
 67
     7
176
     1
 79
     3
176
     1
170
     0
176
     1
171
     0
176
     1
290
     0
176
     1
 93
        1
176
     1
 44
0.0
176
     1
173
     0
176
     1
  0
VISUALSTYLE
  5
35
102
{ACAD_REACTORS
330
2A
102
}
330
2A
100
AcDbVisualStyle
  2
Dim
 70
    11
177
     2
291
     1
 71
     2
176
     1
 72
     2
176
     1
 73
     0
176
     1
 90
        0
176
     1
 40
-0.6
176
     1
 41
-30.0
176
     1
 62
     5
 63
     7
421
 16777215
176
     1
 74
     1
176
     1
 91
        4
176
     1
 64
     7
176
     1
 65
   257
176
     1
 75
     1
176
     1
175
     1
176
     1
 42
1.0
176
     1
 92
        8
176
     1
 66
     7
176
     1
 43
1.0
176
     1
 76
     1
176
     1
 77
     6
176
     1
 78
     2
176
     1
 67
     7
176
     1
 79
     5
176
     1
170
     0
176
     1
171
     0
176
     1
290
     0
176
     1
 93
        1
176
     1
 44
-50.0
176
     1
173
     0
176
     1
  0
VISUALSTYLE
  5
39
102
{ACAD_REACTORS
330
2A
102
}
330
2A
100
AcDbVisualStyle
  2
Facepattern
 70
    15
177
     2
291
     1
 71
     2
176
     1
 72
     2
176
     1
 73
     0
176
     1
 90
        0
176
     1
 40
-0.6
176
     1
 41
-30.0
176
     1
 62
     5
 63
     7
421
 16777215
176
     1
 74
     1
176
     1
 91
        4
176
     1
 64
     7
176
     1
 65
   257
176
     1
 75
     1
176
     1
175
     1
176
     1
 42
1.0
176
     1
 92
        8
176
     1
 66
     7
176
     1
 43
1.0
176
     1
 76
     1
176
     1
 77
     6
176
     1
 78
     2
176
     1
 67
     7
176
     1
 79
     5
176
     1
170
     0
176
     1
171
     0
176
     1
290
     0
176
     1
 93
        1
176
     1
 44
0.0
176
     1
173
     0
176
     1
  0
VISUALSTYLE
  5
2B
102
{ACAD_REACTORS
330
2A
102
}
330
2A
100
AcDbVisualStyle
  2
Flat
 70
     0
177
     2
291
     1
 71
     2
176
     1
 72
     1
176
     1
 73
     1
176
     1
 90
        2
176
     1
 40
-0.6
176
     1
 41
30.0
176
     1
 62
     5
 63
     7
421
 16777215
176
     1
 74
     0
176
     1
 91
        4
176
     1
 64
     7
176
     1
 65
   257
176
     1
 75
     1
176
     1
175
     1
176
     1
 42
1.0
176
     1
 92
        8
176
     1
 66
     7
176
     1
 43
1.0
176
     1
 76
     1
176
     1
 77
     6
176
     1
 78
     2
176
     1
 67
     7
176
     1
 79
     5
176
     1
170
     0
176
     1
171
     0
176
     1
290
     0
176
     1
 93
       13
176
     1
 44
0.0
176
     1
173
     0
176
     1
  0
VISUALSTYLE
  5
2C
102
{ACAD_REACTORS
330
2A
102
}
330
2A
100
AcDbVisualStyle
  2
FlatWithEdges
 70
     1
177
     2
291
     1
 71
     2
176
     1
 72
     1
176
     1
 73
     1
176
     1
 90
        2
176
     1
 40
-0.6
176
     1
 41
30.0
176
     1
 62
     5
 63
     7
421
 16777215
176
     1
 74
     1
176
     1
 91
        4
176
     1
 64
     7
176
     1
 65
   257
176
     1
 75
     1
176
     1
175
     1
176
     1
 42
1.0
176
     1
 92
        0
176
     1
 66
   257
176
     1
 43
1.0
176
     1
 76
     1
176
     1
 77
     6
176
     1
 78
     2
176
     1
 67
     7
176
     1
 79
     5
176
     1
170
     0
176
     1
171
     0
176
     1
290
     0
176
     1
 93
       13
176
     1
 44
0.0
176
     1
173
     0
176
     1
  0
VISUALSTYLE
  5
2D
102
{ACAD_REACTORS
330
2A
102
}
330
2A
100
AcDbVisualStyle
  2
Gouraud
 70
     2
177
     2
291
     1
 71
     2
176
     1
 72
     2
176
     1
 73
     1
176
     1
 90
        2
176
     1
 40
-0.6
176
     1
 41
30.0
176
     1
 62
     5
 63
     7
421
 16777215
176
     1
 74
     0
176
     1
 91
        4
176
     1
 64
     7
176
     1
 65
   257
176
     1
 75
     1
176
     1
175
     1
176
     1
 42
1.0
176
     1
 92
        0
176
     1
 66
     7
176
     1
 43
1.0
176
     1
 76
     1
176
     1
 77
     6
176
     1
 78
     2
176
     1
 67
     7
176
     1
 79
     5
176
     1
170
     0
176
     1
171
     0
176
     1
290
     0
176
     1
 93
       13
176
     1
 44
0.0
176
     1
173
     0
176
     1
  0
VISUALSTYLE
  5
2E
102
{ACAD_REACTORS
330
2A
102
}
330
2A
100
AcDbVisualStyle
  2
GouraudWithEdges
 70
     3
177
     2
291
     1
 71
     2
176
     1
 72
     2
176
     1
 73
     1
176
     1
 90
        2
176
     1
 40
-0.6
176
     1
 41
30.0
176
     1
 62
     5
 63
     7
421
 16777215
176
     1
 74
     1
176
     1
 91
        4
176
     1
 64
     7
176
     1
 65
   257
176
     1
 75
     1
176
     1
175
     1
176
     1
 42
1.0
176
     1
 92
        0
176
     1
 66
   257
176
     1
 43
1.0
176
     1
 76
     1
176
     1
 77
     6
176
     1
 78
     2
176
     1
 67
     7
176
     1
 79
     5
176
     1
170
     0
176
     1
171
     0
176
     1
290
     0
176
     1
 93
       13
176
     1
 44
0.0
176
     1
173
     0
176
     1
  0
VISUALSTYLE
  5
38
102
{ACAD_REACTORS
330
2A
102
}
330
2A
100
AcDbVisualStyle
  2
Linepattern
 70
    14
177
     2
291
     1
 71
     2
176
     1
 72
     2
176
     1
 73
     0
176
     1
 90
        0
176
     1
 40
-0.6
176
     1
 41
-30.0
176
     1
 62
     5
 63
     7
421
 16777215
176
     1
 74
     1
176
     1
 91
        4
176
     1
 64
     7
176
     1
 65
   257
176
     1
 75
     7
176
     1
175
     7
176
     1
 42
1.0
176
     1
 92
        8
176
     1
 66
     7
176
     1
 43
1.0
176
     1
 76
     1
176
     1
 77
     6
176
     1
 78
     2
176
     1
 67
     7
176
     1
 79
     5
176
     1
170
     0
176
     1
171
     0
176
     1
290
     0
176
     1
 93
        1
176
     1
 44
0.0
176
     1
173
     0
176
     1
  0
VISUALSTYLE
  5
33
102
{ACAD_REACTORS
330
2A
102
}
330
2A
100
AcDbVisualStyle
  2
Realistic
 70
     8
177
     2
291
     0
 71
     2
176
     1
 72
     2
176
     1
 73
     0
176
     1
 90
        0
176
     1
 40
-0.6
176
     1
 41
-30.0
176
     1
 62
     5
 63
     7
421
 16777215
176
     1
 74
     1
176
     1
 91
        0
176
     1
 64
     7
176
     1
 65
   257
176
     1
 75
     1
176
     1
175
     1
176
     1
 42
1.0
176
     1
 92
        8
176
     1
 66
     8
424
  7895160
176
     1
 43
1.0
176
     1
 76
     1
176
     1
 77
     6
176
     1
 78
     2
176
     1
 67
     7
176
     1
 79
     5
176
     1
170
     0
176
     1
171
     0
176
     1
290
     0
176
     1
 93
       13
176
     1
 44
0.0
176
     1
173
     0
176
     1
  0
VISUALSTYLE
  5
37
102
{ACAD_REACTORS
330
2A
102
}
330
2A
100
AcDbVisualStyle
  2
Thicken
 70
    13
177
     2
291
     1
 71
     2
176
     1
 72
     2
176
     1
 73
     0
176
     1
 90
        0
176
     1
 40
-0.6
176
     1
 41
-30.0
176
     1
 62
     5
 63
     7
421
 16777215
176
     1
 74
     1
176
     1
 91
        4
176
     1
 64
     7
176
     1
 65
   257
176
     1
 75
     1
176
     1
175
     1
176
     1
 42
1.0
176
     1
 92
       12
176
     1
 66
     7
176
     1
 43
1.0
176
     1
 76
     1
176
     1
 77
     6
176
     1
 78
     2
176
     1
 67
     7
176
     1
 79
     5
176
     1
170
     0
176
     1
171
     0
176
     1
290
     0
176
     1
 93
        1
176
     1
 44
0.0
176
     1
173
     0
176
     1
  0
ENDSEC
  0
EOF
