  0
SECTION
  2
HEADER
  9
$ACADVER
  1
AC1024
  9
$ACADMAINTVER
 70
     6
  9
$DWGCODEPAGE
  3
UNDEFINED
  9
$INSBASE
 10
0.0
 20
0.0
 30
0.0
  9
$EXTMIN
 10
1.000000000000000E+20
 20
1.000000000000000E+20
 30
1.000000000000000E+20
  9
$EXTMAX
 10
-1.000000000000000E+20
 20
-1.000000000000000E+20
 30
-1.000000000000000E+20
  9
$LIMMIN
 10
0.0
 20
0.0
  9
$LIMMAX
 10
12.0
 20
9.0
  9
$ORTHOMODE
 70
     0
  9
$REGENMODE
 70
     1
  9
$FILLMODE
 70
     1
  9
$QTEXTMODE
 70
     0
  9
$MIRRTEXT
 70
     1
  9
$LTSCALE
 40
1.0
  9
$ATTMODE
 70
     1
  9
$TEXTSIZE
 40
0.2
  9
$TRACEWID
 40
0.05
  9
$TEXTSTYLE
  7
Standard
  9
$CLAYER
  8
0
  9
$CELTYPE
  6
ByLayer
  9
$CECOLOR
 62
   256
  9
$CELTSCALE
 40
1.0
  9
$DISPSILH
 70
     0
  9
$DIMSCALE
 40
1.0
  9
$DIMASZ
 40
0.18
  9
$DIMEXO
 40
0.0625
  9
$DIMDLI
 40
0.38
  9
$DIMRND
 40
0.0
  9
$DIMDLE
 40
0.0
  9
$DIMEXE
 40
0.18
  9
$DIMTP
 40
0.0
  9
$DIMTM
 40
0.0
  9
$DIMTXT
 40
0.18
  9
$DIMCEN
 40
0.09
  9
$DIMTSZ
 40
0.0
  9
$DIMTOL
 70
     0
  9
$DIMLIM
 70
     0
  9
$DIMTIH
 70
     1
  9
$DIMTOH
 70
     1
  9
$DIMSE1
 70
     0
  9
$DIMSE2
 70
     0
  9
$DIMTAD
 70
     0
  9
$DIMZIN
 70
     0
  9
$DIMBLK
  1

  9
$DIMASO
 70
     1
  9
$DIMSHO
 70
     1
  9
$DIMPOST
  1

  9
$DIMAPOST
  1

  9
$DIMALT
 70
     0
  9
$DIMALTD
 70
     2
  9
$DIMALTF
 40
25.4
  9
$DIMLFAC
 40
1.0
  9
$DIMTOFL
 70
     0
  9
$DIMTVP
 40
0.0
  9
$DIMTIX
 70
     0
  9
$DIMSOXD
 70
     0
  9
$DIMSAH
 70
     0
  9
$DIMBLK1
  1

  9
$DIMBLK2
  1

  9
$DIMSTYLE
  2
Standard
  9
$DIMCLRD
 70
     0
  9
$DIMCLRE
 70
     0
  9
$DIMCLRT
 70
     0
  9
$DIMTFAC
 40
1.0
  9
$DIMGAP
 40
0.09
  9
$DIMJUST
 70
     0
  9
$DIMSD1
 70
     0
  9
$DIMSD2
 70
     0
  9
$DIMTOLJ
 70
     1
  9
$DIMTZIN
 70
     0
  9
$DIMALTZ
 70
     0
  9
$DIMALTTZ
 70
     0
  9
$DIMUPT
 70
     0
  9
$DIMDEC
 70
     4
  9
$DIMTDEC
 70
     4
  9
$DIMALTU
 70
     2
  9
$DIMALTTD
 70
     2
  9
$DIMTXSTY
  7
Standard
  9
$DIMAUNIT
 70
     0
  9
$DIMADEC
 70
     0
  9
$DIMALTRND
 40
0.0
  9
$DIMAZIN
 70
     0
  9
$DIMDSEP
 70
    46
  9
$DIMATFIT
 70
     3
  9
$DIMFRAC
 70
     0
  9
$DIMLDRBLK
  1

  9
$DIMLUNIT
 70
     2
  9
$DIMLWD
 70
    -2
  9
$DIMLWE
 70
    -2
  9
$DIMTMOVE
 70
     0
  9
$DIMFXL
 40
1.0
  9
$DIMFXLON
 70
     0
  9
$DIMJOGANG
 40
0.7853981633974483
  9
$DIMTFILL
 70
     0
  9
$DIMTFILLCLR
 70
     0
  9
$DIMARCSYM
 70
     0
  9
$DIMLTYPE
  6

  9
$DIMLTEX1
  6

  9
$DIMLTEX2
  6

  9
$DIMTXTDIRECTION
 70
     0
  9
$LUNITS
 70
     2
  9
$LUPREC
 70
     4
  9
$SKETCHINC
 40
0.1
  9
$FILLETRAD
 40
0.5
  9
$AUNITS
 70
     0
  9
$AUPREC
 70
     0
  9
$MENU
  1
.
  9
$ELEVATION
 40
0.0
  9
$PELEVATION
 40
0.0
  9
$THICKNESS
 40
0.0
  9
$LIMCHECK
 70
     0
  9
$CHAMFERA
 40
0.5
  9
$CHAMFERB
 40
0.5
  9
$CHAMFERC
 40
1.0
  9
$CHAMFERD
 40
0.0
  9
$SKPOLY
 70
     0
  9
$TDCREATE
 40
2457917.588912037
  9
$TDUCREATE
 40
2457917.213912037
  9
$TDUPDATE
 40
2457917.588923611
  9
$TDUUPDATE
 40
2457917.213923611
  9
$TDINDWG
 40
0.0000000116
  9
$TDUSRTIMER
 40
0.0000000116
  9
$USRTIMER
 70
     1
  9
$ANGBASE
 50
0.0
  9
$ANGDIR
 70
     0
  9
$PDMODE
 70
     0
  9
$PDSIZE
 40
0.0
  9
$PLINEWID
 40
0.0
  9
$SPLFRAME
 70
     0
  9
$SPLINETYPE
 70
     6
  9
$SPLINESEGS
 70
     8
  9
$HANDSEED
  5
CF
  9
$SURFTAB1
 70
     6
  9
$SURFTAB2
 70
     6
  9
$SURFTYPE
 70
     6
  9
$SURFU
 70
     6
  9
$SURFV
 70
     6
  9
$UCSBASE
  2

  9
$UCSNAME
  2

  9
$UCSORG
 10
0.0
 20
0.0
 30
0.0
  9
$UCSXDIR
 10
1.0
 20
0.0
 30
0.0
  9
$UCSYDIR
 10
0.0
 20
1.0
 30
0.0
  9
$UCSORTHOREF
  2

  9
$UCSORTHOVIEW
 70
     0
  9
$UCSORGTOP
 10
0.0
 20
0.0
 30
0.0
  9
$UCSORGBOTTOM
 10
0.0
 20
0.0
 30
0.0
  9
$UCSORGLEFT
 10
0.0
 20
0.0
 30
0.0
  9
$UCSORGRIGHT
 10
0.0
 20
0.0
 30
0.0
  9
$UCSORGFRONT
 10
0.0
 20
0.0
 30
0.0
  9
$UCSORGBACK
 10
0.0
 20
0.0
 30
0.0
  9
$PUCSBASE
  2

  9
$PUCSNAME
  2

  9
$PUCSORG
 10
0.0
 20
0.0
 30
0.0
  9
$PUCSXDIR
 10
1.0
 20
0.0
 30
0.0
  9
$PUCSYDIR
 10
0.0
 20
1.0
 30
0.0
  9
$PUCSORTHOREF
  2

  9
$PUCSORTHOVIEW
 70
     0
  9
$PUCSORGTOP
 10
0.0
 20
0.0
 30
0.0
  9
$PUCSORGBOTTOM
 10
0.0
 20
0.0
 30
0.0
  9
$PUCSORGLEFT
 10
0.0
 20
0.0
 30
0.0
  9
$PUCSORGRIGHT
 10
0.0
 20
0.0
 30
0.0
  9
$PUCSORGFRONT
 10
0.0
 20
0.0
 30
0.0
  9
$PUCSORGBACK
 10
0.0
 20
0.0
 30
0.0
  9
$USERI1
 70
     0
  9
$USERI2
 70
     0
  9
$USERI3
 70
     0
  9
$USERI4
 70
     0
  9
$USERI5
 70
     0
  9
$USERR1
 40
0.0
  9
$USERR2
 40
0.0
  9
$USERR3
 40
0.0
  9
$USERR4
 40
0.0
  9
$USERR5
 40
0.0
  9
$WORLDVIEW
 70
     1
  9
$SHADEDGE
 70
     3
  9
$SHADEDIF
 70
    70
  9
$TILEMODE
 70
     1
  9
$MAXACTVP
 70
    64
  9
$PINSBASE
 10
0.0
 20
0.0
 30
0.0
  9
$PLIMCHECK
 70
     0
  9
$PEXTMIN
 10
1.000000000000000E+20
 20
1.000000000000000E+20
 30
1.000000000000000E+20
  9
$PEXTMAX
 10
-1.000000000000000E+20
 20
-1.000000000000000E+20
 30
-1.000000000000000E+20
  9
$PLIMMIN
 10
0.0
 20
0.0
  9
$PLIMMAX
 10
12.0
 20
9.0
  9
$UNITMODE
 70
     0
  9
$VISRETAIN
 70
     1
  9
$PLINEGEN
 70
     0
  9
$PSLTSCALE
 70
     1
  9
$TREEDEPTH
 70
  3020
  9
$CMLSTYLE
  2
Standard
  9
$CMLJUST
 70
     0
  9
$CMLSCALE
 40
1.0
  9
$PROXYGRAPHICS
 70
     1
  9
$MEASUREMENT
 70
     0
  9
$CELWEIGHT
370
    -1
  9
$ENDCAPS
280
     0
  9
$JOINSTYLE
280
     0
  9
$LWDISPLAY
290
     1
  9
$INSUNITS
 70
     1
  9
$HYPERLINKBASE
  1

  9
$STYLESHEET
  1

  9
$XEDIT
290
     1
  9
$CEPSNTYPE
380
     0
  9
$PSTYLEMODE
290
     1
  9
$FINGERPRINTGUID
  2
{81BB99B5-DCD9-85ED-81D7-AE12B2D75CEC}
  9
$VERSIONGUID
  2
{FAEB1C32-E019-11D5-929B-00C0DF256EC4}
  9
$EXTNAMES
290
     1
  9
$PSVPSCALE
 40
0.0
  9
$OLESTARTUP
290
     0
  9
$SORTENTS
280
   127
  9
$INDEXCTL
280
     0
  9
$HIDETEXT
280
     1
  9
$XCLIPFRAME
280
     2
  9
$HALOGAP
280
     0
  9
$OBSCOLOR
 70
   257
  9
$OBSLTYPE
280
     0
  9
$INTERSECTIONDISPLAY
280
     0
  9
$INTERSECTIONCOLOR
 70
   257
  9
$DIMASSOC
280
     2
  9
$PROJECTNAME
  1

  9
$CAMERADISPLAY
290
     0
  9
$LENSLENGTH
 40
50.0
  9
$CAMERAHEIGHT
 40
0.0
  9
$STEPSPERSEC
 40
2.0
  9
$STEPSIZE
 40
6.0
  9
$3DDWFPREC
 40
2.0
  9
$PSOLWIDTH
 40
0.25
  9
$PSOLHEIGHT
 40
4.0
  9
$LOFTANG1
 40
1.570796326794897
  9
$LOFTANG2
 40
1.570796326794897
  9
$LOFTMAG1
 40
0.0
  9
$LOFTMAG2
 40
0.0
  9
$LOFTPARAM
 70
     7
  9
$LOFTNORMALS
280
     1
  9
$LATITUDE
 40
37.795
  9
$LONGITUDE
 40
-122.394
  9
$NORTHDIRECTION
 40
0.0
  9
$TIMEZONE
 70
 -8000
  9
$LIGHTGLYPHDISPLAY
280
     1
  9
$TILEMODELIGHTSYNCH
280
     1
  9
$CMATERIAL
347
3C
  9
$SOLIDHIST
280
     1
  9
$SHOWHIST
280
     1
  9
$DWFFRAME
280
     2
  9
$DGNFRAME
280
     2
  9
$REALWORLDSCALE
290
     1
  9
$INTERFERECOLOR
 62
   256
  9
$CSHADOW
280
     0
  9
$SHADOWPLANELOCATION
 40
0.0
  0
ENDSEC
  0
SECTION
  2
CLASSES
  0
CLASS
  1
ACDBDICTIONARYWDFLT
  2
AcDbDictionaryWithDefault
  3
ObjectDBX Classes
 90
        0
 91
        4
280
     0
281
     0
  0
CLASS
  1
VISUALSTYLE
  2
AcDbVisualStyle
  3
ObjectDBX Classes
 90
     4095
 91
        4
280
     0
281
     0
  0
CLASS
  1
MATERIAL
  2
AcDbMaterial
  3
ObjectDBX Classes
 90
     1153
 91
        4
280
     0
281
     0
  0
CLASS
  1
SUN
  2
AcDbSun
  3
SCENEOE
 90
     1024
 91
        4
280
     0
281
     0
  0
ENDSEC
  0
SECTION
  2
TABLES
  0
TABLE
  2
VPORT
  5
8
330
0
100
AcDbSymbolTable
 70
     1
  0
VPORT
  5
29
330
8
100
AcDbSymbolTableRecord
100
AcDbViewportTableRecord
  2
*Active
 70
     0
 10
0.0
 20
0.0
 11
1.0
 21
1.0
 12
0.0
 22
0.0
 13
0.0
 23
0.0
 14
0.5
 24
0.5
 15
0.5
 25
0.5
 16
0.0
 26
0.0
 36
1.0
 17
63.499999984125
 27
-89.00059456108309
 37
0.0
 40
178.0011891221662
 41
0.7134783795241226
 42
50.0
 43
0.0
 44
0.0
 50
0.0
 51
0.0
 71
     0
 72
   100
 73
     1
 74
     3
 75
     0
 76
     0
 77
     0
 78
     0
281
     0
 65
     1
110
0.0
120
0.0
130
0.0
111
1.0
121
0.0
131
0.0
112
0.0
122
1.0
132
0.0
 79
     0
146
0.0
 60
     3
 61
     5
292
     1
282
     1
141
0.0
142
0.0
 63
   250
361
3F
  0
ENDTAB
  0
TABLE
  2
LTYPE
  5
5
330
0
100
AcDbSymbolTable
 70
     1
  0
LTYPE
  5
14
330
5
100
AcDbSymbolTableRecord
100
AcDbLinetypeTableRecord
  2
ByBlock
 70
     0
  3

 72
    65
 73
     0
 40
0.0
  0
LTYPE
  5
15
330
5
100
AcDbSymbolTableRecord
100
AcDbLinetypeTableRecord
  2
ByLayer
 70
     0
  3

 72
    65
 73
     0
 40
0.0
  0
LTYPE
  5
16
330
5
100
AcDbSymbolTableRecord
100
AcDbLinetypeTableRecord
  2
Continuous
 70
     0
  3
Solid line
 72
    65
 73
     0
 40
0.0
  0
ENDTAB
  0
TABLE
  2
LAYER
  5
2
330
0
100
AcDbSymbolTable
 70
     2
  0
LAYER
  5
10
330
2
100
AcDbSymbolTableRecord
100
AcDbLayerTableRecord
  2
0
 70
     0
 62
     7
  6
Continuous
370
    -3
390
F
347
3E
  0
LAYER
  5
40
330
2
100
AcDbSymbolTableRecord
100
AcDbLayerTableRecord
  2
_U+30EC_U+30A4_U+30E4_U+30FC 1
 70
     0
 62
     7
  6
Continuous
370
    -3
390
F
347
3E
  0
ENDTAB
  0
TABLE
  2
STYLE
  5
3
330
0
100
AcDbSymbolTable
 70
     1
  0
STYLE
  5
11
330
3
100
AcDbSymbolTableRecord
100
AcDbTextStyleTableRecord
  2
Standard
 70
     0
 40
0.0
 41
1.0
 50
0.0
 71
     0
 42
0.2
  3
txt
  4

  0
ENDTAB
  0
TABLE
  2
VIEW
  5
6
330
0
100
AcDbSymbolTable
 70
     0
  0
ENDTAB
  0
TABLE
  2
UCS
  5
7
330
0
100
AcDbSymbolTable
 70
     0
  0
ENDTAB
  0
TABLE
  2
APPID
  5
9
330
0
100
AcDbSymbolTable
 70
     1
  0
APPID
  5
12
330
9
100
AcDbSymbolTableRecord
100
AcDbRegAppTableRecord
  2
ACAD
 70
     0
  0
ENDTAB
  0
TABLE
  2
DIMSTYLE
  5
A
330
0
100
AcDbSymbolTable
 70
     1
100
AcDbDimStyleTable
  0
DIMSTYLE
105
27
330
A
100
AcDbSymbolTableRecord
100
AcDbDimStyleTableRecord
  2
Standard
 70
     0
178
     0
340
11
  0
ENDTAB
  0
TABLE
  2
BLOCK_RECORD
  5
1
330
0
100
AcDbSymbolTable
 70
     6
  0
BLOCK_RECORD
  5
1F
330
1
100
AcDbSymbolTableRecord
100
AcDbBlockTableRecord
  2
*Model_Space
340
22
 70
     0
280
     1
281
     0
  0
BLOCK_RECORD
  5
1B
330
1
100
AcDbSymbolTableRecord
100
AcDbBlockTableRecord
  2
*Paper_Space
340
1E
 70
     0
280
     1
281
     0
  0
BLOCK_RECORD
  5
23
330
1
100
AcDbSymbolTableRecord
100
AcDbBlockTableRecord
  2
*Paper_Space0
340
26
 70
     0
280
     1
281
     0
  0
BLOCK_RECORD
  5
68
330
1
100
AcDbSymbolTableRecord
100
AcDbBlockTableRecord
  2
block 2
340
0
102
{BLKREFS
331
69
102
}
 70
     0
280
     1
281
     0
  0
BLOCK_RECORD
  5
83
330
1
100
AcDbSymbolTableRecord
100
AcDbBlockTableRecord
  2
block 3
340
0
102
{BLKREFS
331
84
102
}
 70
     0
280
     1
281
     0
  0
BLOCK_RECORD
  5
95
330
1
100
AcDbSymbolTableRecord
100
AcDbBlockTableRecord
  2
block 4
340
0
102
{BLKREFS
331
96
102
}
 70
     0
280
     1
281
     0
  0
BLOCK_RECORD
  5
AA
330
1
100
AcDbSymbolTableRecord
100
AcDbBlockTableRecord
  2
block 5
340
0
102
{BLKREFS
331
AB
102
}
 70
     0
280
     1
281
     0
  0
BLOCK_RECORD
  5
BA
330
1
100
AcDbSymbolTableRecord
100
AcDbBlockTableRecord
  2
block 6
340
0
102
{BLKREFS
331
BB
102
}
 70
     0
280
     1
281
     0
  0
ENDTAB
  0
ENDSEC
  0
SECTION
  2
BLOCKS
  0
BLOCK
  5
20
330
1F
100
AcDbEntity
  8
0
100
AcDbBlockBegin
  2
*Model_Space
 70
     0
 10
0.0
 20
0.0
 30
0.0
  3
*Model_Space
  1

  0
ENDBLK
  5
21
330
1F
100
AcDbEntity
  8
0
100
AcDbBlockEnd
  0
BLOCK
  5
1C
330
1B
100
AcDbEntity
 67
     1
  8
0
100
AcDbBlockBegin
  2
*Paper_Space
 70
     0
 10
0.0
 20
0.0
 30
0.0
  3
*Paper_Space
  1

  0
ENDBLK
  5
1D
330
1B
100
AcDbEntity
 67
     1
  8
0
100
AcDbBlockEnd
  0
BLOCK
  5
24
330
23
100
AcDbEntity
  8
0
100
AcDbBlockBegin
  2
*Paper_Space0
 70
     0
 10
0.0
 20
0.0
 30
0.0
  3
*Paper_Space0
  1

  0
ENDBLK
  5
25
330
23
100
AcDbEntity
  8
0
100
AcDbBlockEnd
  0
BLOCK
  5
6A
330
68
100
AcDbEntity
  8
0
100
AcDbBlockBegin
  2
block 2
 70
     0
 10
0.0
 20
0.0
 30
0.0
  3
block 2
  1

  0
SPLINE
  5
6C
330
68
100
AcDbEntity
  8
_U+30EC_U+30A4_U+30E4_U+30FC 1
370
     0
100
AcDbSpline
210
0.0
220
0.0
230
1.0
 70
    11
 71
     3
 72
    29
 73
    25
 74
     0
 42
0.0000000001
 43
0.0000000001
 12
1.0
 22
0.0
 32
0.0
 13
1.0
 23
0.0
 33
0.0
 40
0.0
 40
0.0
 40
0.0
 40
0.0
 40
1.0
 40
1.0
 40
1.0
 40
2.0
 40
2.0
 40
2.0
 40
3.0
 40
3.0
 40
3.0
 40
4.0
 40
4.0
 40
4.0
 40
5.0
 40
5.0
 40
5.0
 40
6.0
 40
6.0
 40
6.0
 40
7.0
 40
7.0
 40
7.0
 40
8.0
 40
8.0
 40
8.0
 40
8.0
 10
75.01523164357259
 20
-76.63132593570329
 30
0.0
 10
75.22469344907577
 20
-76.73950193394013
 30
0.0
 10
75.24364147424465
 20
-76.9127902368482
 30
0.0
 10
75.24364147424465
 20
-77.02923446424964
 30
0.0
 10
75.24364147424465
 20
-77.1901204234108
 30
0.0
 10
75.19713268519378
 20
-77.33171384785457
 30
0.0
 10
75.01523164357259
 20
-77.42679848324747
 30
0.0
 10
74.82058374865596
 20
-77.53049585735349
 30
0.0
 10
74.58356117927077
 20
-77.5497883920709
 30
0.0
 10
74.420952672367
 20
-77.5497883920709
 30
0.0
 10
74.27694768108354
 20
-77.5497883920709
 30
0.0
 10
74.02511120111178
 20
-77.53256291464464
 30
0.0
 10
73.82632919161287
 20
-77.42679848324747
 30
0.0
 10
73.62341306753164
 20
-77.31896699455915
 30
0.0
 10
73.59998641823195
 20
-77.15808103539798
 30
0.0
 10
73.59998641823195
 20
-77.02923446424964
 30
0.0
 10
73.59998641823195
 20
-76.87041556237962
 30
0.0
 10
73.64442814999167
 20
-76.72675508064471
 30
0.0
 10
73.82632919161287
 20
-76.63132593570329
 30
0.0
 10
74.01891002923833
 20
-76.5321071857281
 30
0.0
 10
74.24731985991039
 20
-76.50868053642839
 30
0.0
 10
74.420952672367
 20
-76.50868053642839
 30
0.0
 10
74.5921739179839
 20
-76.50868053642839
 30
0.0
 10
74.82265080594712
 20
-76.53004012843694
 30
0.0
 10
75.01523164357259
 20
-76.63132593570329
 30
0.0
  0
SPLINE
  5
6D
330
68
100
AcDbEntity
  8
_U+30EC_U+30A4_U+30E4_U+30FC 1
370
     0
100
AcDbSpline
210
0.0
220
0.0
230
1.0
 70
    11
 71
     3
 72
    17
 73
    13
 74
     0
 42
0.0000000001
 43
0.0000000001
 12
1.0
 22
0.0
 32
0.0
 13
1.0
 23
0.0
 33
0.0
 40
0.0
 40
0.0
 40
0.0
 40
0.0
 40
1.0
 40
1.0
 40
1.0
 40
2.0
 40
2.0
 40
2.0
 40
3.0
 40
3.0
 40
3.0
 40
4.0
 40
4.0
 40
4.0
 40
4.0
 10
73.79256725585742
 20
-77.02923446424964
 30
0.0
 10
73.79256725585742
 20
-77.27900388693025
 30
0.0
 10
74.07609861429349
 20
-77.32551267598113
 30
0.0
 10
74.420952672367
 20
-77.32551267598113
 30
0.0
 10
74.74031302384965
 20
-77.32551267598113
 30
0.0
 10
75.04899357932803
 20
-77.289339173386
 30
0.0
 10
75.04899357932803
 20
-77.02923446424964
 30
0.0
 10
75.04899357932803
 20
-76.78153209886018
 30
0.0
 10
74.76787378773165
 20
-76.73295625251815
 30
0.0
 10
74.420952672367
 20
-76.73295625251815
 30
0.0
 10
74.1012478113358
 20
-76.73295625251815
 30
0.0
 10
73.79256725585742
 20
-76.77119681240443
 30
0.0
 10
73.79256725585742
 20
-77.02923446424964
 30
0.0
  0
HATCH
  5
6E
330
68
100
AcDbEntity
  8
_U+30EC_U+30A4_U+30E4_U+30FC 1
 62
     7
420
 16777215
100
AcDbHatch
 10
0.0
 20
0.0
 30
0.0
210
0.0
220
0.0
230
1.0
  2
SOLID
 70
     1
 71
     0
 91
        2
 92
        1
 93
        1
 72
     4
 94
        3
 73
     0
 74
     1
 95
       29
 96
       25
 40
0.0
 40
0.0
 40
0.0
 40
0.0
 40
1.0
 40
1.0
 40
1.0
 40
2.0
 40
2.0
 40
2.0
 40
3.0
 40
3.0
 40
3.0
 40
4.0
 40
4.0
 40
4.0
 40
5.0
 40
5.0
 40
5.0
 40
6.0
 40
6.0
 40
6.0
 40
7.0
 40
7.0
 40
7.0
 40
8.0
 40
8.0
 40
8.0
 40
8.0
 10
75.01523164357259
 20
-76.63132593570329
 10
75.22469344907577
 20
-76.73950193394013
 10
75.24364147424465
 20
-76.9127902368482
 10
75.24364147424465
 20
-77.02923446424964
 10
75.24364147424465
 20
-77.1901204234108
 10
75.19713268519378
 20
-77.33171384785457
 10
75.01523164357259
 20
-77.42679848324747
 10
74.82058374865596
 20
-77.53049585735349
 10
74.58356117927077
 20
-77.5497883920709
 10
74.420952672367
 20
-77.5497883920709
 10
74.27694768108354
 20
-77.5497883920709
 10
74.02511120111178
 20
-77.53256291464464
 10
73.82632919161287
 20
-77.42679848324747
 10
73.62341306753164
 20
-77.31896699455915
 10
73.59998641823195
 20
-77.15808103539798
 10
73.59998641823195
 20
-77.02923446424964
 10
73.59998641823195
 20
-76.87041556237962
 10
73.64442814999167
 20
-76.72675508064471
 10
73.82632919161287
 20
-76.63132593570329
 10
74.01891002923833
 20
-76.5321071857281
 10
74.24731985991039
 20
-76.50868053642839
 10
74.420952672367
 20
-76.50868053642839
 10
74.5921739179839
 20
-76.50868053642839
 10
74.82265080594712
 20
-76.53004012843694
 10
75.01523164357259
 20
-76.63132593570329
 97
        0
 97
        0
 92
        1
 93
        1
 72
     4
 94
        3
 73
     0
 74
     1
 95
       17
 96
       13
 40
0.0
 40
0.0
 40
0.0
 40
0.0
 40
1.0
 40
1.0
 40
1.0
 40
2.0
 40
2.0
 40
2.0
 40
3.0
 40
3.0
 40
3.0
 40
4.0
 40
4.0
 40
4.0
 40
4.0
 10
73.79256725585742
 20
-77.02923446424964
 10
73.79256725585742
 20
-77.27900388693025
 10
74.07609861429349
 20
-77.32551267598113
 10
74.420952672367
 20
-77.32551267598113
 10
74.74031302384965
 20
-77.32551267598113
 10
75.04899357932803
 20
-77.289339173386
 10
75.04899357932803
 20
-77.02923446424964
 10
75.04899357932803
 20
-76.78153209886018
 10
74.76787378773165
 20
-76.73295625251815
 10
74.420952672367
 20
-76.73295625251815
 10
74.1012478113358
 20
-76.73295625251815
 10
73.79256725585742
 20
-76.77119681240443
 10
73.79256725585742
 20
-77.02923446424964
 97
        0
 97
        0
 75
     2
 76
     1
 98
        0
  0
POLYLINE
  5
6F
330
68
100
AcDbEntity
  8
_U+30EC_U+30A4_U+30E4_U+30FC 1
370
     0
100
AcDb2dPolyline
 66
     1
 10
0.0
 20
0.0
 30
0.0
  0
VERTEX
  5
70
330
6F
100
AcDbEntity
  8
_U+30EC_U+30A4_U+30E4_U+30FC 1
370
     0
100
AcDbVertex
100
AcDb2dVertex
 10
75.19299857061148
 20
-76.2923285399547
 30
0.0
  0
VERTEX
  5
71
330
6F
100
AcDbEntity
  8
_U+30EC_U+30A4_U+30E4_U+30FC 1
370
     0
100
AcDbVertex
100
AcDb2dVertex
 10
74.94116209063971
 20
-76.2923285399547
 30
0.0
  0
VERTEX
  5
72
330
6F
100
AcDbEntity
  8
_U+30EC_U+30A4_U+30E4_U+30FC 1
370
     0
100
AcDbVertex
100
AcDb2dVertex
 10
74.94116209063971
 20
-76.04049205998294
 30
0.0
  0
VERTEX
  5
73
330
6F
100
AcDbEntity
  8
_U+30EC_U+30A4_U+30E4_U+30FC 1
370
     0
100
AcDbVertex
100
AcDb2dVertex
 10
75.19299857061148
 20
-76.04049205998294
 30
0.0
  0
VERTEX
  5
74
330
6F
100
AcDbEntity
  8
_U+30EC_U+30A4_U+30E4_U+30FC 1
370
     0
100
AcDbVertex
100
AcDb2dVertex
 10
75.19299857061148
 20
-76.2923285399547
 30
0.0
  0
SEQEND
  5
75
330
6F
100
AcDbEntity
  8
_U+30EC_U+30A4_U+30E4_U+30FC 1
370
     0
  0
HATCH
  5
76
330
68
100
AcDbEntity
  8
_U+30EC_U+30A4_U+30E4_U+30FC 1
 62
     7
420
 16777215
100
AcDbHatch
 10
0.0
 20
0.0
 30
0.0
210
0.0
220
0.0
230
1.0
  2
SOLID
 70
     1
 71
     0
 91
        1
 92
        1
 93
        4
 72
     1
 10
75.19299857061148
 20
-76.2923285399547
 11
74.94116209063971
 21
-76.2923285399547
 72
     1
 10
74.94116209063971
 20
-76.2923285399547
 11
74.94116209063971
 21
-76.04049205998294
 72
     1
 10
74.94116209063971
 20
-76.04049205998294
 11
75.19299857061148
 21
-76.04049205998294
 72
     1
 10
75.19299857061148
 20
-76.04049205998294
 11
75.19299857061148
 21
-76.2923285399547
 97
        0
 75
     2
 76
     1
 98
        0
  0
SPLINE
  5
77
330
68
100
AcDbEntity
  8
_U+30EC_U+30A4_U+30E4_U+30FC 1
370
     0
100
AcDbSpline
210
0.0
220
0.0
230
1.0
 70
    11
 71
     3
 72
    29
 73
    25
 74
     0
 42
0.0000000001
 43
0.0000000001
 12
1.0
 22
0.0
 32
0.0
 13
1.0
 23
0.0
 33
0.0
 40
0.0
 40
0.0
 40
0.0
 40
0.0
 40
1.0
 40
1.0
 40
1.0
 40
2.0
 40
2.0
 40
2.0
 40
3.0
 40
3.0
 40
3.0
 40
4.0
 40
4.0
 40
4.0
 40
5.0
 40
5.0
 40
5.0
 40
6.0
 40
6.0
 40
6.0
 40
7.0
 40
7.0
 40
7.0
 40
8.0
 40
8.0
 40
8.0
 40
8.0
 10
75.24364147424465
 20
-75.30427515478505
 30
0.0
 10
75.24364147424465
 20
-75.57092554534339
 30
0.0
 10
75.10618216438318
 20
-75.82448457305777
 30
0.0
 10
74.75719399172738
 20
-75.82448457305777
 30
0.0
 10
74.5012233971733
 20
-75.82448457305777
 30
0.0
 10
74.40613876178041
 20
-75.682891148614
 30
0.0
 10
74.34481606214297
 20
-75.57712671721683
 30
0.0
 10
74.28556041979667
 20
-75.70183917378287
 30
0.0
 10
74.17118324968638
 20
-75.7779757840069
 30
0.0
 10
74.0102972905252
 20
-75.7779757840069
 30
0.0
 10
73.73537867080228
 20
-75.7779757840069
 30
0.0
 10
73.59998641823195
 20
-75.57919377450798
 30
0.0
 10
73.59998641823195
 20
-75.30427515478505
 30
0.0
 10
73.59998641823195
 20
-75.02074379634898
 30
0.0
 10
73.74399140951539
 20
-74.83023001601467
 30
0.0
 10
74.0102972905252
 20
-74.83023001601467
 30
0.0
 10
74.17118324968638
 20
-74.83023001601467
 30
0.0
 10
74.28556041979667
 20
-74.90877819307836
 30
0.0
 10
74.34481606214297
 20
-75.0334906496444
 30
0.0
 10
74.39545896577614
 20
-74.94460718612497
 30
0.0
 10
74.49054360116904
 20
-74.78578828425495
 30
0.0
 10
74.75305987714508
 20
-74.78578828425495
 30
0.0
 10
75.12754175639174
 20
-74.78578828425495
 30
0.0
 10
75.24364147424465
 20
-75.06518552810871
 30
0.0
 10
75.24364147424465
 20
-75.30427515478505
 30
0.0
  0
SPLINE
  5
78
330
68
100
AcDbEntity
  8
_U+30EC_U+30A4_U+30E4_U+30FC 1
370
     0
100
AcDbSpline
210
0.0
220
0.0
230
1.0
 70
    11
 71
     3
 72
    17
 73
    13
 74
     0
 42
0.0000000001
 43
0.0000000001
 12
1.0
 22
0.0
 32
0.0
 13
1.0
 23
0.0
 33
0.0
 40
0.0
 40
0.0
 40
0.0
 40
0.0
 40
1.0
 40
1.0
 40
1.0
 40
2.0
 40
2.0
 40
2.0
 40
3.0
 40
3.0
 40
3.0
 40
4.0
 40
4.0
 40
4.0
 40
4.0
 10
73.79256725585742
 20
-75.30427515478505
 30
0.0
 10
73.79256725585742
 20
-75.46929522852851
 30
0.0
 10
73.88765189125031
 20
-75.55370006791713
 30
0.0
 10
74.02304414382063
 20
-75.55370006791713
 30
0.0
 10
74.14568954309553
 20
-75.55370006791713
 30
0.0
 10
74.26420082778812
 20
-75.48204208182393
 30
0.0
 10
74.26420082778812
 20
-75.30427515478505
 30
0.0
 10
74.26420082778812
 20
-75.12650822774616
 30
0.0
 10
74.14568954309553
 20
-75.05450573210443
 30
0.0
 10
74.02304414382063
 20
-75.05450573210443
 30
0.0
 10
73.88765189125031
 20
-75.05450573210443
 30
0.0
 10
73.79256725585742
 20
-75.14132213833273
 30
0.0
 10
73.79256725585742
 20
-75.30427515478505
 30
0.0
  0
SPLINE
  5
79
330
68
100
AcDbEntity
  8
_U+30EC_U+30A4_U+30E4_U+30FC 1
370
     0
100
AcDbSpline
210
0.0
220
0.0
230
1.0
 70
    11
 71
     3
 72
    17
 73
    13
 74
     0
 42
0.0000000001
 43
0.0000000001
 12
1.0
 22
0.0
 32
0.0
 13
1.0
 23
0.0
 33
0.0
 40
0.0
 40
0.0
 40
0.0
 40
0.0
 40
1.0
 40
1.0
 40
1.0
 40
2.0
 40
2.0
 40
2.0
 40
3.0
 40
3.0
 40
3.0
 40
4.0
 40
4.0
 40
4.0
 40
4.0
 10
74.45264755083129
 20
-75.30427515478505
 30
0.0
 10
74.45264755083129
 20
-75.44793563651996
 30
0.0
 10
74.53946395705958
 20
-75.60055336651654
 30
0.0
 10
74.7423800811408
 20
-75.60055336651654
 30
0.0
 10
74.94770777206169
 20
-75.60055336651654
 30
0.0
 10
75.04899357932803
 20
-75.47342934311081
 30
0.0
 10
75.04899357932803
 20
-75.30427515478505
 30
0.0
 10
75.04899357932803
 20
-75.11823999858156
 30
0.0
 10
74.92634818005314
 20
-75.00799694305356
 30
0.0
 10
74.74858125301425
 20
-75.00799694305356
 30
0.0
 10
74.52671710376416
 20
-75.00799694305356
 30
0.0
 10
74.45264755083129
 20
-75.17094995950588
 30
0.0
 10
74.45264755083129
 20
-75.30427515478505
 30
0.0
  0
HATCH
  5
7A
330
68
100
AcDbEntity
  8
_U+30EC_U+30A4_U+30E4_U+30FC 1
 62
     7
420
 16777215
100
AcDbHatch
 10
0.0
 20
0.0
 30
0.0
210
0.0
220
0.0
230
1.0
  2
SOLID
 70
     1
 71
     0
 91
        3
 92
        1
 93
        1
 72
     4
 94
        3
 73
     0
 74
     1
 95
       29
 96
       25
 40
0.0
 40
0.0
 40
0.0
 40
0.0
 40
1.0
 40
1.0
 40
1.0
 40
2.0
 40
2.0
 40
2.0
 40
3.0
 40
3.0
 40
3.0
 40
4.0
 40
4.0
 40
4.0
 40
5.0
 40
5.0
 40
5.0
 40
6.0
 40
6.0
 40
6.0
 40
7.0
 40
7.0
 40
7.0
 40
8.0
 40
8.0
 40
8.0
 40
8.0
 10
75.24364147424465
 20
-75.30427515478505
 10
75.24364147424465
 20
-75.57092554534339
 10
75.10618216438318
 20
-75.82448457305777
 10
74.75719399172738
 20
-75.82448457305777
 10
74.5012233971733
 20
-75.82448457305777
 10
74.40613876178041
 20
-75.682891148614
 10
74.34481606214297
 20
-75.57712671721683
 10
74.28556041979667
 20
-75.70183917378287
 10
74.17118324968638
 20
-75.7779757840069
 10
74.0102972905252
 20
-75.7779757840069
 10
73.73537867080228
 20
-75.7779757840069
 10
73.59998641823195
 20
-75.57919377450798
 10
73.59998641823195
 20
-75.30427515478505
 10
73.59998641823195
 20
-75.02074379634898
 10
73.74399140951539
 20
-74.83023001601467
 10
74.0102972905252
 20
-74.83023001601467
 10
74.17118324968638
 20
-74.83023001601467
 10
74.28556041979667
 20
-74.90877819307836
 10
74.34481606214297
 20
-75.0334906496444
 10
74.39545896577614
 20
-74.94460718612497
 10
74.49054360116904
 20
-74.78578828425495
 10
74.75305987714508
 20
-74.78578828425495
 10
75.12754175639174
 20
-74.78578828425495
 10
75.24364147424465
 20
-75.06518552810871
 10
75.24364147424465
 20
-75.30427515478505
 97
        0
 97
        0
 92
        1
 93
        1
 72
     4
 94
        3
 73
     0
 74
     1
 95
       17
 96
       13
 40
0.0
 40
0.0
 40
0.0
 40
0.0
 40
1.0
 40
1.0
 40
1.0
 40
2.0
 40
2.0
 40
2.0
 40
3.0
 40
3.0
 40
3.0
 40
4.0
 40
4.0
 40
4.0
 40
4.0
 10
73.79256725585742
 20
-75.30427515478505
 10
73.79256725585742
 20
-75.46929522852851
 10
73.88765189125031
 20
-75.55370006791713
 10
74.02304414382063
 20
-75.55370006791713
 10
74.14568954309553
 20
-75.55370006791713
 10
74.26420082778812
 20
-75.48204208182393
 10
74.26420082778812
 20
-75.30427515478505
 10
74.26420082778812
 20
-75.12650822774616
 10
74.14568954309553
 20
-75.05450573210443
 10
74.02304414382063
 20
-75.05450573210443
 10
73.88765189125031
 20
-75.05450573210443
 10
73.79256725585742
 20
-75.14132213833273
 10
73.79256725585742
 20
-75.30427515478505
 97
        0
 97
        0
 92
        1
 93
        1
 72
     4
 94
        3
 73
     0
 74
     1
 95
       17
 96
       13
 40
0.0
 40
0.0
 40
0.0
 40
0.0
 40
1.0
 40
1.0
 40
1.0
 40
2.0
 40
2.0
 40
2.0
 40
3.0
 40
3.0
 40
3.0
 40
4.0
 40
4.0
 40
4.0
 40
4.0
 10
74.45264755083129
 20
-75.30427515478505
 10
74.45264755083129
 20
-75.44793563651996
 10
74.53946395705958
 20
-75.60055336651654
 10
74.7423800811408
 20
-75.60055336651654
 10
74.94770777206169
 20
-75.60055336651654
 10
75.04899357932803
 20
-75.47342934311081
 10
75.04899357932803
 20
-75.30427515478505
 10
75.04899357932803
 20
-75.11823999858156
 10
74.92634818005314
 20
-75.00799694305356
 10
74.74858125301425
 20
-75.00799694305356
 10
74.52671710376416
 20
-75.00799694305356
 10
74.45264755083129
 20
-75.17094995950588
 10
74.45264755083129
 20
-75.30427515478505
 97
        0
 97
        0
 75
     2
 76
     1
 98
        0
  0
ENDBLK
  5
6B
330
68
100
AcDbEntity
  8
0
100
AcDbBlockEnd
  0
BLOCK
  5
85
330
83
100
AcDbEntity
  8
0
100
AcDbBlockBegin
  2
block 3
 70
     0
 10
0.0
 20
0.0
 30
0.0
  3
block 3
  1

  0
SPLINE
  5
87
330
83
100
AcDbEntity
  8
_U+30EC_U+30A4_U+30E4_U+30FC 1
370
     0
100
AcDbSpline
210
0.0
220
0.0
230
1.0
 70
    11
 71
     3
 72
    62
 73
    58
 74
     0
 42
0.0000000001
 43
0.0000000001
 12
1.0
 22
0.0
 32
0.0
 13
1.0
 23
0.0
 33
0.0
 40
0.0
 40
0.0
 40
0.0
 40
0.0
 40
1.0
 40
1.0
 40
1.0
 40
2.0
 40
2.0
 40
2.0
 40
3.0
 40
3.0
 40
3.0
 40
4.0
 40
4.0
 40
4.0
 40
5.0
 40
5.0
 40
5.0
 40
6.0
 40
6.0
 40
6.0
 40
7.0
 40
7.0
 40
7.0
 40
8.0
 40
8.0
 40
8.0
 40
9.0
 40
9.0
 40
9.0
 40
10.0
 40
10.0
 40
10.0
 40
11.0
 40
11.0
 40
11.0
 40
12.0
 40
12.0
 40
12.0
 40
13.0
 40
13.0
 40
13.0
 40
14.0
 40
14.0
 40
14.0
 40
15.0
 40
15.0
 40
15.0
 40
16.0
 40
16.0
 40
16.0
 40
17.0
 40
17.0
 40
17.0
 40
18.0
 40
18.0
 40
18.0
 40
19.0
 40
19.0
 40
19.0
 40
19.0
 10
75.24364147424465
 20
-100.9747151440272
 30
0.0
 10
75.24364147424465
 20
-101.0701442889686
 30
0.0
 10
75.22262639178463
 20
-101.2878743236364
 30
0.0
 10
75.03659123558113
 20
-101.4129312897509
 30
0.0
 10
74.92428112276198
 20
-101.4870008426838
 30
0.0
 10
74.82506237278679
 20
-101.4911349572661
 30
0.0
 10
74.74031302384965
 20
-101.4952690718484
 30
0.0
 10
74.74031302384965
 20
-101.4952690718484
 30
0.0
 10
74.74031302384965
 20
-101.2751274703409
 30
0.0
 10
74.74031302384965
 20
-101.2751274703409
 30
0.0
 10
74.81438257678252
 20
-101.2730604130498
 30
0.0
 10
75.04899357932803
 20
-101.262725126594
 30
0.0
 10
75.04899357932803
 20
-100.979193768158
 30
0.0
 10
75.04899357932803
 20
-100.8417344582965
 30
0.0
 10
74.97940265052598
 20
-100.6891167283
 30
0.0
 10
74.75099281985392
 20
-100.6891167283
 30
0.0
 10
74.63454859245248
 20
-100.6891167283
 30
0.0
 10
74.58597274611046
 20
-100.7273572881862
 30
0.0
 10
74.55427786764615
 20
-100.7590521666505
 30
0.0
 10
74.48020831471328
 20
-100.8331217195834
 30
0.0
 10
74.46746146141786
 20
-100.9495659469848
 30
0.0
 10
74.46746146141786
 20
-101.0043429652003
 30
0.0
 10
74.46746146141786
 20
-101.0236354999177
 30
0.0
 10
74.46952851870901
 20
-101.0594644929643
 30
0.0
 10
74.47366263329131
 20
-101.0870252568463
 30
0.0
 10
74.47366263329131
 20
-101.0870252568463
 30
0.0
 10
74.2790147383747
 20
-101.0870252568463
 30
0.0
 10
74.2790147383747
 20
-101.0870252568463
 30
0.0
 10
74.28556041979667
 20
-101.04878469696
 30
0.0
 10
74.28762747708782
 20
-101.00675453204
 30
0.0
 10
74.28762747708782
 20
-101.000208850618
 30
0.0
 10
74.28762747708782
 20
-100.9347520363983
 30
0.0
 10
74.26626788507927
 20
-100.7359700268994
 30
0.0
 10
74.02958982524261
 20
-100.7359700268994
 30
0.0
 10
73.85182289820371
 20
-100.7359700268994
 30
0.0
 10
73.79670137043972
 20
-100.8668836553388
 30
0.0
 10
73.79670137043972
 20
-100.9771267108668
 30
0.0
 10
73.79670137043972
 20
-101.2413655345855
 30
0.0
 10
74.02958982524261
 20
-101.2499782732986
 30
0.0
 10
74.1012478113358
 20
-101.2541123878809
 30
0.0
 10
74.1012478113358
 20
-101.2541123878809
 30
0.0
 10
74.1012478113358
 20
-101.4573730215107
 30
0.0
 10
74.1012478113358
 20
-101.4573730215107
 30
0.0
 10
73.97653535476975
 20
-101.4487602827975
 30
0.0
 10
73.59998641823195
 20
-101.4211995189155
 30
0.0
 10
73.59998641823195
 20
-100.9643798575714
 30
0.0
 10
73.59998641823195
 20
-100.7401041414817
 30
0.0
 10
73.72711044163768
 20
-100.4989474575142
 30
0.0
 10
74.02304414382063
 20
-100.4989474575142
 30
0.0
 10
74.20942380957264
 20
-100.4989474575142
 30
0.0
 10
74.29176159167012
 20
-100.5940320929071
 30
0.0
 10
74.35308429130757
 20
-100.6935953524308
 30
0.0
 10
74.38064505518956
 20
-100.6322726527933
 30
0.0
 10
74.46091577999589
 20
-100.4503716111721
 30
0.0
 10
74.7382459665585
 20
-100.4503716111721
 30
0.0
 10
75.07655434321003
 20
-100.4503716111721
 30
0.0
 10
75.24364147424465
 20
-100.6977294670131
 30
0.0
 10
75.24364147424465
 20
-100.9747151440272
 30
0.0
  0
HATCH
  5
88
330
83
100
AcDbEntity
  8
_U+30EC_U+30A4_U+30E4_U+30FC 1
 62
     7
420
 16777215
100
AcDbHatch
 10
0.0
 20
0.0
 30
0.0
210
0.0
220
0.0
230
1.0
  2
SOLID
 70
     1
 71
     0
 91
        1
 92
        1
 93
        1
 72
     4
 94
        3
 73
     0
 74
     1
 95
       62
 96
       58
 40
0.0
 40
0.0
 40
0.0
 40
0.0
 40
1.0
 40
1.0
 40
1.0
 40
2.0
 40
2.0
 40
2.0
 40
3.0
 40
3.0
 40
3.0
 40
4.0
 40
4.0
 40
4.0
 40
5.0
 40
5.0
 40
5.0
 40
6.0
 40
6.0
 40
6.0
 40
7.0
 40
7.0
 40
7.0
 40
8.0
 40
8.0
 40
8.0
 40
9.0
 40
9.0
 40
9.0
 40
10.0
 40
10.0
 40
10.0
 40
11.0
 40
11.0
 40
11.0
 40
12.0
 40
12.0
 40
12.0
 40
13.0
 40
13.0
 40
13.0
 40
14.0
 40
14.0
 40
14.0
 40
15.0
 40
15.0
 40
15.0
 40
16.0
 40
16.0
 40
16.0
 40
17.0
 40
17.0
 40
17.0
 40
18.0
 40
18.0
 40
18.0
 40
19.0
 40
19.0
 40
19.0
 40
19.0
 10
75.24364147424465
 20
-100.9747151440272
 10
75.24364147424465
 20
-101.0701442889686
 10
75.22262639178463
 20
-101.2878743236364
 10
75.03659123558113
 20
-101.4129312897509
 10
74.92428112276198
 20
-101.4870008426838
 10
74.82506237278679
 20
-101.4911349572661
 10
74.74031302384965
 20
-101.4952690718484
 10
74.74031302384965
 20
-101.4952690718484
 10
74.74031302384965
 20
-101.2751274703409
 10
74.74031302384965
 20
-101.2751274703409
 10
74.81438257678252
 20
-101.2730604130498
 10
75.04899357932803
 20
-101.262725126594
 10
75.04899357932803
 20
-100.979193768158
 10
75.04899357932803
 20
-100.8417344582965
 10
74.97940265052598
 20
-100.6891167283
 10
74.75099281985392
 20
-100.6891167283
 10
74.63454859245248
 20
-100.6891167283
 10
74.58597274611046
 20
-100.7273572881862
 10
74.55427786764615
 20
-100.7590521666505
 10
74.48020831471328
 20
-100.8331217195834
 10
74.46746146141786
 20
-100.9495659469848
 10
74.46746146141786
 20
-101.0043429652003
 10
74.46746146141786
 20
-101.0236354999177
 10
74.46952851870901
 20
-101.0594644929643
 10
74.47366263329131
 20
-101.0870252568463
 10
74.47366263329131
 20
-101.0870252568463
 10
74.2790147383747
 20
-101.0870252568463
 10
74.2790147383747
 20
-101.0870252568463
 10
74.28556041979667
 20
-101.04878469696
 10
74.28762747708782
 20
-101.00675453204
 10
74.28762747708782
 20
-101.000208850618
 10
74.28762747708782
 20
-100.9347520363983
 10
74.26626788507927
 20
-100.7359700268994
 10
74.02958982524261
 20
-100.7359700268994
 10
73.85182289820371
 20
-100.7359700268994
 10
73.79670137043972
 20
-100.8668836553388
 10
73.79670137043972
 20
-100.9771267108668
 10
73.79670137043972
 20
-101.2413655345855
 10
74.02958982524261
 20
-101.2499782732986
 10
74.1012478113358
 20
-101.2541123878809
 10
74.1012478113358
 20
-101.2541123878809
 10
74.1012478113358
 20
-101.4573730215107
 10
74.1012478113358
 20
-101.4573730215107
 10
73.97653535476975
 20
-101.4487602827975
 10
73.59998641823195
 20
-101.4211995189155
 10
73.59998641823195
 20
-100.9643798575714
 10
73.59998641823195
 20
-100.7401041414817
 10
73.72711044163768
 20
-100.4989474575142
 10
74.02304414382063
 20
-100.4989474575142
 10
74.20942380957264
 20
-100.4989474575142
 10
74.29176159167012
 20
-100.5940320929071
 10
74.35308429130757
 20
-100.6935953524308
 10
74.38064505518956
 20
-100.6322726527933
 10
74.46091577999589
 20
-100.4503716111721
 10
74.7382459665585
 20
-100.4503716111721
 10
75.07655434321003
 20
-100.4503716111721
 10
75.24364147424465
 20
-100.6977294670131
 10
75.24364147424465
 20
-100.9747151440272
 97
        0
 97
        0
 75
     2
 76
     1
 98
        0
  0
ENDBLK
  5
86
330
83
100
AcDbEntity
  8
0
100
AcDbBlockEnd
  0
BLOCK
  5
97
330
95
100
AcDbEntity
  8
0
100
AcDbBlockBegin
  2
block 4
 70
     0
 10
0.0
 20
0.0
 30
0.0
  3
block 4
  1

  0
SPLINE
  5
99
330
95
100
AcDbEntity
  8
_U+30EC_U+30A4_U+30E4_U+30FC 1
370
     0
100
AcDbSpline
210
0.0
220
0.0
230
1.0
 70
    11
 71
     3
 72
    26
 73
    22
 74
     0
 42
0.0000000001
 43
0.0000000001
 12
1.0
 22
0.0
 32
0.0
 13
1.0
 23
0.0
 33
0.0
 40
0.0
 40
0.0
 40
0.0
 40
0.0
 40
1.0
 40
1.0
 40
1.0
 40
2.0
 40
2.0
 40
2.0
 40
3.0
 40
3.0
 40
3.0
 40
4.0
 40
4.0
 40
4.0
 40
5.0
 40
5.0
 40
5.0
 40
6.0
 40
6.0
 40
6.0
 40
7.0
 40
7.0
 40
7.0
 40
7.0
 10
53.90730386022109
 20
-105.1136528600063
 30
0.0
 10
53.90730386022109
 20
-105.1136528600063
 30
0.0
 10
53.90730386022109
 20
-104.0094997569837
 30
0.0
 10
53.90730386022109
 20
-104.0094997569837
 30
0.0
 10
53.90730386022109
 20
-104.0094997569837
 30
0.0
 10
53.57726371273416
 20
-104.0094997569837
 30
0.0
 10
53.57726371273416
 20
-104.0094997569837
 30
0.0
 10
53.57726371273416
 20
-104.0094997569837
 30
0.0
 10
53.57726371273416
 20
-103.861360651118
 30
0.0
 10
53.57726371273416
 20
-103.861360651118
 30
0.0
 10
53.90937091751224
 20
-103.8465467405314
 30
0.0
 10
53.95587970656312
 20
-103.6835937240791
 30
0.0
 10
53.98550752773627
 20
-103.5692165539688
 30
0.0
 10
53.98550752773627
 20
-103.5692165539688
 30
0.0
 10
54.13157957631086
 20
-103.5692165539688
 30
0.0
 10
54.13157957631086
 20
-103.5692165539688
 30
0.0
 10
54.13157957631086
 20
-103.5692165539688
 30
0.0
 10
54.13157957631086
 20
-105.1136528600063
 30
0.0
 10
54.13157957631086
 20
-105.1136528600063
 30
0.0
 10
54.13157957631086
 20
-105.1136528600063
 30
0.0
 10
53.90730386022109
 20
-105.1136528600063
 30
0.0
 10
53.90730386022109
 20
-105.1136528600063
 30
0.0
  0
HATCH
  5
9A
330
95
100
AcDbEntity
  8
_U+30EC_U+30A4_U+30E4_U+30FC 1
 62
     7
420
 16777215
100
AcDbHatch
 10
0.0
 20
0.0
 30
0.0
210
0.0
220
0.0
230
1.0
  2
SOLID
 70
     1
 71
     0
 91
        1
 92
        1
 93
        1
 72
     4
 94
        3
 73
     0
 74
     1
 95
       26
 96
       22
 40
0.0
 40
0.0
 40
0.0
 40
0.0
 40
1.0
 40
1.0
 40
1.0
 40
2.0
 40
2.0
 40
2.0
 40
3.0
 40
3.0
 40
3.0
 40
4.0
 40
4.0
 40
4.0
 40
5.0
 40
5.0
 40
5.0
 40
6.0
 40
6.0
 40
6.0
 40
7.0
 40
7.0
 40
7.0
 40
7.0
 10
53.90730386022109
 20
-105.1136528600063
 10
53.90730386022109
 20
-105.1136528600063
 10
53.90730386022109
 20
-104.0094997569837
 10
53.90730386022109
 20
-104.0094997569837
 10
53.90730386022109
 20
-104.0094997569837
 10
53.57726371273416
 20
-104.0094997569837
 10
53.57726371273416
 20
-104.0094997569837
 10
53.57726371273416
 20
-104.0094997569837
 10
53.57726371273416
 20
-103.861360651118
 10
53.57726371273416
 20
-103.861360651118
 10
53.90937091751224
 20
-103.8465467405314
 10
53.95587970656312
 20
-103.6835937240791
 10
53.98550752773627
 20
-103.5692165539688
 10
53.98550752773627
 20
-103.5692165539688
 10
54.13157957631086
 20
-103.5692165539688
 10
54.13157957631086
 20
-103.5692165539688
 10
54.13157957631086
 20
-103.5692165539688
 10
54.13157957631086
 20
-105.1136528600063
 10
54.13157957631086
 20
-105.1136528600063
 10
54.13157957631086
 20
-105.1136528600063
 10
53.90730386022109
 20
-105.1136528600063
 10
53.90730386022109
 20
-105.1136528600063
 97
        0
 97
        0
 75
     2
 76
     1
 98
        0
  0
SPLINE
  5
9B
330
95
100
AcDbEntity
  8
_U+30EC_U+30A4_U+30E4_U+30FC 1
370
     0
100
AcDbSpline
210
0.0
220
0.0
230
1.0
 70
    11
 71
     3
 72
    29
 73
    25
 74
     0
 42
0.0000000001
 43
0.0000000001
 12
1.0
 22
0.0
 32
0.0
 13
1.0
 23
0.0
 33
0.0
 40
0.0
 40
0.0
 40
0.0
 40
0.0
 40
1.0
 40
1.0
 40
1.0
 40
2.0
 40
2.0
 40
2.0
 40
3.0
 40
3.0
 40
3.0
 40
4.0
 40
4.0
 40
4.0
 40
5.0
 40
5.0
 40
5.0
 40
6.0
 40
6.0
 40
6.0
 40
7.0
 40
7.0
 40
7.0
 40
8.0
 40
8.0
 40
8.0
 40
8.0
 10
55.53046059809655
 20
-104.9358859329674
 30
0.0
 10
55.42262910940823
 20
-105.1453477384706
 30
0.0
 10
55.2491685517259
 20
-105.1642957636395
 30
0.0
 10
55.13272432432446
 20
-105.1642957636395
 30
0.0
 10
54.97201061993756
 20
-105.1642957636395
 30
0.0
 10
54.83024494071952
 20
-105.1177869745886
 30
0.0
 10
54.73498805055237
 20
-104.9358859329674
 30
0.0
 10
54.63146293122061
 20
-104.7412380380508
 30
0.0
 10
54.61234265127747
 20
-104.5042154686656
 30
0.0
 10
54.61234265127747
 20
-104.3416069617618
 30
0.0
 10
54.61234265127747
 20
-104.1976019704784
 30
0.0
 10
54.6292236191552
 20
-103.9457654905066
 30
0.0
 10
54.73498805055237
 20
-103.7469834810077
 30
0.0
 10
54.84299179401495
 20
-103.5440673569265
 30
0.0
 10
55.00370549840186
 20
-103.5206407076268
 30
0.0
 10
55.13272432432446
 20
-103.5206407076268
 30
0.0
 10
55.29137097142021
 20
-103.5206407076268
 30
0.0
 10
55.4352037079294
 20
-103.5650824393865
 30
0.0
 10
55.53046059809655
 20
-103.7469834810077
 30
0.0
 10
55.62985160284601
 20
-103.9395643186332
 30
0.0
 10
55.65310599737145
 20
-104.1679741493052
 30
0.0
 10
55.65310599737145
 20
-104.3416069617618
 30
0.0
 10
55.65310599737145
 20
-104.5128282073787
 30
0.0
 10
55.63209091491142
 20
-104.743305095342
 30
0.0
 10
55.53046059809655
 20
-104.9358859329674
 30
0.0
  0
SPLINE
  5
9C
330
95
100
AcDbEntity
  8
_U+30EC_U+30A4_U+30E4_U+30FC 1
370
     0
100
AcDbSpline
210
0.0
220
0.0
230
1.0
 70
    11
 71
     3
 72
    17
 73
    13
 74
     0
 42
0.0000000001
 43
0.0000000001
 12
1.0
 22
0.0
 32
0.0
 13
1.0
 23
0.0
 33
0.0
 40
0.0
 40
0.0
 40
0.0
 40
0.0
 40
1.0
 40
1.0
 40
1.0
 40
2.0
 40
2.0
 40
2.0
 40
3.0
 40
3.0
 40
3.0
 40
4.0
 40
4.0
 40
4.0
 40
4.0
 10
55.13272432432446
 20
-103.7132215452523
 30
0.0
 10
54.88312715641811
 20
-103.7132215452523
 30
0.0
 10
54.83661836736724
 20
-103.9967529036883
 30
0.0
 10
54.83661836736724
 20
-104.3416069617618
 30
0.0
 10
54.83661836736724
 20
-104.6609673132445
 30
0.0
 10
54.8726196151881
 20
-104.9696478687229
 30
0.0
 10
55.13272432432446
 20
-104.9696478687229
 30
0.0
 10
55.38025443493966
 20
-104.9696478687229
 30
0.0
 10
55.42900253605595
 20
-104.6885280771265
 30
0.0
 10
55.42900253605595
 20
-104.3416069617618
 30
0.0
 10
55.42900253605595
 20
-104.0219021007306
 30
0.0
 10
55.39076197616967
 20
-103.7132215452523
 30
0.0
 10
55.13272432432446
 20
-103.7132215452523
 30
0.0
  0
HATCH
  5
9D
330
95
100
AcDbEntity
  8
_U+30EC_U+30A4_U+30E4_U+30FC 1
 62
     7
420
 16777215
100
AcDbHatch
 10
0.0
 20
0.0
 30
0.0
210
0.0
220
0.0
230
1.0
  2
SOLID
 70
     1
 71
     0
 91
        2
 92
        1
 93
        1
 72
     4
 94
        3
 73
     0
 74
     1
 95
       29
 96
       25
 40
0.0
 40
0.0
 40
0.0
 40
0.0
 40
1.0
 40
1.0
 40
1.0
 40
2.0
 40
2.0
 40
2.0
 40
3.0
 40
3.0
 40
3.0
 40
4.0
 40
4.0
 40
4.0
 40
5.0
 40
5.0
 40
5.0
 40
6.0
 40
6.0
 40
6.0
 40
7.0
 40
7.0
 40
7.0
 40
8.0
 40
8.0
 40
8.0
 40
8.0
 10
55.53046059809655
 20
-104.9358859329674
 10
55.42262910940823
 20
-105.1453477384706
 10
55.2491685517259
 20
-105.1642957636395
 10
55.13272432432446
 20
-105.1642957636395
 10
54.97201061993756
 20
-105.1642957636395
 10
54.83024494071952
 20
-105.1177869745886
 10
54.73498805055237
 20
-104.9358859329674
 10
54.63146293122061
 20
-104.7412380380508
 10
54.61234265127747
 20
-104.5042154686656
 10
54.61234265127747
 20
-104.3416069617618
 10
54.61234265127747
 20
-104.1976019704784
 10
54.6292236191552
 20
-103.9457654905066
 10
54.73498805055237
 20
-103.7469834810077
 10
54.84299179401495
 20
-103.5440673569265
 10
55.00370549840186
 20
-103.5206407076268
 10
55.13272432432446
 20
-103.5206407076268
 10
55.29137097142021
 20
-103.5206407076268
 10
55.4352037079294
 20
-103.5650824393865
 10
55.53046059809655
 20
-103.7469834810077
 10
55.62985160284601
 20
-103.9395643186332
 10
55.65310599737145
 20
-104.1679741493052
 10
55.65310599737145
 20
-104.3416069617618
 10
55.65310599737145
 20
-104.5128282073787
 10
55.63209091491142
 20
-104.743305095342
 10
55.53046059809655
 20
-104.9358859329674
 97
        0
 97
        0
 92
        1
 93
        1
 72
     4
 94
        3
 73
     0
 74
     1
 95
       17
 96
       13
 40
0.0
 40
0.0
 40
0.0
 40
0.0
 40
1.0
 40
1.0
 40
1.0
 40
2.0
 40
2.0
 40
2.0
 40
3.0
 40
3.0
 40
3.0
 40
4.0
 40
4.0
 40
4.0
 40
4.0
 10
55.13272432432446
 20
-103.7132215452523
 10
54.88312715641811
 20
-103.7132215452523
 10
54.83661836736724
 20
-103.9967529036883
 10
54.83661836736724
 20
-104.3416069617618
 10
54.83661836736724
 20
-104.6609673132445
 10
54.8726196151881
 20
-104.9696478687229
 10
55.13272432432446
 20
-104.9696478687229
 10
55.38025443493966
 20
-104.9696478687229
 10
55.42900253605595
 20
-104.6885280771265
 10
55.42900253605595
 20
-104.3416069617618
 10
55.42900253605595
 20
-104.0219021007306
 10
55.39076197616967
 20
-103.7132215452523
 10
55.13272432432446
 20
-103.7132215452523
 97
        0
 97
        0
 75
     2
 76
     1
 98
        0
  0
ENDBLK
  5
98
330
95
100
AcDbEntity
  8
0
100
AcDbBlockEnd
  0
BLOCK
  5
AC
330
AA
100
AcDbEntity
  8
0
100
AcDbBlockBegin
  2
block 5
 70
     0
 10
0.0
 20
0.0
 30
0.0
  3
block 5
  1

  0
SPLINE
  5
AE
330
AA
100
AcDbEntity
  8
_U+30EC_U+30A4_U+30E4_U+30FC 1
370
     0
100
AcDbSpline
210
0.0
220
0.0
230
1.0
 70
    11
 71
     3
 72
    44
 73
    40
 74
     0
 42
0.0000000001
 43
0.0000000001
 12
1.0
 22
0.0
 32
0.0
 13
1.0
 23
0.0
 33
0.0
 40
0.0
 40
0.0
 40
0.0
 40
0.0
 40
1.0
 40
1.0
 40
1.0
 40
2.0
 40
2.0
 40
2.0
 40
3.0
 40
3.0
 40
3.0
 40
4.0
 40
4.0
 40
4.0
 40
5.0
 40
5.0
 40
5.0
 40
6.0
 40
6.0
 40
6.0
 40
7.0
 40
7.0
 40
7.0
 40
8.0
 40
8.0
 40
8.0
 40
9.0
 40
9.0
 40
9.0
 40
10.0
 40
10.0
 40
10.0
 40
11.0
 40
11.0
 40
11.0
 40
12.0
 40
12.0
 40
12.0
 40
13.0
 40
13.0
 40
13.0
 40
13.0
 10
60.54875893668573
 20
-73.23222247518153
 30
0.0
 10
60.33102890201794
 20
-73.39086912227728
 30
0.0
 10
60.2380113239162
 20
-73.46493867521016
 30
0.0
 10
60.18909096802565
 20
-73.60877141171933
 30
0.0
 10
60.18909096802565
 20
-73.60877141171933
 30
0.0
 10
60.96768254769211
 20
-73.60877141171933
 30
0.0
 10
60.96768254769211
 20
-73.60877141171933
 30
0.0
 10
60.96768254769211
 20
-73.60877141171933
 30
0.0
 10
60.96768254769211
 20
-73.81392684786597
 30
0.0
 10
60.96768254769211
 20
-73.81392684786597
 30
0.0
 10
60.96768254769211
 20
-73.81392684786597
 30
0.0
 10
59.93966605489356
 20
-73.81392684786597
 30
0.0
 10
59.93966605489356
 20
-73.81392684786597
 30
0.0
 10
59.97136093335786
 20
-73.45632593649704
 30
0.0
 10
60.0368177475776
 20
-73.37812226898185
 30
0.0
 10
60.42197942282854
 20
-73.07977699995922
 30
0.0
 10
60.6779500173826
 20
-72.88099499046031
 30
0.0
 10
60.74340683160234
 20
-72.81329886417515
 30
0.0
 10
60.74340683160234
 20
-72.67583955431368
 30
0.0
 10
60.74340683160234
 20
-72.55732826962108
 30
0.0
 10
60.67140433596062
 20
-72.42624238640734
 30
0.0
 10
60.47468938375286
 20
-72.42624238640734
 30
0.0
 10
60.2145846746165
 20
-72.42624238640734
 30
0.0
 10
60.20597193590337
 20
-72.65671927437054
 30
0.0
 10
60.20183782132107
 20
-72.77316350177199
 30
0.0
 10
60.20183782132107
 20
-72.77316350177199
 30
0.0
 10
59.97756210523131
 20
-72.77316350177199
 30
0.0
 10
59.97756210523131
 20
-72.77316350177199
 30
0.0
 10
59.98617484394443
 20
-72.64621173314053
 30
0.0
 10
59.99685463994871
 20
-72.53407387509566
 30
0.0
 10
60.07712536475503
 20
-72.41556259040306
 30
0.0
 10
60.1870239107345
 20
-72.25484888601615
 30
0.0
 10
60.37340357648651
 20
-72.22091469548644
 30
0.0
 10
60.48950329433944
 20
-72.22091469548644
 30
0.0
 10
60.76683348090204
 20
-72.22091469548644
 30
0.0
 10
60.97422822911408
 20
-72.40505504917304
 30
0.0
 10
60.97422822911408
 20
-72.67790661160483
 30
0.0
 10
60.97422822911408
 20
-72.9063164422769
 30
0.0
 10
60.85778400171264
 20
-73.00587970180062
 30
0.0
 10
60.54875893668573
 20
-73.23222247518153
 30
0.0
  0
HATCH
  5
AF
330
AA
100
AcDbEntity
  8
_U+30EC_U+30A4_U+30E4_U+30FC 1
 62
     7
420
 16777215
100
AcDbHatch
 10
0.0
 20
0.0
 30
0.0
210
0.0
220
0.0
230
1.0
  2
SOLID
 70
     1
 71
     0
 91
        1
 92
        1
 93
        1
 72
     4
 94
        3
 73
     0
 74
     1
 95
       44
 96
       40
 40
0.0
 40
0.0
 40
0.0
 40
0.0
 40
1.0
 40
1.0
 40
1.0
 40
2.0
 40
2.0
 40
2.0
 40
3.0
 40
3.0
 40
3.0
 40
4.0
 40
4.0
 40
4.0
 40
5.0
 40
5.0
 40
5.0
 40
6.0
 40
6.0
 40
6.0
 40
7.0
 40
7.0
 40
7.0
 40
8.0
 40
8.0
 40
8.0
 40
9.0
 40
9.0
 40
9.0
 40
10.0
 40
10.0
 40
10.0
 40
11.0
 40
11.0
 40
11.0
 40
12.0
 40
12.0
 40
12.0
 40
13.0
 40
13.0
 40
13.0
 40
13.0
 10
60.54875893668573
 20
-73.23222247518153
 10
60.33102890201794
 20
-73.39086912227728
 10
60.2380113239162
 20
-73.46493867521016
 10
60.18909096802565
 20
-73.60877141171933
 10
60.18909096802565
 20
-73.60877141171933
 10
60.96768254769211
 20
-73.60877141171933
 10
60.96768254769211
 20
-73.60877141171933
 10
60.96768254769211
 20
-73.60877141171933
 10
60.96768254769211
 20
-73.81392684786597
 10
60.96768254769211
 20
-73.81392684786597
 10
60.96768254769211
 20
-73.81392684786597
 10
59.93966605489356
 20
-73.81392684786597
 10
59.93966605489356
 20
-73.81392684786597
 10
59.97136093335786
 20
-73.45632593649704
 10
60.0368177475776
 20
-73.37812226898185
 10
60.42197942282854
 20
-73.07977699995922
 10
60.6779500173826
 20
-72.88099499046031
 10
60.74340683160234
 20
-72.81329886417515
 10
60.74340683160234
 20
-72.67583955431368
 10
60.74340683160234
 20
-72.55732826962108
 10
60.67140433596062
 20
-72.42624238640734
 10
60.47468938375286
 20
-72.42624238640734
 10
60.2145846746165
 20
-72.42624238640734
 10
60.20597193590337
 20
-72.65671927437054
 10
60.20183782132107
 20
-72.77316350177199
 10
60.20183782132107
 20
-72.77316350177199
 10
59.97756210523131
 20
-72.77316350177199
 10
59.97756210523131
 20
-72.77316350177199
 10
59.98617484394443
 20
-72.64621173314053
 10
59.99685463994871
 20
-72.53407387509566
 10
60.07712536475503
 20
-72.41556259040306
 10
60.1870239107345
 20
-72.25484888601615
 10
60.37340357648651
 20
-72.22091469548644
 10
60.48950329433944
 20
-72.22091469548644
 10
60.76683348090204
 20
-72.22091469548644
 10
60.97422822911408
 20
-72.40505504917304
 10
60.97422822911408
 20
-72.67790661160483
 10
60.97422822911408
 20
-72.9063164422769
 10
60.85778400171264
 20
-73.00587970180062
 10
60.54875893668573
 20
-73.23222247518153
 97
        0
 97
        0
 75
     2
 76
     1
 98
        0
  0
SPLINE
  5
B0
330
AA
100
AcDbEntity
  8
_U+30EC_U+30A4_U+30E4_U+30FC 1
370
     0
100
AcDbSpline
210
0.0
220
0.0
230
1.0
 70
    11
 71
     3
 72
    62
 73
    58
 74
     0
 42
0.0000000001
 43
0.0000000001
 12
1.0
 22
0.0
 32
0.0
 13
1.0
 23
0.0
 33
0.0
 40
0.0
 40
0.0
 40
0.0
 40
0.0
 40
1.0
 40
1.0
 40
1.0
 40
2.0
 40
2.0
 40
2.0
 40
3.0
 40
3.0
 40
3.0
 40
4.0
 40
4.0
 40
4.0
 40
5.0
 40
5.0
 40
5.0
 40
6.0
 40
6.0
 40
6.0
 40
7.0
 40
7.0
 40
7.0
 40
8.0
 40
8.0
 40
8.0
 40
9.0
 40
9.0
 40
9.0
 40
10.0
 40
10.0
 40
10.0
 40
11.0
 40
11.0
 40
11.0
 40
12.0
 40
12.0
 40
12.0
 40
13.0
 40
13.0
 40
13.0
 40
14.0
 40
14.0
 40
14.0
 40
15.0
 40
15.0
 40
15.0
 40
16.0
 40
16.0
 40
16.0
 40
17.0
 40
17.0
 40
17.0
 40
18.0
 40
18.0
 40
18.0
 40
19.0
 40
19.0
 40
19.0
 40
19.0
 10
61.62431774718073
 20
-73.8647420062734
 30
0.0
 10
61.52888860223931
 20
-73.8647420062734
 30
0.0
 10
61.31115856757152
 20
-73.84355466903911
 30
0.0
 10
61.18610160145695
 20
-73.65734725806136
 30
0.0
 10
61.11203204852408
 20
-73.54520940001647
 30
0.0
 10
61.10789793394178
 20
-73.44581839526703
 30
0.0
 10
61.10376381935948
 20
-73.36124130110414
 30
0.0
 10
61.10376381935948
 20
-73.36124130110414
 30
0.0
 10
61.32390542086694
 20
-73.36124130110414
 30
0.0
 10
61.32390542086694
 20
-73.36124130110414
 30
0.0
 10
61.32597247815809
 20
-73.43531085403701
 30
0.0
 10
61.33630776461384
 20
-73.67009411135679
 30
0.0
 10
61.61983912304991
 20
-73.67009411135679
 30
0.0
 10
61.75729843291137
 20
-73.67009411135679
 30
0.0
 10
61.90991616290794
 20
-73.60033092778048
 30
0.0
 10
61.90991616290794
 20
-73.37174884233416
 30
0.0
 10
61.90991616290794
 20
-73.25547686970697
 30
0.0
 10
61.87167560302166
 20
-73.20672876859068
 30
0.0
 10
61.83998072455737
 20
-73.17503389012639
 30
0.0
 10
61.7659111716245
 20
-73.10096433719352
 30
0.0
 10
61.64946694422305
 20
-73.08838973867235
 30
0.0
 10
61.59468992600758
 20
-73.08838973867235
 30
0.0
 10
61.57539739129018
 20
-73.08838973867235
 30
0.0
 10
61.53956839824358
 20
-73.0904567959635
 30
0.0
 10
61.51200763436158
 20
-73.0945909105458
 30
0.0
 10
61.51200763436158
 20
-73.0945909105458
 30
0.0
 10
61.51200763436158
 20
-72.89994301562919
 30
0.0
 10
61.51200763436158
 20
-72.89994301562919
 30
0.0
 10
61.55024819424786
 20
-72.9063164422769
 30
0.0
 10
61.59227835916791
 20
-72.9085557543423
 30
0.0
 10
61.59882404058988
 20
-72.9085557543423
 30
0.0
 10
61.66428085480963
 20
-72.9085557543423
 30
0.0
 10
61.86306286430855
 20
-72.88736841710802
 30
0.0
 10
61.86306286430855
 20
-72.65034584772283
 30
0.0
 10
61.86306286430855
 20
-72.4727511754582
 30
0.0
 10
61.73214923586905
 20
-72.41762964769421
 30
0.0
 10
61.62190618034106
 20
-72.41762964769421
 30
0.0
 10
61.35766735662239
 20
-72.41762964769421
 30
0.0
 10
61.34905461790927
 20
-72.65034584772283
 30
0.0
 10
61.34492050332697
 20
-72.72234834336456
 30
0.0
 10
61.34492050332697
 20
-72.72234834336456
 30
0.0
 10
61.14165986969723
 20
-72.72234834336456
 30
0.0
 10
61.14165986969723
 20
-72.72234834336456
 30
0.0
 10
61.15027260841035
 20
-72.59746363202424
 30
0.0
 10
61.17783337229235
 20
-72.22091469548644
 30
0.0
 10
61.63465303363648
 20
-72.22091469548644
 30
0.0
 10
61.85892874972625
 20
-72.22091469548644
 30
0.0
 10
62.10008543369373
 20
-72.3478664641179
 30
0.0
 10
62.10008543369373
 20
-72.64397242107512
 30
0.0
 10
62.10008543369373
 20
-72.83017983205288
 30
0.0
 10
62.00500079830083
 20
-72.9126898689246
 30
0.0
 10
61.90543753877711
 20
-72.97401256856206
 30
0.0
 10
61.96676023841457
 20
-73.00157333244405
 30
0.0
 10
62.14866128003575
 20
-73.08201631202463
 30
0.0
 10
62.14866128003575
 20
-73.35917424381299
 30
0.0
 10
62.14866128003575
 20
-73.69765487523878
 30
0.0
 10
61.90130342419481
 20
-73.8647420062734
 30
0.0
 10
61.62431774718073
 20
-73.8647420062734
 30
0.0
  0
HATCH
  5
B1
330
AA
100
AcDbEntity
  8
_U+30EC_U+30A4_U+30E4_U+30FC 1
 62
     7
420
 16777215
100
AcDbHatch
 10
0.0
 20
0.0
 30
0.0
210
0.0
220
0.0
230
1.0
  2
SOLID
 70
     1
 71
     0
 91
        1
 92
        1
 93
        1
 72
     4
 94
        3
 73
     0
 74
     1
 95
       62
 96
       58
 40
0.0
 40
0.0
 40
0.0
 40
0.0
 40
1.0
 40
1.0
 40
1.0
 40
2.0
 40
2.0
 40
2.0
 40
3.0
 40
3.0
 40
3.0
 40
4.0
 40
4.0
 40
4.0
 40
5.0
 40
5.0
 40
5.0
 40
6.0
 40
6.0
 40
6.0
 40
7.0
 40
7.0
 40
7.0
 40
8.0
 40
8.0
 40
8.0
 40
9.0
 40
9.0
 40
9.0
 40
10.0
 40
10.0
 40
10.0
 40
11.0
 40
11.0
 40
11.0
 40
12.0
 40
12.0
 40
12.0
 40
13.0
 40
13.0
 40
13.0
 40
14.0
 40
14.0
 40
14.0
 40
15.0
 40
15.0
 40
15.0
 40
16.0
 40
16.0
 40
16.0
 40
17.0
 40
17.0
 40
17.0
 40
18.0
 40
18.0
 40
18.0
 40
19.0
 40
19.0
 40
19.0
 40
19.0
 10
61.62431774718073
 20
-73.8647420062734
 10
61.52888860223931
 20
-73.8647420062734
 10
61.31115856757152
 20
-73.84355466903911
 10
61.18610160145695
 20
-73.65734725806136
 10
61.11203204852408
 20
-73.54520940001647
 10
61.10789793394178
 20
-73.44581839526703
 10
61.10376381935948
 20
-73.36124130110414
 10
61.10376381935948
 20
-73.36124130110414
 10
61.32390542086694
 20
-73.36124130110414
 10
61.32390542086694
 20
-73.36124130110414
 10
61.32597247815809
 20
-73.43531085403701
 10
61.33630776461384
 20
-73.67009411135679
 10
61.61983912304991
 20
-73.67009411135679
 10
61.75729843291137
 20
-73.67009411135679
 10
61.90991616290794
 20
-73.60033092778048
 10
61.90991616290794
 20
-73.37174884233416
 10
61.90991616290794
 20
-73.25547686970697
 10
61.87167560302166
 20
-73.20672876859068
 10
61.83998072455737
 20
-73.17503389012639
 10
61.7659111716245
 20
-73.10096433719352
 10
61.64946694422305
 20
-73.08838973867235
 10
61.59468992600758
 20
-73.08838973867235
 10
61.57539739129018
 20
-73.08838973867235
 10
61.53956839824358
 20
-73.0904567959635
 10
61.51200763436158
 20
-73.0945909105458
 10
61.51200763436158
 20
-73.0945909105458
 10
61.51200763436158
 20
-72.89994301562919
 10
61.51200763436158
 20
-72.89994301562919
 10
61.55024819424786
 20
-72.9063164422769
 10
61.59227835916791
 20
-72.9085557543423
 10
61.59882404058988
 20
-72.9085557543423
 10
61.66428085480963
 20
-72.9085557543423
 10
61.86306286430855
 20
-72.88736841710802
 10
61.86306286430855
 20
-72.65034584772283
 10
61.86306286430855
 20
-72.4727511754582
 10
61.73214923586905
 20
-72.41762964769421
 10
61.62190618034106
 20
-72.41762964769421
 10
61.35766735662239
 20
-72.41762964769421
 10
61.34905461790927
 20
-72.65034584772283
 10
61.34492050332697
 20
-72.72234834336456
 10
61.34492050332697
 20
-72.72234834336456
 10
61.14165986969723
 20
-72.72234834336456
 10
61.14165986969723
 20
-72.72234834336456
 10
61.15027260841035
 20
-72.59746363202424
 10
61.17783337229235
 20
-72.22091469548644
 10
61.63465303363648
 20
-72.22091469548644
 10
61.85892874972625
 20
-72.22091469548644
 10
62.10008543369373
 20
-72.3478664641179
 10
62.10008543369373
 20
-72.64397242107512
 10
62.10008543369373
 20
-72.83017983205288
 10
62.00500079830083
 20
-72.9126898689246
 10
61.90543753877711
 20
-72.97401256856206
 10
61.96676023841457
 20
-73.00157333244405
 10
62.14866128003575
 20
-73.08201631202463
 10
62.14866128003575
 20
-73.35917424381299
 10
62.14866128003575
 20
-73.69765487523878
 10
61.90130342419481
 20
-73.8647420062734
 10
61.62431774718073
 20
-73.8647420062734
 97
        0
 97
        0
 75
     2
 76
     1
 98
        0
  0
ENDBLK
  5
AD
330
AA
100
AcDbEntity
  8
0
100
AcDbBlockEnd
  0
BLOCK
  5
BC
330
BA
100
AcDbEntity
  8
0
100
AcDbBlockBegin
  2
block 6
 70
     0
 10
0.0
 20
0.0
 30
0.0
  3
block 6
  1

  0
SPLINE
  5
BE
330
BA
100
AcDbEntity
  8
_U+30EC_U+30A4_U+30E4_U+30FC 1
370
     0
100
AcDbSpline
210
0.0
220
0.0
230
1.0
 70
    11
 71
     3
 72
    26
 73
    22
 74
     0
 42
0.0000000001
 43
0.0000000001
 12
1.0
 22
0.0
 32
0.0
 13
1.0
 23
0.0
 33
0.0
 40
0.0
 40
0.0
 40
0.0
 40
0.0
 40
1.0
 40
1.0
 40
1.0
 40
2.0
 40
2.0
 40
2.0
 40
3.0
 40
3.0
 40
3.0
 40
4.0
 40
4.0
 40
4.0
 40
5.0
 40
5.0
 40
5.0
 40
6.0
 40
6.0
 40
6.0
 40
7.0
 40
7.0
 40
7.0
 40
7.0
 10
75.19299857061148
 20
-91.21544865341141
 30
0.0
 10
75.19299857061148
 20
-91.21544865341141
 30
0.0
 10
74.0888454675889
 20
-91.21544865341141
 30
0.0
 10
74.0888454675889
 20
-91.21544865341141
 30
0.0
 10
74.0888454675889
 20
-91.21544865341141
 30
0.0
 10
74.0888454675889
 20
-91.54548880089835
 30
0.0
 10
74.0888454675889
 20
-91.54548880089835
 30
0.0
 10
74.0888454675889
 20
-91.54548880089835
 30
0.0
 10
73.94070636172316
 20
-91.54548880089835
 30
0.0
 10
73.94070636172316
 20
-91.54548880089835
 30
0.0
 10
73.92589245113659
 20
-91.21338159612027
 30
0.0
 10
73.76293943468427
 20
-91.1668728070694
 30
0.0
 10
73.64856226457397
 20
-91.13724498589625
 30
0.0
 10
73.64856226457397
 20
-91.13724498589625
 30
0.0
 10
73.64856226457397
 20
-90.99117293732165
 30
0.0
 10
73.64856226457397
 20
-90.99117293732165
 30
0.0
 10
73.64856226457397
 20
-90.99117293732165
 30
0.0
 10
75.19299857061148
 20
-90.99117293732165
 30
0.0
 10
75.19299857061148
 20
-90.99117293732165
 30
0.0
 10
75.19299857061148
 20
-90.99117293732165
 30
0.0
 10
75.19299857061148
 20
-91.21544865341141
 30
0.0
 10
75.19299857061148
 20
-91.21544865341141
 30
0.0
  0
HATCH
  5
BF
330
BA
100
AcDbEntity
  8
_U+30EC_U+30A4_U+30E4_U+30FC 1
 62
     7
420
 16777215
100
AcDbHatch
 10
0.0
 20
0.0
 30
0.0
210
0.0
220
0.0
230
1.0
  2
SOLID
 70
     1
 71
     0
 91
        1
 92
        1
 93
        1
 72
     4
 94
        3
 73
     0
 74
     1
 95
       26
 96
       22
 40
0.0
 40
0.0
 40
0.0
 40
0.0
 40
1.0
 40
1.0
 40
1.0
 40
2.0
 40
2.0
 40
2.0
 40
3.0
 40
3.0
 40
3.0
 40
4.0
 40
4.0
 40
4.0
 40
5.0
 40
5.0
 40
5.0
 40
6.0
 40
6.0
 40
6.0
 40
7.0
 40
7.0
 40
7.0
 40
7.0
 10
75.19299857061148
 20
-91.21544865341141
 10
75.19299857061148
 20
-91.21544865341141
 10
74.0888454675889
 20
-91.21544865341141
 10
74.0888454675889
 20
-91.21544865341141
 10
74.0888454675889
 20
-91.21544865341141
 10
74.0888454675889
 20
-91.54548880089835
 10
74.0888454675889
 20
-91.54548880089835
 10
74.0888454675889
 20
-91.54548880089835
 10
73.94070636172316
 20
-91.54548880089835
 10
73.94070636172316
 20
-91.54548880089835
 10
73.92589245113659
 20
-91.21338159612027
 10
73.76293943468427
 20
-91.1668728070694
 10
73.64856226457397
 20
-91.13724498589625
 10
73.64856226457397
 20
-91.13724498589625
 10
73.64856226457397
 20
-90.99117293732165
 10
73.64856226457397
 20
-90.99117293732165
 10
73.64856226457397
 20
-90.99117293732165
 10
75.19299857061148
 20
-90.99117293732165
 10
75.19299857061148
 20
-90.99117293732165
 10
75.19299857061148
 20
-90.99117293732165
 10
75.19299857061148
 20
-91.21544865341141
 10
75.19299857061148
 20
-91.21544865341141
 97
        0
 97
        0
 75
     2
 76
     1
 98
        0
  0
SPLINE
  5
C0
330
BA
100
AcDbEntity
  8
_U+30EC_U+30A4_U+30E4_U+30FC 1
370
     0
100
AcDbSpline
210
0.0
220
0.0
230
1.0
 70
    11
 71
     3
 72
    32
 73
    28
 74
     0
 42
0.0000000001
 43
0.0000000001
 12
1.0
 22
0.0
 32
0.0
 13
1.0
 23
0.0
 33
0.0
 40
0.0
 40
0.0
 40
0.0
 40
0.0
 40
1.0
 40
1.0
 40
1.0
 40
2.0
 40
2.0
 40
2.0
 40
3.0
 40
3.0
 40
3.0
 40
4.0
 40
4.0
 40
4.0
 40
5.0
 40
5.0
 40
5.0
 40
6.0
 40
6.0
 40
6.0
 40
7.0
 40
7.0
 40
7.0
 40
8.0
 40
8.0
 40
8.0
 40
9.0
 40
9.0
 40
9.0
 40
9.0
 10
75.24364147424465
 20
-90.03240286377662
 30
0.0
 10
75.24364147424465
 20
-90.20569116668469
 30
0.0
 10
75.1740505454426
 20
-90.451326474783
 30
0.0
 10
74.84194334066451
 20
-90.48922252512075
 30
0.0
 10
74.84194334066451
 20
-90.48922252512075
 30
0.0
 10
74.84194334066451
 20
-90.27562660503527
 30
0.0
 10
74.84194334066451
 20
-90.27562660503527
 30
0.0
 10
74.90119898301081
 20
-90.26494680903099
 30
0.0
 10
75.04899357932803
 20
-90.2332519305667
 30
0.0
 10
75.04899357932803
 20
-90.03033580648548
 30
0.0
 10
75.04899357932803
 20
-89.73819170933629
 30
0.0
 10
74.71929794138963
 20
-89.70029565899854
 30
0.0
 10
74.51397025046873
 20
-89.68754880570312
 30
0.0
 10
74.59424097527506
 20
-89.77849932651371
 30
0.0
 10
74.6514295603302
 20
-89.84602319802461
 30
0.0
 10
74.6514295603302
 20
-90.0279242396458
 30
0.0
 10
74.6514295603302
 20
-90.20775822397584
 30
0.0
 10
74.54566512893304
 20
-90.51023760758078
 30
0.0
 10
74.13948837122207
 20
-90.51023760758078
 30
0.0
 10
73.82012801973941
 20
-90.51023760758078
 30
0.0
 10
73.59998641823195
 20
-90.31145559808186
 30
0.0
 10
73.59998641823195
 20
-89.99416230389035
 30
0.0
 10
73.59998641823195
 20
-89.48015405749108
 30
0.0
 10
74.15430228180865
 20
-89.46947426148681
 30
0.0
 10
74.36789820189414
 20
-89.46947426148681
 30
0.0
 10
74.59837508985736
 20
-89.46947426148681
 30
0.0
 10
75.24364147424465
 20
-89.4887667962042
 30
0.0
 10
75.24364147424465
 20
-90.03240286377662
 30
0.0
  0
SPLINE
  5
C1
330
BA
100
AcDbEntity
  8
_U+30EC_U+30A4_U+30E4_U+30FC 1
370
     0
100
AcDbSpline
210
0.0
220
0.0
230
1.0
 70
    11
 71
     3
 72
    17
 73
    13
 74
     0
 42
0.0000000001
 43
0.0000000001
 12
1.0
 22
0.0
 32
0.0
 13
1.0
 23
0.0
 33
0.0
 40
0.0
 40
0.0
 40
0.0
 40
0.0
 40
1.0
 40
1.0
 40
1.0
 40
2.0
 40
2.0
 40
2.0
 40
3.0
 40
3.0
 40
3.0
 40
4.0
 40
4.0
 40
4.0
 40
4.0
 10
73.79256725585742
 20
-89.9920952465992
 30
0.0
 10
73.79256725585742
 20
-90.1106065312918
 30
0.0
 10
73.84975584091256
 20
-90.28630640103954
 30
0.0
 10
74.13535425663977
 20
-90.28630640103954
 30
0.0
 10
74.3616970300207
 20
-90.28630640103954
 30
0.0
 10
74.45678166541359
 20
-90.1464355243384
 30
0.0
 10
74.45678166541359
 20
-90.01104327176807
 30
0.0
 10
74.45678166541359
 20
-89.74887150534056
 30
0.0
 10
74.24731985991039
 20
-89.71063094545428
 30
0.0
 10
74.13087563250895
 20
-89.71063094545428
 30
0.0
 10
73.95552027230974
 20
-89.71063094545428
 30
0.0
 10
73.79256725585742
 20
-89.80606009039572
 30
0.0
 10
73.79256725585742
 20
-89.9920952465992
 30
0.0
  0
HATCH
  5
C2
330
BA
100
AcDbEntity
  8
_U+30EC_U+30A4_U+30E4_U+30FC 1
 62
     7
420
 16777215
100
AcDbHatch
 10
0.0
 20
0.0
 30
0.0
210
0.0
220
0.0
230
1.0
  2
SOLID
 70
     1
 71
     0
 91
        2
 92
        1
 93
        1
 72
     4
 94
        3
 73
     0
 74
     1
 95
       32
 96
       28
 40
0.0
 40
0.0
 40
0.0
 40
0.0
 40
1.0
 40
1.0
 40
1.0
 40
2.0
 40
2.0
 40
2.0
 40
3.0
 40
3.0
 40
3.0
 40
4.0
 40
4.0
 40
4.0
 40
5.0
 40
5.0
 40
5.0
 40
6.0
 40
6.0
 40
6.0
 40
7.0
 40
7.0
 40
7.0
 40
8.0
 40
8.0
 40
8.0
 40
9.0
 40
9.0
 40
9.0
 40
9.0
 10
75.24364147424465
 20
-90.03240286377662
 10
75.24364147424465
 20
-90.20569116668469
 10
75.1740505454426
 20
-90.451326474783
 10
74.84194334066451
 20
-90.48922252512075
 10
74.84194334066451
 20
-90.48922252512075
 10
74.84194334066451
 20
-90.27562660503527
 10
74.84194334066451
 20
-90.27562660503527
 10
74.90119898301081
 20
-90.26494680903099
 10
75.04899357932803
 20
-90.2332519305667
 10
75.04899357932803
 20
-90.03033580648548
 10
75.04899357932803
 20
-89.73819170933629
 10
74.71929794138963
 20
-89.70029565899854
 10
74.51397025046873
 20
-89.68754880570312
 10
74.59424097527506
 20
-89.77849932651371
 10
74.6514295603302
 20
-89.84602319802461
 10
74.6514295603302
 20
-90.0279242396458
 10
74.6514295603302
 20
-90.20775822397584
 10
74.54566512893304
 20
-90.51023760758078
 10
74.13948837122207
 20
-90.51023760758078
 10
73.82012801973941
 20
-90.51023760758078
 10
73.59998641823195
 20
-90.31145559808186
 10
73.59998641823195
 20
-89.99416230389035
 10
73.59998641823195
 20
-89.48015405749108
 10
74.15430228180865
 20
-89.46947426148681
 10
74.36789820189414
 20
-89.46947426148681
 10
74.59837508985736
 20
-89.46947426148681
 10
75.24364147424465
 20
-89.4887667962042
 10
75.24364147424465
 20
-90.03240286377662
 97
        0
 97
        0
 92
        1
 93
        1
 72
     4
 94
        3
 73
     0
 74
     1
 95
       17
 96
       13
 40
0.0
 40
0.0
 40
0.0
 40
0.0
 40
1.0
 40
1.0
 40
1.0
 40
2.0
 40
2.0
 40
2.0
 40
3.0
 40
3.0
 40
3.0
 40
4.0
 40
4.0
 40
4.0
 40
4.0
 10
73.79256725585742
 20
-89.9920952465992
 10
73.79256725585742
 20
-90.1106065312918
 10
73.84975584091256
 20
-90.28630640103954
 10
74.13535425663977
 20
-90.28630640103954
 10
74.3616970300207
 20
-90.28630640103954
 10
74.45678166541359
 20
-90.1464355243384
 10
74.45678166541359
 20
-90.01104327176807
 10
74.45678166541359
 20
-89.74887150534056
 10
74.24731985991039
 20
-89.71063094545428
 10
74.13087563250895
 20
-89.71063094545428
 10
73.95552027230974
 20
-89.71063094545428
 10
73.79256725585742
 20
-89.80606009039572
 10
73.79256725585742
 20
-89.9920952465992
 97
        0
 97
        0
 75
     2
 76
     1
 98
        0
  0
POLYLINE
  5
C3
330
BA
100
AcDbEntity
  8
_U+30EC_U+30A4_U+30E4_U+30FC 1
370
     0
100
AcDb2dPolyline
 66
     1
 10
0.0
 20
0.0
 30
0.0
  0
VERTEX
  5
C4
330
C3
100
AcDbEntity
  8
_U+30EC_U+30A4_U+30E4_U+30FC 1
370
     0
100
AcDbVertex
100
AcDb2dVertex
 10
75.19299857061148
 20
-89.25312226501312
 30
0.0
  0
VERTEX
  5
C5
330
C3
100
AcDbEntity
  8
_U+30EC_U+30A4_U+30E4_U+30FC 1
370
     0
100
AcDbVertex
100
AcDb2dVertex
 10
74.94116209063971
 20
-89.25312226501312
 30
0.0
  0
VERTEX
  5
C6
330
C3
100
AcDbEntity
  8
_U+30EC_U+30A4_U+30E4_U+30FC 1
370
     0
100
AcDbVertex
100
AcDb2dVertex
 10
74.94116209063971
 20
-89.00128578504135
 30
0.0
  0
VERTEX
  5
C7
330
C3
100
AcDbEntity
  8
_U+30EC_U+30A4_U+30E4_U+30FC 1
370
     0
100
AcDbVertex
100
AcDb2dVertex
 10
75.19299857061148
 20
-89.00128578504135
 30
0.0
  0
VERTEX
  5
C8
330
C3
100
AcDbEntity
  8
_U+30EC_U+30A4_U+30E4_U+30FC 1
370
     0
100
AcDbVertex
100
AcDb2dVertex
 10
75.19299857061148
 20
-89.25312226501312
 30
0.0
  0
SEQEND
  5
C9
330
C3
100
AcDbEntity
  8
_U+30EC_U+30A4_U+30E4_U+30FC 1
370
     0
  0
HATCH
  5
CA
330
BA
100
AcDbEntity
  8
_U+30EC_U+30A4_U+30E4_U+30FC 1
 62
     7
420
 16777215
100
AcDbHatch
 10
0.0
 20
0.0
 30
0.0
210
0.0
220
0.0
230
1.0
  2
SOLID
 70
     1
 71
     0
 91
        1
 92
        1
 93
        4
 72
     1
 10
75.19299857061148
 20
-89.25312226501312
 11
74.94116209063971
 21
-89.25312226501312
 72
     1
 10
74.94116209063971
 20
-89.25312226501312
 11
74.94116209063971
 21
-89.00128578504135
 72
     1
 10
74.94116209063971
 20
-89.00128578504135
 11
75.19299857061148
 21
-89.00128578504135
 72
     1
 10
75.19299857061148
 20
-89.00128578504135
 11
75.19299857061148
 21
-89.25312226501312
 97
        0
 75
     2
 76
     1
 98
        0
  0
SPLINE
  5
CB
330
BA
100
AcDbEntity
  8
_U+30EC_U+30A4_U+30E4_U+30FC 1
370
     0
100
AcDbSpline
210
0.0
220
0.0
230
1.0
 70
    11
 71
     3
 72
    53
 73
    49
 74
     0
 42
0.0000000001
 43
0.0000000001
 12
1.0
 22
0.0
 32
0.0
 13
1.0
 23
0.0
 33
0.0
 40
0.0
 40
0.0
 40
0.0
 40
0.0
 40
1.0
 40
1.0
 40
1.0
 40
2.0
 40
2.0
 40
2.0
 40
3.0
 40
3.0
 40
3.0
 40
4.0
 40
4.0
 40
4.0
 40
5.0
 40
5.0
 40
5.0
 40
6.0
 40
6.0
 40
6.0
 40
7.0
 40
7.0
 40
7.0
 40
8.0
 40
8.0
 40
8.0
 40
9.0
 40
9.0
 40
9.0
 40
10.0
 40
10.0
 40
10.0
 40
11.0
 40
11.0
 40
11.0
 40
12.0
 40
12.0
 40
12.0
 40
13.0
 40
13.0
 40
13.0
 40
14.0
 40
14.0
 40
14.0
 40
15.0
 40
15.0
 40
15.0
 40
16.0
 40
16.0
 40
16.0
 40
16.0
 10
75.24364147424465
 20
-88.28401690501234
 30
0.0
 10
75.24364147424465
 20
-88.3622205725275
 30
0.0
 10
75.22676050636693
 20
-88.46385088934237
 30
0.0
 10
75.16337074943833
 20
-88.56548120615724
 30
0.0
 10
75.05347220345885
 20
-88.7387695090653
 30
0.0
 10
74.92221406547084
 20
-88.76012910107386
 30
0.0
 10
74.81438257678252
 20
-88.77907712624274
 30
0.0
 10
74.81438257678252
 20
-88.77907712624274
 30
0.0
 10
74.81438257678252
 20
-88.55686846744412
 30
0.0
 10
74.81438257678252
 20
-88.55686846744412
 30
0.0
 10
75.01316458628143
 20
-88.50209144922864
 30
0.0
 10
75.04279240745458
 20
-88.37496742582293
 30
0.0
 10
75.04279240745458
 20
-88.28194984772118
 30
0.0
 10
75.04279240745458
 20
-88.14242348056857
 30
0.0
 10
74.94322914793086
 20
-87.99015026012052
 30
0.0
 10
74.7106852026765
 20
-87.99015026012052
 30
0.0
 10
74.45471460812243
 20
-87.99015026012052
 30
0.0
 10
74.38477916977186
 20
-88.16998424445056
 30
0.0
 10
74.38477916977186
 20
-88.2905625864343
 30
0.0
 10
74.38477916977186
 20
-88.32225746489861
 30
0.0
 10
74.38477916977186
 20
-88.46385088934237
 30
0.0
 10
74.51397025046873
 20
-88.55273435286182
 30
0.0
 10
74.51397025046873
 20
-88.55273435286182
 30
0.0
 10
74.49502222529986
 20
-88.72843422260956
 30
0.0
 10
74.49502222529986
 20
-88.72843422260956
 30
0.0
 10
74.49502222529986
 20
-88.72843422260956
 30
0.0
 10
73.64856226457397
 20
-88.60785588062582
 30
0.0
 10
73.64856226457397
 20
-88.60785588062582
 30
0.0
 10
73.64856226457397
 20
-88.60785588062582
 30
0.0
 10
73.64856226457397
 20
-87.82926430095935
 30
0.0
 10
73.64856226457397
 20
-87.82926430095935
 30
0.0
 10
73.64856226457397
 20
-87.82926430095935
 30
0.0
 10
73.8432101594906
 20
-87.82926430095935
 30
0.0
 10
73.8432101594906
 20
-87.82926430095935
 30
0.0
 10
73.8432101594906
 20
-87.82926430095935
 30
0.0
 10
73.8432101594906
 20
-88.4449028641735
 30
0.0
 10
73.8432101594906
 20
-88.4449028641735
 30
0.0
 10
73.8432101594906
 20
-88.4449028641735
 30
0.0
 10
74.26626788507927
 20
-88.51035967839324
 30
0.0
 10
74.26626788507927
 20
-88.51035967839324
 30
0.0
 10
74.23250594932382
 20
-88.4490369787558
 30
0.0
 10
74.1921983321464
 20
-88.36669919665833
 30
0.0
 10
74.1921983321464
 20
-88.24818791196573
 30
0.0
 10
74.1921983321464
 20
-87.99428437470281
 30
0.0
 10
74.37857799789842
 20
-87.75726180531764
 30
0.0
 10
74.69173717750762
 20
-87.75726180531764
 30
0.0
 10
75.00903047169913
 20
-87.75726180531764
 30
0.0
 10
75.24364147424465
 20
-87.9815375214074
 30
0.0
 10
75.24364147424465
 20
-88.28401690501234
 30
0.0
  0
HATCH
  5
CC
330
BA
100
AcDbEntity
  8
_U+30EC_U+30A4_U+30E4_U+30FC 1
 62
     7
420
 16777215
100
AcDbHatch
 10
0.0
 20
0.0
 30
0.0
210
0.0
220
0.0
230
1.0
  2
SOLID
 70
     1
 71
     0
 91
        1
 92
        1
 93
        1
 72
     4
 94
        3
 73
     0
 74
     1
 95
       53
 96
       49
 40
0.0
 40
0.0
 40
0.0
 40
0.0
 40
1.0
 40
1.0
 40
1.0
 40
2.0
 40
2.0
 40
2.0
 40
3.0
 40
3.0
 40
3.0
 40
4.0
 40
4.0
 40
4.0
 40
5.0
 40
5.0
 40
5.0
 40
6.0
 40
6.0
 40
6.0
 40
7.0
 40
7.0
 40
7.0
 40
8.0
 40
8.0
 40
8.0
 40
9.0
 40
9.0
 40
9.0
 40
10.0
 40
10.0
 40
10.0
 40
11.0
 40
11.0
 40
11.0
 40
12.0
 40
12.0
 40
12.0
 40
13.0
 40
13.0
 40
13.0
 40
14.0
 40
14.0
 40
14.0
 40
15.0
 40
15.0
 40
15.0
 40
16.0
 40
16.0
 40
16.0
 40
16.0
 10
75.24364147424465
 20
-88.28401690501234
 10
75.24364147424465
 20
-88.3622205725275
 10
75.22676050636693
 20
-88.46385088934237
 10
75.16337074943833
 20
-88.56548120615724
 10
75.05347220345885
 20
-88.7387695090653
 10
74.92221406547084
 20
-88.76012910107386
 10
74.81438257678252
 20
-88.77907712624274
 10
74.81438257678252
 20
-88.77907712624274
 10
74.81438257678252
 20
-88.55686846744412
 10
74.81438257678252
 20
-88.55686846744412
 10
75.01316458628143
 20
-88.50209144922864
 10
75.04279240745458
 20
-88.37496742582293
 10
75.04279240745458
 20
-88.28194984772118
 10
75.04279240745458
 20
-88.14242348056857
 10
74.94322914793086
 20
-87.99015026012052
 10
74.7106852026765
 20
-87.99015026012052
 10
74.45471460812243
 20
-87.99015026012052
 10
74.38477916977186
 20
-88.16998424445056
 10
74.38477916977186
 20
-88.2905625864343
 10
74.38477916977186
 20
-88.32225746489861
 10
74.38477916977186
 20
-88.46385088934237
 10
74.51397025046873
 20
-88.55273435286182
 10
74.51397025046873
 20
-88.55273435286182
 10
74.49502222529986
 20
-88.72843422260956
 10
74.49502222529986
 20
-88.72843422260956
 10
74.49502222529986
 20
-88.72843422260956
 10
73.64856226457397
 20
-88.60785588062582
 10
73.64856226457397
 20
-88.60785588062582
 10
73.64856226457397
 20
-88.60785588062582
 10
73.64856226457397
 20
-87.82926430095935
 10
73.64856226457397
 20
-87.82926430095935
 10
73.64856226457397
 20
-87.82926430095935
 10
73.8432101594906
 20
-87.82926430095935
 10
73.8432101594906
 20
-87.82926430095935
 10
73.8432101594906
 20
-87.82926430095935
 10
73.8432101594906
 20
-88.4449028641735
 10
73.8432101594906
 20
-88.4449028641735
 10
73.8432101594906
 20
-88.4449028641735
 10
74.26626788507927
 20
-88.51035967839324
 10
74.26626788507927
 20
-88.51035967839324
 10
74.23250594932382
 20
-88.4490369787558
 10
74.1921983321464
 20
-88.36669919665833
 10
74.1921983321464
 20
-88.24818791196573
 10
74.1921983321464
 20
-87.99428437470281
 10
74.37857799789842
 20
-87.75726180531764
 10
74.69173717750762
 20
-87.75726180531764
 10
75.00903047169913
 20
-87.75726180531764
 10
75.24364147424465
 20
-87.9815375214074
 10
75.24364147424465
 20
-88.28401690501234
 97
        0
 97
        0
 75
     2
 76
     1
 98
        0
  0
ENDBLK
  5
BD
330
BA
100
AcDbEntity
  8
0
100
AcDbBlockEnd
  0
ENDSEC
  0
SECTION
  2
ENTITIES
  0
POLYLINE
  5
41
330
1F
100
AcDbEntity
  8
_U+30EC_U+30A4_U+30E4_U+30FC 1
 62
     7
420
 16777215
370
    25
100
AcDb2dPolyline
 66
     1
 10
0.0
 20
0.0
 30
0.0
  0
VERTEX
  5
42
330
41
100
AcDbEntity
  8
_U+30EC_U+30A4_U+30E4_U+30FC 1
 62
     7
420
 16777215
370
    25
100
AcDbVertex
100
AcDb2dVertex
 10
49.54407456935868
 20
-79.16555581354183
 30
0.0
  0
VERTEX
  5
43
330
41
100
AcDbEntity
  8
_U+30EC_U+30A4_U+30E4_U+30FC 1
 62
     7
420
 16777215
370
    25
100
AcDbVertex
100
AcDb2dVertex
 10
72.54405620480249
 20
-79.16555581354183
 30
0.0
  0
VERTEX
  5
44
330
41
100
AcDbEntity
  8
_U+30EC_U+30A4_U+30E4_U+30FC 1
 62
     7
420
 16777215
370
    25
100
AcDbVertex
100
AcDb2dVertex
 10
72.54405620480249
 20
-79.96547942445292
 30
0.0
  0
VERTEX
  5
45
330
41
100
AcDbEntity
  8
_U+30EC_U+30A4_U+30E4_U+30FC 1
 62
     7
420
 16777215
370
    25
100
AcDbVertex
100
AcDb2dVertex
 10
50.34438621560771
 20
-79.96547942445292
 30
0.0
  0
VERTEX
  5
46
330
41
100
AcDbEntity
  8
_U+30EC_U+30A4_U+30E4_U+30FC 1
 62
     7
420
 16777215
370
    25
100
AcDbVertex
100
AcDb2dVertex
 10
50.34438621560771
 20
-101.6661458079168
 30
0.0
  0
VERTEX
  5
47
330
41
100
AcDbEntity
  8
_U+30EC_U+30A4_U+30E4_U+30FC 1
 62
     7
420
 16777215
370
    25
100
AcDbVertex
100
AcDb2dVertex
 10
58.74420276309181
 20
-101.6661458079168
 30
0.0
  0
VERTEX
  5
48
330
41
100
AcDbEntity
  8
_U+30EC_U+30A4_U+30E4_U+30FC 1
 62
     7
420
 16777215
370
    25
100
AcDbVertex
100
AcDb2dVertex
 10
58.74420276309181
 20
-100.2660766416003
 30
0.0
  0
VERTEX
  5
49
330
41
100
AcDbEntity
  8
_U+30EC_U+30A4_U+30E4_U+30FC 1
 62
     7
420
 16777215
370
    25
100
AcDbVertex
100
AcDb2dVertex
 10
55.54408358295237
 20
-100.2660766416003
 30
0.0
  0
VERTEX
  5
4A
330
41
100
AcDbEntity
  8
_U+30EC_U+30A4_U+30E4_U+30FC 1
 62
     7
420
 16777215
370
    25
100
AcDbVertex
100
AcDb2dVertex
 10
55.54408358295237
 20
-99.46611775291109
 30
0.0
  0
VERTEX
  5
4B
330
41
100
AcDbEntity
  8
_U+30EC_U+30A4_U+30E4_U+30FC 1
 62
     7
420
 16777215
370
    25
100
AcDbVertex
100
AcDb2dVertex
 10
59.54416014756858
 20
-99.46611775291109
 30
0.0
  0
VERTEX
  5
4C
330
41
100
AcDbEntity
  8
_U+30EC_U+30A4_U+30E4_U+30FC 1
 62
     7
420
 16777215
370
    25
100
AcDbVertex
100
AcDb2dVertex
 10
59.54416014756858
 20
-102.4661046966054
 30
0.0
  0
VERTEX
  5
4D
330
41
100
AcDbEntity
  8
_U+30EC_U+30A4_U+30E4_U+30FC 1
 62
     7
420
 16777215
370
    25
100
AcDbVertex
100
AcDb2dVertex
 10
49.54407456935868
 20
-102.4661046966054
 30
0.0
  0
VERTEX
  5
4E
330
41
100
AcDbEntity
  8
_U+30EC_U+30A4_U+30E4_U+30FC 1
 62
     7
420
 16777215
370
    25
100
AcDbVertex
100
AcDb2dVertex
 10
49.54407456935868
 20
-79.16555581354183
 30
0.0
  0
SEQEND
  5
4F
330
41
100
AcDbEntity
  8
_U+30EC_U+30A4_U+30E4_U+30FC 1
 62
     7
420
 16777215
370
    25
  0
SPLINE
  5
50
330
1F
100
AcDbEntity
  8
_U+30EC_U+30A4_U+30E4_U+30FC 1
 62
     7
420
 16777215
370
     9
100
AcDbSpline
210
0.0
220
0.0
230
1.0
 70
    11
 71
     3
 72
    17
 73
    13
 74
     0
 42
0.0000000001
 43
0.0000000001
 12
1.0
 22
0.0
 32
0.0
 13
1.0
 23
0.0
 33
0.0
 40
0.0
 40
0.0
 40
0.0
 40
0.0
 40
1.0
 40
1.0
 40
1.0
 40
2.0
 40
2.0
 40
2.0
 40
3.0
 40
3.0
 40
3.0
 40
4.0
 40
4.0
 40
4.0
 40
4.0
 10
76.64372193354464
 20
-79.16555581354183
 30
0.0
 10
76.64372193354464
 20
-79.11041664688906
 30
0.0
 10
76.59895443468676
 20
-79.06561386912234
 30
0.0
 10
76.5438152694268
 20
-79.06561386912234
 30
0.0
 10
76.48871138194373
 20
-79.06561386912234
 30
0.0
 10
76.44390860530898
 20
-79.11041664688906
 30
0.0
 10
76.44390860530898
 20
-79.16555581354183
 30
0.0
 10
76.44390860530898
 20
-79.22136525797258
 30
0.0
 10
76.48871138194373
 20
-79.26546248018379
 30
0.0
 10
76.5438152694268
 20
-79.26546248018379
 30
0.0
 10
76.59895443468676
 20
-79.26546248018379
 30
0.0
 10
76.64372193354464
 20
-79.22136525797258
 30
0.0
 10
76.64372193354464
 20
-79.16555581354183
 30
0.0
  0
SPLINE
  5
51
330
1F
100
AcDbEntity
  8
_U+30EC_U+30A4_U+30E4_U+30FC 1
 62
     7
420
 16777215
370
     9
100
AcDbSpline
210
0.0
220
0.0
230
1.0
 70
    11
 71
     3
 72
    17
 73
    13
 74
     0
 42
0.0000000001
 43
0.0000000001
 12
1.0
 22
0.0
 32
0.0
 13
1.0
 23
0.0
 33
0.0
 40
0.0
 40
0.0
 40
0.0
 40
0.0
 40
1.0
 40
1.0
 40
1.0
 40
2.0
 40
2.0
 40
2.0
 40
3.0
 40
3.0
 40
3.0
 40
4.0
 40
4.0
 40
4.0
 40
4.0
 10
76.64372193354464
 20
-79.96547942445292
 30
0.0
 10
76.64372193354464
 20
-79.91037553557801
 30
0.0
 10
76.59895443468676
 20
-79.8655727578113
 30
0.0
 10
76.5438152694268
 20
-79.8655727578113
 30
0.0
 10
76.48871138194373
 20
-79.8655727578113
 30
0.0
 10
76.44390860530898
 20
-79.91037553557801
 30
0.0
 10
76.44390860530898
 20
-79.96547942445292
 30
0.0
 10
76.44390860530898
 20
-80.02128886888369
 30
0.0
 10
76.48871138194373
 20
-80.0660916466501
 30
0.0
 10
76.5438152694268
 20
-80.0660916466501
 30
0.0
 10
76.59895443468676
 20
-80.0660916466501
 30
0.0
 10
76.64372193354464
 20
-80.02128886888369
 30
0.0
 10
76.64372193354464
 20
-79.96547942445292
 30
0.0
  0
SPLINE
  5
52
330
1F
100
AcDbEntity
  8
_U+30EC_U+30A4_U+30E4_U+30FC 1
 62
     7
420
 16777215
370
     9
100
AcDbSpline
210
0.0
220
0.0
230
1.0
 70
    11
 71
     3
 72
    17
 73
    13
 74
     0
 42
0.0000000001
 43
0.0000000001
 12
1.0
 22
0.0
 32
0.0
 13
1.0
 23
0.0
 33
0.0
 40
0.0
 40
0.0
 40
0.0
 40
0.0
 40
1.0
 40
1.0
 40
1.0
 40
2.0
 40
2.0
 40
2.0
 40
3.0
 40
3.0
 40
3.0
 40
4.0
 40
4.0
 40
4.0
 40
4.0
 10
72.64396286892033
 20
-75.16579664787525
 30
0.0
 10
72.64396286892033
 20
-75.11065748122218
 30
0.0
 10
72.59919720407231
 20
-75.06588998123362
 30
0.0
 10
72.54405620480249
 20
-75.06588998123362
 30
0.0
 10
72.48895231731942
 20
-75.06588998123362
 30
0.0
 10
72.44414954068466
 20
-75.11065748122218
 30
0.0
 10
72.44414954068466
 20
-75.16579664787525
 30
0.0
 10
72.44414954068466
 20
-75.22090053675018
 30
0.0
 10
72.48895231731942
 20
-75.2657033145169
 30
0.0
 10
72.54405620480249
 20
-75.2657033145169
 30
0.0
 10
72.59919720407231
 20
-75.2657033145169
 30
0.0
 10
72.64396286892033
 20
-75.22090053675018
 30
0.0
 10
72.64396286892033
 20
-75.16579664787525
 30
0.0
  0
SPLINE
  5
53
330
1F
100
AcDbEntity
  8
_U+30EC_U+30A4_U+30E4_U+30FC 1
 62
     7
420
 16777215
370
     9
100
AcDbSpline
210
0.0
220
0.0
230
1.0
 70
    11
 71
     3
 72
    17
 73
    13
 74
     0
 42
0.0000000001
 43
0.0000000001
 12
1.0
 22
0.0
 32
0.0
 13
1.0
 23
0.0
 33
0.0
 40
0.0
 40
0.0
 40
0.0
 40
0.0
 40
1.0
 40
1.0
 40
1.0
 40
2.0
 40
2.0
 40
2.0
 40
3.0
 40
3.0
 40
3.0
 40
4.0
 40
4.0
 40
4.0
 40
4.0
 10
59.6444195894552
 20
-106.4658638622723
 30
0.0
 10
59.6444195894552
 20
-106.4107246956192
 30
0.0
 10
59.59961681282044
 20
-106.3659571956307
 30
0.0
 10
59.54416014756858
 20
-106.3659571956307
 30
0.0
 10
59.48905626008551
 20
-106.3659571956307
 30
0.0
 10
59.44425348345075
 20
-106.4107246956192
 30
0.0
 10
59.44425348345075
 20
-106.4658638622723
 30
0.0
 10
59.44425348345075
 20
-106.5209677511472
 30
0.0
 10
59.48905626008551
 20
-106.5657705289139
 30
0.0
 10
59.54416014756858
 20
-106.5657705289139
 30
0.0
 10
59.59961681282044
 20
-106.5657705289139
 30
0.0
 10
59.6444195894552
 20
-106.5209677511472
 30
0.0
 10
59.6444195894552
 20
-106.4658638622723
 30
0.0
  0
SPLINE
  5
54
330
1F
100
AcDbEntity
  8
_U+30EC_U+30A4_U+30E4_U+30FC 1
 62
     7
420
 16777215
370
     9
100
AcDbSpline
210
0.0
220
0.0
230
1.0
 70
    11
 71
     3
 72
    17
 73
    13
 74
     0
 42
0.0000000001
 43
0.0000000001
 12
1.0
 22
0.0
 32
0.0
 13
1.0
 23
0.0
 33
0.0
 40
0.0
 40
0.0
 40
0.0
 40
0.0
 40
1.0
 40
1.0
 40
1.0
 40
2.0
 40
2.0
 40
2.0
 40
3.0
 40
3.0
 40
3.0
 40
4.0
 40
4.0
 40
4.0
 40
4.0
 10
76.64372193354464
 20
-102.4661046966054
 30
0.0
 10
76.64372193354464
 20
-102.410965529953
 30
0.0
 10
76.59895443468676
 20
-102.3661980299638
 30
0.0
 10
76.5438152694268
 20
-102.3661980299638
 30
0.0
 10
76.48871138194373
 20
-102.3661980299638
 30
0.0
 10
76.44390860530898
 20
-102.410965529953
 30
0.0
 10
76.44390860530898
 20
-102.4661046966054
 30
0.0
 10
76.44390860530898
 20
-102.521208585481
 30
0.0
 10
76.48871138194373
 20
-102.5660113632477
 30
0.0
 10
76.5438152694268
 20
-102.5660113632477
 30
0.0
 10
76.59895443468676
 20
-102.5660113632477
 30
0.0
 10
76.64372193354464
 20
-102.521208585481
 30
0.0
 10
76.64372193354464
 20
-102.4661046966054
 30
0.0
  0
SPLINE
  5
55
330
1F
100
AcDbEntity
  8
_U+30EC_U+30A4_U+30E4_U+30FC 1
 62
     7
420
 16777215
370
     9
100
AcDbSpline
210
0.0
220
0.0
230
1.0
 70
    11
 71
     3
 72
    17
 73
    13
 74
     0
 42
0.0000000001
 43
0.0000000001
 12
1.0
 22
0.0
 32
0.0
 13
1.0
 23
0.0
 33
0.0
 40
0.0
 40
0.0
 40
0.0
 40
0.0
 40
1.0
 40
1.0
 40
1.0
 40
2.0
 40
2.0
 40
2.0
 40
3.0
 40
3.0
 40
3.0
 40
4.0
 40
4.0
 40
4.0
 40
4.0
 10
76.64372193354464
 20
-99.46611775291109
 30
0.0
 10
76.64372193354464
 20
-99.41097858625865
 30
0.0
 10
76.59895443468676
 20
-99.36621108626944
 30
0.0
 10
76.5438152694268
 20
-99.36621108626944
 30
0.0
 10
76.48871138194373
 20
-99.36621108626944
 30
0.0
 10
76.44390860530898
 20
-99.41097858625865
 30
0.0
 10
76.44390860530898
 20
-99.46611775291109
 30
0.0
 10
76.44390860530898
 20
-99.52122164178664
 30
0.0
 10
76.48871138194373
 20
-99.56602441955272
 30
0.0
 10
76.5438152694268
 20
-99.56602441955272
 30
0.0
 10
76.59895443468676
 20
-99.56602441955272
 30
0.0
 10
76.64372193354464
 20
-99.52122164178664
 30
0.0
 10
76.64372193354464
 20
-99.46611775291109
 30
0.0
  0
SPLINE
  5
56
330
1F
100
AcDbEntity
  8
_U+30EC_U+30A4_U+30E4_U+30FC 1
 62
     7
420
 16777215
370
     9
100
AcDbSpline
210
0.0
220
0.0
230
1.0
 70
    11
 71
     3
 72
    17
 73
    13
 74
     0
 42
0.0000000001
 43
0.0000000001
 12
1.0
 22
0.0
 32
0.0
 13
1.0
 23
0.0
 33
0.0
 40
0.0
 40
0.0
 40
0.0
 40
0.0
 40
1.0
 40
1.0
 40
1.0
 40
2.0
 40
2.0
 40
2.0
 40
3.0
 40
3.0
 40
3.0
 40
4.0
 40
4.0
 40
4.0
 40
4.0
 10
49.6443340112453
 20
-75.16579664787525
 30
0.0
 10
49.6443340112453
 20
-75.11065748122218
 30
0.0
 10
49.59956651238741
 20
-75.06588998123362
 30
0.0
 10
49.54407456935868
 20
-75.06588998123362
 30
0.0
 10
49.48897068187561
 20
-75.06588998123362
 30
0.0
 10
49.44416790524085
 20
-75.11065748122218
 30
0.0
 10
49.44416790524085
 20
-75.16579664787525
 30
0.0
 10
49.44416790524085
 20
-75.22090053675018
 30
0.0
 10
49.48897068187561
 20
-75.2657033145169
 30
0.0
 10
49.54407456935868
 20
-75.2657033145169
 30
0.0
 10
49.59956651238741
 20
-75.2657033145169
 30
0.0
 10
49.6443340112453
 20
-75.22090053675018
 30
0.0
 10
49.6443340112453
 20
-75.16579664787525
 30
0.0
  0
SPLINE
  5
57
330
1F
100
AcDbEntity
  8
_U+30EC_U+30A4_U+30E4_U+30FC 1
 62
     7
420
 16777215
370
     9
100
AcDbSpline
210
0.0
220
0.0
230
1.0
 70
    11
 71
     3
 72
    17
 73
    13
 74
     0
 42
0.0000000001
 43
0.0000000001
 12
1.0
 22
0.0
 32
0.0
 13
1.0
 23
0.0
 33
0.0
 40
0.0
 40
0.0
 40
0.0
 40
0.0
 40
1.0
 40
1.0
 40
1.0
 40
2.0
 40
2.0
 40
2.0
 40
3.0
 40
3.0
 40
3.0
 40
4.0
 40
4.0
 40
4.0
 40
4.0
 10
49.6443340112453
 20
-106.4658638622723
 30
0.0
 10
49.6443340112453
 20
-106.4107246956192
 30
0.0
 10
49.59956651238741
 20
-106.3659571956307
 30
0.0
 10
49.54407456935868
 20
-106.3659571956307
 30
0.0
 10
49.48897068187561
 20
-106.3659571956307
 30
0.0
 10
49.44416790524085
 20
-106.4107246956192
 30
0.0
 10
49.44416790524085
 20
-106.4658638622723
 30
0.0
 10
49.44416790524085
 20
-106.5209677511472
 30
0.0
 10
49.48897068187561
 20
-106.5657705289139
 30
0.0
 10
49.54407456935868
 20
-106.5657705289139
 30
0.0
 10
49.59956651238741
 20
-106.5657705289139
 30
0.0
 10
49.6443340112453
 20
-106.5209677511472
 30
0.0
 10
49.6443340112453
 20
-106.4658638622723
 30
0.0
  0
POLYLINE
  5
58
330
1F
100
AcDbEntity
  8
_U+30EC_U+30A4_U+30E4_U+30FC 1
 62
     7
420
 16777215
370
     9
100
AcDb2dPolyline
 66
     1
 10
0.0
 20
0.0
 30
0.0
  0
VERTEX
  5
59
330
58
100
AcDbEntity
  8
_U+30EC_U+30A4_U+30E4_U+30FC 1
 62
     7
420
 16777215
370
     9
100
AcDbVertex
100
AcDb2dVertex
 10
76.5438152694268
 20
-79.16555581354183
 30
0.0
  0
VERTEX
  5
5A
330
58
100
AcDbEntity
  8
_U+30EC_U+30A4_U+30E4_U+30FC 1
 62
     7
420
 16777215
370
     9
100
AcDbVertex
100
AcDb2dVertex
 10
76.5438152694268
 20
-73.90764998152324
 30
0.0
  0
SEQEND
  5
5B
330
58
100
AcDbEntity
  8
_U+30EC_U+30A4_U+30E4_U+30FC 1
 62
     7
420
 16777215
370
     9
  0
POLYLINE
  5
5C
330
1F
100
AcDbEntity
  8
_U+30EC_U+30A4_U+30E4_U+30FC 1
 62
     7
420
 16777215
370
     9
100
AcDb2dPolyline
 66
     1
 10
0.0
 20
0.0
 30
0.0
  0
VERTEX
  5
5D
330
5C
100
AcDbEntity
  8
_U+30EC_U+30A4_U+30E4_U+30FC 1
 62
     7
420
 16777215
370
     9
100
AcDbVertex
100
AcDb2dVertex
 10
76.5438152694268
 20
-79.16555581354183
 30
0.0
  0
VERTEX
  5
5E
330
5C
100
AcDbEntity
  8
_U+30EC_U+30A4_U+30E4_U+30FC 1
 62
     7
420
 16777215
370
     9
100
AcDbVertex
100
AcDb2dVertex
 10
76.5438152694268
 20
-79.96547942445292
 30
0.0
  0
SEQEND
  5
5F
330
5C
100
AcDbEntity
  8
_U+30EC_U+30A4_U+30E4_U+30FC 1
 62
     7
420
 16777215
370
     9
  0
POLYLINE
  5
60
330
1F
100
AcDbEntity
  8
_U+30EC_U+30A4_U+30E4_U+30FC 1
 62
     7
420
 16777215
370
     9
100
AcDb2dPolyline
 66
     1
 10
0.0
 20
0.0
 30
0.0
  0
VERTEX
  5
61
330
60
100
AcDbEntity
  8
_U+30EC_U+30A4_U+30E4_U+30FC 1
 62
     7
420
 16777215
370
     9
100
AcDbVertex
100
AcDb2dVertex
 10
75.08377391778667
 20
-79.16555581354183
 30
0.0
  0
VERTEX
  5
62
330
60
100
AcDbEntity
  8
_U+30EC_U+30A4_U+30E4_U+30FC 1
 62
     7
420
 16777215
370
     9
100
AcDbVertex
100
AcDb2dVertex
 10
77.54425774390339
 20
-79.16555581354183
 30
0.0
  0
SEQEND
  5
63
330
60
100
AcDbEntity
  8
_U+30EC_U+30A4_U+30E4_U+30FC 1
 62
     7
420
 16777215
370
     9
  0
POLYLINE
  5
64
330
1F
100
AcDbEntity
  8
_U+30EC_U+30A4_U+30E4_U+30FC 1
 62
     7
420
 16777215
370
     9
100
AcDb2dPolyline
 66
     1
 10
0.0
 20
0.0
 30
0.0
  0
VERTEX
  5
65
330
64
100
AcDbEntity
  8
_U+30EC_U+30A4_U+30E4_U+30FC 1
 62
     7
420
 16777215
370
     9
100
AcDbVertex
100
AcDb2dVertex
 10
75.08377391778667
 20
-79.96547942445292
 30
0.0
  0
VERTEX
  5
66
330
64
100
AcDbEntity
  8
_U+30EC_U+30A4_U+30E4_U+30FC 1
 62
     7
420
 16777215
370
     9
100
AcDbVertex
100
AcDb2dVertex
 10
77.54425774390339
 20
-79.96547942445292
 30
0.0
  0
SEQEND
  5
67
330
64
100
AcDbEntity
  8
_U+30EC_U+30A4_U+30E4_U+30FC 1
 62
     7
420
 16777215
370
     9
  0
INSERT
  5
69
330
1F
100
AcDbEntity
  8
_U+30EC_U+30A4_U+30E4_U+30FC 1
100
AcDbBlockReference
  2
block 2
 10
0.0
 20
0.0
 30
0.0
  0
POLYLINE
  5
7B
330
1F
100
AcDbEntity
  8
_U+30EC_U+30A4_U+30E4_U+30FC 1
 62
     7
420
 16777215
370
     9
100
AcDb2dPolyline
 66
     1
 10
0.0
 20
0.0
 30
0.0
  0
VERTEX
  5
7C
330
7B
100
AcDbEntity
  8
_U+30EC_U+30A4_U+30E4_U+30FC 1
 62
     7
420
 16777215
370
     9
100
AcDbVertex
100
AcDb2dVertex
 10
76.5438152694268
 20
-99.46611775291109
 30
0.0
  0
VERTEX
  5
7D
330
7B
100
AcDbEntity
  8
_U+30EC_U+30A4_U+30E4_U+30FC 1
 62
     7
420
 16777215
370
     9
100
AcDbVertex
100
AcDb2dVertex
 10
76.5438152694268
 20
-102.4661046966054
 30
0.0
  0
SEQEND
  5
7E
330
7B
100
AcDbEntity
  8
_U+30EC_U+30A4_U+30E4_U+30FC 1
 62
     7
420
 16777215
370
     9
  0
POLYLINE
  5
7F
330
1F
100
AcDbEntity
  8
_U+30EC_U+30A4_U+30E4_U+30FC 1
 62
     7
420
 16777215
370
     9
100
AcDb2dPolyline
 66
     1
 10
0.0
 20
0.0
 30
0.0
  0
VERTEX
  5
80
330
7F
100
AcDbEntity
  8
_U+30EC_U+30A4_U+30E4_U+30FC 1
 62
     7
420
 16777215
370
     9
100
AcDbVertex
100
AcDb2dVertex
 10
62.08423063832154
 20
-102.4661046966054
 30
0.0
  0
VERTEX
  5
81
330
7F
100
AcDbEntity
  8
_U+30EC_U+30A4_U+30E4_U+30FC 1
 62
     7
420
 16777215
370
     9
100
AcDbVertex
100
AcDb2dVertex
 10
77.54425774390339
 20
-102.4661046966054
 30
0.0
  0
SEQEND
  5
82
330
7F
100
AcDbEntity
  8
_U+30EC_U+30A4_U+30E4_U+30FC 1
 62
     7
420
 16777215
370
     9
  0
INSERT
  5
84
330
1F
100
AcDbEntity
  8
_U+30EC_U+30A4_U+30E4_U+30FC 1
100
AcDbBlockReference
  2
block 3
 10
0.0
 20
0.0
 30
0.0
  0
POLYLINE
  5
89
330
1F
100
AcDbEntity
  8
_U+30EC_U+30A4_U+30E4_U+30FC 1
 62
     7
420
 16777215
370
     9
100
AcDb2dPolyline
 66
     1
 10
0.0
 20
0.0
 30
0.0
  0
VERTEX
  5
8A
330
89
100
AcDbEntity
  8
_U+30EC_U+30A4_U+30E4_U+30FC 1
 62
     7
420
 16777215
370
     9
100
AcDbVertex
100
AcDb2dVertex
 10
49.54407456935868
 20
-106.4658638622723
 30
0.0
  0
VERTEX
  5
8B
330
89
100
AcDbEntity
  8
_U+30EC_U+30A4_U+30E4_U+30FC 1
 62
     7
420
 16777215
370
     9
100
AcDbVertex
100
AcDb2dVertex
 10
59.54416014756858
 20
-106.4658638622723
 30
0.0
  0
SEQEND
  5
8C
330
89
100
AcDbEntity
  8
_U+30EC_U+30A4_U+30E4_U+30FC 1
 62
     7
420
 16777215
370
     9
  0
POLYLINE
  5
8D
330
1F
100
AcDbEntity
  8
_U+30EC_U+30A4_U+30E4_U+30FC 1
 62
     7
420
 16777215
370
     9
100
AcDb2dPolyline
 66
     1
 10
0.0
 20
0.0
 30
0.0
  0
VERTEX
  5
8E
330
8D
100
AcDbEntity
  8
_U+30EC_U+30A4_U+30E4_U+30FC 1
 62
     7
420
 16777215
370
     9
100
AcDbVertex
100
AcDb2dVertex
 10
49.54407456935868
 20
-105.0058224737486
 30
0.0
  0
VERTEX
  5
8F
330
8D
100
AcDbEntity
  8
_U+30EC_U+30A4_U+30E4_U+30FC 1
 62
     7
420
 16777215
370
     9
100
AcDbVertex
100
AcDb2dVertex
 10
49.54407456935868
 20
-107.4656360842448
 30
0.0
  0
SEQEND
  5
90
330
8D
100
AcDbEntity
  8
_U+30EC_U+30A4_U+30E4_U+30FC 1
 62
     7
420
 16777215
370
     9
  0
POLYLINE
  5
91
330
1F
100
AcDbEntity
  8
_U+30EC_U+30A4_U+30E4_U+30FC 1
 62
     7
420
 16777215
370
     9
100
AcDb2dPolyline
 66
     1
 10
0.0
 20
0.0
 30
0.0
  0
VERTEX
  5
92
330
91
100
AcDbEntity
  8
_U+30EC_U+30A4_U+30E4_U+30FC 1
 62
     7
420
 16777215
370
     9
100
AcDbVertex
100
AcDb2dVertex
 10
59.54416014756858
 20
-105.0058224737486
 30
0.0
  0
VERTEX
  5
93
330
91
100
AcDbEntity
  8
_U+30EC_U+30A4_U+30E4_U+30FC 1
 62
     7
420
 16777215
370
     9
100
AcDbVertex
100
AcDb2dVertex
 10
59.54416014756858
 20
-107.4656360842448
 30
0.0
  0
SEQEND
  5
94
330
91
100
AcDbEntity
  8
_U+30EC_U+30A4_U+30E4_U+30FC 1
 62
     7
420
 16777215
370
     9
  0
INSERT
  5
96
330
1F
100
AcDbEntity
  8
_U+30EC_U+30A4_U+30E4_U+30FC 1
100
AcDbBlockReference
  2
block 4
 10
0.0
 20
0.0
 30
0.0
  0
POLYLINE
  5
9E
330
1F
100
AcDbEntity
  8
_U+30EC_U+30A4_U+30E4_U+30FC 1
 62
     7
420
 16777215
370
     9
100
AcDb2dPolyline
 66
     1
 10
0.0
 20
0.0
 30
0.0
  0
VERTEX
  5
9F
330
9E
100
AcDbEntity
  8
_U+30EC_U+30A4_U+30E4_U+30FC 1
 62
     7
420
 16777215
370
     9
100
AcDbVertex
100
AcDb2dVertex
 10
49.54407456935868
 20
-75.16579664787525
 30
0.0
  0
VERTEX
  5
A0
330
9E
100
AcDbEntity
  8
_U+30EC_U+30A4_U+30E4_U+30FC 1
 62
     7
420
 16777215
370
     9
100
AcDbVertex
100
AcDb2dVertex
 10
72.54405620480249
 20
-75.16579664787525
 30
0.0
  0
SEQEND
  5
A1
330
9E
100
AcDbEntity
  8
_U+30EC_U+30A4_U+30E4_U+30FC 1
 62
     7
420
 16777215
370
     9
  0
POLYLINE
  5
A2
330
1F
100
AcDbEntity
  8
_U+30EC_U+30A4_U+30E4_U+30FC 1
 62
     7
420
 16777215
370
     9
100
AcDb2dPolyline
 66
     1
 10
0.0
 20
0.0
 30
0.0
  0
VERTEX
  5
A3
330
A2
100
AcDbEntity
  8
_U+30EC_U+30A4_U+30E4_U+30FC 1
 62
     7
420
 16777215
370
     9
100
AcDbVertex
100
AcDb2dVertex
 10
49.54407456935868
 20
-76.62580275862145
 30
0.0
  0
VERTEX
  5
A4
330
A2
100
AcDbEntity
  8
_U+30EC_U+30A4_U+30E4_U+30FC 1
 62
     7
420
 16777215
370
     9
100
AcDbVertex
100
AcDb2dVertex
 10
49.54407456935868
 20
-74.16531887034752
 30
0.0
  0
SEQEND
  5
A5
330
A2
100
AcDbEntity
  8
_U+30EC_U+30A4_U+30E4_U+30FC 1
 62
     7
420
 16777215
370
     9
  0
POLYLINE
  5
A6
330
1F
100
AcDbEntity
  8
_U+30EC_U+30A4_U+30E4_U+30FC 1
 62
     7
420
 16777215
370
     9
100
AcDb2dPolyline
 66
     1
 10
0.0
 20
0.0
 30
0.0
  0
VERTEX
  5
A7
330
A6
100
AcDbEntity
  8
_U+30EC_U+30A4_U+30E4_U+30FC 1
 62
     7
420
 16777215
370
     9
100
AcDbVertex
100
AcDb2dVertex
 10
72.54405620480249
 20
-76.62580275862145
 30
0.0
  0
VERTEX
  5
A8
330
A6
100
AcDbEntity
  8
_U+30EC_U+30A4_U+30E4_U+30FC 1
 62
     7
420
 16777215
370
     9
100
AcDbVertex
100
AcDb2dVertex
 10
72.54405620480249
 20
-74.16531887034752
 30
0.0
  0
SEQEND
  5
A9
330
A6
100
AcDbEntity
  8
_U+30EC_U+30A4_U+30E4_U+30FC 1
 62
     7
420
 16777215
370
     9
  0
INSERT
  5
AB
330
1F
100
AcDbEntity
  8
_U+30EC_U+30A4_U+30E4_U+30FC 1
100
AcDbBlockReference
  2
block 5
 10
0.0
 20
0.0
 30
0.0
  0
POLYLINE
  5
B2
330
1F
100
AcDbEntity
  8
_U+30EC_U+30A4_U+30E4_U+30FC 1
 62
     7
420
 16777215
370
     9
100
AcDb2dPolyline
 66
     1
 10
0.0
 20
0.0
 30
0.0
  0
VERTEX
  5
B3
330
B2
100
AcDbEntity
  8
_U+30EC_U+30A4_U+30E4_U+30FC 1
 62
     7
420
 16777215
370
     9
100
AcDbVertex
100
AcDb2dVertex
 10
76.5438152694268
 20
-99.46611775291109
 30
0.0
  0
VERTEX
  5
B4
330
B2
100
AcDbEntity
  8
_U+30EC_U+30A4_U+30E4_U+30FC 1
 62
     7
420
 16777215
370
     9
100
AcDbVertex
100
AcDb2dVertex
 10
76.5438152694268
 20
-79.96547942445292
 30
0.0
  0
SEQEND
  5
B5
330
B2
100
AcDbEntity
  8
_U+30EC_U+30A4_U+30E4_U+30FC 1
 62
     7
420
 16777215
370
     9
  0
POLYLINE
  5
B6
330
1F
100
AcDbEntity
  8
_U+30EC_U+30A4_U+30E4_U+30FC 1
 62
     7
420
 16777215
370
     9
100
AcDb2dPolyline
 66
     1
 10
0.0
 20
0.0
 30
0.0
  0
VERTEX
  5
B7
330
B6
100
AcDbEntity
  8
_U+30EC_U+30A4_U+30E4_U+30FC 1
 62
     7
420
 16777215
370
     9
100
AcDbVertex
100
AcDb2dVertex
 10
62.08423063832154
 20
-99.46611775291109
 30
0.0
  0
VERTEX
  5
B8
330
B6
100
AcDbEntity
  8
_U+30EC_U+30A4_U+30E4_U+30FC 1
 62
     7
420
 16777215
370
     9
100
AcDbVertex
100
AcDb2dVertex
 10
77.54425774390339
 20
-99.46611775291109
 30
0.0
  0
SEQEND
  5
B9
330
B6
100
AcDbEntity
  8
_U+30EC_U+30A4_U+30E4_U+30FC 1
 62
     7
420
 16777215
370
     9
  0
INSERT
  5
BB
330
1F
100
AcDbEntity
  8
_U+30EC_U+30A4_U+30E4_U+30FC 1
100
AcDbBlockReference
  2
block 6
 10
0.0
 20
0.0
 30
0.0
  0
ENDSEC
  0
SECTION
  2
OBJECTS
  0
DICTIONARY
  5
C
330
0
100
AcDbDictionary
281
     1
  3
ACAD_GROUP
350
D
  3
ACAD_LAYOUT
350
1A
  3
ACAD_MATERIAL
350
3B
  3
ACAD_MLEADERSTYLE
350
CE
  3
ACAD_MLINESTYLE
350
17
  3
ACAD_PLOTSETTINGS
350
19
  3
ACAD_PLOTSTYLENAME
350
E
  3
ACAD_TABLESTYLE
350
CD
  3
ACAD_VISUALSTYLE
350
2A
  0
SUN
  5
3F
330
29
100
AcDbSun
 90
        1
290
     0
 63
     7
421
 16777215
 40
1.0
291
     1
 91
  2455826
 92
 54000000
292
     0
 70
     2
 71
   256
280
     1
  0
DICTIONARY
  5
D
102
{ACAD_REACTORS
330
C
102
}
330
C
100
AcDbDictionary
281
     1
  0
DICTIONARY
  5
1A
102
{ACAD_REACTORS
330
C
102
}
330
C
100
AcDbDictionary
281
     1
  3
Layout1
350
1E
  3
Layout2
350
26
  3
Model
350
22
  0
DICTIONARY
  5
3B
102
{ACAD_REACTORS
330
C
102
}
330
C
100
AcDbDictionary
281
     1
  3
ByBlock
350
3D
  3
ByLayer
350
3C
  3
Global
350
3E
  0
DICTIONARY
  5
CE
102
{ACAD_REACTORS
330
C
102
}
330
C
100
AcDbDictionary
281
     1
  0
DICTIONARY
  5
17
102
{ACAD_REACTORS
330
C
102
}
330
C
100
AcDbDictionary
281
     1
  3
Standard
350
18
  0
DICTIONARY
  5
19
102
{ACAD_REACTORS
330
C
102
}
330
C
100
AcDbDictionary
281
     1
  0
ACDBDICTIONARYWDFLT
  5
E
102
{ACAD_REACTORS
330
C
102
}
330
C
100
AcDbDictionary
281
     1
  3
Normal
350
F
100
AcDbDictionaryWithDefault
340
F
  0
DICTIONARY
  5
CD
102
{ACAD_REACTORS
330
C
102
}
330
C
100
AcDbDictionary
281
     1
  0
DICTIONARY
  5
2A
102
{ACAD_REACTORS
330
C
102
}
330
C
100
AcDbDictionary
281
     1
  3
2dWireframe
350
2F
  3
3D Hidden
350
31
  3
3dWireframe
350
30
  3
Basic
350
32
  3
Brighten
350
36
  3
ColorChange
350
3A
  3
Conceptual
350
34
  3
Dim
350
35
  3
Facepattern
350
39
  3
Flat
350
2B
  3
FlatWithEdges
350
2C
  3
Gouraud
350
2D
  3
GouraudWithEdges
350
2E
  3
Linepattern
350
38
  3
Realistic
350
33
  3
Thicken
350
37
  0
LAYOUT
  5
1E
102
{ACAD_REACTORS
330
1A
102
}
330
1A
100
AcDbPlotSettings
  1

  2
none_device
  4

  6

 40
0.0
 41
0.0
 42
0.0
 43
0.0
 44
0.0
 45
0.0
 46
0.0
 47
0.0
 48
0.0
 49
0.0
140
0.0
141
0.0
142
1.0
143
1.0
 70
   688
 72
     0
 73
     0
 74
     5
  7

 75
    16
 76
     0
 77
     2
 78
   300
147
1.0
148
0.0
149
0.0
100
AcDbLayout
  1
Layout1
 70
     1
 71
     1
 10
0.0
 20
0.0
 11
12.0
 21
9.0
 12
0.0
 22
0.0
 32
0.0
 14
1.000000000000000E+20
 24
1.000000000000000E+20
 34
1.000000000000000E+20
 15
-1.000000000000000E+20
 25
-1.000000000000000E+20
 35
-1.000000000000000E+20
146
0.0
 13
0.0
 23
0.0
 33
0.0
 16
1.0
 26
0.0
 36
0.0
 17
0.0
 27
1.0
 37
0.0
 76
     0
330
1B
  0
LAYOUT
  5
26
102
{ACAD_REACTORS
330
1A
102
}
330
1A
100
AcDbPlotSettings
  1

  2
none_device
  4

  6

 40
0.0
 41
0.0
 42
0.0
 43
0.0
 44
0.0
 45
0.0
 46
0.0
 47
0.0
 48
0.0
 49
0.0
140
0.0
141
0.0
142
1.0
143
1.0
 70
   688
 72
     0
 73
     0
 74
     5
  7

 75
    16
 76
     0
 77
     2
 78
   300
147
1.0
148
0.0
149
0.0
100
AcDbLayout
  1
Layout2
 70
     1
 71
     2
 10
0.0
 20
0.0
 11
0.0
 21
0.0
 12
0.0
 22
0.0
 32
0.0
 14
0.0
 24
0.0
 34
0.0
 15
0.0
 25
0.0
 35
0.0
146
0.0
 13
0.0
 23
0.0
 33
0.0
 16
1.0
 26
0.0
 36
0.0
 17
0.0
 27
1.0
 37
0.0
 76
     0
330
23
  0
LAYOUT
  5
22
102
{ACAD_REACTORS
330
1A
102
}
330
1A
100
AcDbPlotSettings
  1

  2
none_device
  4

  6

 40
0.0
 41
0.0
 42
0.0
 43
0.0
 44
0.0
 45
0.0
 46
0.0
 47
0.0
 48
0.0
 49
0.0
140
0.0
141
0.0
142
1.0
143
1.0
 70
  1712
 72
     0
 73
     0
 74
     0
  7

 75
     0
 76
     0
 77
     2
 78
   300
147
1.0
148
0.0
149
0.0
100
AcDbLayout
  1
Model
 70
     1
 71
     0
 10
0.0
 20
0.0
 11
12.0
 21
9.0
 12
0.0
 22
0.0
 32
0.0
 14
1.000000000000000E+20
 24
1.000000000000000E+20
 34
1.000000000000000E+20
 15
-1.000000000000000E+20
 25
-1.000000000000000E+20
 35
-1.000000000000000E+20
146
0.0
 13
0.0
 23
0.0
 33
0.0
 16
1.0
 26
0.0
 36
0.0
 17
0.0
 27
1.0
 37
0.0
 76
     0
330
1F
331
29
  0
MATERIAL
  5
3D
102
{ACAD_REACTORS
330
3B
102
}
330
3B
100
AcDbMaterial
  1
ByBlock
 72
     1
 94
      127
  0
MATERIAL
  5
3C
102
{ACAD_REACTORS
330
3B
102
}
330
3B
100
AcDbMaterial
  1
ByLayer
 72
     1
 94
      127
  0
MATERIAL
  5
3E
102
{ACAD_REACTORS
330
3B
102
}
330
3B
100
AcDbMaterial
  1
Global
 72
     1
 94
      127
  0
MLINESTYLE
  5
18
102
{ACAD_REACTORS
330
17
102
}
330
17
100
AcDbMlineStyle
  2
Standard
 70
     0
  3

 62
   256
 51
90.0
 52
90.0
 71
     2
 49
0.5
 62
   256
  6
BYLAYER
 49
-0.5
 62
   256
  6
BYLAYER
  0
ACDBPLACEHOLDER
  5
F
102
{ACAD_REACTORS
330
E
102
}
330
E
  0
VISUALSTYLE
  5
2F
102
{ACAD_REACTORS
330
2A
102
}
330
2A
100
AcDbVisualStyle
  2
2dWireframe
 70
     4
177
     2
291
     0
 71
     0
176
     1
 72
     2
176
     1
 73
     0
176
     1
 90
        0
176
     1
 40
-0.6
176
     1
 41
-30.0
176
     1
 62
     5
 63
     7
421
 16777215
176
     1
 74
     1
176
     1
 91
        4
176
     1
 64
     7
176
     1
 65
   257
176
     1
 75
     1
176
     1
175
     1
176
     1
 42
1.0
176
     1
 92
        0
176
     1
 66
   257
176
     1
 43
1.0
176
     1
 76
     1
176
     1
 77
     6
176
     1
 78
     2
176
     1
 67
     7
176
     1
 79
     5
176
     1
170
     0
176
     1
171
     0
176
     1
290
     0
176
     1
 93
        1
176
     1
 44
0.0
176
     1
173
     0
176
     1
  0
VISUALSTYLE
  5
31
102
{ACAD_REACTORS
330
2A
102
}
330
2A
100
AcDbVisualStyle
  2
3D Hidden
 70
     6
177
     2
291
     0
 71
     1
176
     1
 72
     2
176
     1
 73
     2
176
     1
 90
        0
176
     1
 40
-0.6
176
     1
 41
-30.0
176
     1
 62
     5
 63
     7
421
 16777215
176
     1
 74
     2
176
     1
 91
        2
176
     1
 64
     7
176
     1
 65
   257
176
     1
 75
     2
176
     1
175
     1
176
     1
 42
40.0
176
     1
 92
        0
176
     1
 66
   257
176
     1
 43
1.0
176
     1
 76
     1
176
     1
 77
     6
176
     1
 78
     2
176
     1
 67
     7
176
     1
 79
     3
176
     1
170
     0
176
     1
171
     0
176
     1
290
     0
176
     1
 93
        1
176
     1
 44
0.0
176
     1
173
     0
176
     1
  0
VISUALSTYLE
  5
30
102
{ACAD_REACTORS
330
2A
102
}
330
2A
100
AcDbVisualStyle
  2
3dWireframe
 70
     5
177
     2
291
     0
 71
     0
176
     1
 72
     2
176
     1
 73
     0
176
     1
 90
        0
176
     1
 40
-0.6
176
     1
 41
-30.0
176
     1
 62
     5
 63
     7
421
 16777215
176
     1
 74
     1
176
     1
 91
        4
176
     1
 64
     7
176
     1
 65
   257
176
     1
 75
     1
176
     1
175
     1
176
     1
 42
1.0
176
     1
 92
        0
176
     1
 66
   257
176
     1
 43
1.0
176
     1
 76
     1
176
     1
 77
     6
176
     1
 78
     2
176
     1
 67
     7
176
     1
 79
     5
176
     1
170
     0
176
     1
171
     0
176
     1
290
     0
176
     1
 93
        1
176
     1
 44
0.0
176
     1
173
     0
176
     1
  0
VISUALSTYLE
  5
32
102
{ACAD_REACTORS
330
2A
102
}
330
2A
100
AcDbVisualStyle
  2
Basic
 70
     7
177
     2
291
     1
 71
     1
176
     1
 72
     0
176
     1
 73
     1
176
     1
 90
        0
176
     1
 40
-0.6
176
     1
 41
-30.0
176
     1
 62
     5
 63
     7
421
 16777215
176
     1
 74
     0
176
     1
 91
        4
176
     1
 64
     7
176
     1
 65
   257
176
     1
 75
     1
176
     1
175
     1
176
     1
 42
1.0
176
     1
 92
        8
176
     1
 66
     7
176
     1
 43
1.0
176
     1
 76
     1
176
     1
 77
     6
176
     1
 78
     2
176
     1
 67
     7
176
     1
 79
     5
176
     1
170
     0
176
     1
171
     0
176
     1
290
     0
176
     1
 93
        1
176
     1
 44
0.0
176
     1
173
     0
176
     1
  0
VISUALSTYLE
  5
36
102
{ACAD_REACTORS
330
2A
102
}
330
2A
100
AcDbVisualStyle
  2
Brighten
 70
    12
177
     2
291
     1
 71
     2
176
     1
 72
     2
176
     1
 73
     0
176
     1
 90
        0
176
     1
 40
-0.6
176
     1
 41
-30.0
176
     1
 62
     5
 63
     7
421
 16777215
176
     1
 74
     1
176
     1
 91
        4
176
     1
 64
     7
176
     1
 65
   257
176
     1
 75
     1
176
     1
175
     1
176
     1
 42
1.0
176
     1
 92
        8
176
     1
 66
     7
176
     1
 43
1.0
176
     1
 76
     1
176
     1
 77
     6
176
     1
 78
     2
176
     1
 67
     7
176
     1
 79
     5
176
     1
170
     0
176
     1
171
     0
176
     1
290
     0
176
     1
 93
        1
176
     1
 44
50.0
176
     1
173
     0
176
     1
  0
VISUALSTYLE
  5
3A
102
{ACAD_REACTORS
330
2A
102
}
330
2A
100
AcDbVisualStyle
  2
ColorChange
 70
    16
177
     2
291
     1
 71
     2
176
     1
 72
     2
176
     1
 73
     3
176
     1
 90
        0
176
     1
 40
-0.6
176
     1
 41
-30.0
176
     1
 62
     5
 63
     8
421
  8421504
176
     1
 74
     1
176
     1
 91
        4
176
     1
 64
     7
176
     1
 65
   257
176
     1
 75
     1
176
     1
175
     1
176
     1
 42
1.0
176
     1
 92
        8
176
     1
 66
     8
424
  8421504
176
     1
 43
1.0
176
     1
 76
     1
176
     1
 77
     6
176
     1
 78
     2
176
     1
 67
     7
176
     1
 79
     5
176
     1
170
     0
176
     1
171
     0
176
     1
290
     0
176
     1
 93
        1
176
     1
 44
0.0
176
     1
173
     0
176
     1
  0
VISUALSTYLE
  5
34
102
{ACAD_REACTORS
330
2A
102
}
330
2A
100
AcDbVisualStyle
  2
Conceptual
 70
     9
177
     2
291
     0
 71
     3
176
     1
 72
     2
176
     1
 73
     0
176
     1
 90
        0
176
     1
 40
-0.6
176
     1
 41
-30.0
176
     1
 62
     5
 63
     7
421
 16777215
176
     1
 74
     2
176
     1
 91
        2
176
     1
 64
     7
176
     1
 65
   257
176
     1
 75
     1
176
     1
175
     1
176
     1
 42
40.0
176
     1
 92
        8
176
     1
 66
     7
176
     1
 43
1.0
176
     1
 76
     1
176
     1
 77
     6
176
     1
 78
     2
176
     1
 67
     7
176
     1
 79
     3
176
     1
170
     0
176
     1
171
     0
176
     1
290
     0
176
     1
 93
        1
176
     1
 44
0.0
176
     1
173
     0
176
     1
  0
VISUALSTYLE
  5
35
102
{ACAD_REACTORS
330
2A
102
}
330
2A
100
AcDbVisualStyle
  2
Dim
 70
    11
177
     2
291
     1
 71
     2
176
     1
 72
     2
176
     1
 73
     0
176
     1
 90
        0
176
     1
 40
-0.6
176
     1
 41
-30.0
176
     1
 62
     5
 63
     7
421
 16777215
176
     1
 74
     1
176
     1
 91
        4
176
     1
 64
     7
176
     1
 65
   257
176
     1
 75
     1
176
     1
175
     1
176
     1
 42
1.0
176
     1
 92
        8
176
     1
 66
     7
176
     1
 43
1.0
176
     1
 76
     1
176
     1
 77
     6
176
     1
 78
     2
176
     1
 67
     7
176
     1
 79
     5
176
     1
170
     0
176
     1
171
     0
176
     1
290
     0
176
     1
 93
        1
176
     1
 44
-50.0
176
     1
173
     0
176
     1
  0
VISUALSTYLE
  5
39
102
{ACAD_REACTORS
330
2A
102
}
330
2A
100
AcDbVisualStyle
  2
Facepattern
 70
    15
177
     2
291
     1
 71
     2
176
     1
 72
     2
176
     1
 73
     0
176
     1
 90
        0
176
     1
 40
-0.6
176
     1
 41
-30.0
176
     1
 62
     5
 63
     7
421
 16777215
176
     1
 74
     1
176
     1
 91
        4
176
     1
 64
     7
176
     1
 65
   257
176
     1
 75
     1
176
     1
175
     1
176
     1
 42
1.0
176
     1
 92
        8
176
     1
 66
     7
176
     1
 43
1.0
176
     1
 76
     1
176
     1
 77
     6
176
     1
 78
     2
176
     1
 67
     7
176
     1
 79
     5
176
     1
170
     0
176
     1
171
     0
176
     1
290
     0
176
     1
 93
        1
176
     1
 44
0.0
176
     1
173
     0
176
     1
  0
VISUALSTYLE
  5
2B
102
{ACAD_REACTORS
330
2A
102
}
330
2A
100
AcDbVisualStyle
  2
Flat
 70
     0
177
     2
291
     1
 71
     2
176
     1
 72
     1
176
     1
 73
     1
176
     1
 90
        2
176
     1
 40
-0.6
176
     1
 41
30.0
176
     1
 62
     5
 63
     7
421
 16777215
176
     1
 74
     0
176
     1
 91
        4
176
     1
 64
     7
176
     1
 65
   257
176
     1
 75
     1
176
     1
175
     1
176
     1
 42
1.0
176
     1
 92
        8
176
     1
 66
     7
176
     1
 43
1.0
176
     1
 76
     1
176
     1
 77
     6
176
     1
 78
     2
176
     1
 67
     7
176
     1
 79
     5
176
     1
170
     0
176
     1
171
     0
176
     1
290
     0
176
     1
 93
       13
176
     1
 44
0.0
176
     1
173
     0
176
     1
  0
VISUALSTYLE
  5
2C
102
{ACAD_REACTORS
330
2A
102
}
330
2A
100
AcDbVisualStyle
  2
FlatWithEdges
 70
     1
177
     2
291
     1
 71
     2
176
     1
 72
     1
176
     1
 73
     1
176
     1
 90
        2
176
     1
 40
-0.6
176
     1
 41
30.0
176
     1
 62
     5
 63
     7
421
 16777215
176
     1
 74
     1
176
     1
 91
        4
176
     1
 64
     7
176
     1
 65
   257
176
     1
 75
     1
176
     1
175
     1
176
     1
 42
1.0
176
     1
 92
        0
176
     1
 66
   257
176
     1
 43
1.0
176
     1
 76
     1
176
     1
 77
     6
176
     1
 78
     2
176
     1
 67
     7
176
     1
 79
     5
176
     1
170
     0
176
     1
171
     0
176
     1
290
     0
176
     1
 93
       13
176
     1
 44
0.0
176
     1
173
     0
176
     1
  0
VISUALSTYLE
  5
2D
102
{ACAD_REACTORS
330
2A
102
}
330
2A
100
AcDbVisualStyle
  2
Gouraud
 70
     2
177
     2
291
     1
 71
     2
176
     1
 72
     2
176
     1
 73
     1
176
     1
 90
        2
176
     1
 40
-0.6
176
     1
 41
30.0
176
     1
 62
     5
 63
     7
421
 16777215
176
     1
 74
     0
176
     1
 91
        4
176
     1
 64
     7
176
     1
 65
   257
176
     1
 75
     1
176
     1
175
     1
176
     1
 42
1.0
176
     1
 92
        0
176
     1
 66
     7
176
     1
 43
1.0
176
     1
 76
     1
176
     1
 77
     6
176
     1
 78
     2
176
     1
 67
     7
176
     1
 79
     5
176
     1
170
     0
176
     1
171
     0
176
     1
290
     0
176
     1
 93
       13
176
     1
 44
0.0
176
     1
173
     0
176
     1
  0
VISUALSTYLE
  5
2E
102
{ACAD_REACTORS
330
2A
102
}
330
2A
100
AcDbVisualStyle
  2
GouraudWithEdges
 70
     3
177
     2
291
     1
 71
     2
176
     1
 72
     2
176
     1
 73
     1
176
     1
 90
        2
176
     1
 40
-0.6
176
     1
 41
30.0
176
     1
 62
     5
 63
     7
421
 16777215
176
     1
 74
     1
176
     1
 91
        4
176
     1
 64
     7
176
     1
 65
   257
176
     1
 75
     1
176
     1
175
     1
176
     1
 42
1.0
176
     1
 92
        0
176
     1
 66
   257
176
     1
 43
1.0
176
     1
 76
     1
176
     1
 77
     6
176
     1
 78
     2
176
     1
 67
     7
176
     1
 79
     5
176
     1
170
     0
176
     1
171
     0
176
     1
290
     0
176
     1
 93
       13
176
     1
 44
0.0
176
     1
173
     0
176
     1
  0
VISUALSTYLE
  5
38
102
{ACAD_REACTORS
330
2A
102
}
330
2A
100
AcDbVisualStyle
  2
Linepattern
 70
    14
177
     2
291
     1
 71
     2
176
     1
 72
     2
176
     1
 73
     0
176
     1
 90
        0
176
     1
 40
-0.6
176
     1
 41
-30.0
176
     1
 62
     5
 63
     7
421
 16777215
176
     1
 74
     1
176
     1
 91
        4
176
     1
 64
     7
176
     1
 65
   257
176
     1
 75
     7
176
     1
175
     7
176
     1
 42
1.0
176
     1
 92
        8
176
     1
 66
     7
176
     1
 43
1.0
176
     1
 76
     1
176
     1
 77
     6
176
     1
 78
     2
176
     1
 67
     7
176
     1
 79
     5
176
     1
170
     0
176
     1
171
     0
176
     1
290
     0
176
     1
 93
        1
176
     1
 44
0.0
176
     1
173
     0
176
     1
  0
VISUALSTYLE
  5
33
102
{ACAD_REACTORS
330
2A
102
}
330
2A
100
AcDbVisualStyle
  2
Realistic
 70
     8
177
     2
291
     0
 71
     2
176
     1
 72
     2
176
     1
 73
     0
176
     1
 90
        0
176
     1
 40
-0.6
176
     1
 41
-30.0
176
     1
 62
     5
 63
     7
421
 16777215
176
     1
 74
     1
176
     1
 91
        0
176
     1
 64
     7
176
     1
 65
   257
176
     1
 75
     1
176
     1
175
     1
176
     1
 42
1.0
176
     1
 92
        8
176
     1
 66
     8
424
  7895160
176
     1
 43
1.0
176
     1
 76
     1
176
     1
 77
     6
176
     1
 78
     2
176
     1
 67
     7
176
     1
 79
     5
176
     1
170
     0
176
     1
171
     0
176
     1
290
     0
176
     1
 93
       13
176
     1
 44
0.0
176
     1
173
     0
176
     1
  0
VISUALSTYLE
  5
37
102
{ACAD_REACTORS
330
2A
102
}
330
2A
100
AcDbVisualStyle
  2
Thicken
 70
    13
177
     2
291
     1
 71
     2
176
     1
 72
     2
176
     1
 73
     0
176
     1
 90
        0
176
     1
 40
-0.6
176
     1
 41
-30.0
176
     1
 62
     5
 63
     7
421
 16777215
176
     1
 74
     1
176
     1
 91
        4
176
     1
 64
     7
176
     1
 65
   257
176
     1
 75
     1
176
     1
175
     1
176
     1
 42
1.0
176
     1
 92
       12
176
     1
 66
     7
176
     1
 43
1.0
176
     1
 76
     1
176
     1
 77
     6
176
     1
 78
     2
176
     1
 67
     7
176
     1
 79
     5
176
     1
170
     0
176
     1
171
     0
176
     1
290
     0
176
     1
 93
        1
176
     1
 44
0.0
176
     1
173
     0
176
     1
  0
ENDSEC
  0
EOF
