  0
SECTION
  2
HEADER
  9
$ACADVER
  1
AC1024
  9
$ACADMAINTVER
 70
     6
  9
$DWGCODEPAGE
  3
UNDEFINED
  9
$INSBASE
 10
0.0
 20
0.0
 30
0.0
  9
$EXTMIN
 10
1.000000000000000E+20
 20
1.000000000000000E+20
 30
1.000000000000000E+20
  9
$EXTMAX
 10
-1.000000000000000E+20
 20
-1.000000000000000E+20
 30
-1.000000000000000E+20
  9
$LIMMIN
 10
0.0
 20
0.0
  9
$LIMMAX
 10
12.0
 20
9.0
  9
$ORTHOMODE
 70
     0
  9
$REGENMODE
 70
     1
  9
$FILLMODE
 70
     1
  9
$QTEXTMODE
 70
     0
  9
$MIRRTEXT
 70
     1
  9
$LTSCALE
 40
1.0
  9
$ATTMODE
 70
     1
  9
$TEXTSIZE
 40
0.2
  9
$TRACEWID
 40
0.05
  9
$TEXTSTYLE
  7
Standard
  9
$CLAYER
  8
0
  9
$CELTYPE
  6
ByLayer
  9
$CECOLOR
 62
   256
  9
$CELTSCALE
 40
1.0
  9
$DISPSILH
 70
     0
  9
$DIMSCALE
 40
1.0
  9
$DIMASZ
 40
0.18
  9
$DIMEXO
 40
0.0625
  9
$DIMDLI
 40
0.38
  9
$DIMRND
 40
0.0
  9
$DIMDLE
 40
0.0
  9
$DIMEXE
 40
0.18
  9
$DIMTP
 40
0.0
  9
$DIMTM
 40
0.0
  9
$DIMTXT
 40
0.18
  9
$DIMCEN
 40
0.09
  9
$DIMTSZ
 40
0.0
  9
$DIMTOL
 70
     0
  9
$DIMLIM
 70
     0
  9
$DIMTIH
 70
     1
  9
$DIMTOH
 70
     1
  9
$DIMSE1
 70
     0
  9
$DIMSE2
 70
     0
  9
$DIMTAD
 70
     0
  9
$DIMZIN
 70
     0
  9
$DIMBLK
  1

  9
$DIMASO
 70
     1
  9
$DIMSHO
 70
     1
  9
$DIMPOST
  1

  9
$DIMAPOST
  1

  9
$DIMALT
 70
     0
  9
$DIMALTD
 70
     2
  9
$DIMALTF
 40
25.4
  9
$DIMLFAC
 40
1.0
  9
$DIMTOFL
 70
     0
  9
$DIMTVP
 40
0.0
  9
$DIMTIX
 70
     0
  9
$DIMSOXD
 70
     0
  9
$DIMSAH
 70
     0
  9
$DIMBLK1
  1

  9
$DIMBLK2
  1

  9
$DIMSTYLE
  2
Standard
  9
$DIMCLRD
 70
     0
  9
$DIMCLRE
 70
     0
  9
$DIMCLRT
 70
     0
  9
$DIMTFAC
 40
1.0
  9
$DIMGAP
 40
0.09
  9
$DIMJUST
 70
     0
  9
$DIMSD1
 70
     0
  9
$DIMSD2
 70
     0
  9
$DIMTOLJ
 70
     1
  9
$DIMTZIN
 70
     0
  9
$DIMALTZ
 70
     0
  9
$DIMALTTZ
 70
     0
  9
$DIMUPT
 70
     0
  9
$DIMDEC
 70
     4
  9
$DIMTDEC
 70
     4
  9
$DIMALTU
 70
     2
  9
$DIMALTTD
 70
     2
  9
$DIMTXSTY
  7
Standard
  9
$DIMAUNIT
 70
     0
  9
$DIMADEC
 70
     0
  9
$DIMALTRND
 40
0.0
  9
$DIMAZIN
 70
     0
  9
$DIMDSEP
 70
    46
  9
$DIMATFIT
 70
     3
  9
$DIMFRAC
 70
     0
  9
$DIMLDRBLK
  1

  9
$DIMLUNIT
 70
     2
  9
$DIMLWD
 70
    -2
  9
$DIMLWE
 70
    -2
  9
$DIMTMOVE
 70
     0
  9
$DIMFXL
 40
1.0
  9
$DIMFXLON
 70
     0
  9
$DIMJOGANG
 40
0.7853981633974483
  9
$DIMTFILL
 70
     0
  9
$DIMTFILLCLR
 70
     0
  9
$DIMARCSYM
 70
     0
  9
$DIMLTYPE
  6

  9
$DIMLTEX1
  6

  9
$DIMLTEX2
  6

  9
$DIMTXTDIRECTION
 70
     0
  9
$LUNITS
 70
     2
  9
$LUPREC
 70
     4
  9
$SKETCHINC
 40
0.1
  9
$FILLETRAD
 40
0.5
  9
$AUNITS
 70
     0
  9
$AUPREC
 70
     0
  9
$MENU
  1
.
  9
$ELEVATION
 40
0.0
  9
$PELEVATION
 40
0.0
  9
$THICKNESS
 40
0.0
  9
$LIMCHECK
 70
     0
  9
$CHAMFERA
 40
0.5
  9
$CHAMFERB
 40
0.5
  9
$CHAMFERC
 40
1.0
  9
$CHAMFERD
 40
0.0
  9
$SKPOLY
 70
     0
  9
$TDCREATE
 40
2457917.589537037
  9
$TDUCREATE
 40
2457917.214537037
  9
$TDUPDATE
 40
2457917.589537037
  9
$TDUUPDATE
 40
2457917.214537037
  9
$TDINDWG
 40
0.0000000116
  9
$TDUSRTIMER
 40
0.0000000116
  9
$USRTIMER
 70
     1
  9
$ANGBASE
 50
0.0
  9
$ANGDIR
 70
     0
  9
$PDMODE
 70
     0
  9
$PDSIZE
 40
0.0
  9
$PLINEWID
 40
0.0
  9
$SPLFRAME
 70
     0
  9
$SPLINETYPE
 70
     6
  9
$SPLINESEGS
 70
     8
  9
$HANDSEED
  5
118
  9
$SURFTAB1
 70
     6
  9
$SURFTAB2
 70
     6
  9
$SURFTYPE
 70
     6
  9
$SURFU
 70
     6
  9
$SURFV
 70
     6
  9
$UCSBASE
  2

  9
$UCSNAME
  2

  9
$UCSORG
 10
0.0
 20
0.0
 30
0.0
  9
$UCSXDIR
 10
1.0
 20
0.0
 30
0.0
  9
$UCSYDIR
 10
0.0
 20
1.0
 30
0.0
  9
$UCSORTHOREF
  2

  9
$UCSORTHOVIEW
 70
     0
  9
$UCSORGTOP
 10
0.0
 20
0.0
 30
0.0
  9
$UCSORGBOTTOM
 10
0.0
 20
0.0
 30
0.0
  9
$UCSORGLEFT
 10
0.0
 20
0.0
 30
0.0
  9
$UCSORGRIGHT
 10
0.0
 20
0.0
 30
0.0
  9
$UCSORGFRONT
 10
0.0
 20
0.0
 30
0.0
  9
$UCSORGBACK
 10
0.0
 20
0.0
 30
0.0
  9
$PUCSBASE
  2

  9
$PUCSNAME
  2

  9
$PUCSORG
 10
0.0
 20
0.0
 30
0.0
  9
$PUCSXDIR
 10
1.0
 20
0.0
 30
0.0
  9
$PUCSYDIR
 10
0.0
 20
1.0
 30
0.0
  9
$PUCSORTHOREF
  2

  9
$PUCSORTHOVIEW
 70
     0
  9
$PUCSORGTOP
 10
0.0
 20
0.0
 30
0.0
  9
$PUCSORGBOTTOM
 10
0.0
 20
0.0
 30
0.0
  9
$PUCSORGLEFT
 10
0.0
 20
0.0
 30
0.0
  9
$PUCSORGRIGHT
 10
0.0
 20
0.0
 30
0.0
  9
$PUCSORGFRONT
 10
0.0
 20
0.0
 30
0.0
  9
$PUCSORGBACK
 10
0.0
 20
0.0
 30
0.0
  9
$USERI1
 70
     0
  9
$USERI2
 70
     0
  9
$USERI3
 70
     0
  9
$USERI4
 70
     0
  9
$USERI5
 70
     0
  9
$USERR1
 40
0.0
  9
$USERR2
 40
0.0
  9
$USERR3
 40
0.0
  9
$USERR4
 40
0.0
  9
$USERR5
 40
0.0
  9
$WORLDVIEW
 70
     1
  9
$SHADEDGE
 70
     3
  9
$SHADEDIF
 70
    70
  9
$TILEMODE
 70
     1
  9
$MAXACTVP
 70
    64
  9
$PINSBASE
 10
0.0
 20
0.0
 30
0.0
  9
$PLIMCHECK
 70
     0
  9
$PEXTMIN
 10
1.000000000000000E+20
 20
1.000000000000000E+20
 30
1.000000000000000E+20
  9
$PEXTMAX
 10
-1.000000000000000E+20
 20
-1.000000000000000E+20
 30
-1.000000000000000E+20
  9
$PLIMMIN
 10
0.0
 20
0.0
  9
$PLIMMAX
 10
12.0
 20
9.0
  9
$UNITMODE
 70
     0
  9
$VISRETAIN
 70
     1
  9
$PLINEGEN
 70
     0
  9
$PSLTSCALE
 70
     1
  9
$TREEDEPTH
 70
  3020
  9
$CMLSTYLE
  2
Standard
  9
$CMLJUST
 70
     0
  9
$CMLSCALE
 40
1.0
  9
$PROXYGRAPHICS
 70
     1
  9
$MEASUREMENT
 70
     0
  9
$CELWEIGHT
370
    -1
  9
$ENDCAPS
280
     0
  9
$JOINSTYLE
280
     0
  9
$LWDISPLAY
290
     1
  9
$INSUNITS
 70
     1
  9
$HYPERLINKBASE
  1

  9
$STYLESHEET
  1

  9
$XEDIT
290
     1
  9
$CEPSNTYPE
380
     0
  9
$PSTYLEMODE
290
     1
  9
$FINGERPRINTGUID
  2
{5E4845A4-3A82-64AB-FD65-DF0C9BB56378}
  9
$VERSIONGUID
  2
{FAEB1C32-E019-11D5-929B-00C0DF256EC4}
  9
$EXTNAMES
290
     1
  9
$PSVPSCALE
 40
0.0
  9
$OLESTARTUP
290
     0
  9
$SORTENTS
280
   127
  9
$INDEXCTL
280
     0
  9
$HIDETEXT
280
     1
  9
$XCLIPFRAME
280
     2
  9
$HALOGAP
280
     0
  9
$OBSCOLOR
 70
   257
  9
$OBSLTYPE
280
     0
  9
$INTERSECTIONDISPLAY
280
     0
  9
$INTERSECTIONCOLOR
 70
   257
  9
$DIMASSOC
280
     2
  9
$PROJECTNAME
  1

  9
$CAMERADISPLAY
290
     0
  9
$LENSLENGTH
 40
50.0
  9
$CAMERAHEIGHT
 40
0.0
  9
$STEPSPERSEC
 40
2.0
  9
$STEPSIZE
 40
6.0
  9
$3DDWFPREC
 40
2.0
  9
$PSOLWIDTH
 40
0.25
  9
$PSOLHEIGHT
 40
4.0
  9
$LOFTANG1
 40
1.570796326794897
  9
$LOFTANG2
 40
1.570796326794897
  9
$LOFTMAG1
 40
0.0
  9
$LOFTMAG2
 40
0.0
  9
$LOFTPARAM
 70
     7
  9
$LOFTNORMALS
280
     1
  9
$LATITUDE
 40
37.795
  9
$LONGITUDE
 40
-122.394
  9
$NORTHDIRECTION
 40
0.0
  9
$TIMEZONE
 70
 -8000
  9
$LIGHTGLYPHDISPLAY
280
     1
  9
$TILEMODELIGHTSYNCH
280
     1
  9
$CMATERIAL
347
3C
  9
$SOLIDHIST
280
     1
  9
$SHOWHIST
280
     1
  9
$DWFFRAME
280
     2
  9
$DGNFRAME
280
     2
  9
$REALWORLDSCALE
290
     1
  9
$INTERFERECOLOR
 62
   256
  9
$CSHADOW
280
     0
  9
$SHADOWPLANELOCATION
 40
0.0
  0
ENDSEC
  0
SECTION
  2
CLASSES
  0
CLASS
  1
ACDBDICTIONARYWDFLT
  2
AcDbDictionaryWithDefault
  3
ObjectDBX Classes
 90
        0
 91
        4
280
     0
281
     0
  0
CLASS
  1
VISUALSTYLE
  2
AcDbVisualStyle
  3
ObjectDBX Classes
 90
     4095
 91
        4
280
     0
281
     0
  0
CLASS
  1
MATERIAL
  2
AcDbMaterial
  3
ObjectDBX Classes
 90
     1153
 91
        4
280
     0
281
     0
  0
CLASS
  1
SUN
  2
AcDbSun
  3
SCENEOE
 90
     1024
 91
        4
280
     0
281
     0
  0
ENDSEC
  0
SECTION
  2
TABLES
  0
TABLE
  2
VPORT
  5
8
330
0
100
AcDbSymbolTable
 70
     1
  0
VPORT
  5
29
330
8
100
AcDbSymbolTableRecord
100
AcDbViewportTableRecord
  2
*Active
 70
     0
 10
0.0
 20
0.0
 11
1.0
 21
1.0
 12
0.0
 22
0.0
 13
0.0
 23
0.0
 14
0.5
 24
0.5
 15
0.5
 25
0.5
 16
0.0
 26
0.0
 36
1.0
 17
91.00082462281999
 27
-128.4993055234307
 37
0.0
 40
256.9986110468615
 41
0.7081814508812795
 42
50.0
 43
0.0
 44
0.0
 50
0.0
 51
0.0
 71
     0
 72
   100
 73
     1
 74
     3
 75
     0
 76
     0
 77
     0
 78
     0
281
     0
 65
     1
110
0.0
120
0.0
130
0.0
111
1.0
121
0.0
131
0.0
112
0.0
122
1.0
132
0.0
 79
     0
146
0.0
 60
     3
 61
     5
292
     1
282
     1
141
0.0
142
0.0
 63
   250
361
3F
  0
ENDTAB
  0
TABLE
  2
LTYPE
  5
5
330
0
100
AcDbSymbolTable
 70
     2
  0
LTYPE
  5
14
330
5
100
AcDbSymbolTableRecord
100
AcDbLinetypeTableRecord
  2
ByBlock
 70
     0
  3

 72
    65
 73
     0
 40
0.0
  0
LTYPE
  5
15
330
5
100
AcDbSymbolTableRecord
100
AcDbLinetypeTableRecord
  2
ByLayer
 70
     0
  3

 72
    65
 73
     0
 40
0.0
  0
LTYPE
  5
16
330
5
100
AcDbSymbolTableRecord
100
AcDbLinetypeTableRecord
  2
Continuous
 70
     0
  3
Solid line
 72
    65
 73
     0
 40
0.0
  0
LTYPE
  5
CF
330
5
100
AcDbSymbolTableRecord
100
AcDbLinetypeTableRecord
  2
AI-Linetype-1
 70
     0
  3
Adobe Illustrator Linetype No. 1
 72
    65
 73
     2
 40
1.411111110758333
 49
0.7055555553791667
 74
     0
 49
-0.7055555553791667
 74
     0
  0
ENDTAB
  0
TABLE
  2
LAYER
  5
2
330
0
100
AcDbSymbolTable
 70
     2
  0
LAYER
  5
10
330
2
100
AcDbSymbolTableRecord
100
AcDbLayerTableRecord
  2
0
 70
     0
 62
     7
  6
Continuous
370
    -3
390
F
347
3E
  0
LAYER
  5
40
330
2
100
AcDbSymbolTableRecord
100
AcDbLayerTableRecord
  2
_U+30EC_U+30A4_U+30E4_U+30FC 1
 70
     0
 62
     7
  6
Continuous
370
    -3
390
F
347
3E
  0
ENDTAB
  0
TABLE
  2
STYLE
  5
3
330
0
100
AcDbSymbolTable
 70
     1
  0
STYLE
  5
11
330
3
100
AcDbSymbolTableRecord
100
AcDbTextStyleTableRecord
  2
Standard
 70
     0
 40
0.0
 41
1.0
 50
0.0
 71
     0
 42
0.2
  3
txt
  4

  0
ENDTAB
  0
TABLE
  2
VIEW
  5
6
330
0
100
AcDbSymbolTable
 70
     0
  0
ENDTAB
  0
TABLE
  2
UCS
  5
7
330
0
100
AcDbSymbolTable
 70
     0
  0
ENDTAB
  0
TABLE
  2
APPID
  5
9
330
0
100
AcDbSymbolTable
 70
     1
  0
APPID
  5
12
330
9
100
AcDbSymbolTableRecord
100
AcDbRegAppTableRecord
  2
ACAD
 70
     0
  0
ENDTAB
  0
TABLE
  2
DIMSTYLE
  5
A
330
0
100
AcDbSymbolTable
 70
     1
100
AcDbDimStyleTable
  0
DIMSTYLE
105
27
330
A
100
AcDbSymbolTableRecord
100
AcDbDimStyleTableRecord
  2
Standard
 70
     0
178
     0
340
11
  0
ENDTAB
  0
TABLE
  2
BLOCK_RECORD
  5
1
330
0
100
AcDbSymbolTable
 70
     7
  0
BLOCK_RECORD
  5
1F
330
1
100
AcDbSymbolTableRecord
100
AcDbBlockTableRecord
  2
*Model_Space
340
22
 70
     0
280
     1
281
     0
  0
BLOCK_RECORD
  5
1B
330
1
100
AcDbSymbolTableRecord
100
AcDbBlockTableRecord
  2
*Paper_Space
340
1E
 70
     0
280
     1
281
     0
  0
BLOCK_RECORD
  5
23
330
1
100
AcDbSymbolTableRecord
100
AcDbBlockTableRecord
  2
*Paper_Space0
340
26
 70
     0
280
     1
281
     0
  0
BLOCK_RECORD
  5
5E
330
1
100
AcDbSymbolTableRecord
100
AcDbBlockTableRecord
  2
block 2
340
0
102
{BLKREFS
331
5F
102
}
 70
     0
280
     1
281
     0
  0
BLOCK_RECORD
  5
70
330
1
100
AcDbSymbolTableRecord
100
AcDbBlockTableRecord
  2
block 3
340
0
102
{BLKREFS
331
71
102
}
 70
     0
280
     1
281
     0
  0
BLOCK_RECORD
  5
84
330
1
100
AcDbSymbolTableRecord
100
AcDbBlockTableRecord
  2
block 4
340
0
102
{BLKREFS
331
85
102
}
 70
     0
280
     1
281
     0
  0
BLOCK_RECORD
  5
AD
330
1
100
AcDbSymbolTableRecord
100
AcDbBlockTableRecord
  2
block 5
340
0
102
{BLKREFS
331
AE
102
}
 70
     0
280
     1
281
     0
  0
BLOCK_RECORD
  5
DD
330
1
100
AcDbSymbolTableRecord
100
AcDbBlockTableRecord
  2
block 6
340
0
102
{BLKREFS
331
DE
102
}
 70
     0
280
     1
281
     0
  0
BLOCK_RECORD
  5
105
330
1
100
AcDbSymbolTableRecord
100
AcDbBlockTableRecord
  2
block 7
340
0
102
{BLKREFS
331
106
102
}
 70
     0
280
     1
281
     0
  0
ENDTAB
  0
ENDSEC
  0
SECTION
  2
BLOCKS
  0
BLOCK
  5
20
330
1F
100
AcDbEntity
  8
0
100
AcDbBlockBegin
  2
*Model_Space
 70
     0
 10
0.0
 20
0.0
 30
0.0
  3
*Model_Space
  1

  0
ENDBLK
  5
21
330
1F
100
AcDbEntity
  8
0
100
AcDbBlockEnd
  0
BLOCK
  5
1C
330
1B
100
AcDbEntity
 67
     1
  8
0
100
AcDbBlockBegin
  2
*Paper_Space
 70
     0
 10
0.0
 20
0.0
 30
0.0
  3
*Paper_Space
  1

  0
ENDBLK
  5
1D
330
1B
100
AcDbEntity
 67
     1
  8
0
100
AcDbBlockEnd
  0
BLOCK
  5
24
330
23
100
AcDbEntity
  8
0
100
AcDbBlockBegin
  2
*Paper_Space0
 70
     0
 10
0.0
 20
0.0
 30
0.0
  3
*Paper_Space0
  1

  0
ENDBLK
  5
25
330
23
100
AcDbEntity
  8
0
100
AcDbBlockEnd
  0
BLOCK
  5
60
330
5E
100
AcDbEntity
  8
0
100
AcDbBlockBegin
  2
block 2
 70
     0
 10
0.0
 20
0.0
 30
0.0
  3
block 2
  1

  0
SPLINE
  5
62
330
5E
100
AcDbEntity
  8
_U+30EC_U+30A4_U+30E4_U+30FC 1
370
     0
100
AcDbSpline
210
0.0
220
0.0
230
1.0
 70
    11
 71
     3
 72
    44
 73
    40
 74
     0
 42
0.0000000001
 43
0.0000000001
 12
1.0
 22
0.0
 32
0.0
 13
1.0
 23
0.0
 33
0.0
 40
0.0
 40
0.0
 40
0.0
 40
0.0
 40
1.0
 40
1.0
 40
1.0
 40
2.0
 40
2.0
 40
2.0
 40
3.0
 40
3.0
 40
3.0
 40
4.0
 40
4.0
 40
4.0
 40
5.0
 40
5.0
 40
5.0
 40
6.0
 40
6.0
 40
6.0
 40
7.0
 40
7.0
 40
7.0
 40
8.0
 40
8.0
 40
8.0
 40
9.0
 40
9.0
 40
9.0
 40
10.0
 40
10.0
 40
10.0
 40
11.0
 40
11.0
 40
11.0
 40
12.0
 40
12.0
 40
12.0
 40
13.0
 40
13.0
 40
13.0
 40
13.0
 10
103.8306993012993
 20
-134.0252386817715
 30
0.0
 10
103.9895182031693
 20
-134.2429687164393
 30
0.0
 10
104.0635877561022
 20
-134.335986294541
 30
0.0
 10
104.2072482378371
 20
-134.3849066504316
 30
0.0
 10
104.2072482378371
 20
-134.3849066504316
 30
0.0
 10
104.2072482378371
 20
-133.6063150707651
 30
0.0
 10
104.2072482378371
 20
-133.6063150707651
 30
0.0
 10
104.2072482378371
 20
-133.6063150707651
 30
0.0
 10
104.412575928758
 20
-133.6063150707651
 30
0.0
 10
104.412575928758
 20
-133.6063150707651
 30
0.0
 10
104.412575928758
 20
-133.6063150707651
 30
0.0
 10
104.412575928758
 20
-134.6343315635636
 30
0.0
 10
104.412575928758
 20
-134.6343315635636
 30
0.0
 10
104.054975017389
 20
-134.6026366850994
 30
0.0
 10
103.9767713498739
 20
-134.5371798708796
 30
0.0
 10
103.6784260808512
 20
-134.1520181956287
 30
0.0
 10
103.4796440713523
 20
-133.8960476010746
 30
0.0
 10
103.4117756902929
 20
-133.8305907868549
 30
0.0
 10
103.2743163804314
 20
-133.8305907868549
 30
0.0
 10
103.1558050957388
 20
-133.8305907868549
 30
0.0
 10
103.0248914672993
 20
-133.9025932824966
 30
0.0
 10
103.0248914672993
 20
-134.0993082347044
 30
0.0
 10
103.0248914672993
 20
-134.3594129438407
 30
0.0
 10
103.2553683552625
 20
-134.3676811730053
 30
0.0
 10
103.371812582664
 20
-134.3721597971361
 30
0.0
 10
103.371812582664
 20
-134.3721597971361
 30
0.0
 10
103.371812582664
 20
-134.5964355132259
 30
0.0
 10
103.371812582664
 20
-134.5964355132259
 30
0.0
 10
103.2446885592583
 20
-134.5878227745128
 30
0.0
 10
103.1327229559877
 20
-134.5771429785085
 30
0.0
 10
103.0142116712951
 20
-134.4968722537022
 30
0.0
 10
102.8533257121339
 20
-134.3869737077227
 30
0.0
 10
102.8195637763784
 20
-134.2005940419707
 30
0.0
 10
102.8195637763784
 20
-134.0844943241178
 30
0.0
 10
102.8195637763784
 20
-133.8071641375552
 30
0.0
 10
103.0035318752908
 20
-133.5997693893431
 30
0.0
 10
103.2763834377226
 20
-133.5997693893431
 30
0.0
 10
103.5051377779432
 20
-133.5997693893431
 30
0.0
 10
103.6043565279184
 20
-133.7162136167446
 30
0.0
 10
103.8306993012993
 20
-134.0252386817715
 30
0.0
  0
HATCH
  5
63
330
5E
100
AcDbEntity
  8
_U+30EC_U+30A4_U+30E4_U+30FC 1
 62
   179
420
  2234388
100
AcDbHatch
 10
0.0
 20
0.0
 30
0.0
210
0.0
220
0.0
230
1.0
  2
SOLID
 70
     1
 71
     0
 91
        1
 92
        1
 93
        1
 72
     4
 94
        3
 73
     0
 74
     1
 95
       44
 96
       40
 40
0.0
 40
0.0
 40
0.0
 40
0.0
 40
1.0
 40
1.0
 40
1.0
 40
2.0
 40
2.0
 40
2.0
 40
3.0
 40
3.0
 40
3.0
 40
4.0
 40
4.0
 40
4.0
 40
5.0
 40
5.0
 40
5.0
 40
6.0
 40
6.0
 40
6.0
 40
7.0
 40
7.0
 40
7.0
 40
8.0
 40
8.0
 40
8.0
 40
9.0
 40
9.0
 40
9.0
 40
10.0
 40
10.0
 40
10.0
 40
11.0
 40
11.0
 40
11.0
 40
12.0
 40
12.0
 40
12.0
 40
13.0
 40
13.0
 40
13.0
 40
13.0
 10
103.8306993012993
 20
-134.0252386817715
 10
103.9895182031693
 20
-134.2429687164393
 10
104.0635877561022
 20
-134.335986294541
 10
104.2072482378371
 20
-134.3849066504316
 10
104.2072482378371
 20
-134.3849066504316
 10
104.2072482378371
 20
-133.6063150707651
 10
104.2072482378371
 20
-133.6063150707651
 10
104.2072482378371
 20
-133.6063150707651
 10
104.412575928758
 20
-133.6063150707651
 10
104.412575928758
 20
-133.6063150707651
 10
104.412575928758
 20
-133.6063150707651
 10
104.412575928758
 20
-134.6343315635636
 10
104.412575928758
 20
-134.6343315635636
 10
104.054975017389
 20
-134.6026366850994
 10
103.9767713498739
 20
-134.5371798708796
 10
103.6784260808512
 20
-134.1520181956287
 10
103.4796440713523
 20
-133.8960476010746
 10
103.4117756902929
 20
-133.8305907868549
 10
103.2743163804314
 20
-133.8305907868549
 10
103.1558050957388
 20
-133.8305907868549
 10
103.0248914672993
 20
-133.9025932824966
 10
103.0248914672993
 20
-134.0993082347044
 10
103.0248914672993
 20
-134.3594129438407
 10
103.2553683552625
 20
-134.3676811730053
 10
103.371812582664
 20
-134.3721597971361
 10
103.371812582664
 20
-134.3721597971361
 10
103.371812582664
 20
-134.5964355132259
 10
103.371812582664
 20
-134.5964355132259
 10
103.2446885592583
 20
-134.5878227745128
 10
103.1327229559877
 20
-134.5771429785085
 10
103.0142116712951
 20
-134.4968722537022
 10
102.8533257121339
 20
-134.3869737077227
 10
102.8195637763784
 20
-134.2005940419707
 10
102.8195637763784
 20
-134.0844943241178
 10
102.8195637763784
 20
-133.8071641375552
 10
103.0035318752908
 20
-133.5997693893431
 10
103.2763834377226
 20
-133.5997693893431
 10
103.5051377779432
 20
-133.5997693893431
 10
103.6043565279184
 20
-133.7162136167446
 10
103.8306993012993
 20
-134.0252386817715
 97
        0
 97
        0
 75
     2
 76
     1
 98
        0
  0
ENDBLK
  5
61
330
5E
100
AcDbEntity
  8
0
100
AcDbBlockEnd
  0
BLOCK
  5
72
330
70
100
AcDbEntity
  8
0
100
AcDbBlockBegin
  2
block 3
 70
     0
 10
0.0
 20
0.0
 30
0.0
  3
block 3
  1

  0
SPLINE
  5
74
330
70
100
AcDbEntity
  8
_U+30EC_U+30A4_U+30E4_U+30FC 1
370
     0
100
AcDbSpline
210
0.0
220
0.0
230
1.0
 70
    11
 71
     3
 72
    26
 73
    22
 74
     0
 42
0.0000000001
 43
0.0000000001
 12
1.0
 22
0.0
 32
0.0
 13
1.0
 23
0.0
 33
0.0
 40
0.0
 40
0.0
 40
0.0
 40
0.0
 40
1.0
 40
1.0
 40
1.0
 40
2.0
 40
2.0
 40
2.0
 40
3.0
 40
3.0
 40
3.0
 40
4.0
 40
4.0
 40
4.0
 40
5.0
 40
5.0
 40
5.0
 40
6.0
 40
6.0
 40
6.0
 40
7.0
 40
7.0
 40
7.0
 40
7.0
 10
93.62632647398925
 20
-120.4649983422796
 30
0.0
 10
93.62632647398925
 20
-120.4649983422796
 30
0.0
 10
93.62632647398925
 20
-119.3606729844827
 30
0.0
 10
93.62632647398925
 20
-119.3606729844827
 30
0.0
 10
93.62632647398925
 20
-119.3606729844827
 30
0.0
 10
93.29628632650233
 20
-119.3606729844827
 30
0.0
 10
93.29628632650233
 20
-119.3606729844827
 30
0.0
 10
93.29628632650233
 20
-119.3606729844827
 30
0.0
 10
93.29628632650233
 20
-119.2127061333913
 30
0.0
 10
93.29628632650233
 20
-119.2127061333913
 30
0.0
 10
93.62839353128041
 20
-119.1978922228047
 30
0.0
 10
93.67490232033128
 20
-119.0349392063524
 30
0.0
 10
93.70453014150442
 20
-118.9207342910163
 30
0.0
 10
93.70453014150442
 20
-118.9207342910163
 30
0.0
 10
93.85060219007902
 20
-118.9207342910163
 30
0.0
 10
93.85060219007902
 20
-118.9207342910163
 30
0.0
 10
93.85060219007902
 20
-118.9207342910163
 30
0.0
 10
93.85060219007902
 20
-120.4649983422796
 30
0.0
 10
93.85060219007902
 20
-120.4649983422796
 30
0.0
 10
93.85060219007902
 20
-120.4649983422796
 30
0.0
 10
93.62632647398925
 20
-120.4649983422796
 30
0.0
 10
93.62632647398925
 20
-120.4649983422796
 30
0.0
  0
HATCH
  5
75
330
70
100
AcDbEntity
  8
_U+30EC_U+30A4_U+30E4_U+30FC 1
 62
   179
420
  2234388
100
AcDbHatch
 10
0.0
 20
0.0
 30
0.0
210
0.0
220
0.0
230
1.0
  2
SOLID
 70
     1
 71
     0
 91
        1
 92
        1
 93
        1
 72
     4
 94
        3
 73
     0
 74
     1
 95
       26
 96
       22
 40
0.0
 40
0.0
 40
0.0
 40
0.0
 40
1.0
 40
1.0
 40
1.0
 40
2.0
 40
2.0
 40
2.0
 40
3.0
 40
3.0
 40
3.0
 40
4.0
 40
4.0
 40
4.0
 40
5.0
 40
5.0
 40
5.0
 40
6.0
 40
6.0
 40
6.0
 40
7.0
 40
7.0
 40
7.0
 40
7.0
 10
93.62632647398925
 20
-120.4649983422796
 10
93.62632647398925
 20
-120.4649983422796
 10
93.62632647398925
 20
-119.3606729844827
 10
93.62632647398925
 20
-119.3606729844827
 10
93.62632647398925
 20
-119.3606729844827
 10
93.29628632650233
 20
-119.3606729844827
 10
93.29628632650233
 20
-119.3606729844827
 10
93.29628632650233
 20
-119.3606729844827
 10
93.29628632650233
 20
-119.2127061333913
 10
93.29628632650233
 20
-119.2127061333913
 10
93.62839353128041
 20
-119.1978922228047
 10
93.67490232033128
 20
-119.0349392063524
 10
93.70453014150442
 20
-118.9207342910163
 10
93.70453014150442
 20
-118.9207342910163
 10
93.85060219007902
 20
-118.9207342910163
 10
93.85060219007902
 20
-118.9207342910163
 10
93.85060219007902
 20
-118.9207342910163
 10
93.85060219007902
 20
-120.4649983422796
 10
93.85060219007902
 20
-120.4649983422796
 10
93.85060219007902
 20
-120.4649983422796
 10
93.62632647398925
 20
-120.4649983422796
 10
93.62632647398925
 20
-120.4649983422796
 97
        0
 97
        0
 75
     2
 76
     1
 98
        0
  0
SPLINE
  5
76
330
70
100
AcDbEntity
  8
_U+30EC_U+30A4_U+30E4_U+30FC 1
370
     0
100
AcDbSpline
210
0.0
220
0.0
230
1.0
 70
    11
 71
     3
 72
    53
 73
    49
 74
     0
 42
0.0000000001
 43
0.0000000001
 12
1.0
 22
0.0
 32
0.0
 13
1.0
 23
0.0
 33
0.0
 40
0.0
 40
0.0
 40
0.0
 40
0.0
 40
1.0
 40
1.0
 40
1.0
 40
2.0
 40
2.0
 40
2.0
 40
3.0
 40
3.0
 40
3.0
 40
4.0
 40
4.0
 40
4.0
 40
5.0
 40
5.0
 40
5.0
 40
6.0
 40
6.0
 40
6.0
 40
7.0
 40
7.0
 40
7.0
 40
8.0
 40
8.0
 40
8.0
 40
9.0
 40
9.0
 40
9.0
 40
10.0
 40
10.0
 40
10.0
 40
11.0
 40
11.0
 40
11.0
 40
12.0
 40
12.0
 40
12.0
 40
13.0
 40
13.0
 40
13.0
 40
14.0
 40
14.0
 40
14.0
 40
15.0
 40
15.0
 40
15.0
 40
16.0
 40
16.0
 40
16.0
 40
16.0
 10
94.83279891292375
 20
-120.515813500687
 30
0.0
 10
94.75459524540858
 20
-120.515813500687
 30
0.0
 10
94.6529649285937
 20
-120.498760278035
 30
0.0
 10
94.55133461177884
 20
-120.4353705211064
 30
0.0
 10
94.37804630887076
 20
-120.3252997203527
 30
0.0
 10
94.35668671686223
 20
-120.1942138371389
 30
0.0
 10
94.33773869169335
 20
-120.0863823484506
 30
0.0
 10
94.33773869169335
 20
-120.0863823484506
 30
0.0
 10
94.55994735049197
 20
-120.0863823484506
 30
0.0
 10
94.55994735049197
 20
-120.0863823484506
 30
0.0
 10
94.61506887825595
 20
-120.2851643579496
 30
0.0
 10
94.74184839211316
 20
-120.3147921791227
 30
0.0
 10
94.83486597021489
 20
-120.3147921791227
 30
0.0
 10
94.97473684691604
 20
-120.3147921791227
 30
0.0
 10
95.12701006736408
 20
-120.2154011743732
 30
0.0
 10
95.12701006736408
 20
-119.9826849743446
 30
0.0
 10
95.12701006736408
 20
-119.7267143797906
 30
0.0
 10
94.94717608303404
 20
-119.6569511962142
 30
0.0
 10
94.82659774105029
 20
-119.6569511962142
 30
0.0
 10
94.794902862586
 20
-119.6569511962142
 30
0.0
 10
94.6529649285937
 20
-119.6569511962142
 30
0.0
 10
94.56408146507427
 20
-119.7859700221369
 30
0.0
 10
94.56408146507427
 20
-119.7859700221369
 30
0.0
 10
94.38872610487505
 20
-119.7668497421937
 30
0.0
 10
94.38872610487505
 20
-119.7668497421937
 30
0.0
 10
94.38872610487505
 20
-119.7668497421937
 30
0.0
 10
94.50930444685879
 20
-118.9207342910163
 30
0.0
 10
94.50930444685879
 20
-118.9207342910163
 30
0.0
 10
94.50930444685879
 20
-118.9207342910163
 30
0.0
 10
95.28755151697673
 20
-118.9207342910163
 30
0.0
 10
95.28755151697673
 20
-118.9207342910163
 30
0.0
 10
95.28755151697673
 20
-118.9207342910163
 30
0.0
 10
95.28755151697673
 20
-119.115382185933
 30
0.0
 10
95.28755151697673
 20
-119.115382185933
 30
0.0
 10
95.28755151697673
 20
-119.115382185933
 30
0.0
 10
94.67191295376259
 20
-119.115382185933
 30
0.0
 10
94.67191295376259
 20
-119.115382185933
 30
0.0
 10
94.67191295376259
 20
-119.115382185933
 30
0.0
 10
94.60645613954283
 20
-119.5384399115216
 30
0.0
 10
94.60645613954283
 20
-119.5384399115216
 30
0.0
 10
94.66777883918029
 20
-119.5045057209919
 30
0.0
 10
94.75046113082628
 20
-119.4643703585888
 30
0.0
 10
94.86862790597034
 20
-119.4643703585888
 30
0.0
 10
95.12253144323326
 20
-119.4643703585888
 30
0.0
 10
95.35955401261845
 20
-119.6505777695665
 30
0.0
 10
95.35955401261845
 20
-119.9635646944015
 30
0.0
 10
95.35955401261845
 20
-120.2810302433673
 30
0.0
 10
95.13527829652868
 20
-120.515813500687
 30
0.0
 10
94.83279891292375
 20
-120.515813500687
 30
0.0
  0
HATCH
  5
77
330
70
100
AcDbEntity
  8
_U+30EC_U+30A4_U+30E4_U+30FC 1
 62
   179
420
  2234388
100
AcDbHatch
 10
0.0
 20
0.0
 30
0.0
210
0.0
220
0.0
230
1.0
  2
SOLID
 70
     1
 71
     0
 91
        1
 92
        1
 93
        1
 72
     4
 94
        3
 73
     0
 74
     1
 95
       53
 96
       49
 40
0.0
 40
0.0
 40
0.0
 40
0.0
 40
1.0
 40
1.0
 40
1.0
 40
2.0
 40
2.0
 40
2.0
 40
3.0
 40
3.0
 40
3.0
 40
4.0
 40
4.0
 40
4.0
 40
5.0
 40
5.0
 40
5.0
 40
6.0
 40
6.0
 40
6.0
 40
7.0
 40
7.0
 40
7.0
 40
8.0
 40
8.0
 40
8.0
 40
9.0
 40
9.0
 40
9.0
 40
10.0
 40
10.0
 40
10.0
 40
11.0
 40
11.0
 40
11.0
 40
12.0
 40
12.0
 40
12.0
 40
13.0
 40
13.0
 40
13.0
 40
14.0
 40
14.0
 40
14.0
 40
15.0
 40
15.0
 40
15.0
 40
16.0
 40
16.0
 40
16.0
 40
16.0
 10
94.83279891292375
 20
-120.515813500687
 10
94.75459524540858
 20
-120.515813500687
 10
94.6529649285937
 20
-120.498760278035
 10
94.55133461177884
 20
-120.4353705211064
 10
94.37804630887076
 20
-120.3252997203527
 10
94.35668671686223
 20
-120.1942138371389
 10
94.33773869169335
 20
-120.0863823484506
 10
94.33773869169335
 20
-120.0863823484506
 10
94.55994735049197
 20
-120.0863823484506
 10
94.55994735049197
 20
-120.0863823484506
 10
94.61506887825595
 20
-120.2851643579496
 10
94.74184839211316
 20
-120.3147921791227
 10
94.83486597021489
 20
-120.3147921791227
 10
94.97473684691604
 20
-120.3147921791227
 10
95.12701006736408
 20
-120.2154011743732
 10
95.12701006736408
 20
-119.9826849743446
 10
95.12701006736408
 20
-119.7267143797906
 10
94.94717608303404
 20
-119.6569511962142
 10
94.82659774105029
 20
-119.6569511962142
 10
94.794902862586
 20
-119.6569511962142
 10
94.6529649285937
 20
-119.6569511962142
 10
94.56408146507427
 20
-119.7859700221369
 10
94.56408146507427
 20
-119.7859700221369
 10
94.38872610487505
 20
-119.7668497421937
 10
94.38872610487505
 20
-119.7668497421937
 10
94.38872610487505
 20
-119.7668497421937
 10
94.50930444685879
 20
-118.9207342910163
 10
94.50930444685879
 20
-118.9207342910163
 10
94.50930444685879
 20
-118.9207342910163
 10
95.28755151697673
 20
-118.9207342910163
 10
95.28755151697673
 20
-118.9207342910163
 10
95.28755151697673
 20
-118.9207342910163
 10
95.28755151697673
 20
-119.115382185933
 10
95.28755151697673
 20
-119.115382185933
 10
95.28755151697673
 20
-119.115382185933
 10
94.67191295376259
 20
-119.115382185933
 10
94.67191295376259
 20
-119.115382185933
 10
94.67191295376259
 20
-119.115382185933
 10
94.60645613954283
 20
-119.5384399115216
 10
94.60645613954283
 20
-119.5384399115216
 10
94.66777883918029
 20
-119.5045057209919
 10
94.75046113082628
 20
-119.4643703585888
 10
94.86862790597034
 20
-119.4643703585888
 10
95.12253144323326
 20
-119.4643703585888
 10
95.35955401261845
 20
-119.6505777695665
 10
95.35955401261845
 20
-119.9635646944015
 10
95.35955401261845
 20
-120.2810302433673
 10
95.13527829652868
 20
-120.515813500687
 10
94.83279891292375
 20
-120.515813500687
 97
        0
 97
        0
 75
     2
 76
     1
 98
        0
  0
ENDBLK
  5
73
330
70
100
AcDbEntity
  8
0
100
AcDbBlockEnd
  0
BLOCK
  5
86
330
84
100
AcDbEntity
  8
0
100
AcDbBlockBegin
  2
block 4
 70
     0
 10
0.0
 20
0.0
 30
0.0
  3
block 4
  1

  0
POLYLINE
  5
88
330
84
100
AcDbEntity
  8
_U+30EC_U+30A4_U+30E4_U+30FC 1
370
     0
100
AcDb2dPolyline
 66
     1
 10
0.0
 20
0.0
 30
0.0
  0
VERTEX
  5
89
330
88
100
AcDbEntity
  8
_U+30EC_U+30A4_U+30E4_U+30FC 1
370
     0
100
AcDbVertex
100
AcDb2dVertex
 10
89.09533689178868
 20
-137.418313225194
 30
0.0
  0
VERTEX
  5
8A
330
88
100
AcDbEntity
  8
_U+30EC_U+30A4_U+30E4_U+30FC 1
370
     0
100
AcDbVertex
100
AcDb2dVertex
 10
89.09533689178868
 20
-137.7652343405587
 30
0.0
  0
VERTEX
  5
8B
330
88
100
AcDbEntity
  8
_U+30EC_U+30A4_U+30E4_U+30FC 1
370
     0
100
AcDbVertex
100
AcDb2dVertex
 10
88.87743460234661
 20
-137.7652343405587
 30
0.0
  0
VERTEX
  5
8C
330
88
100
AcDbEntity
  8
_U+30EC_U+30A4_U+30E4_U+30FC 1
370
     0
100
AcDbVertex
100
AcDb2dVertex
 10
88.87743460234661
 20
-137.418313225194
 30
0.0
  0
VERTEX
  5
8D
330
88
100
AcDbEntity
  8
_U+30EC_U+30A4_U+30E4_U+30FC 1
370
     0
100
AcDbVertex
100
AcDb2dVertex
 10
88.22166067672931
 20
-137.418313225194
 30
0.0
  0
VERTEX
  5
8E
330
88
100
AcDbEntity
  8
_U+30EC_U+30A4_U+30E4_U+30FC 1
370
     0
100
AcDbVertex
100
AcDb2dVertex
 10
88.22166067672931
 20
-137.1940375091043
 30
0.0
  0
VERTEX
  5
8F
330
88
100
AcDbEntity
  8
_U+30EC_U+30A4_U+30E4_U+30FC 1
370
     0
100
AcDbVertex
100
AcDb2dVertex
 10
88.90068899687205
 20
-136.2207980345212
 30
0.0
  0
VERTEX
  5
90
330
88
100
AcDbEntity
  8
_U+30EC_U+30A4_U+30E4_U+30FC 1
370
     0
100
AcDbVertex
100
AcDb2dVertex
 10
89.09533689178868
 20
-136.2207980345212
 30
0.0
  0
VERTEX
  5
91
330
88
100
AcDbEntity
  8
_U+30EC_U+30A4_U+30E4_U+30FC 1
370
     0
100
AcDbVertex
100
AcDb2dVertex
 10
89.09533689178868
 20
-137.2195312156951
 30
0.0
  0
VERTEX
  5
92
330
88
100
AcDbEntity
  8
_U+30EC_U+30A4_U+30E4_U+30FC 1
370
     0
100
AcDbVertex
100
AcDb2dVertex
 10
89.30273164000072
 20
-137.2195312156951
 30
0.0
  0
VERTEX
  5
93
330
88
100
AcDbEntity
  8
_U+30EC_U+30A4_U+30E4_U+30FC 1
370
     0
100
AcDbVertex
100
AcDb2dVertex
 10
89.30273164000072
 20
-137.418313225194
 30
0.0
  0
VERTEX
  5
94
330
88
100
AcDbEntity
  8
_U+30EC_U+30A4_U+30E4_U+30FC 1
370
     0
100
AcDbVertex
100
AcDb2dVertex
 10
89.09533689178868
 20
-137.418313225194
 30
0.0
  0
SEQEND
  5
95
330
88
100
AcDbEntity
  8
_U+30EC_U+30A4_U+30E4_U+30FC 1
370
     0
  0
POLYLINE
  5
96
330
84
100
AcDbEntity
  8
_U+30EC_U+30A4_U+30E4_U+30FC 1
370
     0
100
AcDb2dPolyline
 66
     1
 10
0.0
 20
0.0
 30
0.0
  0
VERTEX
  5
97
330
96
100
AcDbEntity
  8
_U+30EC_U+30A4_U+30E4_U+30FC 1
370
     0
100
AcDbVertex
100
AcDb2dVertex
 10
88.87743460234661
 20
-136.5635850353036
 30
0.0
  0
VERTEX
  5
98
330
96
100
AcDbEntity
  8
_U+30EC_U+30A4_U+30E4_U+30FC 1
370
     0
100
AcDbVertex
100
AcDb2dVertex
 10
88.42061494100248
 20
-137.2195312156951
 30
0.0
  0
VERTEX
  5
99
330
96
100
AcDbEntity
  8
_U+30EC_U+30A4_U+30E4_U+30FC 1
370
     0
100
AcDbVertex
100
AcDb2dVertex
 10
88.87743460234661
 20
-137.2195312156951
 30
0.0
  0
VERTEX
  5
9A
330
96
100
AcDbEntity
  8
_U+30EC_U+30A4_U+30E4_U+30FC 1
370
     0
100
AcDbVertex
100
AcDb2dVertex
 10
88.87743460234661
 20
-136.5635850353036
 30
0.0
  0
SEQEND
  5
9B
330
96
100
AcDbEntity
  8
_U+30EC_U+30A4_U+30E4_U+30FC 1
370
     0
  0
HATCH
  5
9C
330
84
100
AcDbEntity
  8
_U+30EC_U+30A4_U+30E4_U+30FC 1
 62
   179
420
  2234388
100
AcDbHatch
 10
0.0
 20
0.0
 30
0.0
210
0.0
220
0.0
230
1.0
  2
SOLID
 70
     1
 71
     0
 91
        2
 92
        1
 93
       11
 72
     1
 10
89.09533689178868
 20
-137.418313225194
 11
89.09533689178868
 21
-137.7652343405587
 72
     1
 10
89.09533689178868
 20
-137.7652343405587
 11
88.87743460234661
 21
-137.7652343405587
 72
     1
 10
88.87743460234661
 20
-137.7652343405587
 11
88.87743460234661
 21
-137.418313225194
 72
     1
 10
88.87743460234661
 20
-137.418313225194
 11
88.22166067672931
 21
-137.418313225194
 72
     1
 10
88.22166067672931
 20
-137.418313225194
 11
88.22166067672931
 21
-137.1940375091043
 72
     1
 10
88.22166067672931
 20
-137.1940375091043
 11
88.90068899687205
 21
-136.2207980345212
 72
     1
 10
88.90068899687205
 20
-136.2207980345212
 11
89.09533689178868
 21
-136.2207980345212
 72
     1
 10
89.09533689178868
 20
-136.2207980345212
 11
89.09533689178868
 21
-137.2195312156951
 72
     1
 10
89.09533689178868
 20
-137.2195312156951
 11
89.30273164000072
 21
-137.2195312156951
 72
     1
 10
89.30273164000072
 20
-137.2195312156951
 11
89.30273164000072
 21
-137.418313225194
 72
     1
 10
89.30273164000072
 20
-137.418313225194
 11
89.09533689178868
 21
-137.418313225194
 97
        0
 92
        1
 93
        3
 72
     1
 10
88.87743460234661
 20
-136.5635850353036
 11
88.42061494100248
 21
-137.2195312156951
 72
     1
 10
88.42061494100248
 20
-137.2195312156951
 11
88.87743460234661
 21
-137.2195312156951
 72
     1
 10
88.87743460234661
 20
-137.2195312156951
 11
88.87743460234661
 21
-136.5635850353036
 97
        0
 75
     2
 76
     1
 98
        0
  0
ENDBLK
  5
87
330
84
100
AcDbEntity
  8
0
100
AcDbBlockEnd
  0
BLOCK
  5
AF
330
AD
100
AcDbEntity
  8
0
100
AcDbBlockBegin
  2
block 5
 70
     0
 10
0.0
 20
0.0
 30
0.0
  3
block 5
  1

  0
SPLINE
  5
B1
330
AD
100
AcDbEntity
  8
_U+30EC_U+30A4_U+30E4_U+30FC 1
370
     0
100
AcDbSpline
210
0.0
220
0.0
230
1.0
 70
    11
 71
     3
 72
    29
 73
    25
 74
     0
 42
0.0000000001
 43
0.0000000001
 12
1.0
 22
0.0
 32
0.0
 13
1.0
 23
0.0
 33
0.0
 40
0.0
 40
0.0
 40
0.0
 40
0.0
 40
1.0
 40
1.0
 40
1.0
 40
2.0
 40
2.0
 40
2.0
 40
3.0
 40
3.0
 40
3.0
 40
4.0
 40
4.0
 40
4.0
 40
5.0
 40
5.0
 40
5.0
 40
6.0
 40
6.0
 40
6.0
 40
7.0
 40
7.0
 40
7.0
 40
8.0
 40
8.0
 40
8.0
 40
8.0
 10
104.2348090017191
 20
-123.2834309587625
 30
0.0
 10
104.4442708072223
 20
-123.3916069569993
 30
0.0
 10
104.4632188323911
 20
-123.5648952599074
 30
0.0
 10
104.4632188323911
 20
-123.6813394873088
 30
0.0
 10
104.4632188323911
 20
-123.84222544647
 30
0.0
 10
104.4167100433403
 20
-123.9838188709138
 30
0.0
 10
104.2348090017191
 20
-124.0789035063067
 30
0.0
 10
104.0401611068025
 20
-124.1826008804127
 30
0.0
 10
103.8031385374173
 20
-124.2018934151301
 30
0.0
 10
103.6405300305135
 20
-124.2018934151301
 30
0.0
 10
103.49652503923
 20
-124.2018934151301
 30
0.0
 10
103.2446885592583
 20
-124.1846679377038
 30
0.0
 10
103.0459065497594
 20
-124.0789035063067
 30
0.0
 10
102.8429904256782
 20
-123.9710720176184
 30
0.0
 10
102.8195637763784
 20
-123.8101860584572
 30
0.0
 10
102.8195637763784
 20
-123.6813394873088
 30
0.0
 10
102.8195637763784
 20
-123.5225205854388
 30
0.0
 10
102.8640055081382
 20
-123.3788601037039
 30
0.0
 10
103.0459065497594
 20
-123.2834309587625
 30
0.0
 10
103.2384873873848
 20
-123.1842122087873
 30
0.0
 10
103.4668972180569
 20
-123.1607855594876
 30
0.0
 10
103.6405300305135
 20
-123.1607855594876
 30
0.0
 10
103.8117512761304
 20
-123.1607855594876
 30
0.0
 10
104.0422281640936
 20
-123.1821451514961
 30
0.0
 10
104.2348090017191
 20
-123.2834309587625
 30
0.0
  0
SPLINE
  5
B2
330
AD
100
AcDbEntity
  8
_U+30EC_U+30A4_U+30E4_U+30FC 1
370
     0
100
AcDbSpline
210
0.0
220
0.0
230
1.0
 70
    11
 71
     3
 72
    17
 73
    13
 74
     0
 42
0.0000000001
 43
0.0000000001
 12
1.0
 22
0.0
 32
0.0
 13
1.0
 23
0.0
 33
0.0
 40
0.0
 40
0.0
 40
0.0
 40
0.0
 40
1.0
 40
1.0
 40
1.0
 40
2.0
 40
2.0
 40
2.0
 40
3.0
 40
3.0
 40
3.0
 40
4.0
 40
4.0
 40
4.0
 40
4.0
 10
103.0121446140039
 20
-123.6813394873088
 30
0.0
 10
103.0121446140039
 20
-123.9311089099894
 30
0.0
 10
103.29567597244
 20
-123.9776176990403
 30
0.0
 10
103.6405300305135
 20
-123.9776176990403
 30
0.0
 10
103.9598903819961
 20
-123.9776176990403
 30
0.0
 10
104.2685709374745
 20
-123.9414441964452
 30
0.0
 10
104.2685709374745
 20
-123.6813394873088
 30
0.0
 10
104.2685709374745
 20
-123.4336371219194
 30
0.0
 10
103.9874511458781
 20
-123.3850612755774
 30
0.0
 10
103.6405300305135
 20
-123.3850612755774
 30
0.0
 10
103.3208251694823
 20
-123.3850612755774
 30
0.0
 10
103.0121446140039
 20
-123.4233018354636
 30
0.0
 10
103.0121446140039
 20
-123.6813394873088
 30
0.0
  0
HATCH
  5
B3
330
AD
100
AcDbEntity
  8
_U+30EC_U+30A4_U+30E4_U+30FC 1
 62
   179
420
  2234388
100
AcDbHatch
 10
0.0
 20
0.0
 30
0.0
210
0.0
220
0.0
230
1.0
  2
SOLID
 70
     1
 71
     0
 91
        2
 92
        1
 93
        1
 72
     4
 94
        3
 73
     0
 74
     1
 95
       29
 96
       25
 40
0.0
 40
0.0
 40
0.0
 40
0.0
 40
1.0
 40
1.0
 40
1.0
 40
2.0
 40
2.0
 40
2.0
 40
3.0
 40
3.0
 40
3.0
 40
4.0
 40
4.0
 40
4.0
 40
5.0
 40
5.0
 40
5.0
 40
6.0
 40
6.0
 40
6.0
 40
7.0
 40
7.0
 40
7.0
 40
8.0
 40
8.0
 40
8.0
 40
8.0
 10
104.2348090017191
 20
-123.2834309587625
 10
104.4442708072223
 20
-123.3916069569993
 10
104.4632188323911
 20
-123.5648952599074
 10
104.4632188323911
 20
-123.6813394873088
 10
104.4632188323911
 20
-123.84222544647
 10
104.4167100433403
 20
-123.9838188709138
 10
104.2348090017191
 20
-124.0789035063067
 10
104.0401611068025
 20
-124.1826008804127
 10
103.8031385374173
 20
-124.2018934151301
 10
103.6405300305135
 20
-124.2018934151301
 10
103.49652503923
 20
-124.2018934151301
 10
103.2446885592583
 20
-124.1846679377038
 10
103.0459065497594
 20
-124.0789035063067
 10
102.8429904256782
 20
-123.9710720176184
 10
102.8195637763784
 20
-123.8101860584572
 10
102.8195637763784
 20
-123.6813394873088
 10
102.8195637763784
 20
-123.5225205854388
 10
102.8640055081382
 20
-123.3788601037039
 10
103.0459065497594
 20
-123.2834309587625
 10
103.2384873873848
 20
-123.1842122087873
 10
103.4668972180569
 20
-123.1607855594876
 10
103.6405300305135
 20
-123.1607855594876
 10
103.8117512761304
 20
-123.1607855594876
 10
104.0422281640936
 20
-123.1821451514961
 10
104.2348090017191
 20
-123.2834309587625
 97
        0
 97
        0
 92
        1
 93
        1
 72
     4
 94
        3
 73
     0
 74
     1
 95
       17
 96
       13
 40
0.0
 40
0.0
 40
0.0
 40
0.0
 40
1.0
 40
1.0
 40
1.0
 40
2.0
 40
2.0
 40
2.0
 40
3.0
 40
3.0
 40
3.0
 40
4.0
 40
4.0
 40
4.0
 40
4.0
 10
103.0121446140039
 20
-123.6813394873088
 10
103.0121446140039
 20
-123.9311089099894
 10
103.29567597244
 20
-123.9776176990403
 10
103.6405300305135
 20
-123.9776176990403
 10
103.9598903819961
 20
-123.9776176990403
 10
104.2685709374745
 20
-123.9414441964452
 10
104.2685709374745
 20
-123.6813394873088
 10
104.2685709374745
 20
-123.4336371219194
 10
103.9874511458781
 20
-123.3850612755774
 10
103.6405300305135
 20
-123.3850612755774
 10
103.3208251694823
 20
-123.3850612755774
 10
103.0121446140039
 20
-123.4233018354636
 10
103.0121446140039
 20
-123.6813394873088
 97
        0
 97
        0
 75
     2
 76
     1
 98
        0
  0
POLYLINE
  5
B4
330
AD
100
AcDbEntity
  8
_U+30EC_U+30A4_U+30E4_U+30FC 1
370
     0
100
AcDb2dPolyline
 66
     1
 10
0.0
 20
0.0
 30
0.0
  0
VERTEX
  5
B5
330
B4
100
AcDbEntity
  8
_U+30EC_U+30A4_U+30E4_U+30FC 1
370
     0
100
AcDbVertex
100
AcDb2dVertex
 10
104.412575928758
 20
-122.9444335630139
 30
0.0
  0
VERTEX
  5
B6
330
B4
100
AcDbEntity
  8
_U+30EC_U+30A4_U+30E4_U+30FC 1
370
     0
100
AcDbVertex
100
AcDb2dVertex
 10
104.1607394487862
 20
-122.9444335630139
 30
0.0
  0
VERTEX
  5
B7
330
B4
100
AcDbEntity
  8
_U+30EC_U+30A4_U+30E4_U+30FC 1
370
     0
100
AcDbVertex
100
AcDb2dVertex
 10
104.1607394487862
 20
-122.6925970830421
 30
0.0
  0
VERTEX
  5
B8
330
B4
100
AcDbEntity
  8
_U+30EC_U+30A4_U+30E4_U+30FC 1
370
     0
100
AcDbVertex
100
AcDb2dVertex
 10
104.412575928758
 20
-122.6925970830421
 30
0.0
  0
VERTEX
  5
B9
330
B4
100
AcDbEntity
  8
_U+30EC_U+30A4_U+30E4_U+30FC 1
370
     0
100
AcDbVertex
100
AcDb2dVertex
 10
104.412575928758
 20
-122.9444335630139
 30
0.0
  0
SEQEND
  5
BA
330
B4
100
AcDbEntity
  8
_U+30EC_U+30A4_U+30E4_U+30FC 1
370
     0
  0
HATCH
  5
BB
330
AD
100
AcDbEntity
  8
_U+30EC_U+30A4_U+30E4_U+30FC 1
 62
   179
420
  2234388
100
AcDbHatch
 10
0.0
 20
0.0
 30
0.0
210
0.0
220
0.0
230
1.0
  2
SOLID
 70
     1
 71
     0
 91
        1
 92
        1
 93
        4
 72
     1
 10
104.412575928758
 20
-122.9444335630139
 11
104.1607394487862
 21
-122.9444335630139
 72
     1
 10
104.1607394487862
 20
-122.9444335630139
 11
104.1607394487862
 21
-122.6925970830421
 72
     1
 10
104.1607394487862
 20
-122.6925970830421
 11
104.412575928758
 21
-122.6925970830421
 72
     1
 10
104.412575928758
 20
-122.6925970830421
 11
104.412575928758
 21
-122.9444335630139
 97
        0
 75
     2
 76
     1
 98
        0
  0
SPLINE
  5
BC
330
AD
100
AcDbEntity
  8
_U+30EC_U+30A4_U+30E4_U+30FC 1
370
     0
100
AcDbSpline
210
0.0
220
0.0
230
1.0
 70
    11
 71
     3
 72
    29
 73
    25
 74
     0
 42
0.0000000001
 43
0.0000000001
 12
1.0
 22
0.0
 32
0.0
 13
1.0
 23
0.0
 33
0.0
 40
0.0
 40
0.0
 40
0.0
 40
0.0
 40
1.0
 40
1.0
 40
1.0
 40
2.0
 40
2.0
 40
2.0
 40
3.0
 40
3.0
 40
3.0
 40
4.0
 40
4.0
 40
4.0
 40
5.0
 40
5.0
 40
5.0
 40
6.0
 40
6.0
 40
6.0
 40
7.0
 40
7.0
 40
7.0
 40
8.0
 40
8.0
 40
8.0
 40
8.0
 10
104.4632188323911
 20
-121.9563801778442
 30
0.0
 10
104.4632188323911
 20
-122.2230305684026
 30
0.0
 10
104.3257595225297
 20
-122.476589596117
 30
0.0
 10
103.9767713498739
 20
-122.476589596117
 30
0.0
 10
103.7208007553198
 20
-122.476589596117
 30
0.0
 10
103.6257161199269
 20
-122.3349961716732
 30
0.0
 10
103.5643934202895
 20
-122.229231740276
 30
0.0
 10
103.5051377779432
 20
-122.3539441968421
 30
0.0
 10
103.3907606078329
 20
-122.4300808070661
 30
0.0
 10
103.2298746486717
 20
-122.4300808070661
 30
0.0
 10
102.9549560289488
 20
-122.4300808070661
 30
0.0
 10
102.8195637763784
 20
-122.2312987975672
 30
0.0
 10
102.8195637763784
 20
-121.9563801778442
 30
0.0
 10
102.8195637763784
 20
-121.6728488194082
 30
0.0
 10
102.9635687676619
 20
-121.4823350390739
 30
0.0
 10
103.2298746486717
 20
-121.4823350390739
 30
0.0
 10
103.3907606078329
 20
-121.4823350390739
 30
0.0
 10
103.5051377779432
 20
-121.5608832161376
 30
0.0
 10
103.5643934202895
 20
-121.6855956727036
 30
0.0
 10
103.6150363239226
 20
-121.5967122091842
 30
0.0
 10
103.7101209593155
 20
-121.4378933073141
 30
0.0
 10
103.9726372352916
 20
-121.4378933073141
 30
0.0
 10
104.3471191145382
 20
-121.4378933073141
 30
0.0
 10
104.4632188323911
 20
-121.7172905511679
 30
0.0
 10
104.4632188323911
 20
-121.9563801778442
 30
0.0
  0
SPLINE
  5
BD
330
AD
100
AcDbEntity
  8
_U+30EC_U+30A4_U+30E4_U+30FC 1
370
     0
100
AcDbSpline
210
0.0
220
0.0
230
1.0
 70
    11
 71
     3
 72
    17
 73
    13
 74
     0
 42
0.0000000001
 43
0.0000000001
 12
1.0
 22
0.0
 32
0.0
 13
1.0
 23
0.0
 33
0.0
 40
0.0
 40
0.0
 40
0.0
 40
0.0
 40
1.0
 40
1.0
 40
1.0
 40
2.0
 40
2.0
 40
2.0
 40
3.0
 40
3.0
 40
3.0
 40
4.0
 40
4.0
 40
4.0
 40
4.0
 10
103.0121446140039
 20
-121.9563801778442
 30
0.0
 10
103.0121446140039
 20
-122.1214002515877
 30
0.0
 10
103.1072292493968
 20
-122.2058050909763
 30
0.0
 10
103.2426215019671
 20
-122.2058050909763
 30
0.0
 10
103.365266901242
 20
-122.2058050909763
 30
0.0
 10
103.4837781859346
 20
-122.1341471048831
 30
0.0
 10
103.4837781859346
 20
-121.9563801778442
 30
0.0
 10
103.4837781859346
 20
-121.7786132508053
 30
0.0
 10
103.365266901242
 20
-121.7066107551636
 30
0.0
 10
103.2426215019671
 20
-121.7066107551636
 30
0.0
 10
103.1072292493968
 20
-121.7066107551636
 30
0.0
 10
103.0121446140039
 20
-121.7934271613919
 30
0.0
 10
103.0121446140039
 20
-121.9563801778442
 30
0.0
  0
SPLINE
  5
BE
330
AD
100
AcDbEntity
  8
_U+30EC_U+30A4_U+30E4_U+30FC 1
370
     0
100
AcDbSpline
210
0.0
220
0.0
230
1.0
 70
    11
 71
     3
 72
    17
 73
    13
 74
     0
 42
0.0000000001
 43
0.0000000001
 12
1.0
 22
0.0
 32
0.0
 13
1.0
 23
0.0
 33
0.0
 40
0.0
 40
0.0
 40
0.0
 40
0.0
 40
1.0
 40
1.0
 40
1.0
 40
2.0
 40
2.0
 40
2.0
 40
3.0
 40
3.0
 40
3.0
 40
4.0
 40
4.0
 40
4.0
 40
4.0
 10
103.6722249089778
 20
-121.9563801778442
 30
0.0
 10
103.6722249089778
 20
-122.1000406595792
 30
0.0
 10
103.7590413152061
 20
-122.2526583895757
 30
0.0
 10
103.9619574392873
 20
-122.2526583895757
 30
0.0
 10
104.1672851302082
 20
-122.2526583895757
 30
0.0
 10
104.2685709374745
 20
-122.12553436617
 30
0.0
 10
104.2685709374745
 20
-121.9563801778442
 30
0.0
 10
104.2685709374745
 20
-121.7703450216408
 30
0.0
 10
104.1459255381996
 20
-121.6601019661128
 30
0.0
 10
103.9681586111607
 20
-121.6601019661128
 30
0.0
 10
103.7462944619107
 20
-121.6601019661128
 30
0.0
 10
103.6722249089778
 20
-121.8230549825651
 30
0.0
 10
103.6722249089778
 20
-121.9563801778442
 30
0.0
  0
HATCH
  5
BF
330
AD
100
AcDbEntity
  8
_U+30EC_U+30A4_U+30E4_U+30FC 1
 62
   179
420
  2234388
100
AcDbHatch
 10
0.0
 20
0.0
 30
0.0
210
0.0
220
0.0
230
1.0
  2
SOLID
 70
     1
 71
     0
 91
        3
 92
        1
 93
        1
 72
     4
 94
        3
 73
     0
 74
     1
 95
       29
 96
       25
 40
0.0
 40
0.0
 40
0.0
 40
0.0
 40
1.0
 40
1.0
 40
1.0
 40
2.0
 40
2.0
 40
2.0
 40
3.0
 40
3.0
 40
3.0
 40
4.0
 40
4.0
 40
4.0
 40
5.0
 40
5.0
 40
5.0
 40
6.0
 40
6.0
 40
6.0
 40
7.0
 40
7.0
 40
7.0
 40
8.0
 40
8.0
 40
8.0
 40
8.0
 10
104.4632188323911
 20
-121.9563801778442
 10
104.4632188323911
 20
-122.2230305684026
 10
104.3257595225297
 20
-122.476589596117
 10
103.9767713498739
 20
-122.476589596117
 10
103.7208007553198
 20
-122.476589596117
 10
103.6257161199269
 20
-122.3349961716732
 10
103.5643934202895
 20
-122.229231740276
 10
103.5051377779432
 20
-122.3539441968421
 10
103.3907606078329
 20
-122.4300808070661
 10
103.2298746486717
 20
-122.4300808070661
 10
102.9549560289488
 20
-122.4300808070661
 10
102.8195637763784
 20
-122.2312987975672
 10
102.8195637763784
 20
-121.9563801778442
 10
102.8195637763784
 20
-121.6728488194082
 10
102.9635687676619
 20
-121.4823350390739
 10
103.2298746486717
 20
-121.4823350390739
 10
103.3907606078329
 20
-121.4823350390739
 10
103.5051377779432
 20
-121.5608832161376
 10
103.5643934202895
 20
-121.6855956727036
 10
103.6150363239226
 20
-121.5967122091842
 10
103.7101209593155
 20
-121.4378933073141
 10
103.9726372352916
 20
-121.4378933073141
 10
104.3471191145382
 20
-121.4378933073141
 10
104.4632188323911
 20
-121.7172905511679
 10
104.4632188323911
 20
-121.9563801778442
 97
        0
 97
        0
 92
        1
 93
        1
 72
     4
 94
        3
 73
     0
 74
     1
 95
       17
 96
       13
 40
0.0
 40
0.0
 40
0.0
 40
0.0
 40
1.0
 40
1.0
 40
1.0
 40
2.0
 40
2.0
 40
2.0
 40
3.0
 40
3.0
 40
3.0
 40
4.0
 40
4.0
 40
4.0
 40
4.0
 10
103.0121446140039
 20
-121.9563801778442
 10
103.0121446140039
 20
-122.1214002515877
 10
103.1072292493968
 20
-122.2058050909763
 10
103.2426215019671
 20
-122.2058050909763
 10
103.365266901242
 20
-122.2058050909763
 10
103.4837781859346
 20
-122.1341471048831
 10
103.4837781859346
 20
-121.9563801778442
 10
103.4837781859346
 20
-121.7786132508053
 10
103.365266901242
 20
-121.7066107551636
 10
103.2426215019671
 20
-121.7066107551636
 10
103.1072292493968
 20
-121.7066107551636
 10
103.0121446140039
 20
-121.7934271613919
 10
103.0121446140039
 20
-121.9563801778442
 97
        0
 97
        0
 92
        1
 93
        1
 72
     4
 94
        3
 73
     0
 74
     1
 95
       17
 96
       13
 40
0.0
 40
0.0
 40
0.0
 40
0.0
 40
1.0
 40
1.0
 40
1.0
 40
2.0
 40
2.0
 40
2.0
 40
3.0
 40
3.0
 40
3.0
 40
4.0
 40
4.0
 40
4.0
 40
4.0
 10
103.6722249089778
 20
-121.9563801778442
 10
103.6722249089778
 20
-122.1000406595792
 10
103.7590413152061
 20
-122.2526583895757
 10
103.9619574392873
 20
-122.2526583895757
 10
104.1672851302082
 20
-122.2526583895757
 10
104.2685709374745
 20
-122.12553436617
 10
104.2685709374745
 20
-121.9563801778442
 10
104.2685709374745
 20
-121.7703450216408
 10
104.1459255381996
 20
-121.6601019661128
 10
103.9681586111607
 20
-121.6601019661128
 10
103.7462944619107
 20
-121.6601019661128
 10
103.6722249089778
 20
-121.8230549825651
 10
103.6722249089778
 20
-121.9563801778442
 97
        0
 97
        0
 75
     2
 76
     1
 98
        0
  0
ENDBLK
  5
B0
330
AD
100
AcDbEntity
  8
0
100
AcDbBlockEnd
  0
BLOCK
  5
DF
330
DD
100
AcDbEntity
  8
0
100
AcDbBlockBegin
  2
block 6
 70
     0
 10
0.0
 20
0.0
 30
0.0
  3
block 6
  1

  0
SPLINE
  5
E1
330
DD
100
AcDbEntity
  8
_U+30EC_U+30A4_U+30E4_U+30FC 1
370
     0
100
AcDbSpline
210
0.0
220
0.0
230
1.0
 70
    11
 71
     3
 72
   242
 73
   238
 74
     0
 42
0.0000000001
 43
0.0000000001
 12
1.0
 22
0.0
 32
0.0
 13
1.0
 23
0.0
 33
0.0
 40
0.0
 40
0.0
 40
0.0
 40
0.0
 40
1.0
 40
1.0
 40
1.0
 40
2.0
 40
2.0
 40
2.0
 40
3.0
 40
3.0
 40
3.0
 40
4.0
 40
4.0
 40
4.0
 40
5.0
 40
5.0
 40
5.0
 40
6.0
 40
6.0
 40
6.0
 40
7.0
 40
7.0
 40
7.0
 40
8.0
 40
8.0
 40
8.0
 40
9.0
 40
9.0
 40
9.0
 40
10.0
 40
10.0
 40
10.0
 40
11.0
 40
11.0
 40
11.0
 40
12.0
 40
12.0
 40
12.0
 40
13.0
 40
13.0
 40
13.0
 40
14.0
 40
14.0
 40
14.0
 40
15.0
 40
15.0
 40
15.0
 40
16.0
 40
16.0
 40
16.0
 40
17.0
 40
17.0
 40
17.0
 40
18.0
 40
18.0
 40
18.0
 40
19.0
 40
19.0
 40
19.0
 40
20.0
 40
20.0
 40
20.0
 40
21.0
 40
21.0
 40
21.0
 40
22.0
 40
22.0
 40
22.0
 40
23.0
 40
23.0
 40
23.0
 40
24.0
 40
24.0
 40
24.0
 40
25.0
 40
25.0
 40
25.0
 40
26.0
 40
26.0
 40
26.0
 40
27.0
 40
27.0
 40
27.0
 40
28.0
 40
28.0
 40
28.0
 40
29.0
 40
29.0
 40
29.0
 40
30.0
 40
30.0
 40
30.0
 40
31.0
 40
31.0
 40
31.0
 40
32.0
 40
32.0
 40
32.0
 40
33.0
 40
33.0
 40
33.0
 40
34.0
 40
34.0
 40
34.0
 40
35.0
 40
35.0
 40
35.0
 40
36.0
 40
36.0
 40
36.0
 40
37.0
 40
37.0
 40
37.0
 40
38.0
 40
38.0
 40
38.0
 40
39.0
 40
39.0
 40
39.0
 40
40.0
 40
40.0
 40
40.0
 40
41.0
 40
41.0
 40
41.0
 40
42.0
 40
42.0
 40
42.0
 40
43.0
 40
43.0
 40
43.0
 40
44.0
 40
44.0
 40
44.0
 40
45.0
 40
45.0
 40
45.0
 40
46.0
 40
46.0
 40
46.0
 40
47.0
 40
47.0
 40
47.0
 40
48.0
 40
48.0
 40
48.0
 40
49.0
 40
49.0
 40
49.0
 40
50.0
 40
50.0
 40
50.0
 40
51.0
 40
51.0
 40
51.0
 40
52.0
 40
52.0
 40
52.0
 40
53.0
 40
53.0
 40
53.0
 40
54.0
 40
54.0
 40
54.0
 40
55.0
 40
55.0
 40
55.0
 40
56.0
 40
56.0
 40
56.0
 40
57.0
 40
57.0
 40
57.0
 40
58.0
 40
58.0
 40
58.0
 40
59.0
 40
59.0
 40
59.0
 40
60.0
 40
60.0
 40
60.0
 40
61.0
 40
61.0
 40
61.0
 40
62.0
 40
62.0
 40
62.0
 40
63.0
 40
63.0
 40
63.0
 40
64.0
 40
64.0
 40
64.0
 40
65.0
 40
65.0
 40
65.0
 40
66.0
 40
66.0
 40
66.0
 40
67.0
 40
67.0
 40
67.0
 40
68.0
 40
68.0
 40
68.0
 40
69.0
 40
69.0
 40
69.0
 40
70.0
 40
70.0
 40
70.0
 40
71.0
 40
71.0
 40
71.0
 40
72.0
 40
72.0
 40
72.0
 40
73.0
 40
73.0
 40
73.0
 40
74.0
 40
74.0
 40
74.0
 40
75.0
 40
75.0
 40
75.0
 40
76.0
 40
76.0
 40
76.0
 40
77.0
 40
77.0
 40
77.0
 40
78.0
 40
78.0
 40
78.0
 40
79.0
 40
79.0
 40
79.0
 40
79.0
 10
77.07729354626888
 20
-138.975496384527
 30
0.0
 10
77.07729354626888
 20
-138.975496384527
 30
0.0
 10
76.82339000900596
 20
-138.975496384527
 30
0.0
 10
76.82339000900596
 20
-138.975496384527
 30
0.0
 10
76.82339000900596
 20
-138.975496384527
 30
0.0
 10
76.54640433199188
 20
-138.975496384527
 30
0.0
 10
76.54640433199188
 20
-138.975496384527
 30
0.0
 10
76.54640433199188
 20
-138.975496384527
 30
0.0
 10
76.67318384584907
 20
-139.0178710589955
 30
0.0
 10
76.67318384584907
 20
-139.0178710589955
 30
0.0
 10
76.68386364185335
 20
-139.0223496831264
 30
0.0
 10
76.69661049514876
 20
-139.0285508549998
 30
0.0
 10
76.69661049514876
 20
-139.0412977082952
 30
0.0
 10
76.69661049514876
 20
-139.0623127907553
 30
0.0
 10
76.66457110713594
 20
-139.0688584721772
 30
0.0
 10
76.64355602467592
 20
-139.0729925867595
 30
0.0
 10
76.63287622867165
 20
-139.0960747265107
 30
0.0
 10
76.6032484074985
 20
-139.161876050279
 30
0.0
 10
76.58430038232962
 20
-139.2063177820387
 30
0.0
 10
76.58430038232962
 20
-139.2063177820387
 30
0.0
 10
76.85508488747026
 20
-139.2063177820387
 30
0.0
 10
76.85508488747026
 20
-139.2063177820387
 30
0.0
 10
76.94603540828085
 20
-139.2063177820387
 30
0.0
 10
77.14275036048862
 20
-139.2018391579079
 30
0.0
 10
77.28468829448092
 20
-139.1935709287433
 30
0.0
 10
77.28468829448092
 20
-139.1935709287433
 30
0.0
 10
77.28468829448092
 20
-139.3713378557822
 30
0.0
 10
77.28468829448092
 20
-139.3713378557822
 30
0.0
 10
77.20200600283492
 20
-139.3668592316513
 30
0.0
 10
77.1809909203749
 20
-139.3668592316513
 30
0.0
 10
77.00115693604485
 20
-139.3627251170691
 30
0.0
 10
76.96946205758056
 20
-139.5170653948082
 30
0.0
 10
76.92502032582084
 20
-139.5976806291631
 30
0.0
 10
76.8805785940611
 20
-139.6672715579651
 30
0.0
 10
77.00115693604485
 20
-139.7265272003114
 30
0.0
 10
77.10692136744203
 20
-139.7943955813708
 30
0.0
 10
77.21061874154805
 20
-139.8767333634683
 30
0.0
 10
77.21061874154805
 20
-139.8767333634683
 30
0.0
 10
77.09210745685544
 20
-140.0438204945029
 30
0.0
 10
77.09210745685544
 20
-140.0438204945029
 30
0.0
 10
77.06868080755575
 20
-140.0248724693341
 30
0.0
 10
77.05593395426033
 20
-140.0166042401695
 30
0.0
 10
76.9439683509897
 20
-139.9318548912323
 30
0.0
 10
76.89539250464769
 20
-139.893614331346
 30
0.0
 10
76.83613686230139
 20
-139.8577853382994
 30
0.0
 10
76.75552162794654
 20
-139.8133436065397
 30
0.0
 10
76.5439927651522
 20
-139.9997232722917
 30
0.0
 10
76.33900958377984
 20
-140.0228054120429
 30
0.0
 10
76.0489325439218
 20
-140.0524332332161
 30
0.0
 10
76.0489325439218
 20
-140.0524332332161
 30
0.0
 10
75.9455796793643
 20
-139.872599248886
 30
0.0
 10
75.9455796793643
 20
-139.872599248886
 30
0.0
 10
76.26287297355582
 20
-139.8684651343037
 30
0.0
 10
76.43822833375503
 20
-139.8429714277129
 30
0.0
 10
76.59050155420307
 20
-139.7330728817334
 30
0.0
 10
76.472334779059
 20
-139.6820854685517
 30
0.0
 10
76.38345131553956
 20
-139.6548692142182
 30
0.0
 10
76.34727781294444
 20
-139.6421223609228
 30
0.0
 10
76.32832978777556
 20
-139.6696831248048
 30
0.0
 10
76.31351587718899
 20
-139.6886311499737
 30
0.0
 10
76.28595511330698
 20
-139.7223930857291
 30
0.0
 10
76.28595511330698
 20
-139.7223930857291
 30
0.0
 10
76.08924016109923
 20
-139.6400553036317
 30
0.0
 10
76.08924016109923
 20
-139.6400553036317
 30
0.0
 10
76.17192245274522
 20
-139.5594400692768
 30
0.0
 10
76.23324515238266
 20
-139.4643554338839
 30
0.0
 10
76.29008922788928
 20
-139.3627251170691
 30
0.0
 10
76.0999199571035
 20
-139.3668592316513
 30
0.0
 10
76.07856036509494
 20
-139.3668592316513
 30
0.0
 10
75.99622258299748
 20
-139.3713378557822
 30
0.0
 10
75.99622258299748
 20
-139.3713378557822
 30
0.0
 10
75.99622258299748
 20
-139.1935709287433
 30
0.0
 10
75.99622258299748
 20
-139.1935709287433
 30
0.0
 10
76.13574895015009
 20
-139.1997721006167
 30
0.0
 10
76.34521075565328
 20
-139.2042507247476
 30
0.0
 10
76.37070446224413
 20
-139.2042507247476
 30
0.0
 10
76.38758543012186
 20
-139.1701442794436
 30
0.0
 10
76.44270695788586
 20
-139.0495659374598
 30
0.0
 10
76.46165498305473
 20
-138.975496384527
 30
0.0
 10
76.44270695788586
 20
-138.975496384527
 30
0.0
 10
76.26494003084696
 20
-138.9820420659489
 30
0.0
 10
76.07029213593034
 20
-138.9947889192444
 30
0.0
 10
76.07029213593034
 20
-138.9947889192444
 30
0.0
 10
76.07029213593034
 20
-139.1281141145235
 30
0.0
 10
76.07029213593034
 20
-139.1281141145235
 30
0.0
 10
76.02171628958833
 20
-139.1532633115659
 30
0.0
 10
75.96246064724203
 20
-139.1849581900302
 30
0.0
 10
75.82913545196286
 20
-139.2507595137984
 30
0.0
 10
75.82913545196286
 20
-139.2507595137984
 30
0.0
 10
75.82913545196286
 20
-139.3964870528245
 30
0.0
 10
75.82913545196286
 20
-139.3964870528245
 30
0.0
 10
75.82913545196286
 20
-139.3964870528245
 30
0.0
 10
75.82913545196286
 20
-139.8643310197214
 30
0.0
 10
75.82913545196286
 20
-139.8643310197214
 30
0.0
 10
75.82913545196286
 20
-139.9911105335786
 30
0.0
 10
75.79296194936774
 20
-140.0503661759249
 30
0.0
 10
75.5097751004802
 20
-140.0417534372118
 30
0.0
 10
75.5097751004802
 20
-140.0417534372118
 30
0.0
 10
75.40607772637418
 20
-139.8347031985483
 30
0.0
 10
75.40607772637418
 20
-139.8347031985483
 30
0.0
 10
75.46946748330278
 20
-139.8471055422952
 30
0.0
 10
75.5180433296448
 20
-139.851584166426
 30
0.0
 10
75.55835094682222
 20
-139.851584166426
 30
0.0
 10
75.63448755704624
 20
-139.851584166426
 30
0.0
 10
75.64516735305051
 20
-139.8281575171263
 30
0.0
 10
75.64516735305051
 20
-139.7627007029066
 30
0.0
 10
75.64516735305051
 20
-139.7627007029066
 30
0.0
 10
75.64516735305051
 20
-139.3330972958959
 30
0.0
 10
75.64516735305051
 20
-139.3330972958959
 30
0.0
 10
75.54767115081795
 20
-139.3734049130733
 30
0.0
 10
75.53079018294022
 20
-139.3796060849468
 30
0.0
 10
75.48428139388935
 20
-139.3988986196642
 30
0.0
 10
75.48014727930705
 20
-139.4199137021242
 30
0.0
 10
75.47566865517622
 20
-139.4495415232973
 30
0.0
 10
75.45672063000735
 20
-139.4495415232973
 30
0.0
 10
75.44845240084275
 20
-139.4495415232973
 30
0.0
 10
75.43777260483847
 20
-139.4454074087151
 30
0.0
 10
75.4312269234165
 20
-139.4219807594153
 30
0.0
 10
75.4312269234165
 20
-139.4219807594153
 30
0.0
 10
75.37851696249218
 20
-139.2293999217899
 30
0.0
 10
75.37851696249218
 20
-139.2293999217899
 30
0.0
 10
75.52458901106677
 20
-139.182891132739
 30
0.0
 10
75.59004582528652
 20
-139.1598089929878
 30
0.0
 10
75.64516735305051
 20
-139.1384494009793
 30
0.0
 10
75.64516735305051
 20
-139.1384494009793
 30
0.0
 10
75.64516735305051
 20
-138.7260714713949
 30
0.0
 10
75.64516735305051
 20
-138.7260714713949
 30
0.0
 10
75.64516735305051
 20
-138.7260714713949
 30
0.0
 10
75.59211288257767
 20
-138.7260714713949
 30
0.0
 10
75.59211288257767
 20
-138.7260714713949
 30
0.0
 10
75.59211288257767
 20
-138.7260714713949
 30
0.0
 10
75.5139092150625
 20
-138.7260714713949
 30
0.0
 10
75.5139092150625
 20
-138.7260714713949
 30
0.0
 10
75.44604083400307
 20
-138.7260714713949
 30
0.0
 10
75.43777260483847
 20
-138.7260714713949
 30
0.0
 10
75.40159910224335
 20
-138.7322726432683
 30
0.0
 10
75.40159910224335
 20
-138.7322726432683
 30
0.0
 10
75.40159910224335
 20
-138.5376247483517
 30
0.0
 10
75.40159910224335
 20
-138.5376247483517
 30
0.0
 10
75.42915986612535
 20
-138.5441704297737
 30
0.0
 10
75.43777260483847
 20
-138.5441704297737
 30
0.0
 10
75.50736353364053
 20
-138.5441704297737
 30
0.0
 10
75.50736353364053
 20
-138.5441704297737
 30
0.0
 10
75.6406887289197
 20
-138.5441704297737
 30
0.0
 10
75.6406887289197
 20
-138.5441704297737
 30
0.0
 10
75.6406887289197
 20
-138.4742349914231
 30
0.0
 10
75.6406887289197
 20
-138.3918972093256
 30
0.0
 10
75.63862167162854
 20
-138.3874185851948
 30
0.0
 10
75.63035344246394
 20
-138.2075846008648
 30
0.0
 10
75.63035344246394
 20
-138.1886365756959
 30
0.0
 10
75.62794187562427
 20
-138.142127786645
 30
0.0
 10
75.62794187562427
 20
-138.142127786645
 30
0.0
 10
75.84394936254944
 20
-138.1507405253581
 30
0.0
 10
75.84394936254944
 20
-138.1507405253581
 30
0.0
 10
75.8546291585537
 20
-138.1507405253581
 30
0.0
 10
75.87564424101373
 20
-138.1528075826493
 30
0.0
 10
75.87564424101373
 20
-138.169688550527
 30
0.0
 10
75.87564424101373
 20
-138.1886365756959
 30
0.0
 10
75.86083033042716
 20
-138.1993163717002
 30
0.0
 10
75.83533662383631
 20
-138.218264396869
 30
0.0
 10
75.83533662383631
 20
-138.2689073005022
 30
0.0
 10
75.82913545196286
 20
-138.4976616407228
 30
0.0
 10
75.83120250925401
 20
-138.5441704297737
 30
0.0
 10
75.96039358995088
 20
-138.5441704297737
 30
0.0
 10
75.97279593369778
 20
-138.5441704297737
 30
0.0
 10
76.07029213593034
 20
-138.5355576910606
 30
0.0
 10
76.07029213593034
 20
-138.5355576910606
 30
0.0
 10
76.07029213593034
 20
-138.7302055859772
 30
0.0
 10
76.07029213593034
 20
-138.7302055859772
 30
0.0
 10
76.03205157604407
 20
-138.728138528686
 30
0.0
 10
75.96452770453318
 20
-138.7240044141037
 30
0.0
 10
75.82913545196286
 20
-138.7260714713949
 30
0.0
 10
75.82913545196286
 20
-138.7260714713949
 30
0.0
 10
75.82913545196286
 20
-139.0643798480464
 30
0.0
 10
75.82913545196286
 20
-139.0643798480464
 30
0.0
 10
75.88425697972686
 20
-139.0412977082952
 30
0.0
 10
75.9497137939466
 20
-139.0137369444132
 30
0.0
 10
75.99828964028863
 20
-138.9903102951135
 30
0.0
 10
75.99828964028863
 20
-138.9903102951135
 30
0.0
 10
75.99828964028863
 20
-138.8128878776232
 30
0.0
 10
75.99828964028863
 20
-138.8128878776232
 30
0.0
 10
76.11266681039892
 20
-138.8252902213701
 30
0.0
 10
76.23117809509151
 20
-138.8252902213701
 30
0.0
 10
76.34727781294444
 20
-138.8252902213701
 30
0.0
 10
76.32419567319326
 20
-138.7302055859772
 30
0.0
 10
76.29663490931127
 20
-138.6478678038797
 30
0.0
 10
76.23324515238266
 20
-138.5145426086006
 30
0.0
 10
76.18880342062295
 20
-138.5166096658917
 30
0.0
 10
76.10612112897695
 20
-138.520743780474
 30
0.0
 10
76.0682250786392
 20
-138.5228108377651
 30
0.0
 10
76.0682250786392
 20
-138.5228108377651
 30
0.0
 10
76.0682250786392
 20
-138.3429768534351
 30
0.0
 10
76.0682250786392
 20
-138.3429768534351
 30
0.0
 10
76.19293753520525
 20
-138.3515895921482
 30
0.0
 10
76.36657034766183
 20
-138.3557237067305
 30
0.0
 10
76.4489081297593
 20
-138.3557237067305
 30
0.0
 10
76.4489081297593
 20
-138.3557237067305
 30
0.0
 10
76.5315904214053
 20
-138.3557237067305
 30
0.0
 10
76.5315904214053
 20
-138.3557237067305
 30
0.0
 10
76.5315904214053
 20
-138.1927706902782
 30
0.0
 10
76.5315904214053
 20
-138.1824354038225
 30
0.0
 10
76.52917885456563
 20
-138.1273138760585
 30
0.0
 10
76.52917885456563
 20
-138.1273138760585
 30
0.0
 10
76.75345457065539
 20
-138.1528075826493
 30
0.0
 10
76.75345457065539
 20
-138.1528075826493
 30
0.0
 10
76.75793319478622
 20
-138.1528075826493
 30
0.0
 10
76.77894827724624
 20
-138.1548746399405
 30
0.0
 10
76.77894827724624
 20
-138.1717556078182
 30
0.0
 10
76.77894827724624
 20
-138.1865695184048
 30
0.0
 10
76.76826848124196
 20
-138.1951822571179
 30
0.0
 10
76.74070771735997
 20
-138.2099961677044
 30
0.0
 10
76.73450654548651
 20
-138.2754529819242
 30
0.0
 10
76.73243948819537
 20
-138.2964680643842
 30
0.0
 10
76.73243948819537
 20
-138.3557237067305
 30
0.0
 10
76.73243948819537
 20
-138.3557237067305
 30
0.0
 10
76.82752412358826
 20
-138.3557237067305
 30
0.0
 10
76.82752412358826
 20
-138.3557237067305
 30
0.0
 10
76.91020641523426
 20
-138.3557237067305
 30
0.0
 10
77.08349471814232
 20
-138.3515895921482
 30
0.0
 10
77.20855168425689
 20
-138.3429768534351
 30
0.0
 10
77.20855168425689
 20
-138.3429768534351
 30
0.0
 10
77.20855168425689
 20
-138.5228108377651
 30
0.0
 10
77.20855168425689
 20
-138.5228108377651
 30
0.0
 10
77.17892386308374
 20
-138.520743780474
 30
0.0
 10
77.06041257839115
 20
-138.5166096658917
 30
0.0
 10
77.02010496121373
 20
-138.5145426086006
 30
0.0
 10
77.00529105062715
 20
-138.5651855122337
 30
0.0
 10
76.9715291148717
 20
-138.6774956250528
 30
0.0
 10
76.90572779110343
 20
-138.8170219922055
 30
0.0
 10
76.948102465572
 20
-138.8170219922055
 30
0.0
 10
77.22543265213461
 20
-138.7980739670366
 30
0.0
 10
77.28675535177206
 20
-138.7956624001969
 30
0.0
 10
77.28675535177206
 20
-138.7956624001969
 30
0.0
 10
77.28675535177206
 20
-138.9799750086578
 30
0.0
 10
77.28675535177206
 20
-138.9799750086578
 30
0.0
 10
77.25712753059892
 20
-138.9799750086578
 30
0.0
 10
77.2402465627212
 20
-138.975496384527
 30
0.0
 10
77.07729354626888
 20
-138.975496384527
 30
0.0
  0
SPLINE
  5
E2
330
DD
100
AcDbEntity
  8
_U+30EC_U+30A4_U+30E4_U+30FC 1
370
     0
100
AcDbSpline
210
0.0
220
0.0
230
1.0
 70
    11
 71
     3
 72
    20
 73
    16
 74
     0
 42
0.0000000001
 43
0.0000000001
 12
1.0
 22
0.0
 32
0.0
 13
1.0
 23
0.0
 33
0.0
 40
0.0
 40
0.0
 40
0.0
 40
0.0
 40
1.0
 40
1.0
 40
1.0
 40
2.0
 40
2.0
 40
2.0
 40
3.0
 40
3.0
 40
3.0
 40
4.0
 40
4.0
 40
4.0
 40
5.0
 40
5.0
 40
5.0
 40
5.0
 10
76.4489081297593
 20
-138.5104084940182
 30
0.0
 10
76.4489081297593
 20
-138.5104084940182
 30
0.0
 10
76.41721325129501
 20
-138.5104084940182
 30
0.0
 10
76.41721325129501
 20
-138.5104084940182
 30
0.0
 10
76.46372204034589
 20
-138.6096272439934
 30
0.0
 10
76.49541691881018
 20
-138.6898979687998
 30
0.0
 10
76.52917885456563
 20
-138.8170219922055
 30
0.0
 10
76.52917885456563
 20
-138.8170219922055
 30
0.0
 10
76.73657360277767
 20
-138.8170219922055
 30
0.0
 10
76.73657360277767
 20
-138.8170219922055
 30
0.0
 10
76.76826848124196
 20
-138.7240044141037
 30
0.0
 10
76.79169513054167
 20
-138.6392550651666
 30
0.0
 10
76.81477727029284
 20
-138.5104084940182
 30
0.0
 10
76.81477727029284
 20
-138.5104084940182
 30
0.0
 10
76.4489081297593
 20
-138.5104084940182
 30
0.0
 10
76.4489081297593
 20
-138.5104084940182
 30
0.0
  0
SPLINE
  5
E3
330
DD
100
AcDbEntity
  8
_U+30EC_U+30A4_U+30E4_U+30FC 1
370
     0
100
AcDbSpline
210
0.0
220
0.0
230
1.0
 70
    11
 71
     3
 72
    17
 73
    13
 74
     0
 42
0.0000000001
 43
0.0000000001
 12
1.0
 22
0.0
 32
0.0
 13
1.0
 23
0.0
 33
0.0
 40
0.0
 40
0.0
 40
0.0
 40
0.0
 40
1.0
 40
1.0
 40
1.0
 40
2.0
 40
2.0
 40
2.0
 40
3.0
 40
3.0
 40
3.0
 40
4.0
 40
4.0
 40
4.0
 40
4.0
 10
76.5122978866879
 20
-139.3606580597779
 30
0.0
 10
76.49541691881018
 20
-139.390285880951
 30
0.0
 10
76.444774015177
 20
-139.4833034590528
 30
0.0
 10
76.43409421917274
 20
-139.5022514842217
 30
0.0
 10
76.62460799950705
 20
-139.561507126568
 30
0.0
 10
76.64562308196707
 20
-139.5680528079899
 30
0.0
 10
76.71762557760879
 20
-139.5956135718719
 30
0.0
 10
76.77274710537279
 20
-139.5087971656436
 30
0.0
 10
76.79582924512397
 20
-139.4347276127108
 30
0.0
 10
76.81064315571054
 20
-139.3606580597779
 30
0.0
 10
76.81064315571054
 20
-139.3606580597779
 30
0.0
 10
76.5122978866879
 20
-139.3606580597779
 30
0.0
 10
76.5122978866879
 20
-139.3606580597779
 30
0.0
  0
HATCH
  5
E4
330
DD
100
AcDbEntity
  8
_U+30EC_U+30A4_U+30E4_U+30FC 1
 62
   179
420
  2234388
100
AcDbHatch
 10
0.0
 20
0.0
 30
0.0
210
0.0
220
0.0
230
1.0
  2
SOLID
 70
     1
 71
     0
 91
        3
 92
        1
 93
        1
 72
     4
 94
        3
 73
     0
 74
     1
 95
      242
 96
      238
 40
0.0
 40
0.0
 40
0.0
 40
0.0
 40
1.0
 40
1.0
 40
1.0
 40
2.0
 40
2.0
 40
2.0
 40
3.0
 40
3.0
 40
3.0
 40
4.0
 40
4.0
 40
4.0
 40
5.0
 40
5.0
 40
5.0
 40
6.0
 40
6.0
 40
6.0
 40
7.0
 40
7.0
 40
7.0
 40
8.0
 40
8.0
 40
8.0
 40
9.0
 40
9.0
 40
9.0
 40
10.0
 40
10.0
 40
10.0
 40
11.0
 40
11.0
 40
11.0
 40
12.0
 40
12.0
 40
12.0
 40
13.0
 40
13.0
 40
13.0
 40
14.0
 40
14.0
 40
14.0
 40
15.0
 40
15.0
 40
15.0
 40
16.0
 40
16.0
 40
16.0
 40
17.0
 40
17.0
 40
17.0
 40
18.0
 40
18.0
 40
18.0
 40
19.0
 40
19.0
 40
19.0
 40
20.0
 40
20.0
 40
20.0
 40
21.0
 40
21.0
 40
21.0
 40
22.0
 40
22.0
 40
22.0
 40
23.0
 40
23.0
 40
23.0
 40
24.0
 40
24.0
 40
24.0
 40
25.0
 40
25.0
 40
25.0
 40
26.0
 40
26.0
 40
26.0
 40
27.0
 40
27.0
 40
27.0
 40
28.0
 40
28.0
 40
28.0
 40
29.0
 40
29.0
 40
29.0
 40
30.0
 40
30.0
 40
30.0
 40
31.0
 40
31.0
 40
31.0
 40
32.0
 40
32.0
 40
32.0
 40
33.0
 40
33.0
 40
33.0
 40
34.0
 40
34.0
 40
34.0
 40
35.0
 40
35.0
 40
35.0
 40
36.0
 40
36.0
 40
36.0
 40
37.0
 40
37.0
 40
37.0
 40
38.0
 40
38.0
 40
38.0
 40
39.0
 40
39.0
 40
39.0
 40
40.0
 40
40.0
 40
40.0
 40
41.0
 40
41.0
 40
41.0
 40
42.0
 40
42.0
 40
42.0
 40
43.0
 40
43.0
 40
43.0
 40
44.0
 40
44.0
 40
44.0
 40
45.0
 40
45.0
 40
45.0
 40
46.0
 40
46.0
 40
46.0
 40
47.0
 40
47.0
 40
47.0
 40
48.0
 40
48.0
 40
48.0
 40
49.0
 40
49.0
 40
49.0
 40
50.0
 40
50.0
 40
50.0
 40
51.0
 40
51.0
 40
51.0
 40
52.0
 40
52.0
 40
52.0
 40
53.0
 40
53.0
 40
53.0
 40
54.0
 40
54.0
 40
54.0
 40
55.0
 40
55.0
 40
55.0
 40
56.0
 40
56.0
 40
56.0
 40
57.0
 40
57.0
 40
57.0
 40
58.0
 40
58.0
 40
58.0
 40
59.0
 40
59.0
 40
59.0
 40
60.0
 40
60.0
 40
60.0
 40
61.0
 40
61.0
 40
61.0
 40
62.0
 40
62.0
 40
62.0
 40
63.0
 40
63.0
 40
63.0
 40
64.0
 40
64.0
 40
64.0
 40
65.0
 40
65.0
 40
65.0
 40
66.0
 40
66.0
 40
66.0
 40
67.0
 40
67.0
 40
67.0
 40
68.0
 40
68.0
 40
68.0
 40
69.0
 40
69.0
 40
69.0
 40
70.0
 40
70.0
 40
70.0
 40
71.0
 40
71.0
 40
71.0
 40
72.0
 40
72.0
 40
72.0
 40
73.0
 40
73.0
 40
73.0
 40
74.0
 40
74.0
 40
74.0
 40
75.0
 40
75.0
 40
75.0
 40
76.0
 40
76.0
 40
76.0
 40
77.0
 40
77.0
 40
77.0
 40
78.0
 40
78.0
 40
78.0
 40
79.0
 40
79.0
 40
79.0
 40
79.0
 10
77.07729354626888
 20
-138.975496384527
 10
77.07729354626888
 20
-138.975496384527
 10
76.82339000900596
 20
-138.975496384527
 10
76.82339000900596
 20
-138.975496384527
 10
76.82339000900596
 20
-138.975496384527
 10
76.54640433199188
 20
-138.975496384527
 10
76.54640433199188
 20
-138.975496384527
 10
76.54640433199188
 20
-138.975496384527
 10
76.67318384584907
 20
-139.0178710589955
 10
76.67318384584907
 20
-139.0178710589955
 10
76.68386364185335
 20
-139.0223496831264
 10
76.69661049514876
 20
-139.0285508549998
 10
76.69661049514876
 20
-139.0412977082952
 10
76.69661049514876
 20
-139.0623127907553
 10
76.66457110713594
 20
-139.0688584721772
 10
76.64355602467592
 20
-139.0729925867595
 10
76.63287622867165
 20
-139.0960747265107
 10
76.6032484074985
 20
-139.161876050279
 10
76.58430038232962
 20
-139.2063177820387
 10
76.58430038232962
 20
-139.2063177820387
 10
76.85508488747026
 20
-139.2063177820387
 10
76.85508488747026
 20
-139.2063177820387
 10
76.94603540828085
 20
-139.2063177820387
 10
77.14275036048862
 20
-139.2018391579079
 10
77.28468829448092
 20
-139.1935709287433
 10
77.28468829448092
 20
-139.1935709287433
 10
77.28468829448092
 20
-139.3713378557822
 10
77.28468829448092
 20
-139.3713378557822
 10
77.20200600283492
 20
-139.3668592316513
 10
77.1809909203749
 20
-139.3668592316513
 10
77.00115693604485
 20
-139.3627251170691
 10
76.96946205758056
 20
-139.5170653948082
 10
76.92502032582084
 20
-139.5976806291631
 10
76.8805785940611
 20
-139.6672715579651
 10
77.00115693604485
 20
-139.7265272003114
 10
77.10692136744203
 20
-139.7943955813708
 10
77.21061874154805
 20
-139.8767333634683
 10
77.21061874154805
 20
-139.8767333634683
 10
77.09210745685544
 20
-140.0438204945029
 10
77.09210745685544
 20
-140.0438204945029
 10
77.06868080755575
 20
-140.0248724693341
 10
77.05593395426033
 20
-140.0166042401695
 10
76.9439683509897
 20
-139.9318548912323
 10
76.89539250464769
 20
-139.893614331346
 10
76.83613686230139
 20
-139.8577853382994
 10
76.75552162794654
 20
-139.8133436065397
 10
76.5439927651522
 20
-139.9997232722917
 10
76.33900958377984
 20
-140.0228054120429
 10
76.0489325439218
 20
-140.0524332332161
 10
76.0489325439218
 20
-140.0524332332161
 10
75.9455796793643
 20
-139.872599248886
 10
75.9455796793643
 20
-139.872599248886
 10
76.26287297355582
 20
-139.8684651343037
 10
76.43822833375503
 20
-139.8429714277129
 10
76.59050155420307
 20
-139.7330728817334
 10
76.472334779059
 20
-139.6820854685517
 10
76.38345131553956
 20
-139.6548692142182
 10
76.34727781294444
 20
-139.6421223609228
 10
76.32832978777556
 20
-139.6696831248048
 10
76.31351587718899
 20
-139.6886311499737
 10
76.28595511330698
 20
-139.7223930857291
 10
76.28595511330698
 20
-139.7223930857291
 10
76.08924016109923
 20
-139.6400553036317
 10
76.08924016109923
 20
-139.6400553036317
 10
76.17192245274522
 20
-139.5594400692768
 10
76.23324515238266
 20
-139.4643554338839
 10
76.29008922788928
 20
-139.3627251170691
 10
76.0999199571035
 20
-139.3668592316513
 10
76.07856036509494
 20
-139.3668592316513
 10
75.99622258299748
 20
-139.3713378557822
 10
75.99622258299748
 20
-139.3713378557822
 10
75.99622258299748
 20
-139.1935709287433
 10
75.99622258299748
 20
-139.1935709287433
 10
76.13574895015009
 20
-139.1997721006167
 10
76.34521075565328
 20
-139.2042507247476
 10
76.37070446224413
 20
-139.2042507247476
 10
76.38758543012186
 20
-139.1701442794436
 10
76.44270695788586
 20
-139.0495659374598
 10
76.46165498305473
 20
-138.975496384527
 10
76.44270695788586
 20
-138.975496384527
 10
76.26494003084696
 20
-138.9820420659489
 10
76.07029213593034
 20
-138.9947889192444
 10
76.07029213593034
 20
-138.9947889192444
 10
76.07029213593034
 20
-139.1281141145235
 10
76.07029213593034
 20
-139.1281141145235
 10
76.02171628958833
 20
-139.1532633115659
 10
75.96246064724203
 20
-139.1849581900302
 10
75.82913545196286
 20
-139.2507595137984
 10
75.82913545196286
 20
-139.2507595137984
 10
75.82913545196286
 20
-139.3964870528245
 10
75.82913545196286
 20
-139.3964870528245
 10
75.82913545196286
 20
-139.3964870528245
 10
75.82913545196286
 20
-139.8643310197214
 10
75.82913545196286
 20
-139.8643310197214
 10
75.82913545196286
 20
-139.9911105335786
 10
75.79296194936774
 20
-140.0503661759249
 10
75.5097751004802
 20
-140.0417534372118
 10
75.5097751004802
 20
-140.0417534372118
 10
75.40607772637418
 20
-139.8347031985483
 10
75.40607772637418
 20
-139.8347031985483
 10
75.46946748330278
 20
-139.8471055422952
 10
75.5180433296448
 20
-139.851584166426
 10
75.55835094682222
 20
-139.851584166426
 10
75.63448755704624
 20
-139.851584166426
 10
75.64516735305051
 20
-139.8281575171263
 10
75.64516735305051
 20
-139.7627007029066
 10
75.64516735305051
 20
-139.7627007029066
 10
75.64516735305051
 20
-139.3330972958959
 10
75.64516735305051
 20
-139.3330972958959
 10
75.54767115081795
 20
-139.3734049130733
 10
75.53079018294022
 20
-139.3796060849468
 10
75.48428139388935
 20
-139.3988986196642
 10
75.48014727930705
 20
-139.4199137021242
 10
75.47566865517622
 20
-139.4495415232973
 10
75.45672063000735
 20
-139.4495415232973
 10
75.44845240084275
 20
-139.4495415232973
 10
75.43777260483847
 20
-139.4454074087151
 10
75.4312269234165
 20
-139.4219807594153
 10
75.4312269234165
 20
-139.4219807594153
 10
75.37851696249218
 20
-139.2293999217899
 10
75.37851696249218
 20
-139.2293999217899
 10
75.52458901106677
 20
-139.182891132739
 10
75.59004582528652
 20
-139.1598089929878
 10
75.64516735305051
 20
-139.1384494009793
 10
75.64516735305051
 20
-139.1384494009793
 10
75.64516735305051
 20
-138.7260714713949
 10
75.64516735305051
 20
-138.7260714713949
 10
75.64516735305051
 20
-138.7260714713949
 10
75.59211288257767
 20
-138.7260714713949
 10
75.59211288257767
 20
-138.7260714713949
 10
75.59211288257767
 20
-138.7260714713949
 10
75.5139092150625
 20
-138.7260714713949
 10
75.5139092150625
 20
-138.7260714713949
 10
75.44604083400307
 20
-138.7260714713949
 10
75.43777260483847
 20
-138.7260714713949
 10
75.40159910224335
 20
-138.7322726432683
 10
75.40159910224335
 20
-138.7322726432683
 10
75.40159910224335
 20
-138.5376247483517
 10
75.40159910224335
 20
-138.5376247483517
 10
75.42915986612535
 20
-138.5441704297737
 10
75.43777260483847
 20
-138.5441704297737
 10
75.50736353364053
 20
-138.5441704297737
 10
75.50736353364053
 20
-138.5441704297737
 10
75.6406887289197
 20
-138.5441704297737
 10
75.6406887289197
 20
-138.5441704297737
 10
75.6406887289197
 20
-138.4742349914231
 10
75.6406887289197
 20
-138.3918972093256
 10
75.63862167162854
 20
-138.3874185851948
 10
75.63035344246394
 20
-138.2075846008648
 10
75.63035344246394
 20
-138.1886365756959
 10
75.62794187562427
 20
-138.142127786645
 10
75.62794187562427
 20
-138.142127786645
 10
75.84394936254944
 20
-138.1507405253581
 10
75.84394936254944
 20
-138.1507405253581
 10
75.8546291585537
 20
-138.1507405253581
 10
75.87564424101373
 20
-138.1528075826493
 10
75.87564424101373
 20
-138.169688550527
 10
75.87564424101373
 20
-138.1886365756959
 10
75.86083033042716
 20
-138.1993163717002
 10
75.83533662383631
 20
-138.218264396869
 10
75.83533662383631
 20
-138.2689073005022
 10
75.82913545196286
 20
-138.4976616407228
 10
75.83120250925401
 20
-138.5441704297737
 10
75.96039358995088
 20
-138.5441704297737
 10
75.97279593369778
 20
-138.5441704297737
 10
76.07029213593034
 20
-138.5355576910606
 10
76.07029213593034
 20
-138.5355576910606
 10
76.07029213593034
 20
-138.7302055859772
 10
76.07029213593034
 20
-138.7302055859772
 10
76.03205157604407
 20
-138.728138528686
 10
75.96452770453318
 20
-138.7240044141037
 10
75.82913545196286
 20
-138.7260714713949
 10
75.82913545196286
 20
-138.7260714713949
 10
75.82913545196286
 20
-139.0643798480464
 10
75.82913545196286
 20
-139.0643798480464
 10
75.88425697972686
 20
-139.0412977082952
 10
75.9497137939466
 20
-139.0137369444132
 10
75.99828964028863
 20
-138.9903102951135
 10
75.99828964028863
 20
-138.9903102951135
 10
75.99828964028863
 20
-138.8128878776232
 10
75.99828964028863
 20
-138.8128878776232
 10
76.11266681039892
 20
-138.8252902213701
 10
76.23117809509151
 20
-138.8252902213701
 10
76.34727781294444
 20
-138.8252902213701
 10
76.32419567319326
 20
-138.7302055859772
 10
76.29663490931127
 20
-138.6478678038797
 10
76.23324515238266
 20
-138.5145426086006
 10
76.18880342062295
 20
-138.5166096658917
 10
76.10612112897695
 20
-138.520743780474
 10
76.0682250786392
 20
-138.5228108377651
 10
76.0682250786392
 20
-138.5228108377651
 10
76.0682250786392
 20
-138.3429768534351
 10
76.0682250786392
 20
-138.3429768534351
 10
76.19293753520525
 20
-138.3515895921482
 10
76.36657034766183
 20
-138.3557237067305
 10
76.4489081297593
 20
-138.3557237067305
 10
76.4489081297593
 20
-138.3557237067305
 10
76.5315904214053
 20
-138.3557237067305
 10
76.5315904214053
 20
-138.3557237067305
 10
76.5315904214053
 20
-138.1927706902782
 10
76.5315904214053
 20
-138.1824354038225
 10
76.52917885456563
 20
-138.1273138760585
 10
76.52917885456563
 20
-138.1273138760585
 10
76.75345457065539
 20
-138.1528075826493
 10
76.75345457065539
 20
-138.1528075826493
 10
76.75793319478622
 20
-138.1528075826493
 10
76.77894827724624
 20
-138.1548746399405
 10
76.77894827724624
 20
-138.1717556078182
 10
76.77894827724624
 20
-138.1865695184048
 10
76.76826848124196
 20
-138.1951822571179
 10
76.74070771735997
 20
-138.2099961677044
 10
76.73450654548651
 20
-138.2754529819242
 10
76.73243948819537
 20
-138.2964680643842
 10
76.73243948819537
 20
-138.3557237067305
 10
76.73243948819537
 20
-138.3557237067305
 10
76.82752412358826
 20
-138.3557237067305
 10
76.82752412358826
 20
-138.3557237067305
 10
76.91020641523426
 20
-138.3557237067305
 10
77.08349471814232
 20
-138.3515895921482
 10
77.20855168425689
 20
-138.3429768534351
 10
77.20855168425689
 20
-138.3429768534351
 10
77.20855168425689
 20
-138.5228108377651
 10
77.20855168425689
 20
-138.5228108377651
 10
77.17892386308374
 20
-138.520743780474
 10
77.06041257839115
 20
-138.5166096658917
 10
77.02010496121373
 20
-138.5145426086006
 10
77.00529105062715
 20
-138.5651855122337
 10
76.9715291148717
 20
-138.6774956250528
 10
76.90572779110343
 20
-138.8170219922055
 10
76.948102465572
 20
-138.8170219922055
 10
77.22543265213461
 20
-138.7980739670366
 10
77.28675535177206
 20
-138.7956624001969
 10
77.28675535177206
 20
-138.7956624001969
 10
77.28675535177206
 20
-138.9799750086578
 10
77.28675535177206
 20
-138.9799750086578
 10
77.25712753059892
 20
-138.9799750086578
 10
77.2402465627212
 20
-138.975496384527
 10
77.07729354626888
 20
-138.975496384527
 97
        0
 97
        0
 92
        1
 93
        1
 72
     4
 94
        3
 73
     0
 74
     1
 95
       20
 96
       16
 40
0.0
 40
0.0
 40
0.0
 40
0.0
 40
1.0
 40
1.0
 40
1.0
 40
2.0
 40
2.0
 40
2.0
 40
3.0
 40
3.0
 40
3.0
 40
4.0
 40
4.0
 40
4.0
 40
5.0
 40
5.0
 40
5.0
 40
5.0
 10
76.4489081297593
 20
-138.5104084940182
 10
76.4489081297593
 20
-138.5104084940182
 10
76.41721325129501
 20
-138.5104084940182
 10
76.41721325129501
 20
-138.5104084940182
 10
76.46372204034589
 20
-138.6096272439934
 10
76.49541691881018
 20
-138.6898979687998
 10
76.52917885456563
 20
-138.8170219922055
 10
76.52917885456563
 20
-138.8170219922055
 10
76.73657360277767
 20
-138.8170219922055
 10
76.73657360277767
 20
-138.8170219922055
 10
76.76826848124196
 20
-138.7240044141037
 10
76.79169513054167
 20
-138.6392550651666
 10
76.81477727029284
 20
-138.5104084940182
 10
76.81477727029284
 20
-138.5104084940182
 10
76.4489081297593
 20
-138.5104084940182
 10
76.4489081297593
 20
-138.5104084940182
 97
        0
 97
        0
 92
        1
 93
        1
 72
     4
 94
        3
 73
     0
 74
     1
 95
       17
 96
       13
 40
0.0
 40
0.0
 40
0.0
 40
0.0
 40
1.0
 40
1.0
 40
1.0
 40
2.0
 40
2.0
 40
2.0
 40
3.0
 40
3.0
 40
3.0
 40
4.0
 40
4.0
 40
4.0
 40
4.0
 10
76.5122978866879
 20
-139.3606580597779
 10
76.49541691881018
 20
-139.390285880951
 10
76.444774015177
 20
-139.4833034590528
 10
76.43409421917274
 20
-139.5022514842217
 10
76.62460799950705
 20
-139.561507126568
 10
76.64562308196707
 20
-139.5680528079899
 10
76.71762557760879
 20
-139.5956135718719
 10
76.77274710537279
 20
-139.5087971656436
 10
76.79582924512397
 20
-139.4347276127108
 10
76.81064315571054
 20
-139.3606580597779
 10
76.81064315571054
 20
-139.3606580597779
 10
76.5122978866879
 20
-139.3606580597779
 10
76.5122978866879
 20
-139.3606580597779
 97
        0
 97
        0
 75
     2
 76
     1
 98
        0
  0
SPLINE
  5
E5
330
DD
100
AcDbEntity
  8
_U+30EC_U+30A4_U+30E4_U+30FC 1
370
     0
100
AcDbSpline
210
0.0
220
0.0
230
1.0
 70
    11
 71
     3
 72
   203
 73
   199
 74
     0
 42
0.0000000001
 43
0.0000000001
 12
1.0
 22
0.0
 32
0.0
 13
1.0
 23
0.0
 33
0.0
 40
0.0
 40
0.0
 40
0.0
 40
0.0
 40
1.0
 40
1.0
 40
1.0
 40
2.0
 40
2.0
 40
2.0
 40
3.0
 40
3.0
 40
3.0
 40
4.0
 40
4.0
 40
4.0
 40
5.0
 40
5.0
 40
5.0
 40
6.0
 40
6.0
 40
6.0
 40
7.0
 40
7.0
 40
7.0
 40
8.0
 40
8.0
 40
8.0
 40
9.0
 40
9.0
 40
9.0
 40
10.0
 40
10.0
 40
10.0
 40
11.0
 40
11.0
 40
11.0
 40
12.0
 40
12.0
 40
12.0
 40
13.0
 40
13.0
 40
13.0
 40
14.0
 40
14.0
 40
14.0
 40
15.0
 40
15.0
 40
15.0
 40
16.0
 40
16.0
 40
16.0
 40
17.0
 40
17.0
 40
17.0
 40
18.0
 40
18.0
 40
18.0
 40
19.0
 40
19.0
 40
19.0
 40
20.0
 40
20.0
 40
20.0
 40
21.0
 40
21.0
 40
21.0
 40
22.0
 40
22.0
 40
22.0
 40
23.0
 40
23.0
 40
23.0
 40
24.0
 40
24.0
 40
24.0
 40
25.0
 40
25.0
 40
25.0
 40
26.0
 40
26.0
 40
26.0
 40
27.0
 40
27.0
 40
27.0
 40
28.0
 40
28.0
 40
28.0
 40
29.0
 40
29.0
 40
29.0
 40
30.0
 40
30.0
 40
30.0
 40
31.0
 40
31.0
 40
31.0
 40
32.0
 40
32.0
 40
32.0
 40
33.0
 40
33.0
 40
33.0
 40
34.0
 40
34.0
 40
34.0
 40
35.0
 40
35.0
 40
35.0
 40
36.0
 40
36.0
 40
36.0
 40
37.0
 40
37.0
 40
37.0
 40
38.0
 40
38.0
 40
38.0
 40
39.0
 40
39.0
 40
39.0
 40
40.0
 40
40.0
 40
40.0
 40
41.0
 40
41.0
 40
41.0
 40
42.0
 40
42.0
 40
42.0
 40
43.0
 40
43.0
 40
43.0
 40
44.0
 40
44.0
 40
44.0
 40
45.0
 40
45.0
 40
45.0
 40
46.0
 40
46.0
 40
46.0
 40
47.0
 40
47.0
 40
47.0
 40
48.0
 40
48.0
 40
48.0
 40
49.0
 40
49.0
 40
49.0
 40
50.0
 40
50.0
 40
50.0
 40
51.0
 40
51.0
 40
51.0
 40
52.0
 40
52.0
 40
52.0
 40
53.0
 40
53.0
 40
53.0
 40
54.0
 40
54.0
 40
54.0
 40
55.0
 40
55.0
 40
55.0
 40
56.0
 40
56.0
 40
56.0
 40
57.0
 40
57.0
 40
57.0
 40
58.0
 40
58.0
 40
58.0
 40
59.0
 40
59.0
 40
59.0
 40
60.0
 40
60.0
 40
60.0
 40
61.0
 40
61.0
 40
61.0
 40
62.0
 40
62.0
 40
62.0
 40
63.0
 40
63.0
 40
63.0
 40
64.0
 40
64.0
 40
64.0
 40
65.0
 40
65.0
 40
65.0
 40
66.0
 40
66.0
 40
66.0
 40
66.0
 10
78.76883542952655
 20
-139.0433647655864
 30
0.0
 10
78.76883542952655
 20
-139.0433647655864
 30
0.0
 10
78.21004094181902
 20
-139.0433647655864
 30
0.0
 10
78.21004094181902
 20
-139.0433647655864
 30
0.0
 10
78.19970565536327
 20
-139.0878064973461
 30
0.0
 10
78.19109291665015
 20
-139.1195013758104
 30
0.0
 10
78.17834606335472
 20
-139.1577419356967
 30
0.0
 10
78.20383976994557
 20
-139.1577419356967
 30
0.0
 10
78.21865368053214
 20
-139.1598089929878
 30
0.0
 10
78.2248548524056
 20
-139.1598089929878
 30
0.0
 10
78.2248548524056
 20
-139.1598089929878
 30
0.0
 10
78.41330157544876
 20
-139.1598089929878
 30
0.0
 10
78.41330157544876
 20
-139.1598089929878
 30
0.0
 10
78.41330157544876
 20
-139.1598089929878
 30
0.0
 10
78.78778345469541
 20
-139.1598089929878
 30
0.0
 10
78.78778345469541
 20
-139.1598089929878
 30
0.0
 10
78.83842635832859
 20
-139.1598089929878
 30
0.0
 10
79.12195771676465
 20
-139.1470621396924
 30
0.0
 10
79.15365259522895
 20
-139.1470621396924
 30
0.0
 10
79.1515855379378
 20
-139.1746229035744
 30
0.0
 10
79.14951848064665
 20
-139.1935709287433
 30
0.0
 10
79.14951848064665
 20
-139.2231987499164
 30
0.0
 10
79.1474514233555
 20
-139.2548936283807
 30
0.0
 10
79.1474514233555
 20
-139.390285880951
 30
0.0
 10
79.1474514233555
 20
-139.417846644833
 30
0.0
 10
79.1474514233555
 20
-139.417846644833
 30
0.0
 10
79.1474514233555
 20
-139.6631374433828
 30
0.0
 10
79.1474514233555
 20
-139.6631374433828
 30
0.0
 10
79.1474514233555
 20
-139.7075791751426
 30
0.0
 10
79.1515855379378
 20
-139.9042941273503
 30
0.0
 10
79.1557196525201
 20
-140.0565673477984
 30
0.0
 10
79.1557196525201
 20
-140.0565673477984
 30
0.0
 10
78.92937687913918
 20
-140.0565673477984
 30
0.0
 10
78.92937687913918
 20
-140.0565673477984
 30
0.0
 10
78.92937687913918
 20
-140.0565673477984
 30
0.0
 10
78.93144393643034
 20
-140.0228054120429
 30
0.0
 10
78.93144393643034
 20
-140.0228054120429
 30
0.0
 10
78.93144393643034
 20
-140.0228054120429
 30
0.0
 10
78.22933347653642
 20
-140.0228054120429
 30
0.0
 10
78.22933347653642
 20
-140.0228054120429
 30
0.0
 10
78.22933347653642
 20
-140.0228054120429
 30
0.0
 10
78.23140053382757
 20
-140.0565673477984
 30
0.0
 10
78.23140053382757
 20
-140.0565673477984
 30
0.0
 10
78.23140053382757
 20
-140.0565673477984
 30
0.0
 10
78.01332598961126
 20
-140.0565673477984
 30
0.0
 10
78.01332598961126
 20
-140.0565673477984
 30
0.0
 10
78.01780461374209
 20
-140.0017903295829
 30
0.0
 10
78.01780461374209
 20
-139.9890434762875
 30
0.0
 10
78.02400578561553
 20
-139.8746663061772
 30
0.0
 10
78.02607284290669
 20
-139.8471055422952
 30
0.0
 10
78.02813990019783
 20
-139.7141248565645
 30
0.0
 10
78.02813990019783
 20
-139.6948323218471
 30
0.0
 10
78.02813990019783
 20
-139.6948323218471
 30
0.0
 10
78.02813990019783
 20
-139.4919161977659
 30
0.0
 10
78.02813990019783
 20
-139.4919161977659
 30
0.0
 10
77.88861353304522
 20
-139.741341110898
 30
0.0
 10
77.71945934471944
 20
-139.872599248886
 30
0.0
 10
77.61369491332228
 20
-139.9380560631058
 30
0.0
 10
77.61369491332228
 20
-139.9380560631058
 30
0.0
 10
77.44006210086569
 20
-139.7985296959532
 30
0.0
 10
77.44006210086569
 20
-139.7985296959532
 30
0.0
 10
77.52894556438513
 20
-139.74788679232
 30
0.0
 10
77.67295055566858
 20
-139.6610703860917
 30
0.0
 10
77.81040986553003
 20
-139.4664224911751
 30
0.0
 10
77.90136038634064
 20
-139.3396429773179
 30
0.0
 10
77.96681720056039
 20
-139.1956379860344
 30
0.0
 10
78.00092364586436
 20
-139.0433647655864
 30
0.0
 10
77.77216930564377
 20
-139.0454318228775
 30
0.0
 10
77.59233532131373
 20
-139.0519775042995
 30
0.0
 10
77.49725068592083
 20
-139.0540445615907
 30
0.0
 10
77.49725068592083
 20
-139.0540445615907
 30
0.0
 10
77.49725068592083
 20
-138.8762776345518
 30
0.0
 10
77.49725068592083
 20
-138.8762776345518
 30
0.0
 10
77.69396563812859
 20
-138.8824788064252
 30
0.0
 10
77.97749699656465
 20
-138.886957430556
 30
0.0
 10
78.12770315972155
 20
-138.886957430556
 30
0.0
 10
78.12770315972155
 20
-138.886957430556
 30
0.0
 10
78.34129907980704
 20
-138.886957430556
 30
0.0
 10
78.34129907980704
 20
-138.886957430556
 30
0.0
 10
78.34129907980704
 20
-138.886957430556
 30
0.0
 10
78.34129907980704
 20
-138.7787814323192
 30
0.0
 10
78.34129907980704
 20
-138.7787814323192
 30
0.0
 10
78.34129907980704
 20
-138.7787814323192
 30
0.0
 10
78.19522703123245
 20
-138.7787814323192
 30
0.0
 10
78.19522703123245
 20
-138.7787814323192
 30
0.0
 10
78.02607284290669
 20
-138.7787814323192
 30
0.0
 10
77.85691865458091
 20
-138.78326005645
 30
0.0
 10
77.68983152354629
 20
-138.7894612283235
 30
0.0
 10
77.68983152354629
 20
-138.7894612283235
 30
0.0
 10
77.68983152354629
 20
-138.6182399827066
 30
0.0
 10
77.68983152354629
 20
-138.6182399827066
 30
0.0
 10
77.84417180128548
 20
-138.6285752691623
 30
0.0
 10
78.03020695748899
 20
-138.6285752691623
 30
0.0
 10
78.19522703123245
 20
-138.6285752691623
 30
0.0
 10
78.19522703123245
 20
-138.6285752691623
 30
0.0
 10
78.34129907980704
 20
-138.6285752691623
 30
0.0
 10
78.34129907980704
 20
-138.6285752691623
 30
0.0
 10
78.34129907980704
 20
-138.6285752691623
 30
0.0
 10
78.34129907980704
 20
-138.5104084940182
 30
0.0
 10
78.34129907980704
 20
-138.5104084940182
 30
0.0
 10
78.34129907980704
 20
-138.5104084940182
 30
0.0
 10
78.21004094181902
 20
-138.5104084940182
 30
0.0
 10
78.21004094181902
 20
-138.5104084940182
 30
0.0
 10
78.16353215276814
 20
-138.5104084940182
 30
0.0
 10
77.96061602868693
 20
-138.5186767231828
 30
0.0
 10
77.91824135421837
 20
-138.5186767231828
 30
0.0
 10
77.71532523013714
 20
-138.5228108377651
 30
0.0
 10
77.6388441103646
 20
-138.5248778950563
 30
0.0
 10
77.56064044284943
 20
-138.527289461896
 30
0.0
 10
77.56064044284943
 20
-138.527289461896
 30
0.0
 10
77.56064044284943
 20
-138.3429768534351
 30
0.0
 10
77.56064044284943
 20
-138.3429768534351
 30
0.0
 10
77.67501761295972
 20
-138.3515895921482
 30
0.0
 10
77.71945934471944
 20
-138.3515895921482
 30
0.0
 10
78.1022094531307
 20
-138.3602023308613
 30
0.0
 10
78.03881969620211
 20
-138.2647731859199
 30
0.0
 10
78.0112589323201
 20
-138.2372124220379
 30
0.0
 10
77.97542993927351
 20
-138.2013834289913
 30
0.0
 10
77.97542993927351
 20
-138.2013834289913
 30
0.0
 10
78.15078529947273
 20
-138.1187011373453
 30
0.0
 10
78.15078529947273
 20
-138.1187011373453
 30
0.0
 10
78.19109291665015
 20
-138.1548746399405
 30
0.0
 10
78.23553464840987
 20
-138.197249314409
 30
0.0
 10
78.30960420134274
 20
-138.3071478603885
 30
0.0
 10
78.30960420134274
 20
-138.3071478603885
 30
0.0
 10
78.19522703123245
 20
-138.3622693881525
 30
0.0
 10
78.19522703123245
 20
-138.3622693881525
 30
0.0
 10
78.19522703123245
 20
-138.3622693881525
 30
0.0
 10
78.20590682723672
 20
-138.3622693881525
 30
0.0
 10
78.20590682723672
 20
-138.3622693881525
 30
0.0
 10
78.20590682723672
 20
-138.3622693881525
 30
0.0
 10
78.72852781234913
 20
-138.3622693881525
 30
0.0
 10
78.72852781234913
 20
-138.3622693881525
 30
0.0
 10
78.72852781234913
 20
-138.3622693881525
 30
0.0
 10
78.63344317695622
 20
-138.3178276563928
 30
0.0
 10
78.63344317695622
 20
-138.3178276563928
 30
0.0
 10
78.6606594312897
 20
-138.2795870965065
 30
0.0
 10
78.71784801634485
 20
-138.1993163717002
 30
0.0
 10
78.73266192693143
 20
-138.1252468187673
 30
0.0
 10
78.73266192693143
 20
-138.1252468187673
 30
0.0
 10
78.94625784701691
 20
-138.1886365756959
 30
0.0
 10
78.94625784701691
 20
-138.1886365756959
 30
0.0
 10
78.95487058573003
 20
-138.1907036329871
 30
0.0
 10
78.97588566819006
 20
-138.2013834289913
 30
0.0
 10
78.97588566819006
 20
-138.2223985114514
 30
0.0
 10
78.97588566819006
 20
-138.2606390713376
 30
0.0
 10
78.91042885397032
 20
-138.2606390713376
 30
0.0
 10
78.89148082880143
 20
-138.2606390713376
 30
0.0
 10
78.88080103279717
 20
-138.2795870965065
 30
0.0
 10
78.85737438349747
 20
-138.3198947136839
 30
0.0
 10
78.82774656232432
 20
-138.3602023308613
 30
0.0
 10
79.22772214816182
 20
-138.3536566494394
 30
0.0
 10
79.25734996933497
 20
-138.3515895921482
 30
0.0
 10
79.333486579559
 20
-138.3453884202748
 30
0.0
 10
79.333486579559
 20
-138.3453884202748
 30
0.0
 10
79.333486579559
 20
-138.527289461896
 30
0.0
 10
79.333486579559
 20
-138.527289461896
 30
0.0
 10
79.31453855439013
 20
-138.527289461896
 30
0.0
 10
79.28904484779927
 20
-138.5248778950563
 30
0.0
 10
79.06924775584034
 20
-138.5166096658917
 30
0.0
 10
79.01826034265864
 20
-138.5145426086006
 30
0.0
 10
78.7984632506997
 20
-138.5104084940182
 30
0.0
 10
78.75402151893996
 20
-138.5104084940182
 30
0.0
 10
78.75402151893996
 20
-138.5104084940182
 30
0.0
 10
78.5380140320148
 20
-138.5104084940182
 30
0.0
 10
78.5380140320148
 20
-138.5104084940182
 30
0.0
 10
78.5380140320148
 20
-138.5104084940182
 30
0.0
 10
78.5380140320148
 20
-138.6285752691623
 30
0.0
 10
78.5380140320148
 20
-138.6285752691623
 30
0.0
 10
78.5380140320148
 20
-138.6285752691623
 30
0.0
 10
78.7116468444714
 20
-138.6285752691623
 30
0.0
 10
78.7116468444714
 20
-138.6285752691623
 30
0.0
 10
78.87459986092371
 20
-138.6285752691623
 30
0.0
 10
79.06476913170951
 20
-138.6285752691623
 30
0.0
 10
79.22152097628837
 20
-138.6182399827066
 30
0.0
 10
79.22152097628837
 20
-138.6182399827066
 30
0.0
 10
79.22152097628837
 20
-138.7894612283235
 30
0.0
 10
79.22152097628837
 20
-138.7894612283235
 30
0.0
 10
79.01205917078518
 20
-138.7811929991589
 30
0.0
 10
78.81534421857742
 20
-138.7787814323192
 30
0.0
 10
78.7116468444714
 20
-138.7787814323192
 30
0.0
 10
78.7116468444714
 20
-138.7787814323192
 30
0.0
 10
78.5380140320148
 20
-138.7787814323192
 30
0.0
 10
78.5380140320148
 20
-138.7787814323192
 30
0.0
 10
78.5380140320148
 20
-138.7787814323192
 30
0.0
 10
78.5380140320148
 20
-138.886957430556
 30
0.0
 10
78.5380140320148
 20
-138.886957430556
 30
0.0
 10
78.5380140320148
 20
-138.886957430556
 30
0.0
 10
78.76883542952655
 20
-138.886957430556
 30
0.0
 10
78.76883542952655
 20
-138.886957430556
 30
0.0
 10
78.90181611525719
 20
-138.886957430556
 30
0.0
 10
79.18982609782408
 20
-138.8824788064252
 30
0.0
 10
79.39894339377874
 20
-138.8762776345518
 30
0.0
 10
79.39894339377874
 20
-138.8762776345518
 30
0.0
 10
79.39894339377874
 20
-139.0540445615907
 30
0.0
 10
79.39894339377874
 20
-139.0540445615907
 30
0.0
 10
79.20670706570179
 20
-139.0474988801687
 30
0.0
 10
78.89354788609259
 20
-139.0433647655864
 30
0.0
 10
78.76883542952655
 20
-139.0433647655864
 30
0.0
  0
POLYLINE
  5
E6
330
DD
100
AcDbEntity
  8
_U+30EC_U+30A4_U+30E4_U+30FC 1
370
     0
100
AcDb2dPolyline
 66
     1
 10
0.0
 20
0.0
 30
0.0
  0
VERTEX
  5
E7
330
E6
100
AcDbEntity
  8
_U+30EC_U+30A4_U+30E4_U+30FC 1
370
     0
100
AcDbVertex
100
AcDb2dVertex
 10
78.93385550327001
 20
-139.2993353601404
 30
0.0
  0
VERTEX
  5
E8
330
E6
100
AcDbEntity
  8
_U+30EC_U+30A4_U+30E4_U+30FC 1
370
     0
100
AcDbVertex
100
AcDb2dVertex
 10
78.22726641924527
 20
-139.2993353601404
 30
0.0
  0
VERTEX
  5
E9
330
E6
100
AcDbEntity
  8
_U+30EC_U+30A4_U+30E4_U+30FC 1
370
     0
100
AcDbVertex
100
AcDb2dVertex
 10
78.22726641924527
 20
-139.4071668488288
 30
0.0
  0
VERTEX
  5
EA
330
E6
100
AcDbEntity
  8
_U+30EC_U+30A4_U+30E4_U+30FC 1
370
     0
100
AcDbVertex
100
AcDb2dVertex
 10
78.93385550327001
 20
-139.4071668488288
 30
0.0
  0
VERTEX
  5
EB
330
E6
100
AcDbEntity
  8
_U+30EC_U+30A4_U+30E4_U+30FC 1
370
     0
100
AcDbVertex
100
AcDb2dVertex
 10
78.93385550327001
 20
-139.2993353601404
 30
0.0
  0
SEQEND
  5
EC
330
E6
100
AcDbEntity
  8
_U+30EC_U+30A4_U+30E4_U+30FC 1
370
     0
  0
POLYLINE
  5
ED
330
DD
100
AcDbEntity
  8
_U+30EC_U+30A4_U+30E4_U+30FC 1
370
     0
100
AcDb2dPolyline
 66
     1
 10
0.0
 20
0.0
 30
0.0
  0
VERTEX
  5
EE
330
ED
100
AcDbEntity
  8
_U+30EC_U+30A4_U+30E4_U+30FC 1
370
     0
100
AcDbVertex
100
AcDb2dVertex
 10
78.93385550327001
 20
-139.5318793053948
 30
0.0
  0
VERTEX
  5
EF
330
ED
100
AcDbEntity
  8
_U+30EC_U+30A4_U+30E4_U+30FC 1
370
     0
100
AcDbVertex
100
AcDb2dVertex
 10
78.22726641924527
 20
-139.5318793053948
 30
0.0
  0
VERTEX
  5
F0
330
ED
100
AcDbEntity
  8
_U+30EC_U+30A4_U+30E4_U+30FC 1
370
     0
100
AcDbVertex
100
AcDb2dVertex
 10
78.22726641924527
 20
-139.6462564755051
 30
0.0
  0
VERTEX
  5
F1
330
ED
100
AcDbEntity
  8
_U+30EC_U+30A4_U+30E4_U+30FC 1
370
     0
100
AcDbVertex
100
AcDb2dVertex
 10
78.93385550327001
 20
-139.6462564755051
 30
0.0
  0
VERTEX
  5
F2
330
ED
100
AcDbEntity
  8
_U+30EC_U+30A4_U+30E4_U+30FC 1
370
     0
100
AcDbVertex
100
AcDb2dVertex
 10
78.93385550327001
 20
-139.5318793053948
 30
0.0
  0
SEQEND
  5
F3
330
ED
100
AcDbEntity
  8
_U+30EC_U+30A4_U+30E4_U+30FC 1
370
     0
  0
POLYLINE
  5
F4
330
DD
100
AcDbEntity
  8
_U+30EC_U+30A4_U+30E4_U+30FC 1
370
     0
100
AcDb2dPolyline
 66
     1
 10
0.0
 20
0.0
 30
0.0
  0
VERTEX
  5
F5
330
F4
100
AcDbEntity
  8
_U+30EC_U+30A4_U+30E4_U+30FC 1
370
     0
100
AcDbVertex
100
AcDb2dVertex
 10
78.93385550327001
 20
-139.775447556202
 30
0.0
  0
VERTEX
  5
F6
330
F4
100
AcDbEntity
  8
_U+30EC_U+30A4_U+30E4_U+30FC 1
370
     0
100
AcDbVertex
100
AcDb2dVertex
 10
78.22726641924527
 20
-139.775447556202
 30
0.0
  0
VERTEX
  5
F7
330
F4
100
AcDbEntity
  8
_U+30EC_U+30A4_U+30E4_U+30FC 1
370
     0
100
AcDbVertex
100
AcDb2dVertex
 10
78.22726641924527
 20
-139.8894802167638
 30
0.0
  0
VERTEX
  5
F8
330
F4
100
AcDbEntity
  8
_U+30EC_U+30A4_U+30E4_U+30FC 1
370
     0
100
AcDbVertex
100
AcDb2dVertex
 10
78.93385550327001
 20
-139.8894802167638
 30
0.0
  0
VERTEX
  5
F9
330
F4
100
AcDbEntity
  8
_U+30EC_U+30A4_U+30E4_U+30FC 1
370
     0
100
AcDbVertex
100
AcDb2dVertex
 10
78.93385550327001
 20
-139.775447556202
 30
0.0
  0
SEQEND
  5
FA
330
F4
100
AcDbEntity
  8
_U+30EC_U+30A4_U+30E4_U+30FC 1
370
     0
  0
HATCH
  5
FB
330
DD
100
AcDbEntity
  8
_U+30EC_U+30A4_U+30E4_U+30FC 1
 62
   179
420
  2234388
100
AcDbHatch
 10
0.0
 20
0.0
 30
0.0
210
0.0
220
0.0
230
1.0
  2
SOLID
 70
     1
 71
     0
 91
        4
 92
        1
 93
        1
 72
     4
 94
        3
 73
     0
 74
     1
 95
      203
 96
      199
 40
0.0
 40
0.0
 40
0.0
 40
0.0
 40
1.0
 40
1.0
 40
1.0
 40
2.0
 40
2.0
 40
2.0
 40
3.0
 40
3.0
 40
3.0
 40
4.0
 40
4.0
 40
4.0
 40
5.0
 40
5.0
 40
5.0
 40
6.0
 40
6.0
 40
6.0
 40
7.0
 40
7.0
 40
7.0
 40
8.0
 40
8.0
 40
8.0
 40
9.0
 40
9.0
 40
9.0
 40
10.0
 40
10.0
 40
10.0
 40
11.0
 40
11.0
 40
11.0
 40
12.0
 40
12.0
 40
12.0
 40
13.0
 40
13.0
 40
13.0
 40
14.0
 40
14.0
 40
14.0
 40
15.0
 40
15.0
 40
15.0
 40
16.0
 40
16.0
 40
16.0
 40
17.0
 40
17.0
 40
17.0
 40
18.0
 40
18.0
 40
18.0
 40
19.0
 40
19.0
 40
19.0
 40
20.0
 40
20.0
 40
20.0
 40
21.0
 40
21.0
 40
21.0
 40
22.0
 40
22.0
 40
22.0
 40
23.0
 40
23.0
 40
23.0
 40
24.0
 40
24.0
 40
24.0
 40
25.0
 40
25.0
 40
25.0
 40
26.0
 40
26.0
 40
26.0
 40
27.0
 40
27.0
 40
27.0
 40
28.0
 40
28.0
 40
28.0
 40
29.0
 40
29.0
 40
29.0
 40
30.0
 40
30.0
 40
30.0
 40
31.0
 40
31.0
 40
31.0
 40
32.0
 40
32.0
 40
32.0
 40
33.0
 40
33.0
 40
33.0
 40
34.0
 40
34.0
 40
34.0
 40
35.0
 40
35.0
 40
35.0
 40
36.0
 40
36.0
 40
36.0
 40
37.0
 40
37.0
 40
37.0
 40
38.0
 40
38.0
 40
38.0
 40
39.0
 40
39.0
 40
39.0
 40
40.0
 40
40.0
 40
40.0
 40
41.0
 40
41.0
 40
41.0
 40
42.0
 40
42.0
 40
42.0
 40
43.0
 40
43.0
 40
43.0
 40
44.0
 40
44.0
 40
44.0
 40
45.0
 40
45.0
 40
45.0
 40
46.0
 40
46.0
 40
46.0
 40
47.0
 40
47.0
 40
47.0
 40
48.0
 40
48.0
 40
48.0
 40
49.0
 40
49.0
 40
49.0
 40
50.0
 40
50.0
 40
50.0
 40
51.0
 40
51.0
 40
51.0
 40
52.0
 40
52.0
 40
52.0
 40
53.0
 40
53.0
 40
53.0
 40
54.0
 40
54.0
 40
54.0
 40
55.0
 40
55.0
 40
55.0
 40
56.0
 40
56.0
 40
56.0
 40
57.0
 40
57.0
 40
57.0
 40
58.0
 40
58.0
 40
58.0
 40
59.0
 40
59.0
 40
59.0
 40
60.0
 40
60.0
 40
60.0
 40
61.0
 40
61.0
 40
61.0
 40
62.0
 40
62.0
 40
62.0
 40
63.0
 40
63.0
 40
63.0
 40
64.0
 40
64.0
 40
64.0
 40
65.0
 40
65.0
 40
65.0
 40
66.0
 40
66.0
 40
66.0
 40
66.0
 10
78.76883542952655
 20
-139.0433647655864
 10
78.76883542952655
 20
-139.0433647655864
 10
78.21004094181902
 20
-139.0433647655864
 10
78.21004094181902
 20
-139.0433647655864
 10
78.19970565536327
 20
-139.0878064973461
 10
78.19109291665015
 20
-139.1195013758104
 10
78.17834606335472
 20
-139.1577419356967
 10
78.20383976994557
 20
-139.1577419356967
 10
78.21865368053214
 20
-139.1598089929878
 10
78.2248548524056
 20
-139.1598089929878
 10
78.2248548524056
 20
-139.1598089929878
 10
78.41330157544876
 20
-139.1598089929878
 10
78.41330157544876
 20
-139.1598089929878
 10
78.41330157544876
 20
-139.1598089929878
 10
78.78778345469541
 20
-139.1598089929878
 10
78.78778345469541
 20
-139.1598089929878
 10
78.83842635832859
 20
-139.1598089929878
 10
79.12195771676465
 20
-139.1470621396924
 10
79.15365259522895
 20
-139.1470621396924
 10
79.1515855379378
 20
-139.1746229035744
 10
79.14951848064665
 20
-139.1935709287433
 10
79.14951848064665
 20
-139.2231987499164
 10
79.1474514233555
 20
-139.2548936283807
 10
79.1474514233555
 20
-139.390285880951
 10
79.1474514233555
 20
-139.417846644833
 10
79.1474514233555
 20
-139.417846644833
 10
79.1474514233555
 20
-139.6631374433828
 10
79.1474514233555
 20
-139.6631374433828
 10
79.1474514233555
 20
-139.7075791751426
 10
79.1515855379378
 20
-139.9042941273503
 10
79.1557196525201
 20
-140.0565673477984
 10
79.1557196525201
 20
-140.0565673477984
 10
78.92937687913918
 20
-140.0565673477984
 10
78.92937687913918
 20
-140.0565673477984
 10
78.92937687913918
 20
-140.0565673477984
 10
78.93144393643034
 20
-140.0228054120429
 10
78.93144393643034
 20
-140.0228054120429
 10
78.93144393643034
 20
-140.0228054120429
 10
78.22933347653642
 20
-140.0228054120429
 10
78.22933347653642
 20
-140.0228054120429
 10
78.22933347653642
 20
-140.0228054120429
 10
78.23140053382757
 20
-140.0565673477984
 10
78.23140053382757
 20
-140.0565673477984
 10
78.23140053382757
 20
-140.0565673477984
 10
78.01332598961126
 20
-140.0565673477984
 10
78.01332598961126
 20
-140.0565673477984
 10
78.01780461374209
 20
-140.0017903295829
 10
78.01780461374209
 20
-139.9890434762875
 10
78.02400578561553
 20
-139.8746663061772
 10
78.02607284290669
 20
-139.8471055422952
 10
78.02813990019783
 20
-139.7141248565645
 10
78.02813990019783
 20
-139.6948323218471
 10
78.02813990019783
 20
-139.6948323218471
 10
78.02813990019783
 20
-139.4919161977659
 10
78.02813990019783
 20
-139.4919161977659
 10
77.88861353304522
 20
-139.741341110898
 10
77.71945934471944
 20
-139.872599248886
 10
77.61369491332228
 20
-139.9380560631058
 10
77.61369491332228
 20
-139.9380560631058
 10
77.44006210086569
 20
-139.7985296959532
 10
77.44006210086569
 20
-139.7985296959532
 10
77.52894556438513
 20
-139.74788679232
 10
77.67295055566858
 20
-139.6610703860917
 10
77.81040986553003
 20
-139.4664224911751
 10
77.90136038634064
 20
-139.3396429773179
 10
77.96681720056039
 20
-139.1956379860344
 10
78.00092364586436
 20
-139.0433647655864
 10
77.77216930564377
 20
-139.0454318228775
 10
77.59233532131373
 20
-139.0519775042995
 10
77.49725068592083
 20
-139.0540445615907
 10
77.49725068592083
 20
-139.0540445615907
 10
77.49725068592083
 20
-138.8762776345518
 10
77.49725068592083
 20
-138.8762776345518
 10
77.69396563812859
 20
-138.8824788064252
 10
77.97749699656465
 20
-138.886957430556
 10
78.12770315972155
 20
-138.886957430556
 10
78.12770315972155
 20
-138.886957430556
 10
78.34129907980704
 20
-138.886957430556
 10
78.34129907980704
 20
-138.886957430556
 10
78.34129907980704
 20
-138.886957430556
 10
78.34129907980704
 20
-138.7787814323192
 10
78.34129907980704
 20
-138.7787814323192
 10
78.34129907980704
 20
-138.7787814323192
 10
78.19522703123245
 20
-138.7787814323192
 10
78.19522703123245
 20
-138.7787814323192
 10
78.02607284290669
 20
-138.7787814323192
 10
77.85691865458091
 20
-138.78326005645
 10
77.68983152354629
 20
-138.7894612283235
 10
77.68983152354629
 20
-138.7894612283235
 10
77.68983152354629
 20
-138.6182399827066
 10
77.68983152354629
 20
-138.6182399827066
 10
77.84417180128548
 20
-138.6285752691623
 10
78.03020695748899
 20
-138.6285752691623
 10
78.19522703123245
 20
-138.6285752691623
 10
78.19522703123245
 20
-138.6285752691623
 10
78.34129907980704
 20
-138.6285752691623
 10
78.34129907980704
 20
-138.6285752691623
 10
78.34129907980704
 20
-138.6285752691623
 10
78.34129907980704
 20
-138.5104084940182
 10
78.34129907980704
 20
-138.5104084940182
 10
78.34129907980704
 20
-138.5104084940182
 10
78.21004094181902
 20
-138.5104084940182
 10
78.21004094181902
 20
-138.5104084940182
 10
78.16353215276814
 20
-138.5104084940182
 10
77.96061602868693
 20
-138.5186767231828
 10
77.91824135421837
 20
-138.5186767231828
 10
77.71532523013714
 20
-138.5228108377651
 10
77.6388441103646
 20
-138.5248778950563
 10
77.56064044284943
 20
-138.527289461896
 10
77.56064044284943
 20
-138.527289461896
 10
77.56064044284943
 20
-138.3429768534351
 10
77.56064044284943
 20
-138.3429768534351
 10
77.67501761295972
 20
-138.3515895921482
 10
77.71945934471944
 20
-138.3515895921482
 10
78.1022094531307
 20
-138.3602023308613
 10
78.03881969620211
 20
-138.2647731859199
 10
78.0112589323201
 20
-138.2372124220379
 10
77.97542993927351
 20
-138.2013834289913
 10
77.97542993927351
 20
-138.2013834289913
 10
78.15078529947273
 20
-138.1187011373453
 10
78.15078529947273
 20
-138.1187011373453
 10
78.19109291665015
 20
-138.1548746399405
 10
78.23553464840987
 20
-138.197249314409
 10
78.30960420134274
 20
-138.3071478603885
 10
78.30960420134274
 20
-138.3071478603885
 10
78.19522703123245
 20
-138.3622693881525
 10
78.19522703123245
 20
-138.3622693881525
 10
78.19522703123245
 20
-138.3622693881525
 10
78.20590682723672
 20
-138.3622693881525
 10
78.20590682723672
 20
-138.3622693881525
 10
78.20590682723672
 20
-138.3622693881525
 10
78.72852781234913
 20
-138.3622693881525
 10
78.72852781234913
 20
-138.3622693881525
 10
78.72852781234913
 20
-138.3622693881525
 10
78.63344317695622
 20
-138.3178276563928
 10
78.63344317695622
 20
-138.3178276563928
 10
78.6606594312897
 20
-138.2795870965065
 10
78.71784801634485
 20
-138.1993163717002
 10
78.73266192693143
 20
-138.1252468187673
 10
78.73266192693143
 20
-138.1252468187673
 10
78.94625784701691
 20
-138.1886365756959
 10
78.94625784701691
 20
-138.1886365756959
 10
78.95487058573003
 20
-138.1907036329871
 10
78.97588566819006
 20
-138.2013834289913
 10
78.97588566819006
 20
-138.2223985114514
 10
78.97588566819006
 20
-138.2606390713376
 10
78.91042885397032
 20
-138.2606390713376
 10
78.89148082880143
 20
-138.2606390713376
 10
78.88080103279717
 20
-138.2795870965065
 10
78.85737438349747
 20
-138.3198947136839
 10
78.82774656232432
 20
-138.3602023308613
 10
79.22772214816182
 20
-138.3536566494394
 10
79.25734996933497
 20
-138.3515895921482
 10
79.333486579559
 20
-138.3453884202748
 10
79.333486579559
 20
-138.3453884202748
 10
79.333486579559
 20
-138.527289461896
 10
79.333486579559
 20
-138.527289461896
 10
79.31453855439013
 20
-138.527289461896
 10
79.28904484779927
 20
-138.5248778950563
 10
79.06924775584034
 20
-138.5166096658917
 10
79.01826034265864
 20
-138.5145426086006
 10
78.7984632506997
 20
-138.5104084940182
 10
78.75402151893996
 20
-138.5104084940182
 10
78.75402151893996
 20
-138.5104084940182
 10
78.5380140320148
 20
-138.5104084940182
 10
78.5380140320148
 20
-138.5104084940182
 10
78.5380140320148
 20
-138.5104084940182
 10
78.5380140320148
 20
-138.6285752691623
 10
78.5380140320148
 20
-138.6285752691623
 10
78.5380140320148
 20
-138.6285752691623
 10
78.7116468444714
 20
-138.6285752691623
 10
78.7116468444714
 20
-138.6285752691623
 10
78.87459986092371
 20
-138.6285752691623
 10
79.06476913170951
 20
-138.6285752691623
 10
79.22152097628837
 20
-138.6182399827066
 10
79.22152097628837
 20
-138.6182399827066
 10
79.22152097628837
 20
-138.7894612283235
 10
79.22152097628837
 20
-138.7894612283235
 10
79.01205917078518
 20
-138.7811929991589
 10
78.81534421857742
 20
-138.7787814323192
 10
78.7116468444714
 20
-138.7787814323192
 10
78.7116468444714
 20
-138.7787814323192
 10
78.5380140320148
 20
-138.7787814323192
 10
78.5380140320148
 20
-138.7787814323192
 10
78.5380140320148
 20
-138.7787814323192
 10
78.5380140320148
 20
-138.886957430556
 10
78.5380140320148
 20
-138.886957430556
 10
78.5380140320148
 20
-138.886957430556
 10
78.76883542952655
 20
-138.886957430556
 10
78.76883542952655
 20
-138.886957430556
 10
78.90181611525719
 20
-138.886957430556
 10
79.18982609782408
 20
-138.8824788064252
 10
79.39894339377874
 20
-138.8762776345518
 10
79.39894339377874
 20
-138.8762776345518
 10
79.39894339377874
 20
-139.0540445615907
 10
79.39894339377874
 20
-139.0540445615907
 10
79.20670706570179
 20
-139.0474988801687
 10
78.89354788609259
 20
-139.0433647655864
 10
78.76883542952655
 20
-139.0433647655864
 97
        0
 97
        0
 92
        1
 93
        4
 72
     1
 10
78.93385550327001
 20
-139.2993353601404
 11
78.22726641924527
 21
-139.2993353601404
 72
     1
 10
78.22726641924527
 20
-139.2993353601404
 11
78.22726641924527
 21
-139.4071668488288
 72
     1
 10
78.22726641924527
 20
-139.4071668488288
 11
78.93385550327001
 21
-139.4071668488288
 72
     1
 10
78.93385550327001
 20
-139.4071668488288
 11
78.93385550327001
 21
-139.2993353601404
 97
        0
 92
        1
 93
        4
 72
     1
 10
78.93385550327001
 20
-139.5318793053948
 11
78.22726641924527
 21
-139.5318793053948
 72
     1
 10
78.22726641924527
 20
-139.5318793053948
 11
78.22726641924527
 21
-139.6462564755051
 72
     1
 10
78.22726641924527
 20
-139.6462564755051
 11
78.93385550327001
 21
-139.6462564755051
 72
     1
 10
78.93385550327001
 20
-139.6462564755051
 11
78.93385550327001
 21
-139.5318793053948
 97
        0
 92
        1
 93
        4
 72
     1
 10
78.93385550327001
 20
-139.775447556202
 11
78.22726641924527
 21
-139.775447556202
 72
     1
 10
78.22726641924527
 20
-139.775447556202
 11
78.22726641924527
 21
-139.8894802167638
 72
     1
 10
78.22726641924527
 20
-139.8894802167638
 11
78.93385550327001
 21
-139.8894802167638
 72
     1
 10
78.93385550327001
 20
-139.8894802167638
 11
78.93385550327001
 21
-139.775447556202
 97
        0
 75
     2
 76
     1
 98
        0
  0
SPLINE
  5
FC
330
DD
100
AcDbEntity
  8
_U+30EC_U+30A4_U+30E4_U+30FC 1
370
     0
100
AcDbSpline
210
0.0
220
0.0
230
1.0
 70
    11
 71
     3
 72
    47
 73
    43
 74
     0
 42
0.0000000001
 43
0.0000000001
 12
1.0
 22
0.0
 32
0.0
 13
1.0
 23
0.0
 33
0.0
 40
0.0
 40
0.0
 40
0.0
 40
0.0
 40
1.0
 40
1.0
 40
1.0
 40
2.0
 40
2.0
 40
2.0
 40
3.0
 40
3.0
 40
3.0
 40
4.0
 40
4.0
 40
4.0
 40
5.0
 40
5.0
 40
5.0
 40
6.0
 40
6.0
 40
6.0
 40
7.0
 40
7.0
 40
7.0
 40
8.0
 40
8.0
 40
8.0
 40
9.0
 40
9.0
 40
9.0
 40
10.0
 40
10.0
 40
10.0
 40
11.0
 40
11.0
 40
11.0
 40
12.0
 40
12.0
 40
12.0
 40
13.0
 40
13.0
 40
13.0
 40
14.0
 40
14.0
 40
14.0
 40
14.0
 10
80.7456312189629
 20
-139.0199381162867
 30
0.0
 10
80.7456312189629
 20
-139.0199381162867
 30
0.0
 10
80.64400090214804
 20
-139.0199381162867
 30
0.0
 10
80.64400090214804
 20
-139.0199381162867
 30
0.0
 10
80.64400090214804
 20
-139.106754522515
 30
0.0
 10
80.62298581968801
 20
-139.4960503123482
 30
0.0
 10
80.42627086748024
 20
-139.7161919138557
 30
0.0
 10
80.27365313748368
 20
-139.8853461021814
 30
0.0
 10
80.06660289882016
 20
-139.955281540532
 30
0.0
 10
79.98185354988301
 20
-139.9824977948655
 30
0.0
 10
79.98185354988301
 20
-139.9824977948655
 30
0.0
 10
79.7872056549664
 20
-139.8154106638309
 30
0.0
 10
79.7872056549664
 20
-139.8154106638309
 30
0.0
 10
79.88470185719896
 20
-139.8026638105354
 30
0.0
 10
80.06005721739818
 20
-139.7795816707843
 30
0.0
 10
80.24850394044135
 20
-139.5911349477411
 30
0.0
 10
80.32257349337422
 20
-139.5194769616479
 30
0.0
 10
80.42627086748024
 20
-139.3796060849468
 30
0.0
 10
80.42627086748024
 20
-139.0199381162867
 30
0.0
 10
80.42627086748024
 20
-139.0199381162867
 30
0.0
 10
80.19544946996851
 20
-139.0199381162867
 30
0.0
 10
80.19544946996851
 20
-139.0199381162867
 30
0.0
 10
80.009414313765
 20
-139.0199381162867
 30
0.0
 10
79.82303464801299
 20
-139.0244167404175
 30
0.0
 10
79.6369994918095
 20
-139.0392306510041
 30
0.0
 10
79.6369994918095
 20
-139.0392306510041
 30
0.0
 10
79.6369994918095
 20
-138.8190890494966
 30
0.0
 10
79.6369994918095
 20
-138.8190890494966
 30
0.0
 10
79.82544621485268
 20
-138.8339029600832
 30
0.0
 10
80.11104463057988
 20
-138.8380370746655
 30
0.0
 10
80.19544946996851
 20
-138.8380370746655
 30
0.0
 10
80.19544946996851
 20
-138.8380370746655
 30
0.0
 10
80.7456312189629
 20
-138.8380370746655
 30
0.0
 10
80.7456312189629
 20
-138.8380370746655
 30
0.0
 10
80.76457924413178
 20
-138.8380370746655
 30
0.0
 10
81.08187253832328
 20
-138.8380370746655
 30
0.0
 10
81.31028236899535
 20
-138.8190890494966
 30
0.0
 10
81.31028236899535
 20
-138.8190890494966
 30
0.0
 10
81.31028236899535
 20
-139.0392306510041
 30
0.0
 10
81.31028236899535
 20
-139.0392306510041
 30
0.0
 10
81.12218015550071
 20
-139.0244167404175
 30
0.0
 10
80.93373343245754
 20
-139.0199381162867
 30
0.0
 10
80.7456312189629
 20
-139.0199381162867
 30
0.0
  0
SPLINE
  5
FD
330
DD
100
AcDbEntity
  8
_U+30EC_U+30A4_U+30E4_U+30FC 1
370
     0
100
AcDbSpline
210
0.0
220
0.0
230
1.0
 70
    11
 71
     3
 72
    29
 73
    25
 74
     0
 42
0.0000000001
 43
0.0000000001
 12
1.0
 22
0.0
 32
0.0
 13
1.0
 23
0.0
 33
0.0
 40
0.0
 40
0.0
 40
0.0
 40
0.0
 40
1.0
 40
1.0
 40
1.0
 40
2.0
 40
2.0
 40
2.0
 40
3.0
 40
3.0
 40
3.0
 40
4.0
 40
4.0
 40
4.0
 40
5.0
 40
5.0
 40
5.0
 40
6.0
 40
6.0
 40
6.0
 40
7.0
 40
7.0
 40
7.0
 40
8.0
 40
8.0
 40
8.0
 40
8.0
 10
80.64400090214804
 20
-138.4911159593008
 30
0.0
 10
80.64400090214804
 20
-138.4911159593008
 30
0.0
 10
80.2905341053614
 20
-138.4911159593008
 30
0.0
 10
80.2905341053614
 20
-138.4911159593008
 30
0.0
 10
80.17856850209078
 20
-138.4911159593008
 30
0.0
 10
80.03904213493816
 20
-138.4976616407228
 30
0.0
 10
79.93121064624984
 20
-138.5104084940182
 30
0.0
 10
79.93121064624984
 20
-138.5104084940182
 30
0.0
 10
79.93121064624984
 20
-138.2754529819242
 30
0.0
 10
79.93121064624984
 20
-138.2754529819242
 30
0.0
 10
80.04937742139391
 20
-138.2902668925108
 30
0.0
 10
80.23369002985477
 20
-138.2944010070931
 30
0.0
 10
80.2905341053614
 20
-138.2944010070931
 30
0.0
 10
80.2905341053614
 20
-138.2944010070931
 30
0.0
 10
80.64400090214804
 20
-138.2944010070931
 30
0.0
 10
80.64400090214804
 20
-138.2944010070931
 30
0.0
 10
80.6629489273169
 20
-138.2944010070931
 30
0.0
 10
80.86620956094664
 20
-138.2944010070931
 30
0.0
 10
81.00780298539041
 20
-138.2754529819242
 30
0.0
 10
81.00780298539041
 20
-138.2754529819242
 30
0.0
 10
81.00780298539041
 20
-138.5104084940182
 30
0.0
 10
81.00780298539041
 20
-138.5104084940182
 30
0.0
 10
80.85139565036008
 20
-138.4911159593008
 30
0.0
 10
80.66088187002576
 20
-138.4911159593008
 30
0.0
 10
80.64400090214804
 20
-138.4911159593008
 30
0.0
  0
HATCH
  5
FE
330
DD
100
AcDbEntity
  8
_U+30EC_U+30A4_U+30E4_U+30FC 1
 62
   179
420
  2234388
100
AcDbHatch
 10
0.0
 20
0.0
 30
0.0
210
0.0
220
0.0
230
1.0
  2
SOLID
 70
     1
 71
     0
 91
        2
 92
        1
 93
        1
 72
     4
 94
        3
 73
     0
 74
     1
 95
       47
 96
       43
 40
0.0
 40
0.0
 40
0.0
 40
0.0
 40
1.0
 40
1.0
 40
1.0
 40
2.0
 40
2.0
 40
2.0
 40
3.0
 40
3.0
 40
3.0
 40
4.0
 40
4.0
 40
4.0
 40
5.0
 40
5.0
 40
5.0
 40
6.0
 40
6.0
 40
6.0
 40
7.0
 40
7.0
 40
7.0
 40
8.0
 40
8.0
 40
8.0
 40
9.0
 40
9.0
 40
9.0
 40
10.0
 40
10.0
 40
10.0
 40
11.0
 40
11.0
 40
11.0
 40
12.0
 40
12.0
 40
12.0
 40
13.0
 40
13.0
 40
13.0
 40
14.0
 40
14.0
 40
14.0
 40
14.0
 10
80.7456312189629
 20
-139.0199381162867
 10
80.7456312189629
 20
-139.0199381162867
 10
80.64400090214804
 20
-139.0199381162867
 10
80.64400090214804
 20
-139.0199381162867
 10
80.64400090214804
 20
-139.106754522515
 10
80.62298581968801
 20
-139.4960503123482
 10
80.42627086748024
 20
-139.7161919138557
 10
80.27365313748368
 20
-139.8853461021814
 10
80.06660289882016
 20
-139.955281540532
 10
79.98185354988301
 20
-139.9824977948655
 10
79.98185354988301
 20
-139.9824977948655
 10
79.7872056549664
 20
-139.8154106638309
 10
79.7872056549664
 20
-139.8154106638309
 10
79.88470185719896
 20
-139.8026638105354
 10
80.06005721739818
 20
-139.7795816707843
 10
80.24850394044135
 20
-139.5911349477411
 10
80.32257349337422
 20
-139.5194769616479
 10
80.42627086748024
 20
-139.3796060849468
 10
80.42627086748024
 20
-139.0199381162867
 10
80.42627086748024
 20
-139.0199381162867
 10
80.19544946996851
 20
-139.0199381162867
 10
80.19544946996851
 20
-139.0199381162867
 10
80.009414313765
 20
-139.0199381162867
 10
79.82303464801299
 20
-139.0244167404175
 10
79.6369994918095
 20
-139.0392306510041
 10
79.6369994918095
 20
-139.0392306510041
 10
79.6369994918095
 20
-138.8190890494966
 10
79.6369994918095
 20
-138.8190890494966
 10
79.82544621485268
 20
-138.8339029600832
 10
80.11104463057988
 20
-138.8380370746655
 10
80.19544946996851
 20
-138.8380370746655
 10
80.19544946996851
 20
-138.8380370746655
 10
80.7456312189629
 20
-138.8380370746655
 10
80.7456312189629
 20
-138.8380370746655
 10
80.76457924413178
 20
-138.8380370746655
 10
81.08187253832328
 20
-138.8380370746655
 10
81.31028236899535
 20
-138.8190890494966
 10
81.31028236899535
 20
-138.8190890494966
 10
81.31028236899535
 20
-139.0392306510041
 10
81.31028236899535
 20
-139.0392306510041
 10
81.12218015550071
 20
-139.0244167404175
 10
80.93373343245754
 20
-139.0199381162867
 10
80.7456312189629
 20
-139.0199381162867
 97
        0
 97
        0
 92
        1
 93
        1
 72
     4
 94
        3
 73
     0
 74
     1
 95
       29
 96
       25
 40
0.0
 40
0.0
 40
0.0
 40
0.0
 40
1.0
 40
1.0
 40
1.0
 40
2.0
 40
2.0
 40
2.0
 40
3.0
 40
3.0
 40
3.0
 40
4.0
 40
4.0
 40
4.0
 40
5.0
 40
5.0
 40
5.0
 40
6.0
 40
6.0
 40
6.0
 40
7.0
 40
7.0
 40
7.0
 40
8.0
 40
8.0
 40
8.0
 40
8.0
 10
80.64400090214804
 20
-138.4911159593008
 10
80.64400090214804
 20
-138.4911159593008
 10
80.2905341053614
 20
-138.4911159593008
 10
80.2905341053614
 20
-138.4911159593008
 10
80.17856850209078
 20
-138.4911159593008
 10
80.03904213493816
 20
-138.4976616407228
 10
79.93121064624984
 20
-138.5104084940182
 10
79.93121064624984
 20
-138.5104084940182
 10
79.93121064624984
 20
-138.2754529819242
 10
79.93121064624984
 20
-138.2754529819242
 10
80.04937742139391
 20
-138.2902668925108
 10
80.23369002985477
 20
-138.2944010070931
 10
80.2905341053614
 20
-138.2944010070931
 10
80.2905341053614
 20
-138.2944010070931
 10
80.64400090214804
 20
-138.2944010070931
 10
80.64400090214804
 20
-138.2944010070931
 10
80.6629489273169
 20
-138.2944010070931
 10
80.86620956094664
 20
-138.2944010070931
 10
81.00780298539041
 20
-138.2754529819242
 10
81.00780298539041
 20
-138.2754529819242
 10
81.00780298539041
 20
-138.5104084940182
 10
81.00780298539041
 20
-138.5104084940182
 10
80.85139565036008
 20
-138.4911159593008
 10
80.66088187002576
 20
-138.4911159593008
 10
80.64400090214804
 20
-138.4911159593008
 97
        0
 97
        0
 75
     2
 76
     1
 98
        0
  0
SPLINE
  5
FF
330
DD
100
AcDbEntity
  8
_U+30EC_U+30A4_U+30E4_U+30FC 1
370
     0
100
AcDbSpline
210
0.0
220
0.0
230
1.0
 70
    11
 71
     3
 72
    29
 73
    25
 74
     0
 42
0.0000000001
 43
0.0000000001
 12
1.0
 22
0.0
 32
0.0
 13
1.0
 23
0.0
 33
0.0
 40
0.0
 40
0.0
 40
0.0
 40
0.0
 40
1.0
 40
1.0
 40
1.0
 40
2.0
 40
2.0
 40
2.0
 40
3.0
 40
3.0
 40
3.0
 40
4.0
 40
4.0
 40
4.0
 40
5.0
 40
5.0
 40
5.0
 40
6.0
 40
6.0
 40
6.0
 40
7.0
 40
7.0
 40
7.0
 40
8.0
 40
8.0
 40
8.0
 40
8.0
 10
82.59151337995976
 20
-139.182891132739
 30
0.0
 10
82.59151337995976
 20
-139.182891132739
 30
0.0
 10
82.10713295473364
 20
-139.182891132739
 30
0.0
 10
82.10713295473364
 20
-139.182891132739
 30
0.0
 10
82.07957219085164
 20
-139.182891132739
 30
0.0
 10
81.76227889666013
 20
-139.182891132739
 30
0.0
 10
81.55075003386578
 20
-139.2083848393299
 30
0.0
 10
81.55075003386578
 20
-139.2083848393299
 30
0.0
 10
81.55075003386578
 20
-138.9779079513666
 30
0.0
 10
81.55075003386578
 20
-138.9779079513666
 30
0.0
 10
81.70922442618728
 20
-139.0009900911178
 30
0.0
 10
81.89973820652159
 20
-139.003057148409
 30
0.0
 10
82.10713295473364
 20
-139.003057148409
 30
0.0
 10
82.10713295473364
 20
-139.003057148409
 30
0.0
 10
82.59151337995976
 20
-139.003057148409
 30
0.0
 10
82.59151337995976
 20
-139.003057148409
 30
0.0
 10
82.77754853616325
 20
-139.003057148409
 30
0.0
 10
82.96392820191527
 20
-139.0009900911178
 30
0.0
 10
83.14789630082761
 20
-138.9779079513666
 30
0.0
 10
83.14789630082761
 20
-138.9779079513666
 30
0.0
 10
83.14789630082761
 20
-139.2083848393299
 30
0.0
 10
83.14789630082761
 20
-139.2083848393299
 30
0.0
 10
82.96392820191527
 20
-139.1849581900302
 30
0.0
 10
82.71622583652581
 20
-139.182891132739
 30
0.0
 10
82.59151337995976
 20
-139.182891132739
 30
0.0
  0
HATCH
  5
100
330
DD
100
AcDbEntity
  8
_U+30EC_U+30A4_U+30E4_U+30FC 1
 62
   179
420
  2234388
100
AcDbHatch
 10
0.0
 20
0.0
 30
0.0
210
0.0
220
0.0
230
1.0
  2
SOLID
 70
     1
 71
     0
 91
        1
 92
        1
 93
        1
 72
     4
 94
        3
 73
     0
 74
     1
 95
       29
 96
       25
 40
0.0
 40
0.0
 40
0.0
 40
0.0
 40
1.0
 40
1.0
 40
1.0
 40
2.0
 40
2.0
 40
2.0
 40
3.0
 40
3.0
 40
3.0
 40
4.0
 40
4.0
 40
4.0
 40
5.0
 40
5.0
 40
5.0
 40
6.0
 40
6.0
 40
6.0
 40
7.0
 40
7.0
 40
7.0
 40
8.0
 40
8.0
 40
8.0
 40
8.0
 10
82.59151337995976
 20
-139.182891132739
 10
82.59151337995976
 20
-139.182891132739
 10
82.10713295473364
 20
-139.182891132739
 10
82.10713295473364
 20
-139.182891132739
 10
82.07957219085164
 20
-139.182891132739
 10
81.76227889666013
 20
-139.182891132739
 10
81.55075003386578
 20
-139.2083848393299
 10
81.55075003386578
 20
-139.2083848393299
 10
81.55075003386578
 20
-138.9779079513666
 10
81.55075003386578
 20
-138.9779079513666
 10
81.70922442618728
 20
-139.0009900911178
 10
81.89973820652159
 20
-139.003057148409
 10
82.10713295473364
 20
-139.003057148409
 10
82.10713295473364
 20
-139.003057148409
 10
82.59151337995976
 20
-139.003057148409
 10
82.59151337995976
 20
-139.003057148409
 10
82.77754853616325
 20
-139.003057148409
 10
82.96392820191527
 20
-139.0009900911178
 10
83.14789630082761
 20
-138.9779079513666
 10
83.14789630082761
 20
-138.9779079513666
 10
83.14789630082761
 20
-139.2083848393299
 10
83.14789630082761
 20
-139.2083848393299
 10
82.96392820191527
 20
-139.1849581900302
 10
82.71622583652581
 20
-139.182891132739
 10
82.59151337995976
 20
-139.182891132739
 97
        0
 97
        0
 75
     2
 76
     1
 98
        0
  0
SPLINE
  5
101
330
DD
100
AcDbEntity
  8
_U+30EC_U+30A4_U+30E4_U+30FC 1
370
     0
100
AcDbSpline
210
0.0
220
0.0
230
1.0
 70
    11
 71
     3
 72
    44
 73
    40
 74
     0
 42
0.0000000001
 43
0.0000000001
 12
1.0
 22
0.0
 32
0.0
 13
1.0
 23
0.0
 33
0.0
 40
0.0
 40
0.0
 40
0.0
 40
0.0
 40
1.0
 40
1.0
 40
1.0
 40
2.0
 40
2.0
 40
2.0
 40
3.0
 40
3.0
 40
3.0
 40
4.0
 40
4.0
 40
4.0
 40
5.0
 40
5.0
 40
5.0
 40
6.0
 40
6.0
 40
6.0
 40
7.0
 40
7.0
 40
7.0
 40
8.0
 40
8.0
 40
8.0
 40
9.0
 40
9.0
 40
9.0
 40
10.0
 40
10.0
 40
10.0
 40
11.0
 40
11.0
 40
11.0
 40
12.0
 40
12.0
 40
12.0
 40
13.0
 40
13.0
 40
13.0
 40
13.0
 10
84.80292017194164
 20
-138.7450194965637
 30
0.0
 10
84.69095456867102
 20
-139.113300203937
 30
0.0
 10
84.64031166503784
 20
-139.2717745962584
 30
0.0
 10
84.44359671283007
 20
-139.5215440189391
 30
0.0
 10
84.25928410436921
 20
-139.7520209069023
 30
0.0
 10
84.02260604453255
 20
-139.9380560631058
 30
0.0
 10
83.74320880067879
 20
-140.0314181507561
 30
0.0
 10
83.74320880067879
 20
-140.0314181507561
 30
0.0
 10
83.55062796305332
 20
-139.851584166426
 30
0.0
 10
83.55062796305332
 20
-139.851584166426
 30
0.0
 10
84.19176023285831
 20
-139.699310945978
 30
0.0
 10
84.52180038034525
 20
-139.1429280251101
 30
0.0
 10
84.58519013727384
 20
-138.7026448220952
 30
0.0
 10
84.58519013727384
 20
-138.7026448220952
 30
0.0
 10
83.81934541090281
 20
-138.7026448220952
 30
0.0
 10
83.81934541090281
 20
-138.7026448220952
 30
0.0
 10
83.72632783280106
 20
-138.7026448220952
 30
0.0
 10
83.54235973388872
 20
-138.707123446226
 30
0.0
 10
83.38560788930985
 20
-138.7260714713949
 30
0.0
 10
83.38560788930985
 20
-138.7260714713949
 30
0.0
 10
83.38560788930985
 20
-138.5059298698874
 30
0.0
 10
83.38560788930985
 20
-138.5059298698874
 30
0.0
 10
83.47242429553815
 20
-138.527289461896
 30
0.0
 10
83.7242607755099
 20
-138.527289461896
 30
0.0
 10
83.82347952548511
 20
-138.527289461896
 30
0.0
 10
83.82347952548511
 20
-138.527289461896
 30
0.0
 10
84.25514998978691
 20
-138.527289461896
 30
0.0
 10
84.25514998978691
 20
-138.527289461896
 30
0.0
 10
84.29752466425549
 20
-138.527289461896
 30
0.0
 10
84.532135666801
 20
-138.5248778950563
 30
0.0
 10
84.57037622668727
 20
-138.5186767231828
 30
0.0
 10
84.61275090115585
 20
-138.5124755513094
 30
0.0
 10
84.61481795844699
 20
-138.5104084940182
 30
0.0
 10
84.67614065808444
 20
-138.4701008768408
 30
0.0
 10
84.67614065808444
 20
-138.4701008768408
 30
0.0
 10
84.86424287157908
 20
-138.62444115458
 30
0.0
 10
84.86424287157908
 20
-138.62444115458
 30
0.0
 10
84.83495955995446
 20
-138.6540689757531
 30
0.0
 10
84.82014564936789
 20
-138.6857638542174
 30
0.0
 10
84.80292017194164
 20
-138.7450194965637
 30
0.0
  0
SPLINE
  5
102
330
DD
100
AcDbEntity
  8
_U+30EC_U+30A4_U+30E4_U+30FC 1
370
     0
100
AcDbSpline
210
0.0
220
0.0
230
1.0
 70
    11
 71
     3
 72
    17
 73
    13
 74
     0
 42
0.0000000001
 43
0.0000000001
 12
1.0
 22
0.0
 32
0.0
 13
1.0
 23
0.0
 33
0.0
 40
0.0
 40
0.0
 40
0.0
 40
0.0
 40
1.0
 40
1.0
 40
1.0
 40
2.0
 40
2.0
 40
2.0
 40
3.0
 40
3.0
 40
3.0
 40
4.0
 40
4.0
 40
4.0
 40
4.0
 10
85.01238197744483
 20
-138.5462374870648
 30
0.0
 10
84.88560246358763
 20
-138.5462374870648
 30
0.0
 10
84.78397214677275
 20
-138.44460717025
 30
0.0
 10
84.78397214677275
 20
-138.3178276563928
 30
0.0
 10
84.78397214677275
 20
-138.1907036329871
 30
0.0
 10
84.88560246358763
 20
-138.087006258881
 30
0.0
 10
85.01238197744483
 20
-138.087006258881
 30
0.0
 10
85.13950600085055
 20
-138.087006258881
 30
0.0
 10
85.24320337495656
 20
-138.1907036329871
 30
0.0
 10
85.24320337495656
 20
-138.3178276563928
 30
0.0
 10
85.24320337495656
 20
-138.44460717025
 30
0.0
 10
85.13950600085055
 20
-138.5462374870648
 30
0.0
 10
85.01238197744483
 20
-138.5462374870648
 30
0.0
  0
SPLINE
  5
103
330
DD
100
AcDbEntity
  8
_U+30EC_U+30A4_U+30E4_U+30FC 1
370
     0
100
AcDbSpline
210
0.0
220
0.0
230
1.0
 70
    11
 71
     3
 72
    17
 73
    13
 74
     0
 42
0.0000000001
 43
0.0000000001
 12
1.0
 22
0.0
 32
0.0
 13
1.0
 23
0.0
 33
0.0
 40
0.0
 40
0.0
 40
0.0
 40
0.0
 40
1.0
 40
1.0
 40
1.0
 40
2.0
 40
2.0
 40
2.0
 40
3.0
 40
3.0
 40
3.0
 40
4.0
 40
4.0
 40
4.0
 40
4.0
 10
85.01031492015368
 20
-138.2161973395779
 30
0.0
 10
84.9555379019382
 20
-138.2161973395779
 30
0.0
 10
84.91109617017848
 20
-138.2606390713376
 30
0.0
 10
84.91109617017848
 20
-138.3157605991016
 30
0.0
 10
84.91109617017848
 20
-138.3726046746083
 30
0.0
 10
84.9555379019382
 20
-138.4215250304988
 30
0.0
 10
85.01444903473597
 20
-138.4215250304988
 30
0.0
 10
85.07370467708228
 20
-138.4215250304988
 30
0.0
 10
85.1140122942597
 20
-138.3705376173171
 30
0.0
 10
85.1140122942597
 20
-138.3178276563928
 30
0.0
 10
85.1140122942597
 20
-138.2606390713376
 30
0.0
 10
85.06750350520882
 20
-138.2161973395779
 30
0.0
 10
85.01031492015368
 20
-138.2161973395779
 30
0.0
  0
HATCH
  5
104
330
DD
100
AcDbEntity
  8
_U+30EC_U+30A4_U+30E4_U+30FC 1
 62
   179
420
  2234388
100
AcDbHatch
 10
0.0
 20
0.0
 30
0.0
210
0.0
220
0.0
230
1.0
  2
SOLID
 70
     1
 71
     0
 91
        3
 92
        1
 93
        1
 72
     4
 94
        3
 73
     0
 74
     1
 95
       44
 96
       40
 40
0.0
 40
0.0
 40
0.0
 40
0.0
 40
1.0
 40
1.0
 40
1.0
 40
2.0
 40
2.0
 40
2.0
 40
3.0
 40
3.0
 40
3.0
 40
4.0
 40
4.0
 40
4.0
 40
5.0
 40
5.0
 40
5.0
 40
6.0
 40
6.0
 40
6.0
 40
7.0
 40
7.0
 40
7.0
 40
8.0
 40
8.0
 40
8.0
 40
9.0
 40
9.0
 40
9.0
 40
10.0
 40
10.0
 40
10.0
 40
11.0
 40
11.0
 40
11.0
 40
12.0
 40
12.0
 40
12.0
 40
13.0
 40
13.0
 40
13.0
 40
13.0
 10
84.80292017194164
 20
-138.7450194965637
 10
84.69095456867102
 20
-139.113300203937
 10
84.64031166503784
 20
-139.2717745962584
 10
84.44359671283007
 20
-139.5215440189391
 10
84.25928410436921
 20
-139.7520209069023
 10
84.02260604453255
 20
-139.9380560631058
 10
83.74320880067879
 20
-140.0314181507561
 10
83.74320880067879
 20
-140.0314181507561
 10
83.55062796305332
 20
-139.851584166426
 10
83.55062796305332
 20
-139.851584166426
 10
84.19176023285831
 20
-139.699310945978
 10
84.52180038034525
 20
-139.1429280251101
 10
84.58519013727384
 20
-138.7026448220952
 10
84.58519013727384
 20
-138.7026448220952
 10
83.81934541090281
 20
-138.7026448220952
 10
83.81934541090281
 20
-138.7026448220952
 10
83.72632783280106
 20
-138.7026448220952
 10
83.54235973388872
 20
-138.707123446226
 10
83.38560788930985
 20
-138.7260714713949
 10
83.38560788930985
 20
-138.7260714713949
 10
83.38560788930985
 20
-138.5059298698874
 10
83.38560788930985
 20
-138.5059298698874
 10
83.47242429553815
 20
-138.527289461896
 10
83.7242607755099
 20
-138.527289461896
 10
83.82347952548511
 20
-138.527289461896
 10
83.82347952548511
 20
-138.527289461896
 10
84.25514998978691
 20
-138.527289461896
 10
84.25514998978691
 20
-138.527289461896
 10
84.29752466425549
 20
-138.527289461896
 10
84.532135666801
 20
-138.5248778950563
 10
84.57037622668727
 20
-138.5186767231828
 10
84.61275090115585
 20
-138.5124755513094
 10
84.61481795844699
 20
-138.5104084940182
 10
84.67614065808444
 20
-138.4701008768408
 10
84.67614065808444
 20
-138.4701008768408
 10
84.86424287157908
 20
-138.62444115458
 10
84.86424287157908
 20
-138.62444115458
 10
84.83495955995446
 20
-138.6540689757531
 10
84.82014564936789
 20
-138.6857638542174
 10
84.80292017194164
 20
-138.7450194965637
 97
        0
 97
        0
 92
        1
 93
        1
 72
     4
 94
        3
 73
     0
 74
     1
 95
       17
 96
       13
 40
0.0
 40
0.0
 40
0.0
 40
0.0
 40
1.0
 40
1.0
 40
1.0
 40
2.0
 40
2.0
 40
2.0
 40
3.0
 40
3.0
 40
3.0
 40
4.0
 40
4.0
 40
4.0
 40
4.0
 10
85.01238197744483
 20
-138.5462374870648
 10
84.88560246358763
 20
-138.5462374870648
 10
84.78397214677275
 20
-138.44460717025
 10
84.78397214677275
 20
-138.3178276563928
 10
84.78397214677275
 20
-138.1907036329871
 10
84.88560246358763
 20
-138.087006258881
 10
85.01238197744483
 20
-138.087006258881
 10
85.13950600085055
 20
-138.087006258881
 10
85.24320337495656
 20
-138.1907036329871
 10
85.24320337495656
 20
-138.3178276563928
 10
85.24320337495656
 20
-138.44460717025
 10
85.13950600085055
 20
-138.5462374870648
 10
85.01238197744483
 20
-138.5462374870648
 97
        0
 97
        0
 92
        1
 93
        1
 72
     4
 94
        3
 73
     0
 74
     1
 95
       17
 96
       13
 40
0.0
 40
0.0
 40
0.0
 40
0.0
 40
1.0
 40
1.0
 40
1.0
 40
2.0
 40
2.0
 40
2.0
 40
3.0
 40
3.0
 40
3.0
 40
4.0
 40
4.0
 40
4.0
 40
4.0
 10
85.01031492015368
 20
-138.2161973395779
 10
84.9555379019382
 20
-138.2161973395779
 10
84.91109617017848
 20
-138.2606390713376
 10
84.91109617017848
 20
-138.3157605991016
 10
84.91109617017848
 20
-138.3726046746083
 10
84.9555379019382
 20
-138.4215250304988
 10
85.01444903473597
 20
-138.4215250304988
 10
85.07370467708228
 20
-138.4215250304988
 10
85.1140122942597
 20
-138.3705376173171
 10
85.1140122942597
 20
-138.3178276563928
 10
85.1140122942597
 20
-138.2606390713376
 10
85.06750350520882
 20
-138.2161973395779
 10
85.01031492015368
 20
-138.2161973395779
 97
        0
 97
        0
 75
     2
 76
     1
 98
        0
  0
ENDBLK
  5
E0
330
DD
100
AcDbEntity
  8
0
100
AcDbBlockEnd
  0
BLOCK
  5
107
330
105
100
AcDbEntity
  8
0
100
AcDbBlockBegin
  2
block 7
 70
     0
 10
0.0
 20
0.0
 30
0.0
  3
block 7
  1

  0
SPLINE
  5
109
330
105
100
AcDbEntity
  8
_U+30EC_U+30A4_U+30E4_U+30FC 1
370
     0
100
AcDbSpline
210
0.0
220
0.0
230
1.0
 70
    11
 71
     3
 72
    32
 73
    28
 74
     0
 42
0.0000000001
 43
0.0000000001
 12
1.0
 22
0.0
 32
0.0
 13
1.0
 23
0.0
 33
0.0
 40
0.0
 40
0.0
 40
0.0
 40
0.0
 40
1.0
 40
1.0
 40
1.0
 40
2.0
 40
2.0
 40
2.0
 40
3.0
 40
3.0
 40
3.0
 40
4.0
 40
4.0
 40
4.0
 40
5.0
 40
5.0
 40
5.0
 40
6.0
 40
6.0
 40
6.0
 40
7.0
 40
7.0
 40
7.0
 40
8.0
 40
8.0
 40
8.0
 40
9.0
 40
9.0
 40
9.0
 40
9.0
 10
104.4632188323911
 20
-130.7262152450962
 30
0.0
 10
104.4632188323911
 20
-131.2422905487867
 30
0.0
 10
103.909247478363
 20
-131.2505587779513
 30
0.0
 10
103.6953070487289
 20
-131.2505587779513
 30
0.0
 10
103.4648301607657
 20
-131.2505587779513
 30
0.0
 10
102.8174967190873
 20
-131.2316107527824
 30
0.0
 10
102.8174967190873
 20
-130.68797468521
 30
0.0
 10
102.8174967190873
 20
-130.5146863823019
 30
0.0
 10
102.8874321574379
 20
-130.2690510742036
 30
0.0
 10
103.219539362216
 20
-130.2311550238658
 30
0.0
 10
103.219539362216
 20
-130.2311550238658
 30
0.0
 10
103.219539362216
 20
-130.4447509439513
 30
0.0
 10
103.219539362216
 20
-130.4447509439513
 30
0.0
 10
103.1623507771608
 20
-130.4554307399556
 30
0.0
 10
103.0142116712951
 20
-130.4871256184199
 30
0.0
 10
103.0142116712951
 20
-130.6900417425011
 30
0.0
 10
103.0142116712951
 20
-130.9821858396503
 30
0.0
 10
103.3421847614908
 20
-131.0221489472792
 30
0.0
 10
103.5471679428632
 20
-131.0348958005746
 30
0.0
 10
103.468964275348
 20
-130.9418782224729
 30
0.0
 10
103.4097086330017
 20
-130.8740098414135
 30
0.0
 10
103.4097086330017
 20
-130.6921087997923
 30
0.0
 10
103.4097086330017
 20
-130.5122748154622
 30
0.0
 10
103.5178846312386
 20
-130.2097954318573
 30
0.0
 10
103.9240613889495
 20
-130.2097954318573
 30
0.0
 10
104.2434217404322
 20
-130.2097954318573
 30
0.0
 10
104.4632188323911
 20
-130.4089219509047
 30
0.0
 10
104.4632188323911
 20
-130.7262152450962
 30
0.0
  0
SPLINE
  5
10A
330
105
100
AcDbEntity
  8
_U+30EC_U+30A4_U+30E4_U+30FC 1
370
     0
100
AcDbSpline
210
0.0
220
0.0
230
1.0
 70
    11
 71
     3
 72
    17
 73
    13
 74
     0
 42
0.0000000001
 43
0.0000000001
 12
1.0
 22
0.0
 32
0.0
 13
1.0
 23
0.0
 33
0.0
 40
0.0
 40
0.0
 40
0.0
 40
0.0
 40
1.0
 40
1.0
 40
1.0
 40
2.0
 40
2.0
 40
2.0
 40
3.0
 40
3.0
 40
3.0
 40
4.0
 40
4.0
 40
4.0
 40
4.0
 10
103.6043565279184
 20
-130.70898976767
 30
0.0
 10
103.6043565279184
 20
-130.971506043646
 30
0.0
 10
103.8158853907127
 20
-131.0094020939838
 30
0.0
 10
103.9323296181141
 20
-131.0094020939838
 30
0.0
 10
104.1080294878619
 20
-131.0094020939838
 30
0.0
 10
104.2709825043142
 20
-130.9143174585909
 30
0.0
 10
104.2709825043142
 20
-130.7303493596785
 30
0.0
 10
104.2709825043142
 20
-130.6097710176948
 30
0.0
 10
104.2117268619679
 20
-130.434071147947
 30
0.0
 10
103.9261284462407
 20
-130.434071147947
 30
0.0
 10
103.7018527301509
 20
-130.434071147947
 30
0.0
 10
103.6043565279184
 20
-130.5739420246482
 30
0.0
 10
103.6043565279184
 20
-130.70898976767
 30
0.0
  0
HATCH
  5
10B
330
105
100
AcDbEntity
  8
_U+30EC_U+30A4_U+30E4_U+30FC 1
 62
   179
420
  2234388
100
AcDbHatch
 10
0.0
 20
0.0
 30
0.0
210
0.0
220
0.0
230
1.0
  2
SOLID
 70
     1
 71
     0
 91
        2
 92
        1
 93
        1
 72
     4
 94
        3
 73
     0
 74
     1
 95
       32
 96
       28
 40
0.0
 40
0.0
 40
0.0
 40
0.0
 40
1.0
 40
1.0
 40
1.0
 40
2.0
 40
2.0
 40
2.0
 40
3.0
 40
3.0
 40
3.0
 40
4.0
 40
4.0
 40
4.0
 40
5.0
 40
5.0
 40
5.0
 40
6.0
 40
6.0
 40
6.0
 40
7.0
 40
7.0
 40
7.0
 40
8.0
 40
8.0
 40
8.0
 40
9.0
 40
9.0
 40
9.0
 40
9.0
 10
104.4632188323911
 20
-130.7262152450962
 10
104.4632188323911
 20
-131.2422905487867
 10
103.909247478363
 20
-131.2505587779513
 10
103.6953070487289
 20
-131.2505587779513
 10
103.4648301607657
 20
-131.2505587779513
 10
102.8174967190873
 20
-131.2316107527824
 10
102.8174967190873
 20
-130.68797468521
 10
102.8174967190873
 20
-130.5146863823019
 10
102.8874321574379
 20
-130.2690510742036
 10
103.219539362216
 20
-130.2311550238658
 10
103.219539362216
 20
-130.2311550238658
 10
103.219539362216
 20
-130.4447509439513
 10
103.219539362216
 20
-130.4447509439513
 10
103.1623507771608
 20
-130.4554307399556
 10
103.0142116712951
 20
-130.4871256184199
 10
103.0142116712951
 20
-130.6900417425011
 10
103.0142116712951
 20
-130.9821858396503
 10
103.3421847614908
 20
-131.0221489472792
 10
103.5471679428632
 20
-131.0348958005746
 10
103.468964275348
 20
-130.9418782224729
 10
103.4097086330017
 20
-130.8740098414135
 10
103.4097086330017
 20
-130.6921087997923
 10
103.4097086330017
 20
-130.5122748154622
 10
103.5178846312386
 20
-130.2097954318573
 10
103.9240613889495
 20
-130.2097954318573
 10
104.2434217404322
 20
-130.2097954318573
 10
104.4632188323911
 20
-130.4089219509047
 10
104.4632188323911
 20
-130.7262152450962
 97
        0
 97
        0
 92
        1
 93
        1
 72
     4
 94
        3
 73
     0
 74
     1
 95
       17
 96
       13
 40
0.0
 40
0.0
 40
0.0
 40
0.0
 40
1.0
 40
1.0
 40
1.0
 40
2.0
 40
2.0
 40
2.0
 40
3.0
 40
3.0
 40
3.0
 40
4.0
 40
4.0
 40
4.0
 40
4.0
 10
103.6043565279184
 20
-130.70898976767
 10
103.6043565279184
 20
-130.971506043646
 10
103.8158853907127
 20
-131.0094020939838
 10
103.9323296181141
 20
-131.0094020939838
 10
104.1080294878619
 20
-131.0094020939838
 10
104.2709825043142
 20
-130.9143174585909
 10
104.2709825043142
 20
-130.7303493596785
 10
104.2709825043142
 20
-130.6097710176948
 10
104.2117268619679
 20
-130.434071147947
 10
103.9261284462407
 20
-130.434071147947
 10
103.7018527301509
 20
-130.434071147947
 10
103.6043565279184
 20
-130.5739420246482
 10
103.6043565279184
 20
-130.70898976767
 97
        0
 97
        0
 75
     2
 76
     1
 98
        0
  0
POLYLINE
  5
10C
330
105
100
AcDbEntity
  8
_U+30EC_U+30A4_U+30E4_U+30FC 1
370
     0
100
AcDb2dPolyline
 66
     1
 10
0.0
 20
0.0
 30
0.0
  0
VERTEX
  5
10D
330
10C
100
AcDbEntity
  8
_U+30EC_U+30A4_U+30E4_U+30FC 1
370
     0
100
AcDbVertex
100
AcDb2dVertex
 10
104.412575928758
 20
-129.9934434353836
 30
0.0
  0
VERTEX
  5
10E
330
10C
100
AcDbEntity
  8
_U+30EC_U+30A4_U+30E4_U+30FC 1
370
     0
100
AcDbVertex
100
AcDb2dVertex
 10
104.1607394487862
 20
-129.9934434353836
 30
0.0
  0
VERTEX
  5
10F
330
10C
100
AcDbEntity
  8
_U+30EC_U+30A4_U+30E4_U+30FC 1
370
     0
100
AcDbVertex
100
AcDb2dVertex
 10
104.1607394487862
 20
-129.7416069554118
 30
0.0
  0
VERTEX
  5
110
330
10C
100
AcDbEntity
  8
_U+30EC_U+30A4_U+30E4_U+30FC 1
370
     0
100
AcDbVertex
100
AcDb2dVertex
 10
104.412575928758
 20
-129.7416069554118
 30
0.0
  0
VERTEX
  5
111
330
10C
100
AcDbEntity
  8
_U+30EC_U+30A4_U+30E4_U+30FC 1
370
     0
100
AcDbVertex
100
AcDb2dVertex
 10
104.412575928758
 20
-129.9934434353836
 30
0.0
  0
SEQEND
  5
112
330
10C
100
AcDbEntity
  8
_U+30EC_U+30A4_U+30E4_U+30FC 1
370
     0
  0
HATCH
  5
113
330
105
100
AcDbEntity
  8
_U+30EC_U+30A4_U+30E4_U+30FC 1
 62
   179
420
  2234388
100
AcDbHatch
 10
0.0
 20
0.0
 30
0.0
210
0.0
220
0.0
230
1.0
  2
SOLID
 70
     1
 71
     0
 91
        1
 92
        1
 93
        4
 72
     1
 10
104.412575928758
 20
-129.9934434353836
 11
104.1607394487862
 21
-129.9934434353836
 72
     1
 10
104.1607394487862
 20
-129.9934434353836
 11
104.1607394487862
 21
-129.7416069554118
 72
     1
 10
104.1607394487862
 20
-129.7416069554118
 11
104.412575928758
 21
-129.7416069554118
 72
     1
 10
104.412575928758
 20
-129.7416069554118
 11
104.412575928758
 21
-129.9934434353836
 97
        0
 75
     2
 76
     1
 98
        0
  0
SPLINE
  5
114
330
105
100
AcDbEntity
  8
_U+30EC_U+30A4_U+30E4_U+30FC 1
370
     0
100
AcDbSpline
210
0.0
220
0.0
230
1.0
 70
    11
 71
     3
 72
    53
 73
    49
 74
     0
 42
0.0000000001
 43
0.0000000001
 12
1.0
 22
0.0
 32
0.0
 13
1.0
 23
0.0
 33
0.0
 40
0.0
 40
0.0
 40
0.0
 40
0.0
 40
1.0
 40
1.0
 40
1.0
 40
2.0
 40
2.0
 40
2.0
 40
3.0
 40
3.0
 40
3.0
 40
4.0
 40
4.0
 40
4.0
 40
5.0
 40
5.0
 40
5.0
 40
6.0
 40
6.0
 40
6.0
 40
7.0
 40
7.0
 40
7.0
 40
8.0
 40
8.0
 40
8.0
 40
9.0
 40
9.0
 40
9.0
 40
10.0
 40
10.0
 40
10.0
 40
11.0
 40
11.0
 40
11.0
 40
12.0
 40
12.0
 40
12.0
 40
13.0
 40
13.0
 40
13.0
 40
14.0
 40
14.0
 40
14.0
 40
15.0
 40
15.0
 40
15.0
 40
16.0
 40
16.0
 40
16.0
 40
16.0
 10
104.4632188323911
 20
-129.0243380753828
 30
0.0
 10
104.4632188323911
 20
-129.102541742898
 30
0.0
 10
104.4463378645134
 20
-129.2041720597128
 30
0.0
 10
104.3829481075848
 20
-129.3058023765277
 30
0.0
 10
104.2730495616053
 20
-129.4790906794358
 30
0.0
 10
104.1417914236173
 20
-129.5004502714444
 30
0.0
 10
104.033959934929
 20
-129.5193982966132
 30
0.0
 10
104.033959934929
 20
-129.5193982966132
 30
0.0
 10
104.033959934929
 20
-129.2971896378146
 30
0.0
 10
104.033959934929
 20
-129.2971896378146
 30
0.0
 10
104.2327419444279
 20
-129.2424126195991
 30
0.0
 10
104.2623697656011
 20
-129.1152885961934
 30
0.0
 10
104.2623697656011
 20
-129.0222710180917
 30
0.0
 10
104.2623697656011
 20
-128.882744650939
 30
0.0
 10
104.1628065060774
 20
-128.730471430491
 30
0.0
 10
103.930262560823
 20
-128.730471430491
 30
0.0
 10
103.6742919662689
 20
-128.730471430491
 30
0.0
 10
103.6043565279184
 20
-128.910305414821
 30
0.0
 10
103.6043565279184
 20
-129.0308837568048
 30
0.0
 10
103.6043565279184
 20
-129.0625786352691
 30
0.0
 10
103.6043565279184
 20
-129.2041720597128
 30
0.0
 10
103.7335476086152
 20
-129.2930555232323
 30
0.0
 10
103.7335476086152
 20
-129.2930555232323
 30
0.0
 10
103.7145995834464
 20
-129.46875539298
 30
0.0
 10
103.7145995834464
 20
-129.46875539298
 30
0.0
 10
103.7145995834464
 20
-129.46875539298
 30
0.0
 10
102.8681396227205
 20
-129.3481770509963
 30
0.0
 10
102.8681396227205
 20
-129.3481770509963
 30
0.0
 10
102.8681396227205
 20
-129.3481770509963
 30
0.0
 10
102.8681396227205
 20
-128.5695854713298
 30
0.0
 10
102.8681396227205
 20
-128.5695854713298
 30
0.0
 10
102.8681396227205
 20
-128.5695854713298
 30
0.0
 10
103.0627875176371
 20
-128.5695854713298
 30
0.0
 10
103.0627875176371
 20
-128.5695854713298
 30
0.0
 10
103.0627875176371
 20
-128.5695854713298
 30
0.0
 10
103.0627875176371
 20
-129.185224034544
 30
0.0
 10
103.0627875176371
 20
-129.185224034544
 30
0.0
 10
103.0627875176371
 20
-129.185224034544
 30
0.0
 10
103.4858452432258
 20
-129.2506808487637
 30
0.0
 10
103.4858452432258
 20
-129.2506808487637
 30
0.0
 10
103.4520833074703
 20
-129.1893581491263
 30
0.0
 10
103.4117756902929
 20
-129.1070203670288
 30
0.0
 10
103.4117756902929
 20
-128.9885090823362
 30
0.0
 10
103.4117756902929
 20
-128.7346055450733
 30
0.0
 10
103.5981553560449
 20
-128.4975829756881
 30
0.0
 10
103.9113145356541
 20
-128.4975829756881
 30
0.0
 10
104.2286078298456
 20
-128.4975829756881
 30
0.0
 10
104.4632188323911
 20
-128.7218586917779
 30
0.0
 10
104.4632188323911
 20
-129.0243380753828
 30
0.0
  0
HATCH
  5
115
330
105
100
AcDbEntity
  8
_U+30EC_U+30A4_U+30E4_U+30FC 1
 62
   179
420
  2234388
100
AcDbHatch
 10
0.0
 20
0.0
 30
0.0
210
0.0
220
0.0
230
1.0
  2
SOLID
 70
     1
 71
     0
 91
        1
 92
        1
 93
        1
 72
     4
 94
        3
 73
     0
 74
     1
 95
       53
 96
       49
 40
0.0
 40
0.0
 40
0.0
 40
0.0
 40
1.0
 40
1.0
 40
1.0
 40
2.0
 40
2.0
 40
2.0
 40
3.0
 40
3.0
 40
3.0
 40
4.0
 40
4.0
 40
4.0
 40
5.0
 40
5.0
 40
5.0
 40
6.0
 40
6.0
 40
6.0
 40
7.0
 40
7.0
 40
7.0
 40
8.0
 40
8.0
 40
8.0
 40
9.0
 40
9.0
 40
9.0
 40
10.0
 40
10.0
 40
10.0
 40
11.0
 40
11.0
 40
11.0
 40
12.0
 40
12.0
 40
12.0
 40
13.0
 40
13.0
 40
13.0
 40
14.0
 40
14.0
 40
14.0
 40
15.0
 40
15.0
 40
15.0
 40
16.0
 40
16.0
 40
16.0
 40
16.0
 10
104.4632188323911
 20
-129.0243380753828
 10
104.4632188323911
 20
-129.102541742898
 10
104.4463378645134
 20
-129.2041720597128
 10
104.3829481075848
 20
-129.3058023765277
 10
104.2730495616053
 20
-129.4790906794358
 10
104.1417914236173
 20
-129.5004502714444
 10
104.033959934929
 20
-129.5193982966132
 10
104.033959934929
 20
-129.5193982966132
 10
104.033959934929
 20
-129.2971896378146
 10
104.033959934929
 20
-129.2971896378146
 10
104.2327419444279
 20
-129.2424126195991
 10
104.2623697656011
 20
-129.1152885961934
 10
104.2623697656011
 20
-129.0222710180917
 10
104.2623697656011
 20
-128.882744650939
 10
104.1628065060774
 20
-128.730471430491
 10
103.930262560823
 20
-128.730471430491
 10
103.6742919662689
 20
-128.730471430491
 10
103.6043565279184
 20
-128.910305414821
 10
103.6043565279184
 20
-129.0308837568048
 10
103.6043565279184
 20
-129.0625786352691
 10
103.6043565279184
 20
-129.2041720597128
 10
103.7335476086152
 20
-129.2930555232323
 10
103.7335476086152
 20
-129.2930555232323
 10
103.7145995834464
 20
-129.46875539298
 10
103.7145995834464
 20
-129.46875539298
 10
103.7145995834464
 20
-129.46875539298
 10
102.8681396227205
 20
-129.3481770509963
 10
102.8681396227205
 20
-129.3481770509963
 10
102.8681396227205
 20
-129.3481770509963
 10
102.8681396227205
 20
-128.5695854713298
 10
102.8681396227205
 20
-128.5695854713298
 10
102.8681396227205
 20
-128.5695854713298
 10
103.0627875176371
 20
-128.5695854713298
 10
103.0627875176371
 20
-128.5695854713298
 10
103.0627875176371
 20
-128.5695854713298
 10
103.0627875176371
 20
-129.185224034544
 10
103.0627875176371
 20
-129.185224034544
 10
103.0627875176371
 20
-129.185224034544
 10
103.4858452432258
 20
-129.2506808487637
 10
103.4858452432258
 20
-129.2506808487637
 10
103.4520833074703
 20
-129.1893581491263
 10
103.4117756902929
 20
-129.1070203670288
 10
103.4117756902929
 20
-128.9885090823362
 10
103.4117756902929
 20
-128.7346055450733
 10
103.5981553560449
 20
-128.4975829756881
 10
103.9113145356541
 20
-128.4975829756881
 10
104.2286078298456
 20
-128.4975829756881
 10
104.4632188323911
 20
-128.7218586917779
 10
104.4632188323911
 20
-129.0243380753828
 97
        0
 97
        0
 75
     2
 76
     1
 98
        0
  0
ENDBLK
  5
108
330
105
100
AcDbEntity
  8
0
100
AcDbBlockEnd
  0
ENDSEC
  0
SECTION
  2
ENTITIES
  0
POLYLINE
  5
41
330
1F
100
AcDbEntity
  8
_U+30EC_U+30A4_U+30E4_U+30FC 1
 62
   179
420
  2234388
370
    25
100
AcDb2dPolyline
 66
     1
 10
0.0
 20
0.0
 30
0.0
  0
VERTEX
  5
42
330
41
100
AcDbEntity
  8
_U+30EC_U+30A4_U+30E4_U+30FC 1
 62
   179
420
  2234388
370
    25
100
AcDbVertex
100
AcDb2dVertex
 10
86.76403417535397
 20
-125.8164305241016
 30
0.0
  0
VERTEX
  5
43
330
41
100
AcDbEntity
  8
_U+30EC_U+30A4_U+30E4_U+30FC 1
 62
   179
420
  2234388
370
    25
100
AcDbVertex
100
AcDb2dVertex
 10
101.7636510149041
 20
-125.8164305241016
 30
0.0
  0
VERTEX
  5
44
330
41
100
AcDbEntity
  8
_U+30EC_U+30A4_U+30E4_U+30FC 1
 62
   179
420
  2234388
370
    25
100
AcDbVertex
100
AcDb2dVertex
 10
101.7636510149041
 20
-126.6163894127902
 30
0.0
  0
VERTEX
  5
45
330
41
100
AcDbEntity
  8
_U+30EC_U+30A4_U+30E4_U+30FC 1
 62
   179
420
  2234388
370
    25
100
AcDbVertex
100
AcDb2dVertex
 10
87.5639930438342
 20
-126.6163894127902
 30
0.0
  0
VERTEX
  5
46
330
41
100
AcDbEntity
  8
_U+30EC_U+30A4_U+30E4_U+30FC 1
 62
   179
420
  2234388
370
    25
100
AcDbVertex
100
AcDb2dVertex
 10
87.5639930438342
 20
-134.3166816330876
 30
0.0
  0
VERTEX
  5
47
330
41
100
AcDbEntity
  8
_U+30EC_U+30A4_U+30E4_U+30FC 1
 62
   179
420
  2234388
370
    25
100
AcDbVertex
100
AcDb2dVertex
 10
89.96348159372926
 20
-134.3166816330876
 30
0.0
  0
VERTEX
  5
48
330
41
100
AcDbEntity
  8
_U+30EC_U+30A4_U+30E4_U+30FC 1
 62
   179
420
  2234388
370
    25
100
AcDbVertex
100
AcDb2dVertex
 10
89.96348159372926
 20
-133.1167785778322
 30
0.0
  0
VERTEX
  5
49
330
41
100
AcDbEntity
  8
_U+30EC_U+30A4_U+30E4_U+30FC 1
 62
   179
420
  2234388
370
    25
100
AcDbVertex
100
AcDb2dVertex
 10
90.7634404622095
 20
-133.1167785778322
 30
0.0
  0
VERTEX
  5
4A
330
41
100
AcDbEntity
  8
_U+30EC_U+30A4_U+30E4_U+30FC 1
 62
   179
420
  2234388
370
    25
100
AcDbVertex
100
AcDb2dVertex
 10
90.7634404622095
 20
-135.1166405217762
 30
0.0
  0
VERTEX
  5
4B
330
41
100
AcDbEntity
  8
_U+30EC_U+30A4_U+30E4_U+30FC 1
 62
   179
420
  2234388
370
    25
100
AcDbVertex
100
AcDb2dVertex
 10
86.76403417535397
 20
-135.1166405217762
 30
0.0
  0
VERTEX
  5
4C
330
41
100
AcDbEntity
  8
_U+30EC_U+30A4_U+30E4_U+30FC 1
 62
   179
420
  2234388
370
    25
100
AcDbVertex
100
AcDb2dVertex
 10
86.76403417535397
 20
-125.8164305241016
 30
0.0
  0
SEQEND
  5
4D
330
41
100
AcDbEntity
  8
_U+30EC_U+30A4_U+30E4_U+30FC 1
 62
   179
420
  2234388
370
    25
  0
SPLINE
  5
4E
330
1F
100
AcDbEntity
  8
_U+30EC_U+30A4_U+30E4_U+30FC 1
 62
   179
420
  2234388
370
     9
100
AcDbSpline
210
0.0
220
0.0
230
1.0
 70
    11
 71
     3
 72
    17
 73
    13
 74
     0
 42
0.0000000001
 43
0.0000000001
 12
1.0
 22
0.0
 32
0.0
 13
1.0
 23
0.0
 33
0.0
 40
0.0
 40
0.0
 40
0.0
 40
0.0
 40
1.0
 40
1.0
 40
1.0
 40
2.0
 40
2.0
 40
2.0
 40
3.0
 40
3.0
 40
3.0
 40
4.0
 40
4.0
 40
4.0
 40
4.0
 10
105.8639870214069
 20
-125.8164305241016
 30
0.0
 10
105.8639870214069
 20
-125.7613266352264
 30
0.0
 10
105.8192221957671
 20
-125.7165238574596
 30
0.0
 10
105.7634100795284
 20
-125.7165238574596
 30
0.0
 10
105.7082709142684
 20
-125.7165238574596
 30
0.0
 10
105.6635034154106
 20
-125.7613266352264
 30
0.0
 10
105.6635034154106
 20
-125.8164305241016
 30
0.0
 10
105.6635034154106
 20
-125.8715696907544
 30
0.0
 10
105.7082709142684
 20
-125.9163371907432
 30
0.0
 10
105.7634100795284
 20
-125.9163371907432
 30
0.0
 10
105.8192221957671
 20
-125.9163371907432
 30
0.0
 10
105.8639870214069
 20
-125.8715696907544
 30
0.0
 10
105.8639870214069
 20
-125.8164305241016
 30
0.0
  0
SPLINE
  5
4F
330
1F
100
AcDbEntity
  8
_U+30EC_U+30A4_U+30E4_U+30FC 1
 62
   179
420
  2234388
370
     9
100
AcDbSpline
210
0.0
220
0.0
230
1.0
 70
    11
 71
     3
 72
    17
 73
    13
 74
     0
 42
0.0000000001
 43
0.0000000001
 12
1.0
 22
0.0
 32
0.0
 13
1.0
 23
0.0
 33
0.0
 40
0.0
 40
0.0
 40
0.0
 40
0.0
 40
1.0
 40
1.0
 40
1.0
 40
2.0
 40
2.0
 40
2.0
 40
3.0
 40
3.0
 40
3.0
 40
4.0
 40
4.0
 40
4.0
 40
4.0
 10
105.8639870214069
 20
-133.1167785778322
 30
0.0
 10
105.8639870214069
 20
-133.0616394111791
 30
0.0
 10
105.8192221957671
 20
-133.0168719111905
 30
0.0
 10
105.7634100795284
 20
-133.0168719111905
 30
0.0
 10
105.7082709142684
 20
-133.0168719111905
 30
0.0
 10
105.6635034154106
 20
-133.0616394111791
 30
0.0
 10
105.6635034154106
 20
-133.1167785778322
 30
0.0
 10
105.6635034154106
 20
-133.1718824667071
 30
0.0
 10
105.7082709142684
 20
-133.2166852444738
 30
0.0
 10
105.7634100795284
 20
-133.2166852444738
 30
0.0
 10
105.8192221957671
 20
-133.2166852444738
 30
0.0
 10
105.8639870214069
 20
-133.1718824667071
 30
0.0
 10
105.8639870214069
 20
-133.1167785778322
 30
0.0
  0
SPLINE
  5
50
330
1F
100
AcDbEntity
  8
_U+30EC_U+30A4_U+30E4_U+30FC 1
 62
   179
420
  2234388
370
     9
100
AcDbSpline
210
0.0
220
0.0
230
1.0
 70
    11
 71
     3
 72
    17
 73
    13
 74
     0
 42
0.0000000001
 43
0.0000000001
 12
1.0
 22
0.0
 32
0.0
 13
1.0
 23
0.0
 33
0.0
 40
0.0
 40
0.0
 40
0.0
 40
0.0
 40
1.0
 40
1.0
 40
1.0
 40
2.0
 40
2.0
 40
2.0
 40
3.0
 40
3.0
 40
3.0
 40
4.0
 40
4.0
 40
4.0
 40
4.0
 10
105.8639870214069
 20
-135.1166405217762
 30
0.0
 10
105.8639870214069
 20
-135.0615366329013
 30
0.0
 10
105.8192221957671
 20
-135.0167338551346
 30
0.0
 10
105.7634100795284
 20
-135.0167338551346
 30
0.0
 10
105.7082709142684
 20
-135.0167338551346
 30
0.0
 10
105.6635034154106
 20
-135.0615366329013
 30
0.0
 10
105.6635034154106
 20
-135.1166405217762
 30
0.0
 10
105.6635034154106
 20
-135.1717796884293
 30
0.0
 10
105.7082709142684
 20
-135.2165471884178
 30
0.0
 10
105.7634100795284
 20
-135.2165471884178
 30
0.0
 10
105.8192221957671
 20
-135.2165471884178
 30
0.0
 10
105.8639870214069
 20
-135.1717796884293
 30
0.0
 10
105.8639870214069
 20
-135.1166405217762
 30
0.0
  0
SPLINE
  5
51
330
1F
100
AcDbEntity
  8
_U+30EC_U+30A4_U+30E4_U+30FC 1
 62
   179
420
  2234388
370
     9
100
AcDbSpline
210
0.0
220
0.0
230
1.0
 70
    11
 71
     3
 72
    17
 73
    13
 74
     0
 42
0.0000000001
 43
0.0000000001
 12
1.0
 22
0.0
 32
0.0
 13
1.0
 23
0.0
 33
0.0
 40
0.0
 40
0.0
 40
0.0
 40
0.0
 40
1.0
 40
1.0
 40
1.0
 40
2.0
 40
2.0
 40
2.0
 40
3.0
 40
3.0
 40
3.0
 40
4.0
 40
4.0
 40
4.0
 40
4.0
 10
90.86334712632734
 20
-139.1171052429986
 30
0.0
 10
90.86334712632734
 20
-139.0612957985682
 30
0.0
 10
90.81857962746945
 20
-139.0164930208014
 30
0.0
 10
90.7634404622095
 20
-139.0164930208014
 30
0.0
 10
90.70833886621188
 20
-139.0164930208014
 30
0.0
 10
90.66353608844516
 20
-139.0612957985682
 30
0.0
 10
90.66353608844516
 20
-139.1171052429986
 30
0.0
 10
90.66353608844516
 20
-139.1722091318735
 30
0.0
 10
90.70833886621188
 20
-139.2170119096402
 30
0.0
 10
90.7634404622095
 20
-139.2170119096402
 30
0.0
 10
90.81857962746945
 20
-139.2170119096402
 30
0.0
 10
90.86334712632734
 20
-139.1722091318735
 30
0.0
 10
90.86334712632734
 20
-139.1171052429986
 30
0.0
  0
SPLINE
  5
52
330
1F
100
AcDbEntity
  8
_U+30EC_U+30A4_U+30E4_U+30FC 1
 62
   179
420
  2234388
370
     9
100
AcDbSpline
210
0.0
220
0.0
230
1.0
 70
    11
 71
     3
 72
    17
 73
    13
 74
     0
 42
0.0000000001
 43
0.0000000001
 12
1.0
 22
0.0
 32
0.0
 13
1.0
 23
0.0
 33
0.0
 40
0.0
 40
0.0
 40
0.0
 40
0.0
 40
1.0
 40
1.0
 40
1.0
 40
2.0
 40
2.0
 40
2.0
 40
3.0
 40
3.0
 40
3.0
 40
4.0
 40
4.0
 40
4.0
 40
4.0
 10
105.8639870214069
 20
-126.6163894127902
 30
0.0
 10
105.8639870214069
 20
-126.5612502461375
 30
0.0
 10
105.8192221957671
 20
-126.5164827461486
 30
0.0
 10
105.7634100795284
 20
-126.5164827461486
 30
0.0
 10
105.7082709142684
 20
-126.5164827461486
 30
0.0
 10
105.6635034154106
 20
-126.5612502461375
 30
0.0
 10
105.6635034154106
 20
-126.6163894127902
 30
0.0
 10
105.6635034154106
 20
-126.672198857221
 30
0.0
 10
105.7082709142684
 20
-126.7170016349874
 30
0.0
 10
105.7634100795284
 20
-126.7170016349874
 30
0.0
 10
105.8192221957671
 20
-126.7170016349874
 30
0.0
 10
105.8639870214069
 20
-126.672198857221
 30
0.0
 10
105.8639870214069
 20
-126.6163894127902
 30
0.0
  0
SPLINE
  5
53
330
1F
100
AcDbEntity
  8
_U+30EC_U+30A4_U+30E4_U+30FC 1
 62
   179
420
  2234388
370
     9
100
AcDbSpline
210
0.0
220
0.0
230
1.0
 70
    11
 71
     3
 72
    17
 73
    13
 74
     0
 42
0.0000000001
 43
0.0000000001
 12
1.0
 22
0.0
 32
0.0
 13
1.0
 23
0.0
 33
0.0
 40
0.0
 40
0.0
 40
0.0
 40
0.0
 40
1.0
 40
1.0
 40
1.0
 40
2.0
 40
2.0
 40
2.0
 40
3.0
 40
3.0
 40
3.0
 40
4.0
 40
4.0
 40
4.0
 40
4.0
 10
101.8635576790219
 20
-121.8166713584347
 30
0.0
 10
101.8635576790219
 20
-121.7615674695595
 30
0.0
 10
101.8187549023872
 20
-121.7167646917931
 30
0.0
 10
101.7636510149041
 20
-121.7167646917931
 30
0.0
 10
101.7085118496441
 20
-121.7167646917931
 30
0.0
 10
101.6637443507862
 20
-121.7615674695595
 30
0.0
 10
101.6637443507862
 20
-121.8166713584347
 30
0.0
 10
101.6637443507862
 20
-121.8718105250875
 30
0.0
 10
101.7085118496441
 20
-121.9165780250764
 30
0.0
 10
101.7636510149041
 20
-121.9165780250764
 30
0.0
 10
101.8187549023872
 20
-121.9165780250764
 30
0.0
 10
101.8635576790219
 20
-121.8718105250875
 30
0.0
 10
101.8635576790219
 20
-121.8166713584347
 30
0.0
  0
SPLINE
  5
54
330
1F
100
AcDbEntity
  8
_U+30EC_U+30A4_U+30E4_U+30FC 1
 62
   179
420
  2234388
370
     9
100
AcDbSpline
210
0.0
220
0.0
230
1.0
 70
    11
 71
     3
 72
    17
 73
    13
 74
     0
 42
0.0000000001
 43
0.0000000001
 12
1.0
 22
0.0
 32
0.0
 13
1.0
 23
0.0
 33
0.0
 40
0.0
 40
0.0
 40
0.0
 40
0.0
 40
1.0
 40
1.0
 40
1.0
 40
2.0
 40
2.0
 40
2.0
 40
3.0
 40
3.0
 40
3.0
 40
4.0
 40
4.0
 40
4.0
 40
4.0
 10
86.8639408394718
 20
-121.8166713584347
 30
0.0
 10
86.8639408394718
 20
-121.7615674695595
 30
0.0
 10
86.81917334061392
 20
-121.7167646917931
 30
0.0
 10
86.76403417535397
 20
-121.7167646917931
 30
0.0
 10
86.70822473233333
 20
-121.7167646917931
 30
0.0
 10
86.66345723347546
 20
-121.7615674695595
 30
0.0
 10
86.66345723347546
 20
-121.8166713584347
 30
0.0
 10
86.66345723347546
 20
-121.8718105250875
 30
0.0
 10
86.70822473233333
 20
-121.9165780250764
 30
0.0
 10
86.76403417535397
 20
-121.9165780250764
 30
0.0
 10
86.81917334061392
 20
-121.9165780250764
 30
0.0
 10
86.8639408394718
 20
-121.8718105250875
 30
0.0
 10
86.8639408394718
 20
-121.8166713584347
 30
0.0
  0
SPLINE
  5
55
330
1F
100
AcDbEntity
  8
_U+30EC_U+30A4_U+30E4_U+30FC 1
 62
   179
420
  2234388
370
     9
100
AcDbSpline
210
0.0
220
0.0
230
1.0
 70
    11
 71
     3
 72
    17
 73
    13
 74
     0
 42
0.0000000001
 43
0.0000000001
 12
1.0
 22
0.0
 32
0.0
 13
1.0
 23
0.0
 33
0.0
 40
0.0
 40
0.0
 40
0.0
 40
0.0
 40
1.0
 40
1.0
 40
1.0
 40
2.0
 40
2.0
 40
2.0
 40
3.0
 40
3.0
 40
3.0
 40
4.0
 40
4.0
 40
4.0
 40
4.0
 10
86.8639408394718
 20
-139.1171052429986
 30
0.0
 10
86.8639408394718
 20
-139.0612957985682
 30
0.0
 10
86.81917334061392
 20
-139.0164930208014
 30
0.0
 10
86.76403417535397
 20
-139.0164930208014
 30
0.0
 10
86.70822473233333
 20
-139.0164930208014
 30
0.0
 10
86.66345723347546
 20
-139.0612957985682
 30
0.0
 10
86.66345723347546
 20
-139.1171052429986
 30
0.0
 10
86.66345723347546
 20
-139.1722091318735
 30
0.0
 10
86.70822473233333
 20
-139.2170119096402
 30
0.0
 10
86.76403417535397
 20
-139.2170119096402
 30
0.0
 10
86.81917334061392
 20
-139.2170119096402
 30
0.0
 10
86.8639408394718
 20
-139.1722091318735
 30
0.0
 10
86.8639408394718
 20
-139.1171052429986
 30
0.0
  0
POLYLINE
  5
56
330
1F
100
AcDbEntity
  8
_U+30EC_U+30A4_U+30E4_U+30FC 1
 62
   179
420
  2234388
370
     9
100
AcDb2dPolyline
 66
     1
 10
0.0
 20
0.0
 30
0.0
  0
VERTEX
  5
57
330
56
100
AcDbEntity
  8
_U+30EC_U+30A4_U+30E4_U+30FC 1
 62
   179
420
  2234388
370
     9
100
AcDbVertex
100
AcDb2dVertex
 10
105.7634100795284
 20
-132.1166535780818
 30
0.0
  0
VERTEX
  5
58
330
56
100
AcDbEntity
  8
_U+30EC_U+30A4_U+30E4_U+30FC 1
 62
   179
420
  2234388
370
     9
100
AcDbVertex
100
AcDb2dVertex
 10
105.7634100795284
 20
-135.1166405217762
 30
0.0
  0
SEQEND
  5
59
330
56
100
AcDbEntity
  8
_U+30EC_U+30A4_U+30E4_U+30FC 1
 62
   179
420
  2234388
370
     9
  0
POLYLINE
  5
5A
330
1F
100
AcDbEntity
  8
_U+30EC_U+30A4_U+30E4_U+30FC 1
 62
   179
420
  2234388
370
     9
100
AcDb2dPolyline
 66
     1
 10
0.0
 20
0.0
 30
0.0
  0
VERTEX
  5
5B
330
5A
100
AcDbEntity
  8
_U+30EC_U+30A4_U+30E4_U+30FC 1
 62
   179
420
  2234388
370
     9
100
AcDbVertex
100
AcDb2dVertex
 10
93.30386373073124
 20
-135.1166405217762
 30
0.0
  0
VERTEX
  5
5C
330
5A
100
AcDbEntity
  8
_U+30EC_U+30A4_U+30E4_U+30FC 1
 62
   179
420
  2234388
370
     9
100
AcDbVertex
100
AcDb2dVertex
 10
106.763852554005
 20
-135.1166405217762
 30
0.0
  0
SEQEND
  5
5D
330
5A
100
AcDbEntity
  8
_U+30EC_U+30A4_U+30E4_U+30FC 1
 62
   179
420
  2234388
370
     9
  0
INSERT
  5
5F
330
1F
100
AcDbEntity
  8
_U+30EC_U+30A4_U+30E4_U+30FC 1
100
AcDbBlockReference
  2
block 2
 10
0.0
 20
0.0
 30
0.0
  0
POLYLINE
  5
64
330
1F
100
AcDbEntity
  8
_U+30EC_U+30A4_U+30E4_U+30FC 1
 62
   179
420
  2234388
370
     9
100
AcDb2dPolyline
 66
     1
 10
0.0
 20
0.0
 30
0.0
  0
VERTEX
  5
65
330
64
100
AcDbEntity
  8
_U+30EC_U+30A4_U+30E4_U+30FC 1
 62
   179
420
  2234388
370
     9
100
AcDbVertex
100
AcDb2dVertex
 10
86.76403417535397
 20
-121.8166713584347
 30
0.0
  0
VERTEX
  5
66
330
64
100
AcDbEntity
  8
_U+30EC_U+30A4_U+30E4_U+30FC 1
 62
   179
420
  2234388
370
     9
100
AcDbVertex
100
AcDb2dVertex
 10
101.7636510149041
 20
-121.8166713584347
 30
0.0
  0
SEQEND
  5
67
330
64
100
AcDbEntity
  8
_U+30EC_U+30A4_U+30E4_U+30FC 1
 62
   179
420
  2234388
370
     9
  0
POLYLINE
  5
68
330
1F
100
AcDbEntity
  8
_U+30EC_U+30A4_U+30E4_U+30FC 1
 62
   179
420
  2234388
370
     9
100
AcDb2dPolyline
 66
     1
 10
0.0
 20
0.0
 30
0.0
  0
VERTEX
  5
69
330
68
100
AcDbEntity
  8
_U+30EC_U+30A4_U+30E4_U+30FC 1
 62
   179
420
  2234388
370
     9
100
AcDbVertex
100
AcDb2dVertex
 10
86.76403417535397
 20
-123.2767127469588
 30
0.0
  0
VERTEX
  5
6A
330
68
100
AcDbEntity
  8
_U+30EC_U+30A4_U+30E4_U+30FC 1
 62
   179
420
  2234388
370
     9
100
AcDbVertex
100
AcDb2dVertex
 10
86.76403417535397
 20
-120.8168991364625
 30
0.0
  0
SEQEND
  5
6B
330
68
100
AcDbEntity
  8
_U+30EC_U+30A4_U+30E4_U+30FC 1
 62
   179
420
  2234388
370
     9
  0
POLYLINE
  5
6C
330
1F
100
AcDbEntity
  8
_U+30EC_U+30A4_U+30E4_U+30FC 1
 62
   179
420
  2234388
370
     9
100
AcDb2dPolyline
 66
     1
 10
0.0
 20
0.0
 30
0.0
  0
VERTEX
  5
6D
330
6C
100
AcDbEntity
  8
_U+30EC_U+30A4_U+30E4_U+30FC 1
 62
   179
420
  2234388
370
     9
100
AcDbVertex
100
AcDb2dVertex
 10
101.7636510149041
 20
-123.2767127469588
 30
0.0
  0
VERTEX
  5
6E
330
6C
100
AcDbEntity
  8
_U+30EC_U+30A4_U+30E4_U+30FC 1
 62
   179
420
  2234388
370
     9
100
AcDbVertex
100
AcDb2dVertex
 10
101.7636510149041
 20
-120.8168991364625
 30
0.0
  0
SEQEND
  5
6F
330
6C
100
AcDbEntity
  8
_U+30EC_U+30A4_U+30E4_U+30FC 1
 62
   179
420
  2234388
370
     9
  0
INSERT
  5
71
330
1F
100
AcDbEntity
  8
_U+30EC_U+30A4_U+30E4_U+30FC 1
100
AcDbBlockReference
  2
block 3
 10
0.0
 20
0.0
 30
0.0
  0
POLYLINE
  5
78
330
1F
100
AcDbEntity
  8
_U+30EC_U+30A4_U+30E4_U+30FC 1
 62
   179
420
  2234388
370
     9
100
AcDb2dPolyline
 66
     1
 10
0.0
 20
0.0
 30
0.0
  0
VERTEX
  5
79
330
78
100
AcDbEntity
  8
_U+30EC_U+30A4_U+30E4_U+30FC 1
 62
   179
420
  2234388
370
     9
100
AcDbVertex
100
AcDb2dVertex
 10
86.76403417535397
 20
-139.1171052429986
 30
0.0
  0
VERTEX
  5
7A
330
78
100
AcDbEntity
  8
_U+30EC_U+30A4_U+30E4_U+30FC 1
 62
   179
420
  2234388
370
     9
100
AcDbVertex
100
AcDb2dVertex
 10
90.7634404622095
 20
-139.1171052429986
 30
0.0
  0
SEQEND
  5
7B
330
78
100
AcDbEntity
  8
_U+30EC_U+30A4_U+30E4_U+30FC 1
 62
   179
420
  2234388
370
     9
  0
POLYLINE
  5
7C
330
1F
100
AcDbEntity
  8
_U+30EC_U+30A4_U+30E4_U+30FC 1
 62
   179
420
  2234388
370
     9
100
AcDb2dPolyline
 66
     1
 10
0.0
 20
0.0
 30
0.0
  0
VERTEX
  5
7D
330
7C
100
AcDbEntity
  8
_U+30EC_U+30A4_U+30E4_U+30FC 1
 62
   179
420
  2234388
370
     9
100
AcDbVertex
100
AcDb2dVertex
 10
86.76403417535397
 20
-137.6570638544749
 30
0.0
  0
VERTEX
  5
7E
330
7C
100
AcDbEntity
  8
_U+30EC_U+30A4_U+30E4_U+30FC 1
 62
   179
420
  2234388
370
     9
100
AcDbVertex
100
AcDb2dVertex
 10
86.76403417535397
 20
-140.116842187193
 30
0.0
  0
SEQEND
  5
7F
330
7C
100
AcDbEntity
  8
_U+30EC_U+30A4_U+30E4_U+30FC 1
 62
   179
420
  2234388
370
     9
  0
POLYLINE
  5
80
330
1F
100
AcDbEntity
  8
_U+30EC_U+30A4_U+30E4_U+30FC 1
 62
   179
420
  2234388
370
     9
100
AcDb2dPolyline
 66
     1
 10
0.0
 20
0.0
 30
0.0
  0
VERTEX
  5
81
330
80
100
AcDbEntity
  8
_U+30EC_U+30A4_U+30E4_U+30FC 1
 62
   179
420
  2234388
370
     9
100
AcDbVertex
100
AcDb2dVertex
 10
90.7634404622095
 20
-137.6570638544749
 30
0.0
  0
VERTEX
  5
82
330
80
100
AcDbEntity
  8
_U+30EC_U+30A4_U+30E4_U+30FC 1
 62
   179
420
  2234388
370
     9
100
AcDbVertex
100
AcDb2dVertex
 10
90.7634404622095
 20
-140.116842187193
 30
0.0
  0
SEQEND
  5
83
330
80
100
AcDbEntity
  8
_U+30EC_U+30A4_U+30E4_U+30FC 1
 62
   179
420
  2234388
370
     9
  0
INSERT
  5
85
330
1F
100
AcDbEntity
  8
_U+30EC_U+30A4_U+30E4_U+30FC 1
100
AcDbBlockReference
  2
block 4
 10
0.0
 20
0.0
 30
0.0
  0
POLYLINE
  5
9D
330
1F
100
AcDbEntity
  8
_U+30EC_U+30A4_U+30E4_U+30FC 1
 62
   179
420
  2234388
370
     9
100
AcDb2dPolyline
 66
     1
 10
0.0
 20
0.0
 30
0.0
  0
VERTEX
  5
9E
330
9D
100
AcDbEntity
  8
_U+30EC_U+30A4_U+30E4_U+30FC 1
 62
   179
420
  2234388
370
     9
100
AcDbVertex
100
AcDb2dVertex
 10
105.7634100795284
 20
-125.8164305241016
 30
0.0
  0
VERTEX
  5
9F
330
9D
100
AcDbEntity
  8
_U+30EC_U+30A4_U+30E4_U+30FC 1
 62
   179
420
  2234388
370
     9
100
AcDbVertex
100
AcDb2dVertex
 10
105.7634100795284
 20
-120.5588774698605
 30
0.0
  0
SEQEND
  5
A0
330
9D
100
AcDbEntity
  8
_U+30EC_U+30A4_U+30E4_U+30FC 1
 62
   179
420
  2234388
370
     9
  0
POLYLINE
  5
A1
330
1F
100
AcDbEntity
  8
_U+30EC_U+30A4_U+30E4_U+30FC 1
 62
   179
420
  2234388
370
     9
100
AcDb2dPolyline
 66
     1
 10
0.0
 20
0.0
 30
0.0
  0
VERTEX
  5
A2
330
A1
100
AcDbEntity
  8
_U+30EC_U+30A4_U+30E4_U+30FC 1
 62
   179
420
  2234388
370
     9
100
AcDbVertex
100
AcDb2dVertex
 10
105.7634100795284
 20
-126.6163894127902
 30
0.0
  0
VERTEX
  5
A3
330
A1
100
AcDbEntity
  8
_U+30EC_U+30A4_U+30E4_U+30FC 1
 62
   179
420
  2234388
370
     9
100
AcDbVertex
100
AcDb2dVertex
 10
105.7634100795284
 20
-125.8164305241016
 30
0.0
  0
SEQEND
  5
A4
330
A1
100
AcDbEntity
  8
_U+30EC_U+30A4_U+30E4_U+30FC 1
 62
   179
420
  2234388
370
     9
  0
POLYLINE
  5
A5
330
1F
100
AcDbEntity
  8
_U+30EC_U+30A4_U+30E4_U+30FC 1
 62
   179
420
  2234388
370
     9
100
AcDb2dPolyline
 66
     1
 10
0.0
 20
0.0
 30
0.0
  0
VERTEX
  5
A6
330
A5
100
AcDbEntity
  8
_U+30EC_U+30A4_U+30E4_U+30FC 1
 62
   179
420
  2234388
370
     9
100
AcDbVertex
100
AcDb2dVertex
 10
104.304041640591
 20
-126.6163894127902
 30
0.0
  0
VERTEX
  5
A7
330
A5
100
AcDbEntity
  8
_U+30EC_U+30A4_U+30E4_U+30FC 1
 62
   179
420
  2234388
370
     9
100
AcDbVertex
100
AcDb2dVertex
 10
106.763852554005
 20
-126.6163894127902
 30
0.0
  0
SEQEND
  5
A8
330
A5
100
AcDbEntity
  8
_U+30EC_U+30A4_U+30E4_U+30FC 1
 62
   179
420
  2234388
370
     9
  0
POLYLINE
  5
A9
330
1F
100
AcDbEntity
  8
_U+30EC_U+30A4_U+30E4_U+30FC 1
 62
   179
420
  2234388
370
     9
100
AcDb2dPolyline
 66
     1
 10
0.0
 20
0.0
 30
0.0
  0
VERTEX
  5
AA
330
A9
100
AcDbEntity
  8
_U+30EC_U+30A4_U+30E4_U+30FC 1
 62
   179
420
  2234388
370
     9
100
AcDbVertex
100
AcDb2dVertex
 10
104.304041640591
 20
-125.8164305241016
 30
0.0
  0
VERTEX
  5
AB
330
A9
100
AcDbEntity
  8
_U+30EC_U+30A4_U+30E4_U+30FC 1
 62
   179
420
  2234388
370
     9
100
AcDbVertex
100
AcDb2dVertex
 10
106.763852554005
 20
-125.8164305241016
 30
0.0
  0
SEQEND
  5
AC
330
A9
100
AcDbEntity
  8
_U+30EC_U+30A4_U+30E4_U+30FC 1
 62
   179
420
  2234388
370
     9
  0
INSERT
  5
AE
330
1F
100
AcDbEntity
  8
_U+30EC_U+30A4_U+30E4_U+30FC 1
100
AcDbBlockReference
  2
block 5
 10
0.0
 20
0.0
 30
0.0
  0
POLYLINE
  5
C0
330
1F
100
AcDbEntity
  8
_U+30EC_U+30A4_U+30E4_U+30FC 1
 62
   179
420
  2234388
370
     9
100
AcDb2dPolyline
 66
     1
 10
0.0
 20
0.0
 30
0.0
  0
VERTEX
  5
C1
330
C0
100
AcDbEntity
  8
_U+30EC_U+30A4_U+30E4_U+30FC 1
 62
   179
420
  2234388
370
     9
100
AcDbVertex
100
AcDb2dVertex
 10
105.7634100795284
 20
-126.6163894127902
 30
0.0
  0
VERTEX
  5
C2
330
C0
100
AcDbEntity
  8
_U+30EC_U+30A4_U+30E4_U+30FC 1
 62
   179
420
  2234388
370
     9
100
AcDbVertex
100
AcDb2dVertex
 10
105.7634100795284
 20
-132.1166535780818
 30
0.0
  0
SEQEND
  5
C3
330
C0
100
AcDbEntity
  8
_U+30EC_U+30A4_U+30E4_U+30FC 1
 62
   179
420
  2234388
370
     9
  0
POLYLINE
  5
C4
330
1F
100
AcDbEntity
  8
_U+30EC_U+30A4_U+30E4_U+30FC 1
 62
   179
420
  2234388
370
     9
100
AcDb2dPolyline
 66
     1
 10
0.0
 20
0.0
 30
0.0
  0
VERTEX
  5
C5
330
C4
100
AcDbEntity
  8
_U+30EC_U+30A4_U+30E4_U+30FC 1
 62
   179
420
  2234388
370
     9
100
AcDbVertex
100
AcDb2dVertex
 10
104.304041640591
 20
-126.6163894127902
 30
0.0
  0
VERTEX
  5
C6
330
C4
100
AcDbEntity
  8
_U+30EC_U+30A4_U+30E4_U+30FC 1
 62
   179
420
  2234388
370
     9
100
AcDbVertex
100
AcDb2dVertex
 10
106.763852554005
 20
-126.6163894127902
 30
0.0
  0
SEQEND
  5
C7
330
C4
100
AcDbEntity
  8
_U+30EC_U+30A4_U+30E4_U+30FC 1
 62
   179
420
  2234388
370
     9
  0
POLYLINE
  5
C8
330
1F
100
AcDbEntity
  8
_U+30EC_U+30A4_U+30E4_U+30FC 1
 62
   179
420
  2234388
370
     9
100
AcDb2dPolyline
 66
     1
 10
0.0
 20
0.0
 30
0.0
  0
VERTEX
  5
C9
330
C8
100
AcDbEntity
  8
_U+30EC_U+30A4_U+30E4_U+30FC 1
 62
   179
420
  2234388
370
     9
100
AcDbVertex
100
AcDb2dVertex
 10
93.30386373073124
 20
-133.1167785778322
 30
0.0
  0
VERTEX
  5
CA
330
C8
100
AcDbEntity
  8
_U+30EC_U+30A4_U+30E4_U+30FC 1
 62
   179
420
  2234388
370
     9
100
AcDbVertex
100
AcDb2dVertex
 10
106.763852554005
 20
-133.1167785778322
 30
0.0
  0
SEQEND
  5
CB
330
C8
100
AcDbEntity
  8
_U+30EC_U+30A4_U+30E4_U+30FC 1
 62
   179
420
  2234388
370
     9
  0
POLYLINE
  5
CC
330
1F
100
AcDbEntity
  8
_U+30EC_U+30A4_U+30E4_U+30FC 1
  6
AI-Linetype-1
 62
   154
420
    23468
370
    25
100
AcDb2dPolyline
 66
     1
 10
0.0
 20
0.0
 30
0.0
  0
VERTEX
  5
CD
330
CC
100
AcDbEntity
  8
_U+30EC_U+30A4_U+30E4_U+30FC 1
  6
AI-Linetype-1
 62
   154
420
    23468
370
    25
100
AcDbVertex
100
AcDb2dVertex
 10
85.95719614038256
 20
-125.9073766351898
 30
0.0
  0
VERTEX
  5
CE
330
CC
100
AcDbEntity
  8
_U+30EC_U+30A4_U+30E4_U+30FC 1
  6
AI-Linetype-1
 62
   154
420
    23468
370
    25
100
AcDbVertex
100
AcDb2dVertex
 10
85.95719614038256
 20
-133.9074241331896
 30
0.0
  0
SEQEND
  5
D0
330
CC
100
AcDbEntity
  8
_U+30EC_U+30A4_U+30E4_U+30FC 1
  6
AI-Linetype-1
 62
   154
420
    23468
370
    25
  0
POLYLINE
  5
D1
330
1F
100
AcDbEntity
  8
_U+30EC_U+30A4_U+30E4_U+30FC 1
 62
   179
420
  2234388
370
     9
100
AcDb2dPolyline
 66
     1
 10
0.0
 20
0.0
 30
0.0
  0
VERTEX
  5
D2
330
D1
100
AcDbEntity
  8
_U+30EC_U+30A4_U+30E4_U+30FC 1
 62
   179
420
  2234388
370
     9
100
AcDbVertex
100
AcDb2dVertex
 10
85.77805558939727
 20
-133.9694424665077
 30
0.0
  0
VERTEX
  5
D3
330
D1
100
AcDbEntity
  8
_U+30EC_U+30A4_U+30E4_U+30FC 1
 62
   179
420
  2234388
370
     9
100
AcDbVertex
100
AcDb2dVertex
 10
84.91195088927121
 20
-134.4696460774939
 30
0.0
  0
SEQEND
  5
D4
330
D1
100
AcDbEntity
  8
_U+30EC_U+30A4_U+30E4_U+30FC 1
 62
   179
420
  2234388
370
     9
  0
POLYLINE
  5
D5
330
1F
100
AcDbEntity
  8
_U+30EC_U+30A4_U+30E4_U+30FC 1
 62
   179
420
  2234388
370
     9
100
AcDb2dPolyline
 66
     1
 10
0.0
 20
0.0
 30
0.0
  0
VERTEX
  5
D6
330
D5
100
AcDbEntity
  8
_U+30EC_U+30A4_U+30E4_U+30FC 1
 62
   179
420
  2234388
370
     9
100
AcDbVertex
100
AcDb2dVertex
 10
85.77805558939727
 20
-133.9694424665077
 30
0.0
  0
VERTEX
  5
D7
330
D5
100
AcDbEntity
  8
_U+30EC_U+30A4_U+30E4_U+30FC 1
 62
   179
420
  2234388
370
     9
100
AcDbVertex
100
AcDb2dVertex
 10
81.79484180212863
 20
-137.9533266321785
 30
0.0
  0
SEQEND
  5
D8
330
D5
100
AcDbEntity
  8
_U+30EC_U+30A4_U+30E4_U+30FC 1
 62
   179
420
  2234388
370
     9
  0
POLYLINE
  5
D9
330
1F
100
AcDbEntity
  8
_U+30EC_U+30A4_U+30E4_U+30FC 1
 62
   179
420
  2234388
370
     9
100
AcDb2dPolyline
 66
     1
 10
0.0
 20
0.0
 30
0.0
  0
VERTEX
  5
DA
330
D9
100
AcDbEntity
  8
_U+30EC_U+30A4_U+30E4_U+30FC 1
 62
   179
420
  2234388
370
     9
100
AcDbVertex
100
AcDb2dVertex
 10
85.77805558939727
 20
-133.9694424665077
 30
0.0
  0
VERTEX
  5
DB
330
D9
100
AcDbEntity
  8
_U+30EC_U+30A4_U+30E4_U+30FC 1
 62
   179
420
  2234388
370
     9
100
AcDbVertex
100
AcDb2dVertex
 10
85.27781671327054
 20
-134.8355119107356
 30
0.0
  0
SEQEND
  5
DC
330
D9
100
AcDbEntity
  8
_U+30EC_U+30A4_U+30E4_U+30FC 1
 62
   179
420
  2234388
370
     9
  0
INSERT
  5
DE
330
1F
100
AcDbEntity
  8
_U+30EC_U+30A4_U+30E4_U+30FC 1
100
AcDbBlockReference
  2
block 6
 10
0.0
 20
0.0
 30
0.0
  0
INSERT
  5
106
330
1F
100
AcDbEntity
  8
_U+30EC_U+30A4_U+30E4_U+30FC 1
100
AcDbBlockReference
  2
block 7
 10
0.0
 20
0.0
 30
0.0
  0
ENDSEC
  0
SECTION
  2
OBJECTS
  0
DICTIONARY
  5
C
330
0
100
AcDbDictionary
281
     1
  3
ACAD_GROUP
350
D
  3
ACAD_LAYOUT
350
1A
  3
ACAD_MATERIAL
350
3B
  3
ACAD_MLEADERSTYLE
350
117
  3
ACAD_MLINESTYLE
350
17
  3
ACAD_PLOTSETTINGS
350
19
  3
ACAD_PLOTSTYLENAME
350
E
  3
ACAD_TABLESTYLE
350
116
  3
ACAD_VISUALSTYLE
350
2A
  0
SUN
  5
3F
330
29
100
AcDbSun
 90
        1
290
     0
 63
     7
421
 16777215
 40
1.0
291
     1
 91
  2455826
 92
 54000000
292
     0
 70
     2
 71
   256
280
     1
  0
DICTIONARY
  5
D
102
{ACAD_REACTORS
330
C
102
}
330
C
100
AcDbDictionary
281
     1
  0
DICTIONARY
  5
1A
102
{ACAD_REACTORS
330
C
102
}
330
C
100
AcDbDictionary
281
     1
  3
Layout1
350
1E
  3
Layout2
350
26
  3
Model
350
22
  0
DICTIONARY
  5
3B
102
{ACAD_REACTORS
330
C
102
}
330
C
100
AcDbDictionary
281
     1
  3
ByBlock
350
3D
  3
ByLayer
350
3C
  3
Global
350
3E
  0
DICTIONARY
  5
117
102
{ACAD_REACTORS
330
C
102
}
330
C
100
AcDbDictionary
281
     1
  0
DICTIONARY
  5
17
102
{ACAD_REACTORS
330
C
102
}
330
C
100
AcDbDictionary
281
     1
  3
Standard
350
18
  0
DICTIONARY
  5
19
102
{ACAD_REACTORS
330
C
102
}
330
C
100
AcDbDictionary
281
     1
  0
ACDBDICTIONARYWDFLT
  5
E
102
{ACAD_REACTORS
330
C
102
}
330
C
100
AcDbDictionary
281
     1
  3
Normal
350
F
100
AcDbDictionaryWithDefault
340
F
  0
DICTIONARY
  5
116
102
{ACAD_REACTORS
330
C
102
}
330
C
100
AcDbDictionary
281
     1
  0
DICTIONARY
  5
2A
102
{ACAD_REACTORS
330
C
102
}
330
C
100
AcDbDictionary
281
     1
  3
2dWireframe
350
2F
  3
3D Hidden
350
31
  3
3dWireframe
350
30
  3
Basic
350
32
  3
Brighten
350
36
  3
ColorChange
350
3A
  3
Conceptual
350
34
  3
Dim
350
35
  3
Facepattern
350
39
  3
Flat
350
2B
  3
FlatWithEdges
350
2C
  3
Gouraud
350
2D
  3
GouraudWithEdges
350
2E
  3
Linepattern
350
38
  3
Realistic
350
33
  3
Thicken
350
37
  0
LAYOUT
  5
1E
102
{ACAD_REACTORS
330
1A
102
}
330
1A
100
AcDbPlotSettings
  1

  2
none_device
  4

  6

 40
0.0
 41
0.0
 42
0.0
 43
0.0
 44
0.0
 45
0.0
 46
0.0
 47
0.0
 48
0.0
 49
0.0
140
0.0
141
0.0
142
1.0
143
1.0
 70
   688
 72
     0
 73
     0
 74
     5
  7

 75
    16
 76
     0
 77
     2
 78
   300
147
1.0
148
0.0
149
0.0
100
AcDbLayout
  1
Layout1
 70
     1
 71
     1
 10
0.0
 20
0.0
 11
12.0
 21
9.0
 12
0.0
 22
0.0
 32
0.0
 14
1.000000000000000E+20
 24
1.000000000000000E+20
 34
1.000000000000000E+20
 15
-1.000000000000000E+20
 25
-1.000000000000000E+20
 35
-1.000000000000000E+20
146
0.0
 13
0.0
 23
0.0
 33
0.0
 16
1.0
 26
0.0
 36
0.0
 17
0.0
 27
1.0
 37
0.0
 76
     0
330
1B
  0
LAYOUT
  5
26
102
{ACAD_REACTORS
330
1A
102
}
330
1A
100
AcDbPlotSettings
  1

  2
none_device
  4

  6

 40
0.0
 41
0.0
 42
0.0
 43
0.0
 44
0.0
 45
0.0
 46
0.0
 47
0.0
 48
0.0
 49
0.0
140
0.0
141
0.0
142
1.0
143
1.0
 70
   688
 72
     0
 73
     0
 74
     5
  7

 75
    16
 76
     0
 77
     2
 78
   300
147
1.0
148
0.0
149
0.0
100
AcDbLayout
  1
Layout2
 70
     1
 71
     2
 10
0.0
 20
0.0
 11
0.0
 21
0.0
 12
0.0
 22
0.0
 32
0.0
 14
0.0
 24
0.0
 34
0.0
 15
0.0
 25
0.0
 35
0.0
146
0.0
 13
0.0
 23
0.0
 33
0.0
 16
1.0
 26
0.0
 36
0.0
 17
0.0
 27
1.0
 37
0.0
 76
     0
330
23
  0
LAYOUT
  5
22
102
{ACAD_REACTORS
330
1A
102
}
330
1A
100
AcDbPlotSettings
  1

  2
none_device
  4

  6

 40
0.0
 41
0.0
 42
0.0
 43
0.0
 44
0.0
 45
0.0
 46
0.0
 47
0.0
 48
0.0
 49
0.0
140
0.0
141
0.0
142
1.0
143
1.0
 70
  1712
 72
     0
 73
     0
 74
     0
  7

 75
     0
 76
     0
 77
     2
 78
   300
147
1.0
148
0.0
149
0.0
100
AcDbLayout
  1
Model
 70
     1
 71
     0
 10
0.0
 20
0.0
 11
12.0
 21
9.0
 12
0.0
 22
0.0
 32
0.0
 14
1.000000000000000E+20
 24
1.000000000000000E+20
 34
1.000000000000000E+20
 15
-1.000000000000000E+20
 25
-1.000000000000000E+20
 35
-1.000000000000000E+20
146
0.0
 13
0.0
 23
0.0
 33
0.0
 16
1.0
 26
0.0
 36
0.0
 17
0.0
 27
1.0
 37
0.0
 76
     0
330
1F
331
29
  0
MATERIAL
  5
3D
102
{ACAD_REACTORS
330
3B
102
}
330
3B
100
AcDbMaterial
  1
ByBlock
 72
     1
 94
      127
  0
MATERIAL
  5
3C
102
{ACAD_REACTORS
330
3B
102
}
330
3B
100
AcDbMaterial
  1
ByLayer
 72
     1
 94
      127
  0
MATERIAL
  5
3E
102
{ACAD_REACTORS
330
3B
102
}
330
3B
100
AcDbMaterial
  1
Global
 72
     1
 94
      127
  0
MLINESTYLE
  5
18
102
{ACAD_REACTORS
330
17
102
}
330
17
100
AcDbMlineStyle
  2
Standard
 70
     0
  3

 62
   256
 51
90.0
 52
90.0
 71
     2
 49
0.5
 62
   256
  6
BYLAYER
 49
-0.5
 62
   256
  6
BYLAYER
  0
ACDBPLACEHOLDER
  5
F
102
{ACAD_REACTORS
330
E
102
}
330
E
  0
VISUALSTYLE
  5
2F
102
{ACAD_REACTORS
330
2A
102
}
330
2A
100
AcDbVisualStyle
  2
2dWireframe
 70
     4
177
     2
291
     0
 71
     0
176
     1
 72
     2
176
     1
 73
     0
176
     1
 90
        0
176
     1
 40
-0.6
176
     1
 41
-30.0
176
     1
 62
     5
 63
     7
421
 16777215
176
     1
 74
     1
176
     1
 91
        4
176
     1
 64
     7
176
     1
 65
   257
176
     1
 75
     1
176
     1
175
     1
176
     1
 42
1.0
176
     1
 92
        0
176
     1
 66
   257
176
     1
 43
1.0
176
     1
 76
     1
176
     1
 77
     6
176
     1
 78
     2
176
     1
 67
     7
176
     1
 79
     5
176
     1
170
     0
176
     1
171
     0
176
     1
290
     0
176
     1
 93
        1
176
     1
 44
0.0
176
     1
173
     0
176
     1
  0
VISUALSTYLE
  5
31
102
{ACAD_REACTORS
330
2A
102
}
330
2A
100
AcDbVisualStyle
  2
3D Hidden
 70
     6
177
     2
291
     0
 71
     1
176
     1
 72
     2
176
     1
 73
     2
176
     1
 90
        0
176
     1
 40
-0.6
176
     1
 41
-30.0
176
     1
 62
     5
 63
     7
421
 16777215
176
     1
 74
     2
176
     1
 91
        2
176
     1
 64
     7
176
     1
 65
   257
176
     1
 75
     2
176
     1
175
     1
176
     1
 42
40.0
176
     1
 92
        0
176
     1
 66
   257
176
     1
 43
1.0
176
     1
 76
     1
176
     1
 77
     6
176
     1
 78
     2
176
     1
 67
     7
176
     1
 79
     3
176
     1
170
     0
176
     1
171
     0
176
     1
290
     0
176
     1
 93
        1
176
     1
 44
0.0
176
     1
173
     0
176
     1
  0
VISUALSTYLE
  5
30
102
{ACAD_REACTORS
330
2A
102
}
330
2A
100
AcDbVisualStyle
  2
3dWireframe
 70
     5
177
     2
291
     0
 71
     0
176
     1
 72
     2
176
     1
 73
     0
176
     1
 90
        0
176
     1
 40
-0.6
176
     1
 41
-30.0
176
     1
 62
     5
 63
     7
421
 16777215
176
     1
 74
     1
176
     1
 91
        4
176
     1
 64
     7
176
     1
 65
   257
176
     1
 75
     1
176
     1
175
     1
176
     1
 42
1.0
176
     1
 92
        0
176
     1
 66
   257
176
     1
 43
1.0
176
     1
 76
     1
176
     1
 77
     6
176
     1
 78
     2
176
     1
 67
     7
176
     1
 79
     5
176
     1
170
     0
176
     1
171
     0
176
     1
290
     0
176
     1
 93
        1
176
     1
 44
0.0
176
     1
173
     0
176
     1
  0
VISUALSTYLE
  5
32
102
{ACAD_REACTORS
330
2A
102
}
330
2A
100
AcDbVisualStyle
  2
Basic
 70
     7
177
     2
291
     1
 71
     1
176
     1
 72
     0
176
     1
 73
     1
176
     1
 90
        0
176
     1
 40
-0.6
176
     1
 41
-30.0
176
     1
 62
     5
 63
     7
421
 16777215
176
     1
 74
     0
176
     1
 91
        4
176
     1
 64
     7
176
     1
 65
   257
176
     1
 75
     1
176
     1
175
     1
176
     1
 42
1.0
176
     1
 92
        8
176
     1
 66
     7
176
     1
 43
1.0
176
     1
 76
     1
176
     1
 77
     6
176
     1
 78
     2
176
     1
 67
     7
176
     1
 79
     5
176
     1
170
     0
176
     1
171
     0
176
     1
290
     0
176
     1
 93
        1
176
     1
 44
0.0
176
     1
173
     0
176
     1
  0
VISUALSTYLE
  5
36
102
{ACAD_REACTORS
330
2A
102
}
330
2A
100
AcDbVisualStyle
  2
Brighten
 70
    12
177
     2
291
     1
 71
     2
176
     1
 72
     2
176
     1
 73
     0
176
     1
 90
        0
176
     1
 40
-0.6
176
     1
 41
-30.0
176
     1
 62
     5
 63
     7
421
 16777215
176
     1
 74
     1
176
     1
 91
        4
176
     1
 64
     7
176
     1
 65
   257
176
     1
 75
     1
176
     1
175
     1
176
     1
 42
1.0
176
     1
 92
        8
176
     1
 66
     7
176
     1
 43
1.0
176
     1
 76
     1
176
     1
 77
     6
176
     1
 78
     2
176
     1
 67
     7
176
     1
 79
     5
176
     1
170
     0
176
     1
171
     0
176
     1
290
     0
176
     1
 93
        1
176
     1
 44
50.0
176
     1
173
     0
176
     1
  0
VISUALSTYLE
  5
3A
102
{ACAD_REACTORS
330
2A
102
}
330
2A
100
AcDbVisualStyle
  2
ColorChange
 70
    16
177
     2
291
     1
 71
     2
176
     1
 72
     2
176
     1
 73
     3
176
     1
 90
        0
176
     1
 40
-0.6
176
     1
 41
-30.0
176
     1
 62
     5
 63
     8
421
  8421504
176
     1
 74
     1
176
     1
 91
        4
176
     1
 64
     7
176
     1
 65
   257
176
     1
 75
     1
176
     1
175
     1
176
     1
 42
1.0
176
     1
 92
        8
176
     1
 66
     8
424
  8421504
176
     1
 43
1.0
176
     1
 76
     1
176
     1
 77
     6
176
     1
 78
     2
176
     1
 67
     7
176
     1
 79
     5
176
     1
170
     0
176
     1
171
     0
176
     1
290
     0
176
     1
 93
        1
176
     1
 44
0.0
176
     1
173
     0
176
     1
  0
VISUALSTYLE
  5
34
102
{ACAD_REACTORS
330
2A
102
}
330
2A
100
AcDbVisualStyle
  2
Conceptual
 70
     9
177
     2
291
     0
 71
     3
176
     1
 72
     2
176
     1
 73
     0
176
     1
 90
        0
176
     1
 40
-0.6
176
     1
 41
-30.0
176
     1
 62
     5
 63
     7
421
 16777215
176
     1
 74
     2
176
     1
 91
        2
176
     1
 64
     7
176
     1
 65
   257
176
     1
 75
     1
176
     1
175
     1
176
     1
 42
40.0
176
     1
 92
        8
176
     1
 66
     7
176
     1
 43
1.0
176
     1
 76
     1
176
     1
 77
     6
176
     1
 78
     2
176
     1
 67
     7
176
     1
 79
     3
176
     1
170
     0
176
     1
171
     0
176
     1
290
     0
176
     1
 93
        1
176
     1
 44
0.0
176
     1
173
     0
176
     1
  0
VISUALSTYLE
  5
35
102
{ACAD_REACTORS
330
2A
102
}
330
2A
100
AcDbVisualStyle
  2
Dim
 70
    11
177
     2
291
     1
 71
     2
176
     1
 72
     2
176
     1
 73
     0
176
     1
 90
        0
176
     1
 40
-0.6
176
     1
 41
-30.0
176
     1
 62
     5
 63
     7
421
 16777215
176
     1
 74
     1
176
     1
 91
        4
176
     1
 64
     7
176
     1
 65
   257
176
     1
 75
     1
176
     1
175
     1
176
     1
 42
1.0
176
     1
 92
        8
176
     1
 66
     7
176
     1
 43
1.0
176
     1
 76
     1
176
     1
 77
     6
176
     1
 78
     2
176
     1
 67
     7
176
     1
 79
     5
176
     1
170
     0
176
     1
171
     0
176
     1
290
     0
176
     1
 93
        1
176
     1
 44
-50.0
176
     1
173
     0
176
     1
  0
VISUALSTYLE
  5
39
102
{ACAD_REACTORS
330
2A
102
}
330
2A
100
AcDbVisualStyle
  2
Facepattern
 70
    15
177
     2
291
     1
 71
     2
176
     1
 72
     2
176
     1
 73
     0
176
     1
 90
        0
176
     1
 40
-0.6
176
     1
 41
-30.0
176
     1
 62
     5
 63
     7
421
 16777215
176
     1
 74
     1
176
     1
 91
        4
176
     1
 64
     7
176
     1
 65
   257
176
     1
 75
     1
176
     1
175
     1
176
     1
 42
1.0
176
     1
 92
        8
176
     1
 66
     7
176
     1
 43
1.0
176
     1
 76
     1
176
     1
 77
     6
176
     1
 78
     2
176
     1
 67
     7
176
     1
 79
     5
176
     1
170
     0
176
     1
171
     0
176
     1
290
     0
176
     1
 93
        1
176
     1
 44
0.0
176
     1
173
     0
176
     1
  0
VISUALSTYLE
  5
2B
102
{ACAD_REACTORS
330
2A
102
}
330
2A
100
AcDbVisualStyle
  2
Flat
 70
     0
177
     2
291
     1
 71
     2
176
     1
 72
     1
176
     1
 73
     1
176
     1
 90
        2
176
     1
 40
-0.6
176
     1
 41
30.0
176
     1
 62
     5
 63
     7
421
 16777215
176
     1
 74
     0
176
     1
 91
        4
176
     1
 64
     7
176
     1
 65
   257
176
     1
 75
     1
176
     1
175
     1
176
     1
 42
1.0
176
     1
 92
        8
176
     1
 66
     7
176
     1
 43
1.0
176
     1
 76
     1
176
     1
 77
     6
176
     1
 78
     2
176
     1
 67
     7
176
     1
 79
     5
176
     1
170
     0
176
     1
171
     0
176
     1
290
     0
176
     1
 93
       13
176
     1
 44
0.0
176
     1
173
     0
176
     1
  0
VISUALSTYLE
  5
2C
102
{ACAD_REACTORS
330
2A
102
}
330
2A
100
AcDbVisualStyle
  2
FlatWithEdges
 70
     1
177
     2
291
     1
 71
     2
176
     1
 72
     1
176
     1
 73
     1
176
     1
 90
        2
176
     1
 40
-0.6
176
     1
 41
30.0
176
     1
 62
     5
 63
     7
421
 16777215
176
     1
 74
     1
176
     1
 91
        4
176
     1
 64
     7
176
     1
 65
   257
176
     1
 75
     1
176
     1
175
     1
176
     1
 42
1.0
176
     1
 92
        0
176
     1
 66
   257
176
     1
 43
1.0
176
     1
 76
     1
176
     1
 77
     6
176
     1
 78
     2
176
     1
 67
     7
176
     1
 79
     5
176
     1
170
     0
176
     1
171
     0
176
     1
290
     0
176
     1
 93
       13
176
     1
 44
0.0
176
     1
173
     0
176
     1
  0
VISUALSTYLE
  5
2D
102
{ACAD_REACTORS
330
2A
102
}
330
2A
100
AcDbVisualStyle
  2
Gouraud
 70
     2
177
     2
291
     1
 71
     2
176
     1
 72
     2
176
     1
 73
     1
176
     1
 90
        2
176
     1
 40
-0.6
176
     1
 41
30.0
176
     1
 62
     5
 63
     7
421
 16777215
176
     1
 74
     0
176
     1
 91
        4
176
     1
 64
     7
176
     1
 65
   257
176
     1
 75
     1
176
     1
175
     1
176
     1
 42
1.0
176
     1
 92
        0
176
     1
 66
     7
176
     1
 43
1.0
176
     1
 76
     1
176
     1
 77
     6
176
     1
 78
     2
176
     1
 67
     7
176
     1
 79
     5
176
     1
170
     0
176
     1
171
     0
176
     1
290
     0
176
     1
 93
       13
176
     1
 44
0.0
176
     1
173
     0
176
     1
  0
VISUALSTYLE
  5
2E
102
{ACAD_REACTORS
330
2A
102
}
330
2A
100
AcDbVisualStyle
  2
GouraudWithEdges
 70
     3
177
     2
291
     1
 71
     2
176
     1
 72
     2
176
     1
 73
     1
176
     1
 90
        2
176
     1
 40
-0.6
176
     1
 41
30.0
176
     1
 62
     5
 63
     7
421
 16777215
176
     1
 74
     1
176
     1
 91
        4
176
     1
 64
     7
176
     1
 65
   257
176
     1
 75
     1
176
     1
175
     1
176
     1
 42
1.0
176
     1
 92
        0
176
     1
 66
   257
176
     1
 43
1.0
176
     1
 76
     1
176
     1
 77
     6
176
     1
 78
     2
176
     1
 67
     7
176
     1
 79
     5
176
     1
170
     0
176
     1
171
     0
176
     1
290
     0
176
     1
 93
       13
176
     1
 44
0.0
176
     1
173
     0
176
     1
  0
VISUALSTYLE
  5
38
102
{ACAD_REACTORS
330
2A
102
}
330
2A
100
AcDbVisualStyle
  2
Linepattern
 70
    14
177
     2
291
     1
 71
     2
176
     1
 72
     2
176
     1
 73
     0
176
     1
 90
        0
176
     1
 40
-0.6
176
     1
 41
-30.0
176
     1
 62
     5
 63
     7
421
 16777215
176
     1
 74
     1
176
     1
 91
        4
176
     1
 64
     7
176
     1
 65
   257
176
     1
 75
     7
176
     1
175
     7
176
     1
 42
1.0
176
     1
 92
        8
176
     1
 66
     7
176
     1
 43
1.0
176
     1
 76
     1
176
     1
 77
     6
176
     1
 78
     2
176
     1
 67
     7
176
     1
 79
     5
176
     1
170
     0
176
     1
171
     0
176
     1
290
     0
176
     1
 93
        1
176
     1
 44
0.0
176
     1
173
     0
176
     1
  0
VISUALSTYLE
  5
33
102
{ACAD_REACTORS
330
2A
102
}
330
2A
100
AcDbVisualStyle
  2
Realistic
 70
     8
177
     2
291
     0
 71
     2
176
     1
 72
     2
176
     1
 73
     0
176
     1
 90
        0
176
     1
 40
-0.6
176
     1
 41
-30.0
176
     1
 62
     5
 63
     7
421
 16777215
176
     1
 74
     1
176
     1
 91
        0
176
     1
 64
     7
176
     1
 65
   257
176
     1
 75
     1
176
     1
175
     1
176
     1
 42
1.0
176
     1
 92
        8
176
     1
 66
     8
424
  7895160
176
     1
 43
1.0
176
     1
 76
     1
176
     1
 77
     6
176
     1
 78
     2
176
     1
 67
     7
176
     1
 79
     5
176
     1
170
     0
176
     1
171
     0
176
     1
290
     0
176
     1
 93
       13
176
     1
 44
0.0
176
     1
173
     0
176
     1
  0
VISUALSTYLE
  5
37
102
{ACAD_REACTORS
330
2A
102
}
330
2A
100
AcDbVisualStyle
  2
Thicken
 70
    13
177
     2
291
     1
 71
     2
176
     1
 72
     2
176
     1
 73
     0
176
     1
 90
        0
176
     1
 40
-0.6
176
     1
 41
-30.0
176
     1
 62
     5
 63
     7
421
 16777215
176
     1
 74
     1
176
     1
 91
        4
176
     1
 64
     7
176
     1
 65
   257
176
     1
 75
     1
176
     1
175
     1
176
     1
 42
1.0
176
     1
 92
       12
176
     1
 66
     7
176
     1
 43
1.0
176
     1
 76
     1
176
     1
 77
     6
176
     1
 78
     2
176
     1
 67
     7
176
     1
 79
     5
176
     1
170
     0
176
     1
171
     0
176
     1
290
     0
176
     1
 93
        1
176
     1
 44
0.0
176
     1
173
     0
176
     1
  0
ENDSEC
  0
EOF
