  0
SECTION
  2
HEADER
  9
$ACADVER
  1
AC1024
  9
$ACADMAINTVER
 70
     6
  9
$DWGCODEPAGE
  3
UNDEFINED
  9
$INSBASE
 10
0.0
 20
0.0
 30
0.0
  9
$EXTMIN
 10
1.000000000000000E+20
 20
1.000000000000000E+20
 30
1.000000000000000E+20
  9
$EXTMAX
 10
-1.000000000000000E+20
 20
-1.000000000000000E+20
 30
-1.000000000000000E+20
  9
$LIMMIN
 10
0.0
 20
0.0
  9
$LIMMAX
 10
12.0
 20
9.0
  9
$ORTHOMODE
 70
     0
  9
$REGENMODE
 70
     1
  9
$FILLMODE
 70
     1
  9
$QTEXTMODE
 70
     0
  9
$MIRRTEXT
 70
     1
  9
$LTSCALE
 40
1.0
  9
$ATTMODE
 70
     1
  9
$TEXTSIZE
 40
0.2
  9
$TRACEWID
 40
0.05
  9
$TEXTSTYLE
  7
Standard
  9
$CLAYER
  8
0
  9
$CELTYPE
  6
ByLayer
  9
$CECOLOR
 62
   256
  9
$CELTSCALE
 40
1.0
  9
$DISPSILH
 70
     0
  9
$DIMSCALE
 40
1.0
  9
$DIMASZ
 40
0.18
  9
$DIMEXO
 40
0.0625
  9
$DIMDLI
 40
0.38
  9
$DIMRND
 40
0.0
  9
$DIMDLE
 40
0.0
  9
$DIMEXE
 40
0.18
  9
$DIMTP
 40
0.0
  9
$DIMTM
 40
0.0
  9
$DIMTXT
 40
0.18
  9
$DIMCEN
 40
0.09
  9
$DIMTSZ
 40
0.0
  9
$DIMTOL
 70
     0
  9
$DIMLIM
 70
     0
  9
$DIMTIH
 70
     1
  9
$DIMTOH
 70
     1
  9
$DIMSE1
 70
     0
  9
$DIMSE2
 70
     0
  9
$DIMTAD
 70
     0
  9
$DIMZIN
 70
     0
  9
$DIMBLK
  1

  9
$DIMASO
 70
     1
  9
$DIMSHO
 70
     1
  9
$DIMPOST
  1

  9
$DIMAPOST
  1

  9
$DIMALT
 70
     0
  9
$DIMALTD
 70
     2
  9
$DIMALTF
 40
25.4
  9
$DIMLFAC
 40
1.0
  9
$DIMTOFL
 70
     0
  9
$DIMTVP
 40
0.0
  9
$DIMTIX
 70
     0
  9
$DIMSOXD
 70
     0
  9
$DIMSAH
 70
     0
  9
$DIMBLK1
  1

  9
$DIMBLK2
  1

  9
$DIMSTYLE
  2
Standard
  9
$DIMCLRD
 70
     0
  9
$DIMCLRE
 70
     0
  9
$DIMCLRT
 70
     0
  9
$DIMTFAC
 40
1.0
  9
$DIMGAP
 40
0.09
  9
$DIMJUST
 70
     0
  9
$DIMSD1
 70
     0
  9
$DIMSD2
 70
     0
  9
$DIMTOLJ
 70
     1
  9
$DIMTZIN
 70
     0
  9
$DIMALTZ
 70
     0
  9
$DIMALTTZ
 70
     0
  9
$DIMUPT
 70
     0
  9
$DIMDEC
 70
     4
  9
$DIMTDEC
 70
     4
  9
$DIMALTU
 70
     2
  9
$DIMALTTD
 70
     2
  9
$DIMTXSTY
  7
Standard
  9
$DIMAUNIT
 70
     0
  9
$DIMADEC
 70
     0
  9
$DIMALTRND
 40
0.0
  9
$DIMAZIN
 70
     0
  9
$DIMDSEP
 70
    46
  9
$DIMATFIT
 70
     3
  9
$DIMFRAC
 70
     0
  9
$DIMLDRBLK
  1

  9
$DIMLUNIT
 70
     2
  9
$DIMLWD
 70
    -2
  9
$DIMLWE
 70
    -2
  9
$DIMTMOVE
 70
     0
  9
$DIMFXL
 40
1.0
  9
$DIMFXLON
 70
     0
  9
$DIMJOGANG
 40
0.7853981633974483
  9
$DIMTFILL
 70
     0
  9
$DIMTFILLCLR
 70
     0
  9
$DIMARCSYM
 70
     0
  9
$DIMLTYPE
  6

  9
$DIMLTEX1
  6

  9
$DIMLTEX2
  6

  9
$DIMTXTDIRECTION
 70
     0
  9
$LUNITS
 70
     2
  9
$LUPREC
 70
     4
  9
$SKETCHINC
 40
0.1
  9
$FILLETRAD
 40
0.5
  9
$AUNITS
 70
     0
  9
$AUPREC
 70
     0
  9
$MENU
  1
.
  9
$ELEVATION
 40
0.0
  9
$PELEVATION
 40
0.0
  9
$THICKNESS
 40
0.0
  9
$LIMCHECK
 70
     0
  9
$CHAMFERA
 40
0.5
  9
$CHAMFERB
 40
0.5
  9
$CHAMFERC
 40
1.0
  9
$CHAMFERD
 40
0.0
  9
$SKPOLY
 70
     0
  9
$TDCREATE
 40
2457917.589374988
  9
$TDUCREATE
 40
2457917.214375
  9
$TDUPDATE
 40
2457917.589374988
  9
$TDUUPDATE
 40
2457917.214375
  9
$TDINDWG
 40
0.0000000116
  9
$TDUSRTIMER
 40
0.0000000116
  9
$USRTIMER
 70
     1
  9
$ANGBASE
 50
0.0
  9
$ANGDIR
 70
     0
  9
$PDMODE
 70
     0
  9
$PDSIZE
 40
0.0
  9
$PLINEWID
 40
0.0
  9
$SPLFRAME
 70
     0
  9
$SPLINETYPE
 70
     6
  9
$SPLINESEGS
 70
     8
  9
$HANDSEED
  5
FA
  9
$SURFTAB1
 70
     6
  9
$SURFTAB2
 70
     6
  9
$SURFTYPE
 70
     6
  9
$SURFU
 70
     6
  9
$SURFV
 70
     6
  9
$UCSBASE
  2

  9
$UCSNAME
  2

  9
$UCSORG
 10
0.0
 20
0.0
 30
0.0
  9
$UCSXDIR
 10
1.0
 20
0.0
 30
0.0
  9
$UCSYDIR
 10
0.0
 20
1.0
 30
0.0
  9
$UCSORTHOREF
  2

  9
$UCSORTHOVIEW
 70
     0
  9
$UCSORGTOP
 10
0.0
 20
0.0
 30
0.0
  9
$UCSORGBOTTOM
 10
0.0
 20
0.0
 30
0.0
  9
$UCSORGLEFT
 10
0.0
 20
0.0
 30
0.0
  9
$UCSORGRIGHT
 10
0.0
 20
0.0
 30
0.0
  9
$UCSORGFRONT
 10
0.0
 20
0.0
 30
0.0
  9
$UCSORGBACK
 10
0.0
 20
0.0
 30
0.0
  9
$PUCSBASE
  2

  9
$PUCSNAME
  2

  9
$PUCSORG
 10
0.0
 20
0.0
 30
0.0
  9
$PUCSXDIR
 10
1.0
 20
0.0
 30
0.0
  9
$PUCSYDIR
 10
0.0
 20
1.0
 30
0.0
  9
$PUCSORTHOREF
  2

  9
$PUCSORTHOVIEW
 70
     0
  9
$PUCSORGTOP
 10
0.0
 20
0.0
 30
0.0
  9
$PUCSORGBOTTOM
 10
0.0
 20
0.0
 30
0.0
  9
$PUCSORGLEFT
 10
0.0
 20
0.0
 30
0.0
  9
$PUCSORGRIGHT
 10
0.0
 20
0.0
 30
0.0
  9
$PUCSORGFRONT
 10
0.0
 20
0.0
 30
0.0
  9
$PUCSORGBACK
 10
0.0
 20
0.0
 30
0.0
  9
$USERI1
 70
     0
  9
$USERI2
 70
     0
  9
$USERI3
 70
     0
  9
$USERI4
 70
     0
  9
$USERI5
 70
     0
  9
$USERR1
 40
0.0
  9
$USERR2
 40
0.0
  9
$USERR3
 40
0.0
  9
$USERR4
 40
0.0
  9
$USERR5
 40
0.0
  9
$WORLDVIEW
 70
     1
  9
$SHADEDGE
 70
     3
  9
$SHADEDIF
 70
    70
  9
$TILEMODE
 70
     1
  9
$MAXACTVP
 70
    64
  9
$PINSBASE
 10
0.0
 20
0.0
 30
0.0
  9
$PLIMCHECK
 70
     0
  9
$PEXTMIN
 10
1.000000000000000E+20
 20
1.000000000000000E+20
 30
1.000000000000000E+20
  9
$PEXTMAX
 10
-1.000000000000000E+20
 20
-1.000000000000000E+20
 30
-1.000000000000000E+20
  9
$PLIMMIN
 10
0.0
 20
0.0
  9
$PLIMMAX
 10
12.0
 20
9.0
  9
$UNITMODE
 70
     0
  9
$VISRETAIN
 70
     1
  9
$PLINEGEN
 70
     0
  9
$PSLTSCALE
 70
     1
  9
$TREEDEPTH
 70
  3020
  9
$CMLSTYLE
  2
Standard
  9
$CMLJUST
 70
     0
  9
$CMLSCALE
 40
1.0
  9
$PROXYGRAPHICS
 70
     1
  9
$MEASUREMENT
 70
     0
  9
$CELWEIGHT
370
    -1
  9
$ENDCAPS
280
     0
  9
$JOINSTYLE
280
     0
  9
$LWDISPLAY
290
     1
  9
$INSUNITS
 70
     1
  9
$HYPERLINKBASE
  1

  9
$STYLESHEET
  1

  9
$XEDIT
290
     1
  9
$CEPSNTYPE
380
     0
  9
$PSTYLEMODE
290
     1
  9
$FINGERPRINTGUID
  2
{F8B31ADA-6269-EE26-C820-EA55888035A3}
  9
$VERSIONGUID
  2
{FAEB1C32-E019-11D5-929B-00C0DF256EC4}
  9
$EXTNAMES
290
     1
  9
$PSVPSCALE
 40
0.0
  9
$OLESTARTUP
290
     0
  9
$SORTENTS
280
   127
  9
$INDEXCTL
280
     0
  9
$HIDETEXT
280
     1
  9
$XCLIPFRAME
280
     2
  9
$HALOGAP
280
     0
  9
$OBSCOLOR
 70
   257
  9
$OBSLTYPE
280
     0
  9
$INTERSECTIONDISPLAY
280
     0
  9
$INTERSECTIONCOLOR
 70
   257
  9
$DIMASSOC
280
     2
  9
$PROJECTNAME
  1

  9
$CAMERADISPLAY
290
     0
  9
$LENSLENGTH
 40
50.0
  9
$CAMERAHEIGHT
 40
0.0
  9
$STEPSPERSEC
 40
2.0
  9
$STEPSIZE
 40
6.0
  9
$3DDWFPREC
 40
2.0
  9
$PSOLWIDTH
 40
0.25
  9
$PSOLHEIGHT
 40
4.0
  9
$LOFTANG1
 40
1.570796326794897
  9
$LOFTANG2
 40
1.570796326794897
  9
$LOFTMAG1
 40
0.0
  9
$LOFTMAG2
 40
0.0
  9
$LOFTPARAM
 70
     7
  9
$LOFTNORMALS
280
     1
  9
$LATITUDE
 40
37.795
  9
$LONGITUDE
 40
-122.394
  9
$NORTHDIRECTION
 40
0.0
  9
$TIMEZONE
 70
 -8000
  9
$LIGHTGLYPHDISPLAY
280
     1
  9
$TILEMODELIGHTSYNCH
280
     1
  9
$CMATERIAL
347
3C
  9
$SOLIDHIST
280
     1
  9
$SHOWHIST
280
     1
  9
$DWFFRAME
280
     2
  9
$DGNFRAME
280
     2
  9
$REALWORLDSCALE
290
     1
  9
$INTERFERECOLOR
 62
   256
  9
$CSHADOW
280
     0
  9
$SHADOWPLANELOCATION
 40
0.0
  0
ENDSEC
  0
SECTION
  2
CLASSES
  0
CLASS
  1
ACDBDICTIONARYWDFLT
  2
AcDbDictionaryWithDefault
  3
ObjectDBX Classes
 90
        0
 91
        4
280
     0
281
     0
  0
CLASS
  1
VISUALSTYLE
  2
AcDbVisualStyle
  3
ObjectDBX Classes
 90
     4095
 91
        4
280
     0
281
     0
  0
CLASS
  1
MATERIAL
  2
AcDbMaterial
  3
ObjectDBX Classes
 90
     1153
 91
        4
280
     0
281
     0
  0
CLASS
  1
SUN
  2
AcDbSun
  3
SCENEOE
 90
     1024
 91
        4
280
     0
281
     0
  0
ENDSEC
  0
SECTION
  2
TABLES
  0
TABLE
  2
VPORT
  5
8
330
0
100
AcDbSymbolTable
 70
     1
  0
VPORT
  5
29
330
8
100
AcDbSymbolTableRecord
100
AcDbViewportTableRecord
  2
*Active
 70
     0
 10
0.0
 20
0.0
 11
1.0
 21
1.0
 12
0.0
 22
0.0
 13
0.0
 23
0.0
 14
0.5
 24
0.5
 15
0.5
 25
0.5
 16
0.0
 26
0.0
 36
1.0
 17
63.499999984125
 27
-89.00059456108309
 37
0.0
 40
178.0011891221662
 41
0.7134783795241226
 42
50.0
 43
0.0
 44
0.0
 50
0.0
 51
0.0
 71
     0
 72
   100
 73
     1
 74
     3
 75
     0
 76
     0
 77
     0
 78
     0
281
     0
 65
     1
110
0.0
120
0.0
130
0.0
111
1.0
121
0.0
131
0.0
112
0.0
122
1.0
132
0.0
 79
     0
146
0.0
 60
     3
 61
     5
292
     1
282
     1
141
0.0
142
0.0
 63
   250
361
3F
  0
ENDTAB
  0
TABLE
  2
LTYPE
  5
5
330
0
100
AcDbSymbolTable
 70
     1
  0
LTYPE
  5
14
330
5
100
AcDbSymbolTableRecord
100
AcDbLinetypeTableRecord
  2
ByBlock
 70
     0
  3

 72
    65
 73
     0
 40
0.0
  0
LTYPE
  5
15
330
5
100
AcDbSymbolTableRecord
100
AcDbLinetypeTableRecord
  2
ByLayer
 70
     0
  3

 72
    65
 73
     0
 40
0.0
  0
LTYPE
  5
16
330
5
100
AcDbSymbolTableRecord
100
AcDbLinetypeTableRecord
  2
Continuous
 70
     0
  3
Solid line
 72
    65
 73
     0
 40
0.0
  0
ENDTAB
  0
TABLE
  2
LAYER
  5
2
330
0
100
AcDbSymbolTable
 70
     2
  0
LAYER
  5
10
330
2
100
AcDbSymbolTableRecord
100
AcDbLayerTableRecord
  2
0
 70
     0
 62
     7
  6
Continuous
370
    -3
390
F
347
3E
  0
LAYER
  5
40
330
2
100
AcDbSymbolTableRecord
100
AcDbLayerTableRecord
  2
_U+30EC_U+30A4_U+30E4_U+30FC 1
 70
     0
 62
     7
  6
Continuous
370
    -3
390
F
347
3E
  0
ENDTAB
  0
TABLE
  2
STYLE
  5
3
330
0
100
AcDbSymbolTable
 70
     1
  0
STYLE
  5
11
330
3
100
AcDbSymbolTableRecord
100
AcDbTextStyleTableRecord
  2
Standard
 70
     0
 40
0.0
 41
1.0
 50
0.0
 71
     0
 42
0.2
  3
txt
  4

  0
ENDTAB
  0
TABLE
  2
VIEW
  5
6
330
0
100
AcDbSymbolTable
 70
     0
  0
ENDTAB
  0
TABLE
  2
UCS
  5
7
330
0
100
AcDbSymbolTable
 70
     0
  0
ENDTAB
  0
TABLE
  2
APPID
  5
9
330
0
100
AcDbSymbolTable
 70
     1
  0
APPID
  5
12
330
9
100
AcDbSymbolTableRecord
100
AcDbRegAppTableRecord
  2
ACAD
 70
     0
  0
ENDTAB
  0
TABLE
  2
DIMSTYLE
  5
A
330
0
100
AcDbSymbolTable
 70
     1
100
AcDbDimStyleTable
  0
DIMSTYLE
105
27
330
A
100
AcDbSymbolTableRecord
100
AcDbDimStyleTableRecord
  2
Standard
 70
     0
178
     0
340
11
  0
ENDTAB
  0
TABLE
  2
BLOCK_RECORD
  5
1
330
0
100
AcDbSymbolTable
 70
     6
  0
BLOCK_RECORD
  5
1F
330
1
100
AcDbSymbolTableRecord
100
AcDbBlockTableRecord
  2
*Model_Space
340
22
 70
     0
280
     1
281
     0
  0
BLOCK_RECORD
  5
1B
330
1
100
AcDbSymbolTableRecord
100
AcDbBlockTableRecord
  2
*Paper_Space
340
1E
 70
     0
280
     1
281
     0
  0
BLOCK_RECORD
  5
23
330
1
100
AcDbSymbolTableRecord
100
AcDbBlockTableRecord
  2
*Paper_Space0
340
26
 70
     0
280
     1
281
     0
  0
BLOCK_RECORD
  5
8D
330
1
100
AcDbSymbolTableRecord
100
AcDbBlockTableRecord
  2
block 2
340
0
102
{BLKREFS
331
8E
102
}
 70
     0
280
     1
281
     0
  0
BLOCK_RECORD
  5
A1
330
1
100
AcDbSymbolTableRecord
100
AcDbBlockTableRecord
  2
block 3
340
0
102
{BLKREFS
331
A2
102
}
 70
     0
280
     1
281
     0
  0
BLOCK_RECORD
  5
BA
330
1
100
AcDbSymbolTableRecord
100
AcDbBlockTableRecord
  2
block 4
340
0
102
{BLKREFS
331
BB
102
}
 70
     0
280
     1
281
     0
  0
BLOCK_RECORD
  5
D5
330
1
100
AcDbSymbolTableRecord
100
AcDbBlockTableRecord
  2
block 5
340
0
102
{BLKREFS
331
D6
102
}
 70
     0
280
     1
281
     0
  0
BLOCK_RECORD
  5
E7
330
1
100
AcDbSymbolTableRecord
100
AcDbBlockTableRecord
  2
block 6
340
0
102
{BLKREFS
331
E8
102
}
 70
     0
280
     1
281
     0
  0
ENDTAB
  0
ENDSEC
  0
SECTION
  2
BLOCKS
  0
BLOCK
  5
20
330
1F
100
AcDbEntity
  8
0
100
AcDbBlockBegin
  2
*Model_Space
 70
     0
 10
0.0
 20
0.0
 30
0.0
  3
*Model_Space
  1

  0
ENDBLK
  5
21
330
1F
100
AcDbEntity
  8
0
100
AcDbBlockEnd
  0
BLOCK
  5
1C
330
1B
100
AcDbEntity
 67
     1
  8
0
100
AcDbBlockBegin
  2
*Paper_Space
 70
     0
 10
0.0
 20
0.0
 30
0.0
  3
*Paper_Space
  1

  0
ENDBLK
  5
1D
330
1B
100
AcDbEntity
 67
     1
  8
0
100
AcDbBlockEnd
  0
BLOCK
  5
24
330
23
100
AcDbEntity
  8
0
100
AcDbBlockBegin
  2
*Paper_Space0
 70
     0
 10
0.0
 20
0.0
 30
0.0
  3
*Paper_Space0
  1

  0
ENDBLK
  5
25
330
23
100
AcDbEntity
  8
0
100
AcDbBlockEnd
  0
BLOCK
  5
8F
330
8D
100
AcDbEntity
  8
0
100
AcDbBlockBegin
  2
block 2
 70
     0
 10
0.0
 20
0.0
 30
0.0
  3
block 2
  1

  0
SPLINE
  5
91
330
8D
100
AcDbEntity
  8
_U+30EC_U+30A4_U+30E4_U+30FC 1
370
     0
100
AcDbSpline
210
0.0
220
0.0
230
1.0
 70
    11
 71
     3
 72
    44
 73
    40
 74
     0
 42
0.0000000001
 43
0.0000000001
 12
1.0
 22
0.0
 32
0.0
 13
1.0
 23
0.0
 33
0.0
 40
0.0
 40
0.0
 40
0.0
 40
0.0
 40
1.0
 40
1.0
 40
1.0
 40
2.0
 40
2.0
 40
2.0
 40
3.0
 40
3.0
 40
3.0
 40
4.0
 40
4.0
 40
4.0
 40
5.0
 40
5.0
 40
5.0
 40
6.0
 40
6.0
 40
6.0
 40
7.0
 40
7.0
 40
7.0
 40
8.0
 40
8.0
 40
8.0
 40
9.0
 40
9.0
 40
9.0
 40
10.0
 40
10.0
 40
10.0
 40
11.0
 40
11.0
 40
11.0
 40
12.0
 40
12.0
 40
12.0
 40
13.0
 40
13.0
 40
13.0
 40
13.0
 10
61.02831622823251
 20
-80.01871607157518
 30
0.0
 10
60.79542777342962
 20
-80.17736271867093
 30
0.0
 10
60.69603676868016
 20
-80.25143227160382
 30
0.0
 10
60.64401582685289
 20
-80.39526500811299
 30
0.0
 10
60.64401582685289
 20
-80.39526500811299
 30
0.0
 10
61.47600638654072
 20
-80.39526500811299
 30
0.0
 10
61.47600638654072
 20
-80.39526500811299
 30
0.0
 10
61.47600638654072
 20
-80.39526500811299
 30
0.0
 10
61.47600638654072
 20
-80.60042044425963
 30
0.0
 10
61.47600638654072
 20
-80.60042044425963
 30
0.0
 10
61.47600638654072
 20
-80.60042044425963
 30
0.0
 10
60.37719318152029
 20
-80.60042044425963
 30
0.0
 10
60.37719318152029
 20
-80.60042044425963
 30
0.0
 10
60.41112737205
 20
-80.24281953289069
 30
0.0
 10
60.48123506517484
 20
-80.16461586537551
 30
0.0
 10
60.89275172088793
 20
-79.86627059635288
 30
0.0
 10
61.16629230241676
 20
-79.66748858685396
 30
0.0
 10
61.2363999955416
 20
-79.5997924605688
 30
0.0
 10
61.2363999955416
 20
-79.46233315070734
 30
0.0
 10
61.2363999955416
 20
-79.34382186601474
 30
0.0
 10
61.15957436622053
 20
-79.212735982801
 30
0.0
 10
60.94925128684602
 20
-79.212735982801
 30
0.0
 10
60.6710598264121
 20
-79.212735982801
 30
0.0
 10
60.66210257815045
 20
-79.4432128707642
 30
0.0
 10
60.65762395401963
 20
-79.55965709816564
 30
0.0
 10
60.65762395401963
 20
-79.55965709816564
 30
0.0
 10
60.41784530824624
 20
-79.55965709816564
 30
0.0
 10
60.41784530824624
 20
-79.55965709816564
 30
0.0
 10
60.42697481128215
 20
-79.43270532953419
 30
0.0
 10
60.43834362638347
 20
-79.32056747148931
 30
0.0
 10
60.52412650396619
 20
-79.20205618679671
 30
0.0
 10
60.64177651478747
 20
-79.0413424824098
 30
0.0
 10
60.84073077906066
 20
-79.0074082918801
 30
0.0
 10
60.96509872607817
 20
-79.0074082918801
 30
0.0
 10
61.26120468303539
 20
-79.0074082918801
 30
0.0
 10
61.48272432273696
 20
-79.1915486455667
 30
0.0
 10
61.48272432273696
 20
-79.46440020799848
 30
0.0
 10
61.48272432273696
 20
-79.69281003867056
 30
0.0
 10
61.35835637571944
 20
-79.79237329819428
 30
0.0
 10
61.02831622823251
 20
-80.01871607157518
 30
0.0
  0
HATCH
  5
92
330
8D
100
AcDbEntity
  8
_U+30EC_U+30A4_U+30E4_U+30FC 1
 62
   179
420
  2234388
100
AcDbHatch
 10
0.0
 20
0.0
 30
0.0
210
0.0
220
0.0
230
1.0
  2
SOLID
 70
     1
 71
     0
 91
        1
 92
        1
 93
        1
 72
     4
 94
        3
 73
     0
 74
     1
 95
       44
 96
       40
 40
0.0
 40
0.0
 40
0.0
 40
0.0
 40
1.0
 40
1.0
 40
1.0
 40
2.0
 40
2.0
 40
2.0
 40
3.0
 40
3.0
 40
3.0
 40
4.0
 40
4.0
 40
4.0
 40
5.0
 40
5.0
 40
5.0
 40
6.0
 40
6.0
 40
6.0
 40
7.0
 40
7.0
 40
7.0
 40
8.0
 40
8.0
 40
8.0
 40
9.0
 40
9.0
 40
9.0
 40
10.0
 40
10.0
 40
10.0
 40
11.0
 40
11.0
 40
11.0
 40
12.0
 40
12.0
 40
12.0
 40
13.0
 40
13.0
 40
13.0
 40
13.0
 10
61.02831622823251
 20
-80.01871607157518
 10
60.79542777342962
 20
-80.17736271867093
 10
60.69603676868016
 20
-80.25143227160382
 10
60.64401582685289
 20
-80.39526500811299
 10
60.64401582685289
 20
-80.39526500811299
 10
61.47600638654072
 20
-80.39526500811299
 10
61.47600638654072
 20
-80.39526500811299
 10
61.47600638654072
 20
-80.39526500811299
 10
61.47600638654072
 20
-80.60042044425963
 10
61.47600638654072
 20
-80.60042044425963
 10
61.47600638654072
 20
-80.60042044425963
 10
60.37719318152029
 20
-80.60042044425963
 10
60.37719318152029
 20
-80.60042044425963
 10
60.41112737205
 20
-80.24281953289069
 10
60.48123506517484
 20
-80.16461586537551
 10
60.89275172088793
 20
-79.86627059635288
 10
61.16629230241676
 20
-79.66748858685396
 10
61.2363999955416
 20
-79.5997924605688
 10
61.2363999955416
 20
-79.46233315070734
 10
61.2363999955416
 20
-79.34382186601474
 10
61.15957436622053
 20
-79.212735982801
 10
60.94925128684602
 20
-79.212735982801
 10
60.6710598264121
 20
-79.212735982801
 10
60.66210257815045
 20
-79.4432128707642
 10
60.65762395401963
 20
-79.55965709816564
 10
60.65762395401963
 20
-79.55965709816564
 10
60.41784530824624
 20
-79.55965709816564
 10
60.41784530824624
 20
-79.55965709816564
 10
60.42697481128215
 20
-79.43270532953419
 10
60.43834362638347
 20
-79.32056747148931
 10
60.52412650396619
 20
-79.20205618679671
 10
60.64177651478747
 20
-79.0413424824098
 10
60.84073077906066
 20
-79.0074082918801
 10
60.96509872607817
 20
-79.0074082918801
 10
61.26120468303539
 20
-79.0074082918801
 10
61.48272432273696
 20
-79.1915486455667
 10
61.48272432273696
 20
-79.46440020799848
 10
61.48272432273696
 20
-79.69281003867056
 10
61.35835637571944
 20
-79.79237329819428
 10
61.02831622823251
 20
-80.01871607157518
 97
        0
 97
        0
 75
     2
 76
     1
 98
        0
  0
SPLINE
  5
93
330
8D
100
AcDbEntity
  8
_U+30EC_U+30A4_U+30E4_U+30FC 1
370
     0
100
AcDbSpline
210
0.0
220
0.0
230
1.0
 70
    11
 71
     3
 72
    62
 73
    58
 74
     0
 42
0.0000000001
 43
0.0000000001
 12
1.0
 22
0.0
 32
0.0
 13
1.0
 23
0.0
 33
0.0
 40
0.0
 40
0.0
 40
0.0
 40
0.0
 40
1.0
 40
1.0
 40
1.0
 40
2.0
 40
2.0
 40
2.0
 40
3.0
 40
3.0
 40
3.0
 40
4.0
 40
4.0
 40
4.0
 40
5.0
 40
5.0
 40
5.0
 40
6.0
 40
6.0
 40
6.0
 40
7.0
 40
7.0
 40
7.0
 40
8.0
 40
8.0
 40
8.0
 40
9.0
 40
9.0
 40
9.0
 40
10.0
 40
10.0
 40
10.0
 40
11.0
 40
11.0
 40
11.0
 40
12.0
 40
12.0
 40
12.0
 40
13.0
 40
13.0
 40
13.0
 40
14.0
 40
14.0
 40
14.0
 40
15.0
 40
15.0
 40
15.0
 40
16.0
 40
16.0
 40
16.0
 40
17.0
 40
17.0
 40
17.0
 40
18.0
 40
18.0
 40
18.0
 40
19.0
 40
19.0
 40
19.0
 40
19.0
 10
62.17760008211185
 20
-80.65123560266706
 30
0.0
 10
62.07596976529698
 20
-80.65123560266706
 30
0.0
 10
61.84308131049409
 20
-80.63004826543276
 30
0.0
 10
61.70975611521492
 20
-80.44384085445502
 30
0.0
 10
61.63051891905418
 20
-80.33170299641013
 30
0.0
 10
61.62604029492336
 20
-80.23231199166068
 30
0.0
 10
61.62156167079253
 20
-80.1477348974978
 30
0.0
 10
61.62156167079253
 20
-80.1477348974978
 30
0.0
 10
61.85651718288657
 20
-80.1477348974978
 30
0.0
 10
61.85651718288657
 20
-80.1477348974978
 30
0.0
 10
61.85892874972625
 20
-80.22180445043067
 30
0.0
 10
61.87029756482757
 20
-80.45658770775044
 30
0.0
 10
62.17312145798103
 20
-80.45658770775044
 30
0.0
 10
62.3202270352012
 20
-80.45658770775044
 30
0.0
 10
62.48283554210499
 20
-80.38682452417413
 30
0.0
 10
62.48283554210499
 20
-80.15824243872781
 30
0.0
 10
62.48283554210499
 20
-80.04197046610062
 30
0.0
 10
62.44218341537904
 20
-79.99322236498433
 30
0.0
 10
62.40807697007507
 20
-79.96152748652004
 30
0.0
 10
62.32918428346284
 20
-79.88745793358717
 30
0.0
 10
62.20481633644533
 20
-79.874883335066
 30
0.0
 10
62.14590520364755
 20
-79.874883335066
 30
0.0
 10
62.12557914028458
 20
-79.874883335066
 30
0.0
 10
62.08733858039831
 20
-79.87695039235716
 30
0.0
 10
62.05771075922516
 20
-79.88108450693946
 30
0.0
 10
62.05771075922516
 20
-79.88108450693946
 30
0.0
 10
62.05771075922516
 20
-79.68643661202285
 30
0.0
 10
62.05771075922516
 20
-79.68643661202285
 30
0.0
 10
62.0983628859511
 20
-79.69281003867056
 30
0.0
 10
62.1438381463564
 20
-79.69504935073596
 30
0.0
 10
62.15038382777838
 20
-79.69504935073596
 30
0.0
 10
62.22066377567747
 20
-79.69504935073596
 30
0.0
 10
62.43322616711739
 20
-79.67386201350168
 30
0.0
 10
62.43322616711739
 20
-79.43683944411649
 30
0.0
 10
62.43322616711739
 20
-79.25924477185185
 30
0.0
 10
62.29301078086772
 20
-79.20412324408787
 30
0.0
 10
62.1755330248207
 20
-79.20412324408787
 30
0.0
 10
61.89269068548169
 20
-79.20412324408787
 30
0.0
 10
61.88373343722004
 20
-79.43683944411649
 30
0.0
 10
61.87925481308922
 20
-79.50884193975821
 30
0.0
 10
61.87925481308922
 20
-79.50884193975821
 30
0.0
 10
61.66221379751848
 20
-79.50884193975821
 30
0.0
 10
61.66221379751848
 20
-79.50884193975821
 30
0.0
 10
61.67117104578013
 20
-79.3839572284179
 30
0.0
 10
61.70045435740475
 20
-79.0074082918801
 30
0.0
 10
62.18896889721318
 20
-79.0074082918801
 30
0.0
 10
62.42874754298656
 20
-79.0074082918801
 30
0.0
 10
62.68644068528325
 20
-79.13436006051155
 30
0.0
 10
62.68644068528325
 20
-79.43046601746877
 30
0.0
 10
62.68644068528325
 20
-79.61667342844653
 30
0.0
 10
62.58446585891986
 20
-79.69918346531826
 30
0.0
 10
62.47835691797416
 20
-79.76050616495571
 30
0.0
 10
62.54381373219391
 20
-79.78806692883771
 30
0.0
 10
62.73846162711052
 20
-79.86850990841829
 30
0.0
 10
62.73846162711052
 20
-80.14566784020664
 30
0.0
 10
62.73846162711052
 20
-80.48414847163244
 30
0.0
 10
62.47387829384334
 20
-80.65123560266706
 30
0.0
 10
62.17760008211185
 20
-80.65123560266706
 30
0.0
  0
HATCH
  5
94
330
8D
100
AcDbEntity
  8
_U+30EC_U+30A4_U+30E4_U+30FC 1
 62
   179
420
  2234388
100
AcDbHatch
 10
0.0
 20
0.0
 30
0.0
210
0.0
220
0.0
230
1.0
  2
SOLID
 70
     1
 71
     0
 91
        1
 92
        1
 93
        1
 72
     4
 94
        3
 73
     0
 74
     1
 95
       62
 96
       58
 40
0.0
 40
0.0
 40
0.0
 40
0.0
 40
1.0
 40
1.0
 40
1.0
 40
2.0
 40
2.0
 40
2.0
 40
3.0
 40
3.0
 40
3.0
 40
4.0
 40
4.0
 40
4.0
 40
5.0
 40
5.0
 40
5.0
 40
6.0
 40
6.0
 40
6.0
 40
7.0
 40
7.0
 40
7.0
 40
8.0
 40
8.0
 40
8.0
 40
9.0
 40
9.0
 40
9.0
 40
10.0
 40
10.0
 40
10.0
 40
11.0
 40
11.0
 40
11.0
 40
12.0
 40
12.0
 40
12.0
 40
13.0
 40
13.0
 40
13.0
 40
14.0
 40
14.0
 40
14.0
 40
15.0
 40
15.0
 40
15.0
 40
16.0
 40
16.0
 40
16.0
 40
17.0
 40
17.0
 40
17.0
 40
18.0
 40
18.0
 40
18.0
 40
19.0
 40
19.0
 40
19.0
 40
19.0
 10
62.17760008211185
 20
-80.65123560266706
 10
62.07596976529698
 20
-80.65123560266706
 10
61.84308131049409
 20
-80.63004826543276
 10
61.70975611521492
 20
-80.44384085445502
 10
61.63051891905418
 20
-80.33170299641013
 10
61.62604029492336
 20
-80.23231199166068
 10
61.62156167079253
 20
-80.1477348974978
 10
61.62156167079253
 20
-80.1477348974978
 10
61.85651718288657
 20
-80.1477348974978
 10
61.85651718288657
 20
-80.1477348974978
 10
61.85892874972625
 20
-80.22180445043067
 10
61.87029756482757
 20
-80.45658770775044
 10
62.17312145798103
 20
-80.45658770775044
 10
62.3202270352012
 20
-80.45658770775044
 10
62.48283554210499
 20
-80.38682452417413
 10
62.48283554210499
 20
-80.15824243872781
 10
62.48283554210499
 20
-80.04197046610062
 10
62.44218341537904
 20
-79.99322236498433
 10
62.40807697007507
 20
-79.96152748652004
 10
62.32918428346284
 20
-79.88745793358717
 10
62.20481633644533
 20
-79.874883335066
 10
62.14590520364755
 20
-79.874883335066
 10
62.12557914028458
 20
-79.874883335066
 10
62.08733858039831
 20
-79.87695039235716
 10
62.05771075922516
 20
-79.88108450693946
 10
62.05771075922516
 20
-79.88108450693946
 10
62.05771075922516
 20
-79.68643661202285
 10
62.05771075922516
 20
-79.68643661202285
 10
62.0983628859511
 20
-79.69281003867056
 10
62.1438381463564
 20
-79.69504935073596
 10
62.15038382777838
 20
-79.69504935073596
 10
62.22066377567747
 20
-79.69504935073596
 10
62.43322616711739
 20
-79.67386201350168
 10
62.43322616711739
 20
-79.43683944411649
 10
62.43322616711739
 20
-79.25924477185185
 10
62.29301078086772
 20
-79.20412324408787
 10
62.1755330248207
 20
-79.20412324408787
 10
61.89269068548169
 20
-79.20412324408787
 10
61.88373343722004
 20
-79.43683944411649
 10
61.87925481308922
 20
-79.50884193975821
 10
61.87925481308922
 20
-79.50884193975821
 10
61.66221379751848
 20
-79.50884193975821
 10
61.66221379751848
 20
-79.50884193975821
 10
61.67117104578013
 20
-79.3839572284179
 10
61.70045435740475
 20
-79.0074082918801
 10
62.18896889721318
 20
-79.0074082918801
 10
62.42874754298656
 20
-79.0074082918801
 10
62.68644068528325
 20
-79.13436006051155
 10
62.68644068528325
 20
-79.43046601746877
 10
62.68644068528325
 20
-79.61667342844653
 10
62.58446585891986
 20
-79.69918346531826
 10
62.47835691797416
 20
-79.76050616495571
 10
62.54381373219391
 20
-79.78806692883771
 10
62.73846162711052
 20
-79.86850990841829
 10
62.73846162711052
 20
-80.14566784020664
 10
62.73846162711052
 20
-80.48414847163244
 10
62.47387829384334
 20
-80.65123560266706
 10
62.17760008211185
 20
-80.65123560266706
 97
        0
 97
        0
 75
     2
 76
     1
 98
        0
  0
ENDBLK
  5
90
330
8D
100
AcDbEntity
  8
0
100
AcDbBlockEnd
  0
BLOCK
  5
A3
330
A1
100
AcDbEntity
  8
0
100
AcDbBlockBegin
  2
block 3
 70
     0
 10
0.0
 20
0.0
 30
0.0
  3
block 3
  1

  0
SPLINE
  5
A5
330
A1
100
AcDbEntity
  8
_U+30EC_U+30A4_U+30E4_U+30FC 1
370
     0
100
AcDbSpline
210
0.0
220
0.0
230
1.0
 70
    11
 71
     3
 72
    26
 73
    22
 74
     0
 42
0.0000000001
 43
0.0000000001
 12
1.0
 22
0.0
 32
0.0
 13
1.0
 23
0.0
 33
0.0
 40
0.0
 40
0.0
 40
0.0
 40
0.0
 40
1.0
 40
1.0
 40
1.0
 40
2.0
 40
2.0
 40
2.0
 40
3.0
 40
3.0
 40
3.0
 40
4.0
 40
4.0
 40
4.0
 40
5.0
 40
5.0
 40
5.0
 40
6.0
 40
6.0
 40
6.0
 40
7.0
 40
7.0
 40
7.0
 40
7.0
 10
53.37693141026688
 20
-98.90042315235823
 30
0.0
 10
53.37693141026688
 20
-98.90042315235823
 30
0.0
 10
53.37693141026688
 20
-97.79627004933566
 30
0.0
 10
53.37693141026688
 20
-97.79627004933566
 30
0.0
 10
53.37693141026688
 20
-97.79627004933566
 30
0.0
 10
53.0241536325773
 20
-97.79627004933566
 30
0.0
 10
53.0241536325773
 20
-97.79627004933566
 30
0.0
 10
53.0241536325773
 20
-97.79627004933566
 30
0.0
 10
53.0241536325773
 20
-97.64813094346992
 30
0.0
 10
53.0241536325773
 20
-97.64813094346992
 30
0.0
 10
53.37917072233229
 20
-97.63331703288334
 30
0.0
 10
53.42895235209415
 20
-97.47036401643102
 30
0.0
 10
53.46047497578419
 20
-97.35598684632073
 30
0.0
 10
53.46047497578419
 20
-97.35598684632073
 30
0.0
 10
53.61653780126601
 20
-97.35598684632073
 30
0.0
 10
53.61653780126601
 20
-97.35598684632073
 30
0.0
 10
53.61653780126601
 20
-97.35598684632073
 30
0.0
 10
53.61653780126601
 20
-98.90042315235823
 30
0.0
 10
53.61653780126601
 20
-98.90042315235823
 30
0.0
 10
53.61653780126601
 20
-98.90042315235823
 30
0.0
 10
53.37693141026688
 20
-98.90042315235823
 30
0.0
 10
53.37693141026688
 20
-98.90042315235823
 30
0.0
  0
HATCH
  5
A6
330
A1
100
AcDbEntity
  8
_U+30EC_U+30A4_U+30E4_U+30FC 1
 62
   179
420
  2234388
100
AcDbHatch
 10
0.0
 20
0.0
 30
0.0
210
0.0
220
0.0
230
1.0
  2
SOLID
 70
     1
 71
     0
 91
        1
 92
        1
 93
        1
 72
     4
 94
        3
 73
     0
 74
     1
 95
       26
 96
       22
 40
0.0
 40
0.0
 40
0.0
 40
0.0
 40
1.0
 40
1.0
 40
1.0
 40
2.0
 40
2.0
 40
2.0
 40
3.0
 40
3.0
 40
3.0
 40
4.0
 40
4.0
 40
4.0
 40
5.0
 40
5.0
 40
5.0
 40
6.0
 40
6.0
 40
6.0
 40
7.0
 40
7.0
 40
7.0
 40
7.0
 10
53.37693141026688
 20
-98.90042315235823
 10
53.37693141026688
 20
-98.90042315235823
 10
53.37693141026688
 20
-97.79627004933566
 10
53.37693141026688
 20
-97.79627004933566
 10
53.37693141026688
 20
-97.79627004933566
 10
53.0241536325773
 20
-97.79627004933566
 10
53.0241536325773
 20
-97.79627004933566
 10
53.0241536325773
 20
-97.79627004933566
 10
53.0241536325773
 20
-97.64813094346992
 10
53.0241536325773
 20
-97.64813094346992
 10
53.37917072233229
 20
-97.63331703288334
 10
53.42895235209415
 20
-97.47036401643102
 10
53.46047497578419
 20
-97.35598684632073
 10
53.46047497578419
 20
-97.35598684632073
 10
53.61653780126601
 20
-97.35598684632073
 10
53.61653780126601
 20
-97.35598684632073
 10
53.61653780126601
 20
-97.35598684632073
 10
53.61653780126601
 20
-98.90042315235823
 10
53.61653780126601
 20
-98.90042315235823
 10
53.61653780126601
 20
-98.90042315235823
 10
53.37693141026688
 20
-98.90042315235823
 10
53.37693141026688
 20
-98.90042315235823
 97
        0
 97
        0
 75
     2
 76
     1
 98
        0
  0
SPLINE
  5
A7
330
A1
100
AcDbEntity
  8
_U+30EC_U+30A4_U+30E4_U+30FC 1
370
     0
100
AcDbSpline
210
0.0
220
0.0
230
1.0
 70
    11
 71
     3
 72
    29
 73
    25
 74
     0
 42
0.0000000001
 43
0.0000000001
 12
1.0
 22
0.0
 32
0.0
 13
1.0
 23
0.0
 33
0.0
 40
0.0
 40
0.0
 40
0.0
 40
0.0
 40
1.0
 40
1.0
 40
1.0
 40
2.0
 40
2.0
 40
2.0
 40
3.0
 40
3.0
 40
3.0
 40
4.0
 40
4.0
 40
4.0
 40
5.0
 40
5.0
 40
5.0
 40
6.0
 40
6.0
 40
6.0
 40
7.0
 40
7.0
 40
7.0
 40
8.0
 40
8.0
 40
8.0
 40
8.0
 10
55.11170924186444
 20
-98.72265622531934
 30
0.0
 10
54.99647079788283
 20
-98.93211803082254
 30
0.0
 10
54.81112466077639
 20
-98.9510660559914
 30
0.0
 10
54.68675671375887
 20
-98.9510660559914
 30
0.0
 10
54.5148464490449
 20
-98.9510660559914
 30
0.0
 10
54.36343450246817
 20
-98.90455726694053
 30
0.0
 10
54.26163193087904
 20
-98.72265622531934
 30
0.0
 10
54.15087211102826
 20
-98.52800833040273
 30
0.0
 10
54.13054604766528
 20
-98.29098576101754
 30
0.0
 10
54.13054604766528
 20
-98.12837725411374
 30
0.0
 10
54.13054604766528
 20
-97.9843722628303
 30
0.0
 10
54.14863279896284
 20
-97.73253578285853
 30
0.0
 10
54.26163193087904
 20
-97.53375377335962
 30
0.0
 10
54.37704262963491
 20
-97.33083764927841
 30
0.0
 10
54.54878063957462
 20
-97.30741099997871
 30
0.0
 10
54.68675671375887
 20
-97.30741099997871
 30
0.0
 10
54.85625541163316
 20
-97.30741099997871
 30
0.0
 10
55.01007892504957
 20
-97.35185273173843
 30
0.0
 10
55.11170924186444
 20
-97.53375377335962
 30
0.0
 10
55.21799043758439
 20
-97.72633461098509
 30
0.0
 10
55.24296737985245
 20
-97.95474444165716
 30
0.0
 10
55.24296737985245
 20
-98.12837725411374
 30
0.0
 10
55.24296737985245
 20
-98.29959849973066
 30
0.0
 10
55.2202297496498
 20
-98.53007538769387
 30
0.0
 10
55.11170924186444
 20
-98.72265622531934
 30
0.0
  0
SPLINE
  5
A8
330
A1
100
AcDbEntity
  8
_U+30EC_U+30A4_U+30E4_U+30FC 1
370
     0
100
AcDbSpline
210
0.0
220
0.0
230
1.0
 70
    11
 71
     3
 72
    17
 73
    13
 74
     0
 42
0.0000000001
 43
0.0000000001
 12
1.0
 22
0.0
 32
0.0
 13
1.0
 23
0.0
 33
0.0
 40
0.0
 40
0.0
 40
0.0
 40
0.0
 40
1.0
 40
1.0
 40
1.0
 40
2.0
 40
2.0
 40
2.0
 40
3.0
 40
3.0
 40
3.0
 40
4.0
 40
4.0
 40
4.0
 40
4.0
 10
54.68675671375887
 20
-97.49999183760417
 30
0.0
 10
54.41993406842627
 20
-97.49999183760417
 30
0.0
 10
54.37015243866441
 20
-97.78352319604024
 30
0.0
 10
54.37015243866441
 20
-98.12837725411374
 30
0.0
 10
54.37015243866441
 20
-98.4477376055964
 30
0.0
 10
54.40856525332494
 20
-98.75641816107479
 30
0.0
 10
54.68675671375887
 20
-98.75641816107479
 30
0.0
 10
54.95116779225179
 20
-98.75641816107479
 30
0.0
 10
55.00318873407907
 20
-98.47529836947841
 30
0.0
 10
55.00318873407907
 20
-98.12837725411374
 30
0.0
 10
55.00318873407907
 20
-97.80867239308256
 30
0.0
 10
54.96253660735312
 20
-97.49999183760417
 30
0.0
 10
54.68675671375887
 20
-97.49999183760417
 30
0.0
  0
HATCH
  5
A9
330
A1
100
AcDbEntity
  8
_U+30EC_U+30A4_U+30E4_U+30FC 1
 62
   179
420
  2234388
100
AcDbHatch
 10
0.0
 20
0.0
 30
0.0
210
0.0
220
0.0
230
1.0
  2
SOLID
 70
     1
 71
     0
 91
        2
 92
        1
 93
        1
 72
     4
 94
        3
 73
     0
 74
     1
 95
       29
 96
       25
 40
0.0
 40
0.0
 40
0.0
 40
0.0
 40
1.0
 40
1.0
 40
1.0
 40
2.0
 40
2.0
 40
2.0
 40
3.0
 40
3.0
 40
3.0
 40
4.0
 40
4.0
 40
4.0
 40
5.0
 40
5.0
 40
5.0
 40
6.0
 40
6.0
 40
6.0
 40
7.0
 40
7.0
 40
7.0
 40
8.0
 40
8.0
 40
8.0
 40
8.0
 10
55.11170924186444
 20
-98.72265622531934
 10
54.99647079788283
 20
-98.93211803082254
 10
54.81112466077639
 20
-98.9510660559914
 10
54.68675671375887
 20
-98.9510660559914
 10
54.5148464490449
 20
-98.9510660559914
 10
54.36343450246817
 20
-98.90455726694053
 10
54.26163193087904
 20
-98.72265622531934
 10
54.15087211102826
 20
-98.52800833040273
 10
54.13054604766528
 20
-98.29098576101754
 10
54.13054604766528
 20
-98.12837725411374
 10
54.13054604766528
 20
-97.9843722628303
 10
54.14863279896284
 20
-97.73253578285853
 10
54.26163193087904
 20
-97.53375377335962
 10
54.37704262963491
 20
-97.33083764927841
 10
54.54878063957462
 20
-97.30741099997871
 10
54.68675671375887
 20
-97.30741099997871
 10
54.85625541163316
 20
-97.30741099997871
 10
55.01007892504957
 20
-97.35185273173843
 10
55.11170924186444
 20
-97.53375377335962
 10
55.21799043758439
 20
-97.72633461098509
 10
55.24296737985245
 20
-97.95474444165716
 10
55.24296737985245
 20
-98.12837725411374
 10
55.24296737985245
 20
-98.29959849973066
 10
55.2202297496498
 20
-98.53007538769387
 10
55.11170924186444
 20
-98.72265622531934
 97
        0
 97
        0
 92
        1
 93
        1
 72
     4
 94
        3
 73
     0
 74
     1
 95
       17
 96
       13
 40
0.0
 40
0.0
 40
0.0
 40
0.0
 40
1.0
 40
1.0
 40
1.0
 40
2.0
 40
2.0
 40
2.0
 40
3.0
 40
3.0
 40
3.0
 40
4.0
 40
4.0
 40
4.0
 40
4.0
 10
54.68675671375887
 20
-97.49999183760417
 10
54.41993406842627
 20
-97.49999183760417
 10
54.37015243866441
 20
-97.78352319604024
 10
54.37015243866441
 20
-98.12837725411374
 10
54.37015243866441
 20
-98.4477376055964
 10
54.40856525332494
 20
-98.75641816107479
 10
54.68675671375887
 20
-98.75641816107479
 10
54.95116779225179
 20
-98.75641816107479
 10
55.00318873407907
 20
-98.47529836947841
 10
55.00318873407907
 20
-98.12837725411374
 10
55.00318873407907
 20
-97.80867239308256
 10
54.96253660735312
 20
-97.49999183760417
 10
54.68675671375887
 20
-97.49999183760417
 97
        0
 97
        0
 75
     2
 76
     1
 98
        0
  0
ENDBLK
  5
A4
330
A1
100
AcDbEntity
  8
0
100
AcDbBlockEnd
  0
BLOCK
  5
BC
330
BA
100
AcDbEntity
  8
0
100
AcDbBlockBegin
  2
block 4
 70
     0
 10
0.0
 20
0.0
 30
0.0
  3
block 4
  1

  0
SPLINE
  5
BE
330
BA
100
AcDbEntity
  8
_U+30EC_U+30A4_U+30E4_U+30FC 1
370
     0
100
AcDbSpline
210
0.0
220
0.0
230
1.0
 70
    11
 71
     3
 72
    29
 73
    25
 74
     0
 42
0.0000000001
 43
0.0000000001
 12
1.0
 22
0.0
 32
0.0
 13
1.0
 23
0.0
 33
0.0
 40
0.0
 40
0.0
 40
0.0
 40
0.0
 40
1.0
 40
1.0
 40
1.0
 40
2.0
 40
2.0
 40
2.0
 40
3.0
 40
3.0
 40
3.0
 40
4.0
 40
4.0
 40
4.0
 40
5.0
 40
5.0
 40
5.0
 40
6.0
 40
6.0
 40
6.0
 40
7.0
 40
7.0
 40
7.0
 40
8.0
 40
8.0
 40
8.0
 40
8.0
 10
75.52958439952039
 20
-83.44744735327009
 30
0.0
 10
75.73904620502357
 20
-83.56285805202596
 30
0.0
 10
75.75799423019245
 20
-83.7482041891324
 30
0.0
 10
75.75799423019245
 20
-83.87257213614991
 30
0.0
 10
75.75799423019245
 20
-84.04413789131536
 30
0.0
 10
75.71148544114158
 20
-84.19572209266636
 30
0.0
 10
75.52958439952039
 20
-84.29735240948122
 30
0.0
 10
75.33493650460377
 20
-84.40828448410626
 30
0.0
 10
75.09791393521859
 20
-84.42861054746923
 30
0.0
 10
74.93530542831479
 20
-84.42861054746923
 30
0.0
 10
74.79130043703134
 20
-84.42861054746923
 30
0.0
 10
74.53946395705958
 20
-84.41035154139742
 30
0.0
 10
74.34068194756067
 20
-84.29735240948122
 30
0.0
 10
74.13776582347946
 20
-84.18228622027388
 30
0.0
 10
74.11433917417975
 20
-84.01037595555991
 30
0.0
 10
74.11433917417975
 20
-83.87257213614991
 30
0.0
 10
74.11433917417975
 20
-83.7027289287271
 30
0.0
 10
74.15878090593948
 20
-83.54907767008496
 30
0.0
 10
74.34068194756067
 20
-83.44744735327009
 30
0.0
 10
74.53326278518614
 20
-83.34099390277586
 30
0.0
 10
74.7616726158582
 20
-83.31618921528207
 30
0.0
 10
74.93530542831479
 20
-83.31618921528207
 30
0.0
 10
75.10652667393171
 20
-83.31618921528207
 30
0.0
 10
75.33700356189492
 20
-83.33892684548472
 30
0.0
 10
75.52958439952039
 20
-83.44744735327009
 30
0.0
  0
SPLINE
  5
BF
330
BA
100
AcDbEntity
  8
_U+30EC_U+30A4_U+30E4_U+30FC 1
370
     0
100
AcDbSpline
210
0.0
220
0.0
230
1.0
 70
    11
 71
     3
 72
    17
 73
    13
 74
     0
 42
0.0000000001
 43
0.0000000001
 12
1.0
 22
0.0
 32
0.0
 13
1.0
 23
0.0
 33
0.0
 40
0.0
 40
0.0
 40
0.0
 40
0.0
 40
1.0
 40
1.0
 40
1.0
 40
2.0
 40
2.0
 40
2.0
 40
3.0
 40
3.0
 40
3.0
 40
4.0
 40
4.0
 40
4.0
 40
4.0
 10
74.30692001180522
 20
-83.87257213614991
 30
0.0
 10
74.30692001180522
 20
-84.13922252670825
 30
0.0
 10
74.59045137024128
 20
-84.18883190169585
 30
0.0
 10
74.93530542831479
 20
-84.18883190169585
 30
0.0
 10
75.25466577979745
 20
-84.18883190169585
 30
0.0
 10
75.56334633527584
 20
-84.15059134180957
 30
0.0
 10
75.56334633527584
 20
-83.87257213614991
 30
0.0
 10
75.56334633527584
 20
-83.60798880288273
 30
0.0
 10
75.28222654367944
 20
-83.55596786105545
 30
0.0
 10
74.93530542831479
 20
-83.55596786105545
 30
0.0
 10
74.61560056728361
 20
-83.55596786105545
 30
0.0
 10
74.30692001180522
 20
-83.59661998778141
 30
0.0
 10
74.30692001180522
 20
-83.87257213614991
 30
0.0
  0
HATCH
  5
C0
330
BA
100
AcDbEntity
  8
_U+30EC_U+30A4_U+30E4_U+30FC 1
 62
   179
420
  2234388
100
AcDbHatch
 10
0.0
 20
0.0
 30
0.0
210
0.0
220
0.0
230
1.0
  2
SOLID
 70
     1
 71
     0
 91
        2
 92
        1
 93
        1
 72
     4
 94
        3
 73
     0
 74
     1
 95
       29
 96
       25
 40
0.0
 40
0.0
 40
0.0
 40
0.0
 40
1.0
 40
1.0
 40
1.0
 40
2.0
 40
2.0
 40
2.0
 40
3.0
 40
3.0
 40
3.0
 40
4.0
 40
4.0
 40
4.0
 40
5.0
 40
5.0
 40
5.0
 40
6.0
 40
6.0
 40
6.0
 40
7.0
 40
7.0
 40
7.0
 40
8.0
 40
8.0
 40
8.0
 40
8.0
 10
75.52958439952039
 20
-83.44744735327009
 10
75.73904620502357
 20
-83.56285805202596
 10
75.75799423019245
 20
-83.7482041891324
 10
75.75799423019245
 20
-83.87257213614991
 10
75.75799423019245
 20
-84.04413789131536
 10
75.71148544114158
 20
-84.19572209266636
 10
75.52958439952039
 20
-84.29735240948122
 10
75.33493650460377
 20
-84.40828448410626
 10
75.09791393521859
 20
-84.42861054746923
 10
74.93530542831479
 20
-84.42861054746923
 10
74.79130043703134
 20
-84.42861054746923
 10
74.53946395705958
 20
-84.41035154139742
 10
74.34068194756067
 20
-84.29735240948122
 10
74.13776582347946
 20
-84.18228622027388
 10
74.11433917417975
 20
-84.01037595555991
 10
74.11433917417975
 20
-83.87257213614991
 10
74.11433917417975
 20
-83.7027289287271
 10
74.15878090593948
 20
-83.54907767008496
 10
74.34068194756067
 20
-83.44744735327009
 10
74.53326278518614
 20
-83.34099390277586
 10
74.7616726158582
 20
-83.31618921528207
 10
74.93530542831479
 20
-83.31618921528207
 10
75.10652667393171
 20
-83.31618921528207
 10
75.33700356189492
 20
-83.33892684548472
 10
75.52958439952039
 20
-83.44744735327009
 97
        0
 97
        0
 92
        1
 93
        1
 72
     4
 94
        3
 73
     0
 74
     1
 95
       17
 96
       13
 40
0.0
 40
0.0
 40
0.0
 40
0.0
 40
1.0
 40
1.0
 40
1.0
 40
2.0
 40
2.0
 40
2.0
 40
3.0
 40
3.0
 40
3.0
 40
4.0
 40
4.0
 40
4.0
 40
4.0
 10
74.30692001180522
 20
-83.87257213614991
 10
74.30692001180522
 20
-84.13922252670825
 10
74.59045137024128
 20
-84.18883190169585
 10
74.93530542831479
 20
-84.18883190169585
 10
75.25466577979745
 20
-84.18883190169585
 10
75.56334633527584
 20
-84.15059134180957
 10
75.56334633527584
 20
-83.87257213614991
 10
75.56334633527584
 20
-83.60798880288273
 10
75.28222654367944
 20
-83.55596786105545
 10
74.93530542831479
 20
-83.55596786105545
 10
74.61560056728361
 20
-83.55596786105545
 10
74.30692001180522
 20
-83.59661998778141
 10
74.30692001180522
 20
-83.87257213614991
 97
        0
 97
        0
 75
     2
 76
     1
 98
        0
  0
POLYLINE
  5
C1
330
BA
100
AcDbEntity
  8
_U+30EC_U+30A4_U+30E4_U+30FC 1
370
     0
100
AcDb2dPolyline
 66
     1
 10
0.0
 20
0.0
 30
0.0
  0
VERTEX
  5
C2
330
C1
100
AcDbEntity
  8
_U+30EC_U+30A4_U+30E4_U+30FC 1
370
     0
100
AcDbVertex
100
AcDb2dVertex
 10
75.70735132655928
 20
-83.0850233082218
 30
0.0
  0
VERTEX
  5
C3
330
C1
100
AcDbEntity
  8
_U+30EC_U+30A4_U+30E4_U+30FC 1
370
     0
100
AcDbVertex
100
AcDb2dVertex
 10
75.45551484658752
 20
-83.0850233082218
 30
0.0
  0
VERTEX
  5
C4
330
C1
100
AcDbEntity
  8
_U+30EC_U+30A4_U+30E4_U+30FC 1
370
     0
100
AcDbVertex
100
AcDb2dVertex
 10
75.45551484658752
 20
-82.8159613508238
 30
0.0
  0
VERTEX
  5
C5
330
C1
100
AcDbEntity
  8
_U+30EC_U+30A4_U+30E4_U+30FC 1
370
     0
100
AcDbVertex
100
AcDb2dVertex
 10
75.70735132655928
 20
-82.8159613508238
 30
0.0
  0
VERTEX
  5
C6
330
C1
100
AcDbEntity
  8
_U+30EC_U+30A4_U+30E4_U+30FC 1
370
     0
100
AcDbVertex
100
AcDb2dVertex
 10
75.70735132655928
 20
-83.0850233082218
 30
0.0
  0
SEQEND
  5
C7
330
C1
100
AcDbEntity
  8
_U+30EC_U+30A4_U+30E4_U+30FC 1
370
     0
  0
HATCH
  5
C8
330
BA
100
AcDbEntity
  8
_U+30EC_U+30A4_U+30E4_U+30FC 1
 62
   179
420
  2234388
100
AcDbHatch
 10
0.0
 20
0.0
 30
0.0
210
0.0
220
0.0
230
1.0
  2
SOLID
 70
     1
 71
     0
 91
        1
 92
        1
 93
        4
 72
     1
 10
75.70735132655928
 20
-83.0850233082218
 11
75.45551484658752
 21
-83.0850233082218
 72
     1
 10
75.45551484658752
 20
-83.0850233082218
 11
75.45551484658752
 21
-82.8159613508238
 72
     1
 10
75.45551484658752
 20
-82.8159613508238
 11
75.70735132655928
 21
-82.8159613508238
 72
     1
 10
75.70735132655928
 20
-82.8159613508238
 11
75.70735132655928
 21
-83.0850233082218
 97
        0
 75
     2
 76
     1
 98
        0
  0
SPLINE
  5
C9
330
BA
100
AcDbEntity
  8
_U+30EC_U+30A4_U+30E4_U+30FC 1
370
     0
100
AcDbSpline
210
0.0
220
0.0
230
1.0
 70
    11
 71
     3
 72
    29
 73
    25
 74
     0
 42
0.0000000001
 43
0.0000000001
 12
1.0
 22
0.0
 32
0.0
 13
1.0
 23
0.0
 33
0.0
 40
0.0
 40
0.0
 40
0.0
 40
0.0
 40
1.0
 40
1.0
 40
1.0
 40
2.0
 40
2.0
 40
2.0
 40
3.0
 40
3.0
 40
3.0
 40
4.0
 40
4.0
 40
4.0
 40
5.0
 40
5.0
 40
5.0
 40
6.0
 40
6.0
 40
6.0
 40
7.0
 40
7.0
 40
7.0
 40
8.0
 40
8.0
 40
8.0
 40
8.0
 10
75.75799423019245
 20
-82.0287570324442
 30
0.0
 10
75.75799423019245
 20
-82.31366642907436
 30
0.0
 10
75.62053492033098
 20
-82.58479544376353
 30
0.0
 10
75.27154674767517
 20
-82.58479544376353
 30
0.0
 10
75.0155761531211
 20
-82.58479544376353
 30
0.0
 10
74.92049151772821
 20
-82.43321124241254
 30
0.0
 10
74.85916881809077
 20
-82.32021211049634
 30
0.0
 10
74.79991317574446
 20
-82.45353730577551
 30
0.0
 10
74.68553600563418
 20
-82.53518606877593
 30
0.0
 10
74.52465004647301
 20
-82.53518606877593
 30
0.0
 10
74.24973142675007
 20
-82.53518606877593
 30
0.0
 10
74.11433917417975
 20
-82.32262367733601
 30
0.0
 10
74.11433917417975
 20
-82.0287570324442
 30
0.0
 10
74.11433917417975
 20
-81.72558862974222
 30
0.0
 10
74.2583441654632
 20
-81.52232799611248
 30
0.0
 10
74.52465004647301
 20
-81.52232799611248
 30
0.0
 10
74.68553600563418
 20
-81.52232799611248
 30
0.0
 10
74.79991317574446
 20
-81.60569930685553
 30
0.0
 10
74.85916881809077
 20
-81.73936901168322
 30
0.0
 10
74.90981172172394
 20
-81.64428437629032
 30
0.0
 10
75.00489635711683
 20
-81.47478567841603
 30
0.0
 10
75.26741263309287
 20
-81.47478567841603
 30
0.0
 10
75.64189451233953
 20
-81.47478567841603
 30
0.0
 10
75.75799423019245
 20
-81.77313094743866
 30
0.0
 10
75.75799423019245
 20
-82.0287570324442
 30
0.0
  0
SPLINE
  5
CA
330
BA
100
AcDbEntity
  8
_U+30EC_U+30A4_U+30E4_U+30FC 1
370
     0
100
AcDbSpline
210
0.0
220
0.0
230
1.0
 70
    11
 71
     3
 72
    17
 73
    13
 74
     0
 42
0.0000000001
 43
0.0000000001
 12
1.0
 22
0.0
 32
0.0
 13
1.0
 23
0.0
 33
0.0
 40
0.0
 40
0.0
 40
0.0
 40
0.0
 40
1.0
 40
1.0
 40
1.0
 40
2.0
 40
2.0
 40
2.0
 40
3.0
 40
3.0
 40
3.0
 40
4.0
 40
4.0
 40
4.0
 40
4.0
 10
74.30692001180522
 20
-82.0287570324442
 30
0.0
 10
74.30692001180522
 20
-82.20480141174048
 30
0.0
 10
74.40200464719811
 20
-82.29540742300254
 30
0.0
 10
74.53739689976844
 20
-82.29540742300254
 30
0.0
 10
74.66004229904333
 20
-82.29540742300254
 30
0.0
 10
74.77855358373593
 20
-82.21858179368147
 30
0.0
 10
74.77855358373593
 20
-82.0287570324442
 30
0.0
 10
74.77855358373593
 20
-81.83858776165842
 30
0.0
 10
74.66004229904333
 20
-81.76176213233734
 30
0.0
 10
74.53739689976844
 20
-81.76176213233734
 30
0.0
 10
74.40200464719811
 20
-81.76176213233734
 30
0.0
 10
74.30692001180522
 20
-81.85443520089056
 30
0.0
 10
74.30692001180522
 20
-82.0287570324442
 30
0.0
  0
SPLINE
  5
CB
330
BA
100
AcDbEntity
  8
_U+30EC_U+30A4_U+30E4_U+30FC 1
370
     0
100
AcDbSpline
210
0.0
220
0.0
230
1.0
 70
    11
 71
     3
 72
    17
 73
    13
 74
     0
 42
0.0000000001
 43
0.0000000001
 12
1.0
 22
0.0
 32
0.0
 13
1.0
 23
0.0
 33
0.0
 40
0.0
 40
0.0
 40
0.0
 40
0.0
 40
1.0
 40
1.0
 40
1.0
 40
2.0
 40
2.0
 40
2.0
 40
3.0
 40
3.0
 40
3.0
 40
4.0
 40
4.0
 40
4.0
 40
4.0
 10
74.96700030677908
 20
-82.0287570324442
 30
0.0
 10
74.96700030677908
 20
-82.18240829108635
 30
0.0
 10
75.05381671300738
 20
-82.34501679799014
 30
0.0
 10
75.25673283708859
 20
-82.34501679799014
 30
0.0
 10
75.46206052800949
 20
-82.34501679799014
 30
0.0
 10
75.56334633527584
 20
-82.20962454541981
 30
0.0
 10
75.56334633527584
 20
-82.0287570324442
 30
0.0
 10
75.56334633527584
 20
-81.82963051339676
 30
0.0
 10
75.44070093600094
 20
-81.71215275734974
 30
0.0
 10
75.26293400896205
 20
-81.71215275734974
 30
0.0
 10
75.04106985971195
 20
-81.71215275734974
 30
0.0
 10
74.96700030677908
 20
-81.88613007935486
 30
0.0
 10
74.96700030677908
 20
-82.0287570324442
 30
0.0
  0
HATCH
  5
CC
330
BA
100
AcDbEntity
  8
_U+30EC_U+30A4_U+30E4_U+30FC 1
 62
   179
420
  2234388
100
AcDbHatch
 10
0.0
 20
0.0
 30
0.0
210
0.0
220
0.0
230
1.0
  2
SOLID
 70
     1
 71
     0
 91
        3
 92
        1
 93
        1
 72
     4
 94
        3
 73
     0
 74
     1
 95
       29
 96
       25
 40
0.0
 40
0.0
 40
0.0
 40
0.0
 40
1.0
 40
1.0
 40
1.0
 40
2.0
 40
2.0
 40
2.0
 40
3.0
 40
3.0
 40
3.0
 40
4.0
 40
4.0
 40
4.0
 40
5.0
 40
5.0
 40
5.0
 40
6.0
 40
6.0
 40
6.0
 40
7.0
 40
7.0
 40
7.0
 40
8.0
 40
8.0
 40
8.0
 40
8.0
 10
75.75799423019245
 20
-82.0287570324442
 10
75.75799423019245
 20
-82.31366642907436
 10
75.62053492033098
 20
-82.58479544376353
 10
75.27154674767517
 20
-82.58479544376353
 10
75.0155761531211
 20
-82.58479544376353
 10
74.92049151772821
 20
-82.43321124241254
 10
74.85916881809077
 20
-82.32021211049634
 10
74.79991317574446
 20
-82.45353730577551
 10
74.68553600563418
 20
-82.53518606877593
 10
74.52465004647301
 20
-82.53518606877593
 10
74.24973142675007
 20
-82.53518606877593
 10
74.11433917417975
 20
-82.32262367733601
 10
74.11433917417975
 20
-82.0287570324442
 10
74.11433917417975
 20
-81.72558862974222
 10
74.2583441654632
 20
-81.52232799611248
 10
74.52465004647301
 20
-81.52232799611248
 10
74.68553600563418
 20
-81.52232799611248
 10
74.79991317574446
 20
-81.60569930685553
 10
74.85916881809077
 20
-81.73936901168322
 10
74.90981172172394
 20
-81.64428437629032
 10
75.00489635711683
 20
-81.47478567841603
 10
75.26741263309287
 20
-81.47478567841603
 10
75.64189451233953
 20
-81.47478567841603
 10
75.75799423019245
 20
-81.77313094743866
 10
75.75799423019245
 20
-82.0287570324442
 97
        0
 97
        0
 92
        1
 93
        1
 72
     4
 94
        3
 73
     0
 74
     1
 95
       17
 96
       13
 40
0.0
 40
0.0
 40
0.0
 40
0.0
 40
1.0
 40
1.0
 40
1.0
 40
2.0
 40
2.0
 40
2.0
 40
3.0
 40
3.0
 40
3.0
 40
4.0
 40
4.0
 40
4.0
 40
4.0
 10
74.30692001180522
 20
-82.0287570324442
 10
74.30692001180522
 20
-82.20480141174048
 10
74.40200464719811
 20
-82.29540742300254
 10
74.53739689976844
 20
-82.29540742300254
 10
74.66004229904333
 20
-82.29540742300254
 10
74.77855358373593
 20
-82.21858179368147
 10
74.77855358373593
 20
-82.0287570324442
 10
74.77855358373593
 20
-81.83858776165842
 10
74.66004229904333
 20
-81.76176213233734
 10
74.53739689976844
 20
-81.76176213233734
 10
74.40200464719811
 20
-81.76176213233734
 10
74.30692001180522
 20
-81.85443520089056
 10
74.30692001180522
 20
-82.0287570324442
 97
        0
 97
        0
 92
        1
 93
        1
 72
     4
 94
        3
 73
     0
 74
     1
 95
       17
 96
       13
 40
0.0
 40
0.0
 40
0.0
 40
0.0
 40
1.0
 40
1.0
 40
1.0
 40
2.0
 40
2.0
 40
2.0
 40
3.0
 40
3.0
 40
3.0
 40
4.0
 40
4.0
 40
4.0
 40
4.0
 10
74.96700030677908
 20
-82.0287570324442
 10
74.96700030677908
 20
-82.18240829108635
 10
75.05381671300738
 20
-82.34501679799014
 10
75.25673283708859
 20
-82.34501679799014
 10
75.46206052800949
 20
-82.34501679799014
 10
75.56334633527584
 20
-82.20962454541981
 10
75.56334633527584
 20
-82.0287570324442
 10
75.56334633527584
 20
-81.82963051339676
 10
75.44070093600094
 20
-81.71215275734974
 10
75.26293400896205
 20
-81.71215275734974
 10
75.04106985971195
 20
-81.71215275734974
 10
74.96700030677908
 20
-81.88613007935486
 10
74.96700030677908
 20
-82.0287570324442
 97
        0
 97
        0
 75
     2
 76
     1
 98
        0
  0
ENDBLK
  5
BD
330
BA
100
AcDbEntity
  8
0
100
AcDbBlockEnd
  0
BLOCK
  5
D7
330
D5
100
AcDbEntity
  8
0
100
AcDbBlockBegin
  2
block 5
 70
     0
 10
0.0
 20
0.0
 30
0.0
  3
block 5
  1

  0
SPLINE
  5
D9
330
D5
100
AcDbEntity
  8
_U+30EC_U+30A4_U+30E4_U+30FC 1
370
     0
100
AcDbSpline
210
0.0
220
0.0
230
1.0
 70
    11
 71
     3
 72
    62
 73
    58
 74
     0
 42
0.0000000001
 43
0.0000000001
 12
1.0
 22
0.0
 32
0.0
 13
1.0
 23
0.0
 33
0.0
 40
0.0
 40
0.0
 40
0.0
 40
0.0
 40
1.0
 40
1.0
 40
1.0
 40
2.0
 40
2.0
 40
2.0
 40
3.0
 40
3.0
 40
3.0
 40
4.0
 40
4.0
 40
4.0
 40
5.0
 40
5.0
 40
5.0
 40
6.0
 40
6.0
 40
6.0
 40
7.0
 40
7.0
 40
7.0
 40
8.0
 40
8.0
 40
8.0
 40
9.0
 40
9.0
 40
9.0
 40
10.0
 40
10.0
 40
10.0
 40
11.0
 40
11.0
 40
11.0
 40
12.0
 40
12.0
 40
12.0
 40
13.0
 40
13.0
 40
13.0
 40
14.0
 40
14.0
 40
14.0
 40
15.0
 40
15.0
 40
15.0
 40
16.0
 40
16.0
 40
16.0
 40
17.0
 40
17.0
 40
17.0
 40
18.0
 40
18.0
 40
18.0
 40
19.0
 40
19.0
 40
19.0
 40
19.0
 10
75.75799423019245
 20
-94.75976288863646
 30
0.0
 10
75.75799423019245
 20
-94.86139320545132
 30
0.0
 10
75.73697914773243
 20
-95.09428166025421
 30
0.0
 10
75.55094399152894
 20
-95.22760685553338
 30
0.0
 10
75.4386338787098
 20
-95.30684405169413
 30
0.0
 10
75.3394151287346
 20
-95.31132267582495
 30
0.0
 10
75.25466577979745
 20
-95.31580129995578
 30
0.0
 10
75.25466577979745
 20
-95.31580129995578
 30
0.0
 10
75.25466577979745
 20
-95.08084578786173
 30
0.0
 10
75.25466577979745
 20
-95.08084578786173
 30
0.0
 10
75.32873533273032
 20
-95.07843422102206
 30
0.0
 10
75.56334633527584
 20
-95.06706540592074
 30
0.0
 10
75.56334633527584
 20
-94.76424151276727
 30
0.0
 10
75.56334633527584
 20
-94.61713593554711
 30
0.0
 10
75.49375540647378
 20
-94.45452742864332
 30
0.0
 10
75.26534557580172
 20
-94.45452742864332
 30
0.0
 10
75.14890134840027
 20
-94.45452742864332
 30
0.0
 10
75.10032550205825
 20
-94.49517955536926
 30
0.0
 10
75.06863062359396
 20
-94.52928600067324
 30
0.0
 10
74.99456107066109
 20
-94.60817868728546
 30
0.0
 10
74.98181421736567
 20
-94.73254663430298
 30
0.0
 10
74.98181421736567
 20
-94.79145776710075
 30
0.0
 10
74.98181421736567
 20
-94.81178383046372
 30
0.0
 10
74.98388127465681
 20
-94.85002439035
 30
0.0
 10
74.98801538923911
 20
-94.87965221152315
 30
0.0
 10
74.98801538923911
 20
-94.87965221152315
 30
0.0
 10
74.7933674943225
 20
-94.87965221152315
 30
0.0
 10
74.7933674943225
 20
-94.87965221152315
 30
0.0
 10
74.79991317574446
 20
-94.83900008479719
 30
0.0
 10
74.80198023303562
 20
-94.7935248243919
 30
0.0
 10
74.80198023303562
 20
-94.78697914296993
 30
0.0
 10
74.80198023303562
 20
-94.71669919507083
 30
0.0
 10
74.78062064102707
 20
-94.50413680363091
 30
0.0
 10
74.54394258119041
 20
-94.50413680363091
 30
0.0
 10
74.36617565415152
 20
-94.50413680363091
 30
0.0
 10
74.31105412638752
 20
-94.64435218988058
 30
0.0
 10
74.31105412638752
 20
-94.7618299459276
 30
0.0
 10
74.31105412638752
 20
-95.04467228526661
 30
0.0
 10
74.54394258119041
 20
-95.05362953352827
 30
0.0
 10
74.61560056728361
 20
-95.05810815765909
 30
0.0
 10
74.61560056728361
 20
-95.05810815765909
 30
0.0
 10
74.61560056728361
 20
-95.27514917322983
 30
0.0
 10
74.61560056728361
 20
-95.27514917322983
 30
0.0
 10
74.49088811071756
 20
-95.26619192496818
 30
0.0
 10
74.11433917417975
 20
-95.23690861334356
 30
0.0
 10
74.11433917417975
 20
-94.74839407353512
 30
0.0
 10
74.11433917417975
 20
-94.50861542776174
 30
0.0
 10
74.24146319758547
 20
-94.25092228546505
 30
0.0
 10
74.53739689976844
 20
-94.25092228546505
 30
0.0
 10
74.72377656552045
 20
-94.25092228546505
 30
0.0
 10
74.80611434761792
 20
-94.35289711182844
 30
0.0
 10
74.86743704725536
 20
-94.45900605277414
 30
0.0
 10
74.89499781113736
 20
-94.3935492385544
 30
0.0
 10
74.97526853594368
 20
-94.19890134363779
 30
0.0
 10
75.25259872250629
 20
-94.19890134363779
 30
0.0
 10
75.59090709915783
 20
-94.19890134363779
 30
0.0
 10
75.75799423019245
 20
-94.46348467690497
 30
0.0
 10
75.75799423019245
 20
-94.75976288863646
 30
0.0
  0
HATCH
  5
DA
330
D5
100
AcDbEntity
  8
_U+30EC_U+30A4_U+30E4_U+30FC 1
 62
   179
420
  2234388
100
AcDbHatch
 10
0.0
 20
0.0
 30
0.0
210
0.0
220
0.0
230
1.0
  2
SOLID
 70
     1
 71
     0
 91
        1
 92
        1
 93
        1
 72
     4
 94
        3
 73
     0
 74
     1
 95
       62
 96
       58
 40
0.0
 40
0.0
 40
0.0
 40
0.0
 40
1.0
 40
1.0
 40
1.0
 40
2.0
 40
2.0
 40
2.0
 40
3.0
 40
3.0
 40
3.0
 40
4.0
 40
4.0
 40
4.0
 40
5.0
 40
5.0
 40
5.0
 40
6.0
 40
6.0
 40
6.0
 40
7.0
 40
7.0
 40
7.0
 40
8.0
 40
8.0
 40
8.0
 40
9.0
 40
9.0
 40
9.0
 40
10.0
 40
10.0
 40
10.0
 40
11.0
 40
11.0
 40
11.0
 40
12.0
 40
12.0
 40
12.0
 40
13.0
 40
13.0
 40
13.0
 40
14.0
 40
14.0
 40
14.0
 40
15.0
 40
15.0
 40
15.0
 40
16.0
 40
16.0
 40
16.0
 40
17.0
 40
17.0
 40
17.0
 40
18.0
 40
18.0
 40
18.0
 40
19.0
 40
19.0
 40
19.0
 40
19.0
 10
75.75799423019245
 20
-94.75976288863646
 10
75.75799423019245
 20
-94.86139320545132
 10
75.73697914773243
 20
-95.09428166025421
 10
75.55094399152894
 20
-95.22760685553338
 10
75.4386338787098
 20
-95.30684405169413
 10
75.3394151287346
 20
-95.31132267582495
 10
75.25466577979745
 20
-95.31580129995578
 10
75.25466577979745
 20
-95.31580129995578
 10
75.25466577979745
 20
-95.08084578786173
 10
75.25466577979745
 20
-95.08084578786173
 10
75.32873533273032
 20
-95.07843422102206
 10
75.56334633527584
 20
-95.06706540592074
 10
75.56334633527584
 20
-94.76424151276727
 10
75.56334633527584
 20
-94.61713593554711
 10
75.49375540647378
 20
-94.45452742864332
 10
75.26534557580172
 20
-94.45452742864332
 10
75.14890134840027
 20
-94.45452742864332
 10
75.10032550205825
 20
-94.49517955536926
 10
75.06863062359396
 20
-94.52928600067324
 10
74.99456107066109
 20
-94.60817868728546
 10
74.98181421736567
 20
-94.73254663430298
 10
74.98181421736567
 20
-94.79145776710075
 10
74.98181421736567
 20
-94.81178383046372
 10
74.98388127465681
 20
-94.85002439035
 10
74.98801538923911
 20
-94.87965221152315
 10
74.98801538923911
 20
-94.87965221152315
 10
74.7933674943225
 20
-94.87965221152315
 10
74.7933674943225
 20
-94.87965221152315
 10
74.79991317574446
 20
-94.83900008479719
 10
74.80198023303562
 20
-94.7935248243919
 10
74.80198023303562
 20
-94.78697914296993
 10
74.80198023303562
 20
-94.71669919507083
 10
74.78062064102707
 20
-94.50413680363091
 10
74.54394258119041
 20
-94.50413680363091
 10
74.36617565415152
 20
-94.50413680363091
 10
74.31105412638752
 20
-94.64435218988058
 10
74.31105412638752
 20
-94.7618299459276
 10
74.31105412638752
 20
-95.04467228526661
 10
74.54394258119041
 20
-95.05362953352827
 10
74.61560056728361
 20
-95.05810815765909
 10
74.61560056728361
 20
-95.05810815765909
 10
74.61560056728361
 20
-95.27514917322983
 10
74.61560056728361
 20
-95.27514917322983
 10
74.49088811071756
 20
-95.26619192496818
 10
74.11433917417975
 20
-95.23690861334356
 10
74.11433917417975
 20
-94.74839407353512
 10
74.11433917417975
 20
-94.50861542776174
 10
74.24146319758547
 20
-94.25092228546505
 10
74.53739689976844
 20
-94.25092228546505
 10
74.72377656552045
 20
-94.25092228546505
 10
74.80611434761792
 20
-94.35289711182844
 10
74.86743704725536
 20
-94.45900605277414
 10
74.89499781113736
 20
-94.3935492385544
 10
74.97526853594368
 20
-94.19890134363779
 10
75.25259872250629
 20
-94.19890134363779
 10
75.59090709915783
 20
-94.19890134363779
 10
75.75799423019245
 20
-94.46348467690497
 10
75.75799423019245
 20
-94.75976288863646
 97
        0
 97
        0
 75
     2
 76
     1
 98
        0
  0
ENDBLK
  5
D8
330
D5
100
AcDbEntity
  8
0
100
AcDbBlockEnd
  0
BLOCK
  5
E9
330
E7
100
AcDbEntity
  8
0
100
AcDbBlockBegin
  2
block 6
 70
     0
 10
0.0
 20
0.0
 30
0.0
  3
block 6
  1

  0
SPLINE
  5
EB
330
E7
100
AcDbEntity
  8
_U+30EC_U+30A4_U+30E4_U+30FC 1
370
     0
100
AcDbSpline
210
0.0
220
0.0
230
1.0
 70
    11
 71
     3
 72
    32
 73
    28
 74
     0
 42
0.0000000001
 43
0.0000000001
 12
1.0
 22
0.0
 32
0.0
 13
1.0
 23
0.0
 33
0.0
 40
0.0
 40
0.0
 40
0.0
 40
0.0
 40
1.0
 40
1.0
 40
1.0
 40
2.0
 40
2.0
 40
2.0
 40
3.0
 40
3.0
 40
3.0
 40
4.0
 40
4.0
 40
4.0
 40
5.0
 40
5.0
 40
5.0
 40
6.0
 40
6.0
 40
6.0
 40
7.0
 40
7.0
 40
7.0
 40
8.0
 40
8.0
 40
8.0
 40
9.0
 40
9.0
 40
9.0
 40
9.0
 10
75.75799423019245
 20
-90.91813691303436
 30
0.0
 10
75.75799423019245
 20
-91.46969670022285
 30
0.0
 10
75.20402287616427
 20
-91.4786539484845
 30
0.0
 10
74.99008244653027
 20
-91.4786539484845
 30
0.0
 10
74.75960555856705
 20
-91.4786539484845
 30
0.0
 10
74.1122721168886
 20
-91.45832788512153
 30
0.0
 10
74.1122721168886
 20
-90.87714027675989
 30
0.0
 10
74.1122721168886
 20
-90.69179413965344
 30
0.0
 10
74.18220755523917
 20
-90.42962237322593
 30
0.0
 10
74.51431476001726
 20
-90.38897024649998
 30
0.0
 10
74.51431476001726
 20
-90.38897024649998
 30
0.0
 10
74.51431476001726
 20
-90.61738007717204
 30
0.0
 10
74.51431476001726
 20
-90.61738007717204
 30
0.0
 10
74.45712617496211
 20
-90.62874889227338
 30
0.0
 10
74.30898706909636
 20
-90.66251082802881
 30
0.0
 10
74.30898706909636
 20
-90.87955184359956
 30
0.0
 10
74.30898706909636
 20
-91.1916774945632
 30
0.0
 10
74.63696015929216
 20
-91.2343966785803
 30
0.0
 10
74.84194334066451
 20
-91.2481770605213
 30
0.0
 10
74.76373967314935
 20
-91.14861380099757
 30
0.0
 10
74.70448403080304
 20
-91.07626679580733
 30
0.0
 10
74.70448403080304
 20
-90.88161890089071
 30
0.0
 10
74.70448403080304
 20
-90.6897270823623
 30
0.0
 10
74.81266002903989
 20
-90.36623261629734
 30
0.0
 10
75.21883678675086
 20
-90.36623261629734
 30
0.0
 10
75.53819713823351
 20
-90.36623261629734
 30
0.0
 10
75.75799423019245
 20
-90.57879500773726
 30
0.0
 10
75.75799423019245
 20
-90.91813691303436
 30
0.0
  0
SPLINE
  5
EC
330
E7
100
AcDbEntity
  8
_U+30EC_U+30A4_U+30E4_U+30FC 1
370
     0
100
AcDbSpline
210
0.0
220
0.0
230
1.0
 70
    11
 71
     3
 72
    17
 73
    13
 74
     0
 42
0.0000000001
 43
0.0000000001
 12
1.0
 22
0.0
 32
0.0
 13
1.0
 23
0.0
 33
0.0
 40
0.0
 40
0.0
 40
0.0
 40
0.0
 40
1.0
 40
1.0
 40
1.0
 40
2.0
 40
2.0
 40
2.0
 40
3.0
 40
3.0
 40
3.0
 40
4.0
 40
4.0
 40
4.0
 40
4.0
 10
74.89913192571966
 20
-90.89987790696253
 30
0.0
 10
74.89913192571966
 20
-91.18030867946187
 30
0.0
 10
75.11066078851401
 20
-91.22096080618782
 30
0.0
 10
75.22710501591546
 20
-91.22096080618782
 30
0.0
 10
75.40280488566319
 20
-91.22096080618782
 30
0.0
 10
75.56575790211551
 20
-91.11933048937296
 30
0.0
 10
75.56575790211551
 20
-90.92261553716519
 30
0.0
 10
75.56575790211551
 20
-90.79376896601684
 30
0.0
 10
75.5065022597692
 20
-90.60601126207072
 30
0.0
 10
75.220903844042
 20
-90.60601126207072
 30
0.0
 10
74.99662812795223
 20
-90.60601126207072
 30
0.0
 10
74.89913192571966
 20
-90.75518389658204
 30
0.0
 10
74.89913192571966
 20
-90.89987790696253
 30
0.0
  0
HATCH
  5
ED
330
E7
100
AcDbEntity
  8
_U+30EC_U+30A4_U+30E4_U+30FC 1
 62
   179
420
  2234388
100
AcDbHatch
 10
0.0
 20
0.0
 30
0.0
210
0.0
220
0.0
230
1.0
  2
SOLID
 70
     1
 71
     0
 91
        2
 92
        1
 93
        1
 72
     4
 94
        3
 73
     0
 74
     1
 95
       32
 96
       28
 40
0.0
 40
0.0
 40
0.0
 40
0.0
 40
1.0
 40
1.0
 40
1.0
 40
2.0
 40
2.0
 40
2.0
 40
3.0
 40
3.0
 40
3.0
 40
4.0
 40
4.0
 40
4.0
 40
5.0
 40
5.0
 40
5.0
 40
6.0
 40
6.0
 40
6.0
 40
7.0
 40
7.0
 40
7.0
 40
8.0
 40
8.0
 40
8.0
 40
9.0
 40
9.0
 40
9.0
 40
9.0
 10
75.75799423019245
 20
-90.91813691303436
 10
75.75799423019245
 20
-91.46969670022285
 10
75.20402287616427
 20
-91.4786539484845
 10
74.99008244653027
 20
-91.4786539484845
 10
74.75960555856705
 20
-91.4786539484845
 10
74.1122721168886
 20
-91.45832788512153
 10
74.1122721168886
 20
-90.87714027675989
 10
74.1122721168886
 20
-90.69179413965344
 10
74.18220755523917
 20
-90.42962237322593
 10
74.51431476001726
 20
-90.38897024649998
 10
74.51431476001726
 20
-90.38897024649998
 10
74.51431476001726
 20
-90.61738007717204
 10
74.51431476001726
 20
-90.61738007717204
 10
74.45712617496211
 20
-90.62874889227338
 10
74.30898706909636
 20
-90.66251082802881
 10
74.30898706909636
 20
-90.87955184359956
 10
74.30898706909636
 20
-91.1916774945632
 10
74.63696015929216
 20
-91.2343966785803
 10
74.84194334066451
 20
-91.2481770605213
 10
74.76373967314935
 20
-91.14861380099757
 10
74.70448403080304
 20
-91.07626679580733
 10
74.70448403080304
 20
-90.88161890089071
 10
74.70448403080304
 20
-90.6897270823623
 10
74.81266002903989
 20
-90.36623261629734
 10
75.21883678675086
 20
-90.36623261629734
 10
75.53819713823351
 20
-90.36623261629734
 10
75.75799423019245
 20
-90.57879500773726
 10
75.75799423019245
 20
-90.91813691303436
 97
        0
 97
        0
 92
        1
 93
        1
 72
     4
 94
        3
 73
     0
 74
     1
 95
       17
 96
       13
 40
0.0
 40
0.0
 40
0.0
 40
0.0
 40
1.0
 40
1.0
 40
1.0
 40
2.0
 40
2.0
 40
2.0
 40
3.0
 40
3.0
 40
3.0
 40
4.0
 40
4.0
 40
4.0
 40
4.0
 10
74.89913192571966
 20
-90.89987790696253
 10
74.89913192571966
 20
-91.18030867946187
 10
75.11066078851401
 20
-91.22096080618782
 10
75.22710501591546
 20
-91.22096080618782
 10
75.40280488566319
 20
-91.22096080618782
 10
75.56575790211551
 20
-91.11933048937296
 10
75.56575790211551
 20
-90.92261553716519
 10
75.56575790211551
 20
-90.79376896601684
 10
75.5065022597692
 20
-90.60601126207072
 10
75.220903844042
 20
-90.60601126207072
 10
74.99662812795223
 20
-90.60601126207072
 10
74.89913192571966
 20
-90.75518389658204
 10
74.89913192571966
 20
-90.89987790696253
 97
        0
 97
        0
 75
     2
 76
     1
 98
        0
  0
POLYLINE
  5
EE
330
E7
100
AcDbEntity
  8
_U+30EC_U+30A4_U+30E4_U+30FC 1
370
     0
100
AcDb2dPolyline
 66
     1
 10
0.0
 20
0.0
 30
0.0
  0
VERTEX
  5
EF
330
EE
100
AcDbEntity
  8
_U+30EC_U+30A4_U+30E4_U+30FC 1
370
     0
100
AcDbVertex
100
AcDb2dVertex
 10
75.70735132655928
 20
-90.13506670923707
 30
0.0
  0
VERTEX
  5
F0
330
EE
100
AcDbEntity
  8
_U+30EC_U+30A4_U+30E4_U+30FC 1
370
     0
100
AcDbVertex
100
AcDb2dVertex
 10
75.45551484658752
 20
-90.13506670923707
 30
0.0
  0
VERTEX
  5
F1
330
EE
100
AcDbEntity
  8
_U+30EC_U+30A4_U+30E4_U+30FC 1
370
     0
100
AcDbVertex
100
AcDb2dVertex
 10
75.45551484658752
 20
-89.86600475183906
 30
0.0
  0
VERTEX
  5
F2
330
EE
100
AcDbEntity
  8
_U+30EC_U+30A4_U+30E4_U+30FC 1
370
     0
100
AcDbVertex
100
AcDb2dVertex
 10
75.70735132655928
 20
-89.86600475183906
 30
0.0
  0
VERTEX
  5
F3
330
EE
100
AcDbEntity
  8
_U+30EC_U+30A4_U+30E4_U+30FC 1
370
     0
100
AcDbVertex
100
AcDb2dVertex
 10
75.70735132655928
 20
-90.13506670923707
 30
0.0
  0
SEQEND
  5
F4
330
EE
100
AcDbEntity
  8
_U+30EC_U+30A4_U+30E4_U+30FC 1
370
     0
  0
HATCH
  5
F5
330
E7
100
AcDbEntity
  8
_U+30EC_U+30A4_U+30E4_U+30FC 1
 62
   179
420
  2234388
100
AcDbHatch
 10
0.0
 20
0.0
 30
0.0
210
0.0
220
0.0
230
1.0
  2
SOLID
 70
     1
 71
     0
 91
        1
 92
        1
 93
        4
 72
     1
 10
75.70735132655928
 20
-90.13506670923707
 11
75.45551484658752
 21
-90.13506670923707
 72
     1
 10
75.45551484658752
 20
-90.13506670923707
 11
75.45551484658752
 21
-89.86600475183906
 72
     1
 10
75.45551484658752
 20
-89.86600475183906
 11
75.70735132655928
 21
-89.86600475183906
 72
     1
 10
75.70735132655928
 20
-89.86600475183906
 11
75.70735132655928
 21
-90.13506670923707
 97
        0
 75
     2
 76
     1
 98
        0
  0
SPLINE
  5
F6
330
E7
100
AcDbEntity
  8
_U+30EC_U+30A4_U+30E4_U+30FC 1
370
     0
100
AcDbSpline
210
0.0
220
0.0
230
1.0
 70
    11
 71
     3
 72
    53
 73
    49
 74
     0
 42
0.0000000001
 43
0.0000000001
 12
1.0
 22
0.0
 32
0.0
 13
1.0
 23
0.0
 33
0.0
 40
0.0
 40
0.0
 40
0.0
 40
0.0
 40
1.0
 40
1.0
 40
1.0
 40
2.0
 40
2.0
 40
2.0
 40
3.0
 40
3.0
 40
3.0
 40
4.0
 40
4.0
 40
4.0
 40
5.0
 40
5.0
 40
5.0
 40
6.0
 40
6.0
 40
6.0
 40
7.0
 40
7.0
 40
7.0
 40
8.0
 40
8.0
 40
8.0
 40
9.0
 40
9.0
 40
9.0
 40
10.0
 40
10.0
 40
10.0
 40
11.0
 40
11.0
 40
11.0
 40
12.0
 40
12.0
 40
12.0
 40
13.0
 40
13.0
 40
13.0
 40
14.0
 40
14.0
 40
14.0
 40
15.0
 40
15.0
 40
15.0
 40
16.0
 40
16.0
 40
16.0
 40
16.0
 10
75.75799423019245
 20
-89.09912649682245
 30
0.0
 10
75.75799423019245
 20
-89.1824978075655
 30
0.0
 10
75.74111326231473
 20
-89.29136282489938
 30
0.0
 10
75.67772350538613
 20
-89.39953882313623
 30
0.0
 10
75.56782495940666
 20
-89.5852294697912
 30
0.0
 10
75.43656682141864
 20
-89.60762259044532
 30
0.0
 10
75.32873533273032
 20
-89.62794865380829
 30
0.0
 10
75.32873533273032
 20
-89.62794865380829
 30
0.0
 10
75.32873533273032
 20
-89.39058157487459
 30
0.0
 10
75.32873533273032
 20
-89.39058157487459
 30
0.0
 10
75.52751734222923
 20
-89.33201495162534
 30
0.0
 10
75.55714516340238
 20
-89.19627818950649
 30
0.0
 10
75.55714516340238
 20
-89.09671492998277
 30
0.0
 10
75.55714516340238
 20
-88.94754229547145
 30
0.0
 10
75.45758190387866
 20
-88.78493378856766
 30
0.0
 10
75.2250379586243
 20
-88.78493378856766
 30
0.0
 10
74.96906736407024
 20
-88.78493378856766
 30
0.0
 10
74.89913192571966
 20
-88.97682560709607
 30
0.0
 10
74.89913192571966
 20
-89.10567217824442
 30
0.0
 10
74.89913192571966
 20
-89.1397786235484
 30
0.0
 10
74.89913192571966
 20
-89.29136282489938
 30
0.0
 10
75.02832300641653
 20
-89.38610295074376
 30
0.0
 10
75.02832300641653
 20
-89.38610295074376
 30
0.0
 10
75.00937498124766
 20
-89.57386065468987
 30
0.0
 10
75.00937498124766
 20
-89.57386065468987
 30
0.0
 10
75.00937498124766
 20
-89.57386065468987
 30
0.0
 10
74.16291502052178
 20
-89.44501408354152
 30
0.0
 10
74.16291502052178
 20
-89.44501408354152
 30
0.0
 10
74.16291502052178
 20
-89.44501408354152
 30
0.0
 10
74.16291502052178
 20
-88.6130235238537
 30
0.0
 10
74.16291502052178
 20
-88.6130235238537
 30
0.0
 10
74.16291502052178
 20
-88.6130235238537
 30
0.0
 10
74.3575629154384
 20
-88.6130235238537
 30
0.0
 10
74.3575629154384
 20
-88.6130235238537
 30
0.0
 10
74.3575629154384
 20
-88.6130235238537
 30
0.0
 10
74.3575629154384
 20
-89.27069225198788
 30
0.0
 10
74.3575629154384
 20
-89.27069225198788
 30
0.0
 10
74.3575629154384
 20
-89.27069225198788
 30
0.0
 10
74.78062064102707
 20
-89.34097219988698
 30
0.0
 10
74.78062064102707
 20
-89.34097219988698
 30
0.0
 10
74.74685870527162
 20
-89.27551538566723
 30
0.0
 10
74.7065510880942
 20
-89.18732094124483
 30
0.0
 10
74.7065510880942
 20
-89.06054142738765
 30
0.0
 10
74.7065510880942
 20
-88.78941241269848
 30
0.0
 10
74.89293075384622
 20
-88.53619789453262
 30
0.0
 10
75.20608993345543
 20
-88.53619789453262
 30
0.0
 10
75.52338322764693
 20
-88.53619789453262
 30
0.0
 10
75.75799423019245
 20
-88.77563203075748
 30
0.0
 10
75.75799423019245
 20
-89.09912649682245
 30
0.0
  0
HATCH
  5
F7
330
E7
100
AcDbEntity
  8
_U+30EC_U+30A4_U+30E4_U+30FC 1
 62
   179
420
  2234388
100
AcDbHatch
 10
0.0
 20
0.0
 30
0.0
210
0.0
220
0.0
230
1.0
  2
SOLID
 70
     1
 71
     0
 91
        1
 92
        1
 93
        1
 72
     4
 94
        3
 73
     0
 74
     1
 95
       53
 96
       49
 40
0.0
 40
0.0
 40
0.0
 40
0.0
 40
1.0
 40
1.0
 40
1.0
 40
2.0
 40
2.0
 40
2.0
 40
3.0
 40
3.0
 40
3.0
 40
4.0
 40
4.0
 40
4.0
 40
5.0
 40
5.0
 40
5.0
 40
6.0
 40
6.0
 40
6.0
 40
7.0
 40
7.0
 40
7.0
 40
8.0
 40
8.0
 40
8.0
 40
9.0
 40
9.0
 40
9.0
 40
10.0
 40
10.0
 40
10.0
 40
11.0
 40
11.0
 40
11.0
 40
12.0
 40
12.0
 40
12.0
 40
13.0
 40
13.0
 40
13.0
 40
14.0
 40
14.0
 40
14.0
 40
15.0
 40
15.0
 40
15.0
 40
16.0
 40
16.0
 40
16.0
 40
16.0
 10
75.75799423019245
 20
-89.09912649682245
 10
75.75799423019245
 20
-89.1824978075655
 10
75.74111326231473
 20
-89.29136282489938
 10
75.67772350538613
 20
-89.39953882313623
 10
75.56782495940666
 20
-89.5852294697912
 10
75.43656682141864
 20
-89.60762259044532
 10
75.32873533273032
 20
-89.62794865380829
 10
75.32873533273032
 20
-89.62794865380829
 10
75.32873533273032
 20
-89.39058157487459
 10
75.32873533273032
 20
-89.39058157487459
 10
75.52751734222923
 20
-89.33201495162534
 10
75.55714516340238
 20
-89.19627818950649
 10
75.55714516340238
 20
-89.09671492998277
 10
75.55714516340238
 20
-88.94754229547145
 10
75.45758190387866
 20
-88.78493378856766
 10
75.2250379586243
 20
-88.78493378856766
 10
74.96906736407024
 20
-88.78493378856766
 10
74.89913192571966
 20
-88.97682560709607
 10
74.89913192571966
 20
-89.10567217824442
 10
74.89913192571966
 20
-89.1397786235484
 10
74.89913192571966
 20
-89.29136282489938
 10
75.02832300641653
 20
-89.38610295074376
 10
75.02832300641653
 20
-89.38610295074376
 10
75.00937498124766
 20
-89.57386065468987
 10
75.00937498124766
 20
-89.57386065468987
 10
75.00937498124766
 20
-89.57386065468987
 10
74.16291502052178
 20
-89.44501408354152
 10
74.16291502052178
 20
-89.44501408354152
 10
74.16291502052178
 20
-89.44501408354152
 10
74.16291502052178
 20
-88.6130235238537
 10
74.16291502052178
 20
-88.6130235238537
 10
74.16291502052178
 20
-88.6130235238537
 10
74.3575629154384
 20
-88.6130235238537
 10
74.3575629154384
 20
-88.6130235238537
 10
74.3575629154384
 20
-88.6130235238537
 10
74.3575629154384
 20
-89.27069225198788
 10
74.3575629154384
 20
-89.27069225198788
 10
74.3575629154384
 20
-89.27069225198788
 10
74.78062064102707
 20
-89.34097219988698
 10
74.78062064102707
 20
-89.34097219988698
 10
74.74685870527162
 20
-89.27551538566723
 10
74.7065510880942
 20
-89.18732094124483
 10
74.7065510880942
 20
-89.06054142738765
 10
74.7065510880942
 20
-88.78941241269848
 10
74.89293075384622
 20
-88.53619789453262
 10
75.20608993345543
 20
-88.53619789453262
 10
75.52338322764693
 20
-88.53619789453262
 10
75.75799423019245
 20
-88.77563203075748
 10
75.75799423019245
 20
-89.09912649682245
 97
        0
 97
        0
 75
     2
 76
     1
 98
        0
  0
ENDBLK
  5
EA
330
E7
100
AcDbEntity
  8
0
100
AcDbBlockEnd
  0
ENDSEC
  0
SECTION
  2
ENTITIES
  0
POLYLINE
  5
41
330
1F
100
AcDbEntity
  8
_U+30EC_U+30A4_U+30E4_U+30FC 1
 62
   179
420
  2234388
370
    25
100
AcDb2dPolyline
 66
     1
 10
0.0
 20
0.0
 30
0.0
  0
VERTEX
  5
42
330
41
100
AcDbEntity
  8
_U+30EC_U+30A4_U+30E4_U+30FC 1
 62
   179
420
  2234388
370
    25
100
AcDbVertex
100
AcDb2dVertex
 10
50.05965927842725
 20
-85.95236525628981
 30
0.0
  0
VERTEX
  5
43
330
41
100
AcDbEntity
  8
_U+30EC_U+30A4_U+30E4_U+30FC 1
 62
   179
420
  2234388
370
    25
100
AcDbVertex
100
AcDb2dVertex
 10
73.05978202497856
 20
-85.95236525628981
 30
0.0
  0
SEQEND
  5
44
330
41
100
AcDbEntity
  8
_U+30EC_U+30A4_U+30E4_U+30FC 1
 62
   179
420
  2234388
370
    25
  0
POLYLINE
  5
45
330
1F
100
AcDbEntity
  8
_U+30EC_U+30A4_U+30E4_U+30FC 1
 62
   179
420
  2234388
370
    25
100
AcDb2dPolyline
 66
     1
 10
0.0
 20
0.0
 30
0.0
  0
VERTEX
  5
46
330
45
100
AcDbEntity
  8
_U+30EC_U+30A4_U+30E4_U+30FC 1
 62
   179
420
  2234388
370
    25
100
AcDbVertex
100
AcDb2dVertex
 10
73.05978202497856
 20
-85.95236525628981
 30
0.0
  0
VERTEX
  5
47
330
45
100
AcDbEntity
  8
_U+30EC_U+30A4_U+30E4_U+30FC 1
 62
   179
420
  2234388
370
    25
100
AcDbVertex
100
AcDb2dVertex
 10
73.05978202497856
 20
-86.75232414497843
 30
0.0
  0
SEQEND
  5
48
330
45
100
AcDbEntity
  8
_U+30EC_U+30A4_U+30E4_U+30FC 1
 62
   179
420
  2234388
370
    25
  0
POLYLINE
  5
49
330
1F
100
AcDbEntity
  8
_U+30EC_U+30A4_U+30E4_U+30FC 1
 62
   179
420
  2234388
370
    25
100
AcDb2dPolyline
 66
     1
 10
0.0
 20
0.0
 30
0.0
  0
VERTEX
  5
4A
330
49
100
AcDbEntity
  8
_U+30EC_U+30A4_U+30E4_U+30FC 1
 62
   179
420
  2234388
370
    25
100
AcDbVertex
100
AcDb2dVertex
 10
50.81894287016742
 20
-86.75232414497843
 30
0.0
  0
VERTEX
  5
4B
330
49
100
AcDbEntity
  8
_U+30EC_U+30A4_U+30E4_U+30FC 1
 62
   179
420
  2234388
370
    25
100
AcDbVertex
100
AcDb2dVertex
 10
73.05978202497856
 20
-86.75232414497843
 30
0.0
  0
SEQEND
  5
4C
330
49
100
AcDbEntity
  8
_U+30EC_U+30A4_U+30E4_U+30FC 1
 62
   179
420
  2234388
370
    25
  0
POLYLINE
  5
4D
330
1F
100
AcDbEntity
  8
_U+30EC_U+30A4_U+30E4_U+30FC 1
 62
   179
420
  2234388
370
    25
100
AcDb2dPolyline
 66
     1
 10
0.0
 20
0.0
 30
0.0
  0
VERTEX
  5
4E
330
4D
100
AcDbEntity
  8
_U+30EC_U+30A4_U+30E4_U+30FC 1
 62
   179
420
  2234388
370
    25
100
AcDbVertex
100
AcDb2dVertex
 10
55.05986081752815
 20
-93.25253692113147
 30
0.0
  0
VERTEX
  5
4F
330
4D
100
AcDbEntity
  8
_U+30EC_U+30A4_U+30E4_U+30FC 1
 62
   179
420
  2234388
370
    25
100
AcDbVertex
100
AcDb2dVertex
 10
59.05961988215246
 20
-93.25253692113147
 30
0.0
  0
SEQEND
  5
50
330
4D
100
AcDbEntity
  8
_U+30EC_U+30A4_U+30E4_U+30FC 1
 62
   179
420
  2234388
370
    25
  0
POLYLINE
  5
51
330
1F
100
AcDbEntity
  8
_U+30EC_U+30A4_U+30E4_U+30FC 1
 62
   179
420
  2234388
370
    25
100
AcDb2dPolyline
 66
     1
 10
0.0
 20
0.0
 30
0.0
  0
VERTEX
  5
52
330
51
100
AcDbEntity
  8
_U+30EC_U+30A4_U+30E4_U+30FC 1
 62
   179
420
  2234388
370
    25
100
AcDbVertex
100
AcDb2dVertex
 10
49.05988708171134
 20
-96.25252386482582
 30
0.0
  0
VERTEX
  5
53
330
51
100
AcDbEntity
  8
_U+30EC_U+30A4_U+30E4_U+30FC 1
 62
   179
420
  2234388
370
    25
100
AcDbVertex
100
AcDb2dVertex
 10
59.05961988215246
 20
-96.25252386482582
 30
0.0
  0
SEQEND
  5
54
330
51
100
AcDbEntity
  8
_U+30EC_U+30A4_U+30E4_U+30FC 1
 62
   179
420
  2234388
370
    25
  0
POLYLINE
  5
55
330
1F
100
AcDbEntity
  8
_U+30EC_U+30A4_U+30E4_U+30FC 1
 62
   179
420
  2234388
370
    25
100
AcDb2dPolyline
 66
     1
 10
0.0
 20
0.0
 30
0.0
  0
VERTEX
  5
56
330
55
100
AcDbEntity
  8
_U+30EC_U+30A4_U+30E4_U+30FC 1
 62
   179
420
  2234388
370
    25
100
AcDbVertex
100
AcDb2dVertex
 10
59.05961988215246
 20
-93.25253692113147
 30
0.0
  0
VERTEX
  5
57
330
55
100
AcDbEntity
  8
_U+30EC_U+30A4_U+30E4_U+30FC 1
 62
   179
420
  2234388
370
    25
100
AcDbVertex
100
AcDb2dVertex
 10
59.05961988215246
 20
-96.25252386482582
 30
0.0
  0
SEQEND
  5
58
330
55
100
AcDbEntity
  8
_U+30EC_U+30A4_U+30E4_U+30FC 1
 62
   179
420
  2234388
370
    25
  0
POLYLINE
  5
59
330
1F
100
AcDbEntity
  8
_U+30EC_U+30A4_U+30E4_U+30FC 1
 62
   179
420
  2234388
370
    25
100
AcDb2dPolyline
 66
     1
 10
0.0
 20
0.0
 30
0.0
  0
VERTEX
  5
5A
330
59
100
AcDbEntity
  8
_U+30EC_U+30A4_U+30E4_U+30FC 1
 62
   179
420
  2234388
370
    25
100
AcDbVertex
100
AcDb2dVertex
 10
55.05986081752815
 20
-93.25253692113147
 30
0.0
  0
VERTEX
  5
5B
330
59
100
AcDbEntity
  8
_U+30EC_U+30A4_U+30E4_U+30FC 1
 62
   179
420
  2234388
370
    25
100
AcDbVertex
100
AcDb2dVertex
 10
55.05986081752815
 20
-94.0524958098201
 30
0.0
  0
SEQEND
  5
5C
330
59
100
AcDbEntity
  8
_U+30EC_U+30A4_U+30E4_U+30FC 1
 62
   179
420
  2234388
370
    25
  0
POLYLINE
  5
5D
330
1F
100
AcDbEntity
  8
_U+30EC_U+30A4_U+30E4_U+30FC 1
 62
   179
420
  2234388
370
    25
100
AcDb2dPolyline
 66
     1
 10
0.0
 20
0.0
 30
0.0
  0
VERTEX
  5
5E
330
5D
100
AcDbEntity
  8
_U+30EC_U+30A4_U+30E4_U+30FC 1
 62
   179
420
  2234388
370
    25
100
AcDbVertex
100
AcDb2dVertex
 10
55.05986081752815
 20
-94.0524958098201
 30
0.0
  0
VERTEX
  5
5F
330
5D
100
AcDbEntity
  8
_U+30EC_U+30A4_U+30E4_U+30FC 1
 62
   179
420
  2234388
370
    25
100
AcDbVertex
100
AcDb2dVertex
 10
58.25966101367222
 20
-94.0524958098201
 30
0.0
  0
SEQEND
  5
60
330
5D
100
AcDbEntity
  8
_U+30EC_U+30A4_U+30E4_U+30FC 1
 62
   179
420
  2234388
370
    25
  0
POLYLINE
  5
61
330
1F
100
AcDbEntity
  8
_U+30EC_U+30A4_U+30E4_U+30FC 1
 62
   179
420
  2234388
370
    25
100
AcDb2dPolyline
 66
     1
 10
0.0
 20
0.0
 30
0.0
  0
VERTEX
  5
62
330
61
100
AcDbEntity
  8
_U+30EC_U+30A4_U+30E4_U+30FC 1
 62
   179
420
  2234388
370
    25
100
AcDbVertex
100
AcDb2dVertex
 10
49.05988708171134
 20
-95.45256497613654
 30
0.0
  0
VERTEX
  5
63
330
61
100
AcDbEntity
  8
_U+30EC_U+30A4_U+30E4_U+30FC 1
 62
   179
420
  2234388
370
    25
100
AcDbVertex
100
AcDb2dVertex
 10
49.56012595783807
 20
-95.45256497613654
 30
0.0
  0
SEQEND
  5
64
330
61
100
AcDbEntity
  8
_U+30EC_U+30A4_U+30E4_U+30FC 1
 62
   179
420
  2234388
370
    25
  0
POLYLINE
  5
65
330
1F
100
AcDbEntity
  8
_U+30EC_U+30A4_U+30E4_U+30FC 1
 62
   179
420
  2234388
370
    25
100
AcDb2dPolyline
 66
     1
 10
0.0
 20
0.0
 30
0.0
  0
VERTEX
  5
66
330
65
100
AcDbEntity
  8
_U+30EC_U+30A4_U+30E4_U+30FC 1
 62
   179
420
  2234388
370
    25
100
AcDbVertex
100
AcDb2dVertex
 10
58.25966101367222
 20
-94.0524958098201
 30
0.0
  0
VERTEX
  5
67
330
65
100
AcDbEntity
  8
_U+30EC_U+30A4_U+30E4_U+30FC 1
 62
   179
420
  2234388
370
    25
100
AcDbVertex
100
AcDb2dVertex
 10
58.25966101367222
 20
-95.45256497613654
 30
0.0
  0
SEQEND
  5
68
330
65
100
AcDbEntity
  8
_U+30EC_U+30A4_U+30E4_U+30FC 1
 62
   179
420
  2234388
370
    25
  0
POLYLINE
  5
69
330
1F
100
AcDbEntity
  8
_U+30EC_U+30A4_U+30E4_U+30FC 1
 62
   179
420
  2234388
370
    25
100
AcDb2dPolyline
 66
     1
 10
0.0
 20
0.0
 30
0.0
  0
VERTEX
  5
6A
330
69
100
AcDbEntity
  8
_U+30EC_U+30A4_U+30E4_U+30FC 1
 62
   179
420
  2234388
370
    25
100
AcDbVertex
100
AcDb2dVertex
 10
49.05988708171134
 20
-95.45256497613654
 30
0.0
  0
VERTEX
  5
6B
330
69
100
AcDbEntity
  8
_U+30EC_U+30A4_U+30E4_U+30FC 1
 62
   179
420
  2234388
370
    25
100
AcDbVertex
100
AcDb2dVertex
 10
49.05988708171134
 20
-96.25252386482582
 30
0.0
  0
SEQEND
  5
6C
330
69
100
AcDbEntity
  8
_U+30EC_U+30A4_U+30E4_U+30FC 1
 62
   179
420
  2234388
370
    25
  0
POLYLINE
  5
6D
330
1F
100
AcDbEntity
  8
_U+30EC_U+30A4_U+30E4_U+30FC 1
 62
   179
420
  2234388
370
    25
100
AcDb2dPolyline
 66
     1
 10
0.0
 20
0.0
 30
0.0
  0
VERTEX
  5
6E
330
6D
100
AcDbEntity
  8
_U+30EC_U+30A4_U+30E4_U+30FC 1
 62
   179
420
  2234388
370
    25
100
AcDbVertex
100
AcDb2dVertex
 10
50.36075510407899
 20
-95.45256497613654
 30
0.0
  0
VERTEX
  5
6F
330
6D
100
AcDbEntity
  8
_U+30EC_U+30A4_U+30E4_U+30FC 1
 62
   179
420
  2234388
370
    25
100
AcDbVertex
100
AcDb2dVertex
 10
58.25966101367222
 20
-95.45256497613654
 30
0.0
  0
SEQEND
  5
70
330
6D
100
AcDbEntity
  8
_U+30EC_U+30A4_U+30E4_U+30FC 1
 62
   179
420
  2234388
370
    25
  0
POLYLINE
  5
71
330
1F
100
AcDbEntity
  8
_U+30EC_U+30A4_U+30E4_U+30FC 1
 62
   179
420
  2234388
370
    25
100
AcDb2dPolyline
 66
     1
 10
0.0
 20
0.0
 30
0.0
  0
VERTEX
  5
72
330
71
100
AcDbEntity
  8
_U+30EC_U+30A4_U+30E4_U+30FC 1
 62
   179
420
  2234388
370
    25
100
AcDbVertex
100
AcDb2dVertex
 10
50.05965927842725
 20
-85.95236525628981
 30
0.0
  0
VERTEX
  5
73
330
71
100
AcDbEntity
  8
_U+30EC_U+30A4_U+30E4_U+30FC 1
 62
   179
420
  2234388
370
    25
100
AcDbVertex
100
AcDb2dVertex
 10
49.56012595783807
 20
-95.45256497613654
 30
0.0
  0
SEQEND
  5
74
330
71
100
AcDbEntity
  8
_U+30EC_U+30A4_U+30E4_U+30FC 1
 62
   179
420
  2234388
370
    25
  0
POLYLINE
  5
75
330
1F
100
AcDbEntity
  8
_U+30EC_U+30A4_U+30E4_U+30FC 1
 62
   179
420
  2234388
370
    25
100
AcDb2dPolyline
 66
     1
 10
0.0
 20
0.0
 30
0.0
  0
VERTEX
  5
76
330
75
100
AcDbEntity
  8
_U+30EC_U+30A4_U+30E4_U+30FC 1
 62
   179
420
  2234388
370
    25
100
AcDbVertex
100
AcDb2dVertex
 10
50.81894287016742
 20
-86.75232414497843
 30
0.0
  0
VERTEX
  5
77
330
75
100
AcDbEntity
  8
_U+30EC_U+30A4_U+30E4_U+30FC 1
 62
   179
420
  2234388
370
    25
100
AcDbVertex
100
AcDb2dVertex
 10
50.36075510407899
 20
-95.45256497613654
 30
0.0
  0
SEQEND
  5
78
330
75
100
AcDbEntity
  8
_U+30EC_U+30A4_U+30E4_U+30FC 1
 62
   179
420
  2234388
370
    25
  0
SPLINE
  5
79
330
1F
100
AcDbEntity
  8
_U+30EC_U+30A4_U+30E4_U+30FC 1
 62
   179
420
  2234388
370
     9
100
AcDbSpline
210
0.0
220
0.0
230
1.0
 70
    11
 71
     3
 72
    17
 73
    13
 74
     0
 42
0.0000000001
 43
0.0000000001
 12
1.0
 22
0.0
 32
0.0
 13
1.0
 23
0.0
 33
0.0
 40
0.0
 40
0.0
 40
0.0
 40
0.0
 40
1.0
 40
1.0
 40
1.0
 40
2.0
 40
2.0
 40
2.0
 40
3.0
 40
3.0
 40
3.0
 40
4.0
 40
4.0
 40
4.0
 40
4.0
 10
50.15956594254509
 20
-81.95260609062292
 30
0.0
 10
50.15956594254509
 20
-81.89750220174801
 30
0.0
 10
50.11476316591032
 20
-81.85269942398129
 30
0.0
 10
50.05965927842725
 20
-81.85269942398129
 30
0.0
 10
50.0045201131673
 20
-81.85269942398129
 30
0.0
 10
49.95975261430942
 20
-81.89750220174801
 30
0.0
 10
49.95975261430942
 20
-81.95260609062292
 30
0.0
 10
49.95975261430942
 20
-82.007745257276
 30
0.0
 10
50.0045201131673
 20
-82.05251275726457
 30
0.0
 10
50.05965927842725
 20
-82.05251275726457
 30
0.0
 10
50.11476316591032
 20
-82.05251275726457
 30
0.0
 10
50.15956594254509
 20
-82.007745257276
 30
0.0
 10
50.15956594254509
 20
-81.95260609062292
 30
0.0
  0
SPLINE
  5
7A
330
1F
100
AcDbEntity
  8
_U+30EC_U+30A4_U+30E4_U+30FC 1
 62
   179
420
  2234388
370
     9
100
AcDbSpline
210
0.0
220
0.0
230
1.0
 70
    11
 71
     3
 72
    17
 73
    13
 74
     0
 42
0.0000000001
 43
0.0000000001
 12
1.0
 22
0.0
 32
0.0
 13
1.0
 23
0.0
 33
0.0
 40
0.0
 40
0.0
 40
0.0
 40
0.0
 40
1.0
 40
1.0
 40
1.0
 40
2.0
 40
2.0
 40
2.0
 40
3.0
 40
3.0
 40
3.0
 40
4.0
 40
4.0
 40
4.0
 40
4.0
 10
73.1596886890964
 20
-81.95260609062292
 30
0.0
 10
73.1596886890964
 20
-81.89750220174801
 30
0.0
 10
73.11492119023852
 20
-81.85269942398129
 30
0.0
 10
73.05978202497856
 20
-81.85269942398129
 30
0.0
 10
73.00467813749549
 20
-81.85269942398129
 30
0.0
 10
72.95987536086074
 20
-81.89750220174801
 30
0.0
 10
72.95987536086074
 20
-81.95260609062292
 30
0.0
 10
72.95987536086074
 20
-82.007745257276
 30
0.0
 10
73.00467813749549
 20
-82.05251275726457
 30
0.0
 10
73.05978202497856
 20
-82.05251275726457
 30
0.0
 10
73.11492119023852
 20
-82.05251275726457
 30
0.0
 10
73.1596886890964
 20
-82.007745257276
 30
0.0
 10
73.1596886890964
 20
-81.95260609062292
 30
0.0
  0
SPLINE
  5
7B
330
1F
100
AcDbEntity
  8
_U+30EC_U+30A4_U+30E4_U+30FC 1
 62
   179
420
  2234388
370
     9
100
AcDbSpline
210
0.0
220
0.0
230
1.0
 70
    11
 71
     3
 72
    17
 73
    13
 74
     0
 42
0.0000000001
 43
0.0000000001
 12
1.0
 22
0.0
 32
0.0
 13
1.0
 23
0.0
 33
0.0
 40
0.0
 40
0.0
 40
0.0
 40
0.0
 40
1.0
 40
1.0
 40
1.0
 40
2.0
 40
2.0
 40
2.0
 40
3.0
 40
3.0
 40
3.0
 40
4.0
 40
4.0
 40
4.0
 40
4.0
 10
77.16015330925826
 20
-85.95236525628981
 30
0.0
 10
77.16015330925826
 20
-85.89726136741457
 30
0.0
 10
77.11535053262351
 20
-85.85245858964785
 30
0.0
 10
77.06024664514044
 20
-85.85245858964785
 30
0.0
 10
77.0044372021198
 20
-85.85245858964785
 30
0.0
 10
76.95963442548504
 20
-85.89726136741457
 30
0.0
 10
76.95963442548504
 20
-85.95236525628981
 30
0.0
 10
76.95963442548504
 20
-86.00750442294256
 30
0.0
 10
77.0044372021198
 20
-86.05227192293144
 30
0.0
 10
77.06024664514044
 20
-86.05227192293144
 30
0.0
 10
77.11535053262351
 20
-86.05227192293144
 30
0.0
 10
77.16015330925826
 20
-86.00750442294256
 30
0.0
 10
77.16015330925826
 20
-85.95236525628981
 30
0.0
  0
SPLINE
  5
7C
330
1F
100
AcDbEntity
  8
_U+30EC_U+30A4_U+30E4_U+30FC 1
 62
   179
420
  2234388
370
     9
100
AcDbSpline
210
0.0
220
0.0
230
1.0
 70
    11
 71
     3
 72
    17
 73
    13
 74
     0
 42
0.0000000001
 43
0.0000000001
 12
1.0
 22
0.0
 32
0.0
 13
1.0
 23
0.0
 33
0.0
 40
0.0
 40
0.0
 40
0.0
 40
0.0
 40
1.0
 40
1.0
 40
1.0
 40
2.0
 40
2.0
 40
2.0
 40
3.0
 40
3.0
 40
3.0
 40
4.0
 40
4.0
 40
4.0
 40
4.0
 10
77.16015330925826
 20
-86.75232414497843
 30
0.0
 10
77.16015330925826
 20
-86.69722025610352
 30
0.0
 10
77.11535053262351
 20
-86.6524174783368
 30
0.0
 10
77.06024664514044
 20
-86.6524174783368
 30
0.0
 10
77.0044372021198
 20
-86.6524174783368
 30
0.0
 10
76.95963442548504
 20
-86.69722025610352
 30
0.0
 10
76.95963442548504
 20
-86.75232414497843
 30
0.0
 10
76.95963442548504
 20
-86.80778081163143
 30
0.0
 10
77.0044372021198
 20
-86.85258358939784
 30
0.0
 10
77.06024664514044
 20
-86.85258358939784
 30
0.0
 10
77.11535053262351
 20
-86.85258358939784
 30
0.0
 10
77.16015330925826
 20
-86.80778081163143
 30
0.0
 10
77.16015330925826
 20
-86.75232414497843
 30
0.0
  0
SPLINE
  5
7D
330
1F
100
AcDbEntity
  8
_U+30EC_U+30A4_U+30E4_U+30FC 1
 62
   179
420
  2234388
370
     9
100
AcDbSpline
210
0.0
220
0.0
230
1.0
 70
    11
 71
     3
 72
    17
 73
    13
 74
     0
 42
0.0000000001
 43
0.0000000001
 12
1.0
 22
0.0
 32
0.0
 13
1.0
 23
0.0
 33
0.0
 40
0.0
 40
0.0
 40
0.0
 40
0.0
 40
1.0
 40
1.0
 40
1.0
 40
2.0
 40
2.0
 40
2.0
 40
3.0
 40
3.0
 40
3.0
 40
4.0
 40
4.0
 40
4.0
 40
4.0
 10
77.16015330925826
 20
-93.25253692113147
 30
0.0
 10
77.16015330925826
 20
-93.19739775447839
 30
0.0
 10
77.11535053262351
 20
-93.15263025448984
 30
0.0
 10
77.06024664514044
 20
-93.15263025448984
 30
0.0
 10
77.0044372021198
 20
-93.15263025448984
 30
0.0
 10
76.95963442548504
 20
-93.19739775447839
 30
0.0
 10
76.95963442548504
 20
-93.25253692113147
 30
0.0
 10
76.95963442548504
 20
-93.30764081000639
 30
0.0
 10
77.0044372021198
 20
-93.35244358777311
 30
0.0
 10
77.06024664514044
 20
-93.35244358777311
 30
0.0
 10
77.11535053262351
 20
-93.35244358777311
 30
0.0
 10
77.16015330925826
 20
-93.30764081000639
 30
0.0
 10
77.16015330925826
 20
-93.25253692113147
 30
0.0
  0
SPLINE
  5
7E
330
1F
100
AcDbEntity
  8
_U+30EC_U+30A4_U+30E4_U+30FC 1
 62
   179
420
  2234388
370
     9
100
AcDbSpline
210
0.0
220
0.0
230
1.0
 70
    11
 71
     3
 72
    17
 73
    13
 74
     0
 42
0.0000000001
 43
0.0000000001
 12
1.0
 22
0.0
 32
0.0
 13
1.0
 23
0.0
 33
0.0
 40
0.0
 40
0.0
 40
0.0
 40
0.0
 40
1.0
 40
1.0
 40
1.0
 40
2.0
 40
2.0
 40
2.0
 40
3.0
 40
3.0
 40
3.0
 40
4.0
 40
4.0
 40
4.0
 40
4.0
 10
77.16015330925826
 20
-96.25252386482582
 30
0.0
 10
77.16015330925826
 20
-96.19738469817274
 30
0.0
 10
77.11535053262351
 20
-96.15261719818417
 30
0.0
 10
77.06024664514044
 20
-96.15261719818417
 30
0.0
 10
77.0044372021198
 20
-96.15261719818417
 30
0.0
 10
76.95963442548504
 20
-96.19738469817274
 30
0.0
 10
76.95963442548504
 20
-96.25252386482582
 30
0.0
 10
76.95963442548504
 20
-96.30762775370073
 30
0.0
 10
77.0044372021198
 20
-96.35243053146745
 30
0.0
 10
77.06024664514044
 20
-96.35243053146745
 30
0.0
 10
77.11535053262351
 20
-96.35243053146745
 30
0.0
 10
77.16015330925826
 20
-96.30762775370073
 30
0.0
 10
77.16015330925826
 20
-96.25252386482582
 30
0.0
  0
SPLINE
  5
7F
330
1F
100
AcDbEntity
  8
_U+30EC_U+30A4_U+30E4_U+30FC 1
 62
   179
420
  2234388
370
     9
100
AcDbSpline
210
0.0
220
0.0
230
1.0
 70
    11
 71
     3
 72
    17
 73
    13
 74
     0
 42
0.0000000001
 43
0.0000000001
 12
1.0
 22
0.0
 32
0.0
 13
1.0
 23
0.0
 33
0.0
 40
0.0
 40
0.0
 40
0.0
 40
0.0
 40
1.0
 40
1.0
 40
1.0
 40
2.0
 40
2.0
 40
2.0
 40
3.0
 40
3.0
 40
3.0
 40
4.0
 40
4.0
 40
4.0
 40
4.0
 10
59.15952654627029
 20
-100.2526358082705
 30
0.0
 10
59.15952654627029
 20
-100.1971438638396
 30
0.0
 10
59.11472376963553
 20
-100.1523763638511
 30
0.0
 10
59.05961988215246
 20
-100.1523763638511
 30
0.0
 10
59.00448071689251
 20
-100.1523763638511
 30
0.0
 10
58.95971321803462
 20
-100.1971438638396
 30
0.0
 10
58.95971321803462
 20
-100.2526358082705
 30
0.0
 10
58.95971321803462
 20
-100.3077396971454
 30
0.0
 10
59.00448071689251
 20
-100.3525424749121
 30
0.0
 10
59.05961988215246
 20
-100.3525424749121
 30
0.0
 10
59.11472376963553
 20
-100.3525424749121
 30
0.0
 10
59.15952654627029
 20
-100.3077396971454
 30
0.0
 10
59.15952654627029
 20
-100.2526358082705
 30
0.0
  0
SPLINE
  5
80
330
1F
100
AcDbEntity
  8
_U+30EC_U+30A4_U+30E4_U+30FC 1
 62
   179
420
  2234388
370
     9
100
AcDbSpline
210
0.0
220
0.0
230
1.0
 70
    11
 71
     3
 72
    17
 73
    13
 74
     0
 42
0.0000000001
 43
0.0000000001
 12
1.0
 22
0.0
 32
0.0
 13
1.0
 23
0.0
 33
0.0
 40
0.0
 40
0.0
 40
0.0
 40
0.0
 40
1.0
 40
1.0
 40
1.0
 40
2.0
 40
2.0
 40
2.0
 40
3.0
 40
3.0
 40
3.0
 40
4.0
 40
4.0
 40
4.0
 40
4.0
 10
49.15979374582918
 20
-100.2526358082705
 30
0.0
 10
49.15979374582918
 20
-100.1971438638396
 30
0.0
 10
49.11499096919441
 20
-100.1523763638511
 30
0.0
 10
49.05988708171134
 20
-100.1523763638511
 30
0.0
 10
49.00474791645139
 20
-100.1523763638511
 30
0.0
 10
48.95998041759351
 20
-100.1971438638396
 30
0.0
 10
48.95998041759351
 20
-100.2526358082705
 30
0.0
 10
48.95998041759351
 20
-100.3077396971454
 30
0.0
 10
49.00474791645139
 20
-100.3525424749121
 30
0.0
 10
49.05988708171134
 20
-100.3525424749121
 30
0.0
 10
49.11499096919441
 20
-100.3525424749121
 30
0.0
 10
49.15979374582918
 20
-100.3077396971454
 30
0.0
 10
49.15979374582918
 20
-100.2526358082705
 30
0.0
  0
POLYLINE
  5
81
330
1F
100
AcDbEntity
  8
_U+30EC_U+30A4_U+30E4_U+30FC 1
 62
   179
420
  2234388
370
     9
100
AcDb2dPolyline
 66
     1
 10
0.0
 20
0.0
 30
0.0
  0
VERTEX
  5
82
330
81
100
AcDbEntity
  8
_U+30EC_U+30A4_U+30E4_U+30FC 1
 62
   179
420
  2234388
370
     9
100
AcDbVertex
100
AcDb2dVertex
 10
50.05965927842725
 20
-81.95260609062292
 30
0.0
  0
VERTEX
  5
83
330
81
100
AcDbEntity
  8
_U+30EC_U+30A4_U+30E4_U+30FC 1
 62
   179
420
  2234388
370
     9
100
AcDbVertex
100
AcDb2dVertex
 10
73.05978202497856
 20
-81.95260609062292
 30
0.0
  0
SEQEND
  5
84
330
81
100
AcDbEntity
  8
_U+30EC_U+30A4_U+30E4_U+30FC 1
 62
   179
420
  2234388
370
     9
  0
POLYLINE
  5
85
330
1F
100
AcDbEntity
  8
_U+30EC_U+30A4_U+30E4_U+30FC 1
 62
   179
420
  2234388
370
     9
100
AcDb2dPolyline
 66
     1
 10
0.0
 20
0.0
 30
0.0
  0
VERTEX
  5
86
330
85
100
AcDbEntity
  8
_U+30EC_U+30A4_U+30E4_U+30FC 1
 62
   179
420
  2234388
370
     9
100
AcDbVertex
100
AcDb2dVertex
 10
50.05965927842725
 20
-83.41264747914695
 30
0.0
  0
VERTEX
  5
87
330
85
100
AcDbEntity
  8
_U+30EC_U+30A4_U+30E4_U+30FC 1
 62
   179
420
  2234388
370
     9
100
AcDbVertex
100
AcDb2dVertex
 10
50.05965927842725
 20
-80.95251636865078
 30
0.0
  0
SEQEND
  5
88
330
85
100
AcDbEntity
  8
_U+30EC_U+30A4_U+30E4_U+30FC 1
 62
   179
420
  2234388
370
     9
  0
POLYLINE
  5
89
330
1F
100
AcDbEntity
  8
_U+30EC_U+30A4_U+30E4_U+30FC 1
 62
   179
420
  2234388
370
     9
100
AcDb2dPolyline
 66
     1
 10
0.0
 20
0.0
 30
0.0
  0
VERTEX
  5
8A
330
89
100
AcDbEntity
  8
_U+30EC_U+30A4_U+30E4_U+30FC 1
 62
   179
420
  2234388
370
     9
100
AcDbVertex
100
AcDb2dVertex
 10
73.05978202497856
 20
-83.41264747914695
 30
0.0
  0
VERTEX
  5
8B
330
89
100
AcDbEntity
  8
_U+30EC_U+30A4_U+30E4_U+30FC 1
 62
   179
420
  2234388
370
     9
100
AcDbVertex
100
AcDb2dVertex
 10
73.05978202497856
 20
-80.95251636865078
 30
0.0
  0
SEQEND
  5
8C
330
89
100
AcDbEntity
  8
_U+30EC_U+30A4_U+30E4_U+30FC 1
 62
   179
420
  2234388
370
     9
  0
INSERT
  5
8E
330
1F
100
AcDbEntity
  8
_U+30EC_U+30A4_U+30E4_U+30FC 1
100
AcDbBlockReference
  2
block 2
 10
0.0
 20
0.0
 30
0.0
  0
POLYLINE
  5
95
330
1F
100
AcDbEntity
  8
_U+30EC_U+30A4_U+30E4_U+30FC 1
 62
   179
420
  2234388
370
     9
100
AcDb2dPolyline
 66
     1
 10
0.0
 20
0.0
 30
0.0
  0
VERTEX
  5
96
330
95
100
AcDbEntity
  8
_U+30EC_U+30A4_U+30E4_U+30FC 1
 62
   179
420
  2234388
370
     9
100
AcDbVertex
100
AcDb2dVertex
 10
49.05988708171134
 20
-100.2526358082705
 30
0.0
  0
VERTEX
  5
97
330
95
100
AcDbEntity
  8
_U+30EC_U+30A4_U+30E4_U+30FC 1
 62
   179
420
  2234388
370
     9
100
AcDbVertex
100
AcDb2dVertex
 10
59.05961988215246
 20
-100.2526358082705
 30
0.0
  0
SEQEND
  5
98
330
95
100
AcDbEntity
  8
_U+30EC_U+30A4_U+30E4_U+30FC 1
 62
   179
420
  2234388
370
     9
  0
POLYLINE
  5
99
330
1F
100
AcDbEntity
  8
_U+30EC_U+30A4_U+30E4_U+30FC 1
 62
   179
420
  2234388
370
     9
100
AcDb2dPolyline
 66
     1
 10
0.0
 20
0.0
 30
0.0
  0
VERTEX
  5
9A
330
99
100
AcDbEntity
  8
_U+30EC_U+30A4_U+30E4_U+30FC 1
 62
   179
420
  2234388
370
     9
100
AcDbVertex
100
AcDb2dVertex
 10
49.05988708171134
 20
-98.79259441974611
 30
0.0
  0
VERTEX
  5
9B
330
99
100
AcDbEntity
  8
_U+30EC_U+30A4_U+30E4_U+30FC 1
 62
   179
420
  2234388
370
     9
100
AcDbVertex
100
AcDb2dVertex
 10
49.05988708171134
 20
-101.2523727524648
 30
0.0
  0
SEQEND
  5
9C
330
99
100
AcDbEntity
  8
_U+30EC_U+30A4_U+30E4_U+30FC 1
 62
   179
420
  2234388
370
     9
  0
POLYLINE
  5
9D
330
1F
100
AcDbEntity
  8
_U+30EC_U+30A4_U+30E4_U+30FC 1
 62
   179
420
  2234388
370
     9
100
AcDb2dPolyline
 66
     1
 10
0.0
 20
0.0
 30
0.0
  0
VERTEX
  5
9E
330
9D
100
AcDbEntity
  8
_U+30EC_U+30A4_U+30E4_U+30FC 1
 62
   179
420
  2234388
370
     9
100
AcDbVertex
100
AcDb2dVertex
 10
59.05961988215246
 20
-98.79259441974611
 30
0.0
  0
VERTEX
  5
9F
330
9D
100
AcDbEntity
  8
_U+30EC_U+30A4_U+30E4_U+30FC 1
 62
   179
420
  2234388
370
     9
100
AcDbVertex
100
AcDb2dVertex
 10
59.05961988215246
 20
-101.2523727524648
 30
0.0
  0
SEQEND
  5
A0
330
9D
100
AcDbEntity
  8
_U+30EC_U+30A4_U+30E4_U+30FC 1
 62
   179
420
  2234388
370
     9
  0
INSERT
  5
A2
330
1F
100
AcDbEntity
  8
_U+30EC_U+30A4_U+30E4_U+30FC 1
100
AcDbBlockReference
  2
block 3
 10
0.0
 20
0.0
 30
0.0
  0
POLYLINE
  5
AA
330
1F
100
AcDbEntity
  8
_U+30EC_U+30A4_U+30E4_U+30FC 1
 62
   179
420
  2234388
370
     9
100
AcDb2dPolyline
 66
     1
 10
0.0
 20
0.0
 30
0.0
  0
VERTEX
  5
AB
330
AA
100
AcDbEntity
  8
_U+30EC_U+30A4_U+30E4_U+30FC 1
 62
   179
420
  2234388
370
     9
100
AcDbVertex
100
AcDb2dVertex
 10
77.06024664514044
 20
-85.95236525628981
 30
0.0
  0
VERTEX
  5
AC
330
AA
100
AcDbEntity
  8
_U+30EC_U+30A4_U+30E4_U+30FC 1
 62
   179
420
  2234388
370
     9
100
AcDbVertex
100
AcDb2dVertex
 10
77.06024664514044
 20
-80.6944594242709
 30
0.0
  0
SEQEND
  5
AD
330
AA
100
AcDbEntity
  8
_U+30EC_U+30A4_U+30E4_U+30FC 1
 62
   179
420
  2234388
370
     9
  0
POLYLINE
  5
AE
330
1F
100
AcDbEntity
  8
_U+30EC_U+30A4_U+30E4_U+30FC 1
 62
   179
420
  2234388
370
     9
100
AcDb2dPolyline
 66
     1
 10
0.0
 20
0.0
 30
0.0
  0
VERTEX
  5
AF
330
AE
100
AcDbEntity
  8
_U+30EC_U+30A4_U+30E4_U+30FC 1
 62
   179
420
  2234388
370
     9
100
AcDbVertex
100
AcDb2dVertex
 10
77.06024664514044
 20
-85.95236525628981
 30
0.0
  0
VERTEX
  5
B0
330
AE
100
AcDbEntity
  8
_U+30EC_U+30A4_U+30E4_U+30FC 1
 62
   179
420
  2234388
370
     9
100
AcDbVertex
100
AcDb2dVertex
 10
77.06024664514044
 20
-86.75232414497843
 30
0.0
  0
SEQEND
  5
B1
330
AE
100
AcDbEntity
  8
_U+30EC_U+30A4_U+30E4_U+30FC 1
 62
   179
420
  2234388
370
     9
  0
POLYLINE
  5
B2
330
1F
100
AcDbEntity
  8
_U+30EC_U+30A4_U+30E4_U+30FC 1
 62
   179
420
  2234388
370
     9
100
AcDb2dPolyline
 66
     1
 10
0.0
 20
0.0
 30
0.0
  0
VERTEX
  5
B3
330
B2
100
AcDbEntity
  8
_U+30EC_U+30A4_U+30E4_U+30FC 1
 62
   179
420
  2234388
370
     9
100
AcDbVertex
100
AcDb2dVertex
 10
75.6002052935003
 20
-85.95236525628981
 30
0.0
  0
VERTEX
  5
B4
330
B2
100
AcDbEntity
  8
_U+30EC_U+30A4_U+30E4_U+30FC 1
 62
   179
420
  2234388
370
     9
100
AcDbVertex
100
AcDb2dVertex
 10
78.06001884185635
 20
-85.95236525628981
 30
0.0
  0
SEQEND
  5
B5
330
B2
100
AcDbEntity
  8
_U+30EC_U+30A4_U+30E4_U+30FC 1
 62
   179
420
  2234388
370
     9
  0
POLYLINE
  5
B6
330
1F
100
AcDbEntity
  8
_U+30EC_U+30A4_U+30E4_U+30FC 1
 62
   179
420
  2234388
370
     9
100
AcDb2dPolyline
 66
     1
 10
0.0
 20
0.0
 30
0.0
  0
VERTEX
  5
B7
330
B6
100
AcDbEntity
  8
_U+30EC_U+30A4_U+30E4_U+30FC 1
 62
   179
420
  2234388
370
     9
100
AcDbVertex
100
AcDb2dVertex
 10
75.6002052935003
 20
-86.75232414497843
 30
0.0
  0
VERTEX
  5
B8
330
B6
100
AcDbEntity
  8
_U+30EC_U+30A4_U+30E4_U+30FC 1
 62
   179
420
  2234388
370
     9
100
AcDbVertex
100
AcDb2dVertex
 10
78.06001884185635
 20
-86.75232414497843
 30
0.0
  0
SEQEND
  5
B9
330
B6
100
AcDbEntity
  8
_U+30EC_U+30A4_U+30E4_U+30FC 1
 62
   179
420
  2234388
370
     9
  0
INSERT
  5
BB
330
1F
100
AcDbEntity
  8
_U+30EC_U+30A4_U+30E4_U+30FC 1
100
AcDbBlockReference
  2
block 4
 10
0.0
 20
0.0
 30
0.0
  0
POLYLINE
  5
CD
330
1F
100
AcDbEntity
  8
_U+30EC_U+30A4_U+30E4_U+30FC 1
 62
   179
420
  2234388
370
     9
100
AcDb2dPolyline
 66
     1
 10
0.0
 20
0.0
 30
0.0
  0
VERTEX
  5
CE
330
CD
100
AcDbEntity
  8
_U+30EC_U+30A4_U+30E4_U+30FC 1
 62
   179
420
  2234388
370
     9
100
AcDbVertex
100
AcDb2dVertex
 10
77.06024664514044
 20
-93.25253692113147
 30
0.0
  0
VERTEX
  5
CF
330
CD
100
AcDbEntity
  8
_U+30EC_U+30A4_U+30E4_U+30FC 1
 62
   179
420
  2234388
370
     9
100
AcDbVertex
100
AcDb2dVertex
 10
77.06024664514044
 20
-96.25252386482582
 30
0.0
  0
SEQEND
  5
D0
330
CD
100
AcDbEntity
  8
_U+30EC_U+30A4_U+30E4_U+30FC 1
 62
   179
420
  2234388
370
     9
  0
POLYLINE
  5
D1
330
1F
100
AcDbEntity
  8
_U+30EC_U+30A4_U+30E4_U+30FC 1
 62
   179
420
  2234388
370
     9
100
AcDb2dPolyline
 66
     1
 10
0.0
 20
0.0
 30
0.0
  0
VERTEX
  5
D2
330
D1
100
AcDbEntity
  8
_U+30EC_U+30A4_U+30E4_U+30FC 1
 62
   179
420
  2234388
370
     9
100
AcDbVertex
100
AcDb2dVertex
 10
61.6000431506742
 20
-96.25252386482582
 30
0.0
  0
VERTEX
  5
D3
330
D1
100
AcDbEntity
  8
_U+30EC_U+30A4_U+30E4_U+30FC 1
 62
   179
420
  2234388
370
     9
100
AcDbVertex
100
AcDb2dVertex
 10
78.06001884185635
 20
-96.25252386482582
 30
0.0
  0
SEQEND
  5
D4
330
D1
100
AcDbEntity
  8
_U+30EC_U+30A4_U+30E4_U+30FC 1
 62
   179
420
  2234388
370
     9
  0
INSERT
  5
D6
330
1F
100
AcDbEntity
  8
_U+30EC_U+30A4_U+30E4_U+30FC 1
100
AcDbBlockReference
  2
block 5
 10
0.0
 20
0.0
 30
0.0
  0
POLYLINE
  5
DB
330
1F
100
AcDbEntity
  8
_U+30EC_U+30A4_U+30E4_U+30FC 1
 62
   179
420
  2234388
370
     9
100
AcDb2dPolyline
 66
     1
 10
0.0
 20
0.0
 30
0.0
  0
VERTEX
  5
DC
330
DB
100
AcDbEntity
  8
_U+30EC_U+30A4_U+30E4_U+30FC 1
 62
   179
420
  2234388
370
     9
100
AcDbVertex
100
AcDb2dVertex
 10
77.06024664514044
 20
-86.75232414497843
 30
0.0
  0
VERTEX
  5
DD
330
DB
100
AcDbEntity
  8
_U+30EC_U+30A4_U+30E4_U+30FC 1
 62
   179
420
  2234388
370
     9
100
AcDbVertex
100
AcDb2dVertex
 10
77.06024664514044
 20
-93.25253692113147
 30
0.0
  0
SEQEND
  5
DE
330
DB
100
AcDbEntity
  8
_U+30EC_U+30A4_U+30E4_U+30FC 1
 62
   179
420
  2234388
370
     9
  0
POLYLINE
  5
DF
330
1F
100
AcDbEntity
  8
_U+30EC_U+30A4_U+30E4_U+30FC 1
 62
   179
420
  2234388
370
     9
100
AcDb2dPolyline
 66
     1
 10
0.0
 20
0.0
 30
0.0
  0
VERTEX
  5
E0
330
DF
100
AcDbEntity
  8
_U+30EC_U+30A4_U+30E4_U+30FC 1
 62
   179
420
  2234388
370
     9
100
AcDbVertex
100
AcDb2dVertex
 10
75.6002052935003
 20
-86.75232414497843
 30
0.0
  0
VERTEX
  5
E1
330
DF
100
AcDbEntity
  8
_U+30EC_U+30A4_U+30E4_U+30FC 1
 62
   179
420
  2234388
370
     9
100
AcDbVertex
100
AcDb2dVertex
 10
78.06001884185635
 20
-86.75232414497843
 30
0.0
  0
SEQEND
  5
E2
330
DF
100
AcDbEntity
  8
_U+30EC_U+30A4_U+30E4_U+30FC 1
 62
   179
420
  2234388
370
     9
  0
POLYLINE
  5
E3
330
1F
100
AcDbEntity
  8
_U+30EC_U+30A4_U+30E4_U+30FC 1
 62
   179
420
  2234388
370
     9
100
AcDb2dPolyline
 66
     1
 10
0.0
 20
0.0
 30
0.0
  0
VERTEX
  5
E4
330
E3
100
AcDbEntity
  8
_U+30EC_U+30A4_U+30E4_U+30FC 1
 62
   179
420
  2234388
370
     9
100
AcDbVertex
100
AcDb2dVertex
 10
61.6000431506742
 20
-93.25253692113147
 30
0.0
  0
VERTEX
  5
E5
330
E3
100
AcDbEntity
  8
_U+30EC_U+30A4_U+30E4_U+30FC 1
 62
   179
420
  2234388
370
     9
100
AcDbVertex
100
AcDb2dVertex
 10
78.06001884185635
 20
-93.25253692113147
 30
0.0
  0
SEQEND
  5
E6
330
E3
100
AcDbEntity
  8
_U+30EC_U+30A4_U+30E4_U+30FC 1
 62
   179
420
  2234388
370
     9
  0
INSERT
  5
E8
330
1F
100
AcDbEntity
  8
_U+30EC_U+30A4_U+30E4_U+30FC 1
100
AcDbBlockReference
  2
block 6
 10
0.0
 20
0.0
 30
0.0
  0
ENDSEC
  0
SECTION
  2
OBJECTS
  0
DICTIONARY
  5
C
330
0
100
AcDbDictionary
281
     1
  3
ACAD_GROUP
350
D
  3
ACAD_LAYOUT
350
1A
  3
ACAD_MATERIAL
350
3B
  3
ACAD_MLEADERSTYLE
350
F9
  3
ACAD_MLINESTYLE
350
17
  3
ACAD_PLOTSETTINGS
350
19
  3
ACAD_PLOTSTYLENAME
350
E
  3
ACAD_TABLESTYLE
350
F8
  3
ACAD_VISUALSTYLE
350
2A
  0
SUN
  5
3F
330
29
100
AcDbSun
 90
        1
290
     0
 63
     7
421
 16777215
 40
1.0
291
     1
 91
  2455826
 92
 54000000
292
     0
 70
     2
 71
   256
280
     1
  0
DICTIONARY
  5
D
102
{ACAD_REACTORS
330
C
102
}
330
C
100
AcDbDictionary
281
     1
  0
DICTIONARY
  5
1A
102
{ACAD_REACTORS
330
C
102
}
330
C
100
AcDbDictionary
281
     1
  3
Layout1
350
1E
  3
Layout2
350
26
  3
Model
350
22
  0
DICTIONARY
  5
3B
102
{ACAD_REACTORS
330
C
102
}
330
C
100
AcDbDictionary
281
     1
  3
ByBlock
350
3D
  3
ByLayer
350
3C
  3
Global
350
3E
  0
DICTIONARY
  5
F9
102
{ACAD_REACTORS
330
C
102
}
330
C
100
AcDbDictionary
281
     1
  0
DICTIONARY
  5
17
102
{ACAD_REACTORS
330
C
102
}
330
C
100
AcDbDictionary
281
     1
  3
Standard
350
18
  0
DICTIONARY
  5
19
102
{ACAD_REACTORS
330
C
102
}
330
C
100
AcDbDictionary
281
     1
  0
ACDBDICTIONARYWDFLT
  5
E
102
{ACAD_REACTORS
330
C
102
}
330
C
100
AcDbDictionary
281
     1
  3
Normal
350
F
100
AcDbDictionaryWithDefault
340
F
  0
DICTIONARY
  5
F8
102
{ACAD_REACTORS
330
C
102
}
330
C
100
AcDbDictionary
281
     1
  0
DICTIONARY
  5
2A
102
{ACAD_REACTORS
330
C
102
}
330
C
100
AcDbDictionary
281
     1
  3
2dWireframe
350
2F
  3
3D Hidden
350
31
  3
3dWireframe
350
30
  3
Basic
350
32
  3
Brighten
350
36
  3
ColorChange
350
3A
  3
Conceptual
350
34
  3
Dim
350
35
  3
Facepattern
350
39
  3
Flat
350
2B
  3
FlatWithEdges
350
2C
  3
Gouraud
350
2D
  3
GouraudWithEdges
350
2E
  3
Linepattern
350
38
  3
Realistic
350
33
  3
Thicken
350
37
  0
LAYOUT
  5
1E
102
{ACAD_REACTORS
330
1A
102
}
330
1A
100
AcDbPlotSettings
  1

  2
none_device
  4

  6

 40
0.0
 41
0.0
 42
0.0
 43
0.0
 44
0.0
 45
0.0
 46
0.0
 47
0.0
 48
0.0
 49
0.0
140
0.0
141
0.0
142
1.0
143
1.0
 70
   688
 72
     0
 73
     0
 74
     5
  7

 75
    16
 76
     0
 77
     2
 78
   300
147
1.0
148
0.0
149
0.0
100
AcDbLayout
  1
Layout1
 70
     1
 71
     1
 10
0.0
 20
0.0
 11
12.0
 21
9.0
 12
0.0
 22
0.0
 32
0.0
 14
1.000000000000000E+20
 24
1.000000000000000E+20
 34
1.000000000000000E+20
 15
-1.000000000000000E+20
 25
-1.000000000000000E+20
 35
-1.000000000000000E+20
146
0.0
 13
0.0
 23
0.0
 33
0.0
 16
1.0
 26
0.0
 36
0.0
 17
0.0
 27
1.0
 37
0.0
 76
     0
330
1B
  0
LAYOUT
  5
26
102
{ACAD_REACTORS
330
1A
102
}
330
1A
100
AcDbPlotSettings
  1

  2
none_device
  4

  6

 40
0.0
 41
0.0
 42
0.0
 43
0.0
 44
0.0
 45
0.0
 46
0.0
 47
0.0
 48
0.0
 49
0.0
140
0.0
141
0.0
142
1.0
143
1.0
 70
   688
 72
     0
 73
     0
 74
     5
  7

 75
    16
 76
     0
 77
     2
 78
   300
147
1.0
148
0.0
149
0.0
100
AcDbLayout
  1
Layout2
 70
     1
 71
     2
 10
0.0
 20
0.0
 11
0.0
 21
0.0
 12
0.0
 22
0.0
 32
0.0
 14
0.0
 24
0.0
 34
0.0
 15
0.0
 25
0.0
 35
0.0
146
0.0
 13
0.0
 23
0.0
 33
0.0
 16
1.0
 26
0.0
 36
0.0
 17
0.0
 27
1.0
 37
0.0
 76
     0
330
23
  0
LAYOUT
  5
22
102
{ACAD_REACTORS
330
1A
102
}
330
1A
100
AcDbPlotSettings
  1

  2
none_device
  4

  6

 40
0.0
 41
0.0
 42
0.0
 43
0.0
 44
0.0
 45
0.0
 46
0.0
 47
0.0
 48
0.0
 49
0.0
140
0.0
141
0.0
142
1.0
143
1.0
 70
  1712
 72
     0
 73
     0
 74
     0
  7

 75
     0
 76
     0
 77
     2
 78
   300
147
1.0
148
0.0
149
0.0
100
AcDbLayout
  1
Model
 70
     1
 71
     0
 10
0.0
 20
0.0
 11
12.0
 21
9.0
 12
0.0
 22
0.0
 32
0.0
 14
1.000000000000000E+20
 24
1.000000000000000E+20
 34
1.000000000000000E+20
 15
-1.000000000000000E+20
 25
-1.000000000000000E+20
 35
-1.000000000000000E+20
146
0.0
 13
0.0
 23
0.0
 33
0.0
 16
1.0
 26
0.0
 36
0.0
 17
0.0
 27
1.0
 37
0.0
 76
     0
330
1F
331
29
  0
MATERIAL
  5
3D
102
{ACAD_REACTORS
330
3B
102
}
330
3B
100
AcDbMaterial
  1
ByBlock
 72
     1
 94
      127
  0
MATERIAL
  5
3C
102
{ACAD_REACTORS
330
3B
102
}
330
3B
100
AcDbMaterial
  1
ByLayer
 72
     1
 94
      127
  0
MATERIAL
  5
3E
102
{ACAD_REACTORS
330
3B
102
}
330
3B
100
AcDbMaterial
  1
Global
 72
     1
 94
      127
  0
MLINESTYLE
  5
18
102
{ACAD_REACTORS
330
17
102
}
330
17
100
AcDbMlineStyle
  2
Standard
 70
     0
  3

 62
   256
 51
90.0
 52
90.0
 71
     2
 49
0.5
 62
   256
  6
BYLAYER
 49
-0.5
 62
   256
  6
BYLAYER
  0
ACDBPLACEHOLDER
  5
F
102
{ACAD_REACTORS
330
E
102
}
330
E
  0
VISUALSTYLE
  5
2F
102
{ACAD_REACTORS
330
2A
102
}
330
2A
100
AcDbVisualStyle
  2
2dWireframe
 70
     4
177
     2
291
     0
 71
     0
176
     1
 72
     2
176
     1
 73
     0
176
     1
 90
        0
176
     1
 40
-0.6
176
     1
 41
-30.0
176
     1
 62
     5
 63
     7
421
 16777215
176
     1
 74
     1
176
     1
 91
        4
176
     1
 64
     7
176
     1
 65
   257
176
     1
 75
     1
176
     1
175
     1
176
     1
 42
1.0
176
     1
 92
        0
176
     1
 66
   257
176
     1
 43
1.0
176
     1
 76
     1
176
     1
 77
     6
176
     1
 78
     2
176
     1
 67
     7
176
     1
 79
     5
176
     1
170
     0
176
     1
171
     0
176
     1
290
     0
176
     1
 93
        1
176
     1
 44
0.0
176
     1
173
     0
176
     1
  0
VISUALSTYLE
  5
31
102
{ACAD_REACTORS
330
2A
102
}
330
2A
100
AcDbVisualStyle
  2
3D Hidden
 70
     6
177
     2
291
     0
 71
     1
176
     1
 72
     2
176
     1
 73
     2
176
     1
 90
        0
176
     1
 40
-0.6
176
     1
 41
-30.0
176
     1
 62
     5
 63
     7
421
 16777215
176
     1
 74
     2
176
     1
 91
        2
176
     1
 64
     7
176
     1
 65
   257
176
     1
 75
     2
176
     1
175
     1
176
     1
 42
40.0
176
     1
 92
        0
176
     1
 66
   257
176
     1
 43
1.0
176
     1
 76
     1
176
     1
 77
     6
176
     1
 78
     2
176
     1
 67
     7
176
     1
 79
     3
176
     1
170
     0
176
     1
171
     0
176
     1
290
     0
176
     1
 93
        1
176
     1
 44
0.0
176
     1
173
     0
176
     1
  0
VISUALSTYLE
  5
30
102
{ACAD_REACTORS
330
2A
102
}
330
2A
100
AcDbVisualStyle
  2
3dWireframe
 70
     5
177
     2
291
     0
 71
     0
176
     1
 72
     2
176
     1
 73
     0
176
     1
 90
        0
176
     1
 40
-0.6
176
     1
 41
-30.0
176
     1
 62
     5
 63
     7
421
 16777215
176
     1
 74
     1
176
     1
 91
        4
176
     1
 64
     7
176
     1
 65
   257
176
     1
 75
     1
176
     1
175
     1
176
     1
 42
1.0
176
     1
 92
        0
176
     1
 66
   257
176
     1
 43
1.0
176
     1
 76
     1
176
     1
 77
     6
176
     1
 78
     2
176
     1
 67
     7
176
     1
 79
     5
176
     1
170
     0
176
     1
171
     0
176
     1
290
     0
176
     1
 93
        1
176
     1
 44
0.0
176
     1
173
     0
176
     1
  0
VISUALSTYLE
  5
32
102
{ACAD_REACTORS
330
2A
102
}
330
2A
100
AcDbVisualStyle
  2
Basic
 70
     7
177
     2
291
     1
 71
     1
176
     1
 72
     0
176
     1
 73
     1
176
     1
 90
        0
176
     1
 40
-0.6
176
     1
 41
-30.0
176
     1
 62
     5
 63
     7
421
 16777215
176
     1
 74
     0
176
     1
 91
        4
176
     1
 64
     7
176
     1
 65
   257
176
     1
 75
     1
176
     1
175
     1
176
     1
 42
1.0
176
     1
 92
        8
176
     1
 66
     7
176
     1
 43
1.0
176
     1
 76
     1
176
     1
 77
     6
176
     1
 78
     2
176
     1
 67
     7
176
     1
 79
     5
176
     1
170
     0
176
     1
171
     0
176
     1
290
     0
176
     1
 93
        1
176
     1
 44
0.0
176
     1
173
     0
176
     1
  0
VISUALSTYLE
  5
36
102
{ACAD_REACTORS
330
2A
102
}
330
2A
100
AcDbVisualStyle
  2
Brighten
 70
    12
177
     2
291
     1
 71
     2
176
     1
 72
     2
176
     1
 73
     0
176
     1
 90
        0
176
     1
 40
-0.6
176
     1
 41
-30.0
176
     1
 62
     5
 63
     7
421
 16777215
176
     1
 74
     1
176
     1
 91
        4
176
     1
 64
     7
176
     1
 65
   257
176
     1
 75
     1
176
     1
175
     1
176
     1
 42
1.0
176
     1
 92
        8
176
     1
 66
     7
176
     1
 43
1.0
176
     1
 76
     1
176
     1
 77
     6
176
     1
 78
     2
176
     1
 67
     7
176
     1
 79
     5
176
     1
170
     0
176
     1
171
     0
176
     1
290
     0
176
     1
 93
        1
176
     1
 44
50.0
176
     1
173
     0
176
     1
  0
VISUALSTYLE
  5
3A
102
{ACAD_REACTORS
330
2A
102
}
330
2A
100
AcDbVisualStyle
  2
ColorChange
 70
    16
177
     2
291
     1
 71
     2
176
     1
 72
     2
176
     1
 73
     3
176
     1
 90
        0
176
     1
 40
-0.6
176
     1
 41
-30.0
176
     1
 62
     5
 63
     8
421
  8421504
176
     1
 74
     1
176
     1
 91
        4
176
     1
 64
     7
176
     1
 65
   257
176
     1
 75
     1
176
     1
175
     1
176
     1
 42
1.0
176
     1
 92
        8
176
     1
 66
     8
424
  8421504
176
     1
 43
1.0
176
     1
 76
     1
176
     1
 77
     6
176
     1
 78
     2
176
     1
 67
     7
176
     1
 79
     5
176
     1
170
     0
176
     1
171
     0
176
     1
290
     0
176
     1
 93
        1
176
     1
 44
0.0
176
     1
173
     0
176
     1
  0
VISUALSTYLE
  5
34
102
{ACAD_REACTORS
330
2A
102
}
330
2A
100
AcDbVisualStyle
  2
Conceptual
 70
     9
177
     2
291
     0
 71
     3
176
     1
 72
     2
176
     1
 73
     0
176
     1
 90
        0
176
     1
 40
-0.6
176
     1
 41
-30.0
176
     1
 62
     5
 63
     7
421
 16777215
176
     1
 74
     2
176
     1
 91
        2
176
     1
 64
     7
176
     1
 65
   257
176
     1
 75
     1
176
     1
175
     1
176
     1
 42
40.0
176
     1
 92
        8
176
     1
 66
     7
176
     1
 43
1.0
176
     1
 76
     1
176
     1
 77
     6
176
     1
 78
     2
176
     1
 67
     7
176
     1
 79
     3
176
     1
170
     0
176
     1
171
     0
176
     1
290
     0
176
     1
 93
        1
176
     1
 44
0.0
176
     1
173
     0
176
     1
  0
VISUALSTYLE
  5
35
102
{ACAD_REACTORS
330
2A
102
}
330
2A
100
AcDbVisualStyle
  2
Dim
 70
    11
177
     2
291
     1
 71
     2
176
     1
 72
     2
176
     1
 73
     0
176
     1
 90
        0
176
     1
 40
-0.6
176
     1
 41
-30.0
176
     1
 62
     5
 63
     7
421
 16777215
176
     1
 74
     1
176
     1
 91
        4
176
     1
 64
     7
176
     1
 65
   257
176
     1
 75
     1
176
     1
175
     1
176
     1
 42
1.0
176
     1
 92
        8
176
     1
 66
     7
176
     1
 43
1.0
176
     1
 76
     1
176
     1
 77
     6
176
     1
 78
     2
176
     1
 67
     7
176
     1
 79
     5
176
     1
170
     0
176
     1
171
     0
176
     1
290
     0
176
     1
 93
        1
176
     1
 44
-50.0
176
     1
173
     0
176
     1
  0
VISUALSTYLE
  5
39
102
{ACAD_REACTORS
330
2A
102
}
330
2A
100
AcDbVisualStyle
  2
Facepattern
 70
    15
177
     2
291
     1
 71
     2
176
     1
 72
     2
176
     1
 73
     0
176
     1
 90
        0
176
     1
 40
-0.6
176
     1
 41
-30.0
176
     1
 62
     5
 63
     7
421
 16777215
176
     1
 74
     1
176
     1
 91
        4
176
     1
 64
     7
176
     1
 65
   257
176
     1
 75
     1
176
     1
175
     1
176
     1
 42
1.0
176
     1
 92
        8
176
     1
 66
     7
176
     1
 43
1.0
176
     1
 76
     1
176
     1
 77
     6
176
     1
 78
     2
176
     1
 67
     7
176
     1
 79
     5
176
     1
170
     0
176
     1
171
     0
176
     1
290
     0
176
     1
 93
        1
176
     1
 44
0.0
176
     1
173
     0
176
     1
  0
VISUALSTYLE
  5
2B
102
{ACAD_REACTORS
330
2A
102
}
330
2A
100
AcDbVisualStyle
  2
Flat
 70
     0
177
     2
291
     1
 71
     2
176
     1
 72
     1
176
     1
 73
     1
176
     1
 90
        2
176
     1
 40
-0.6
176
     1
 41
30.0
176
     1
 62
     5
 63
     7
421
 16777215
176
     1
 74
     0
176
     1
 91
        4
176
     1
 64
     7
176
     1
 65
   257
176
     1
 75
     1
176
     1
175
     1
176
     1
 42
1.0
176
     1
 92
        8
176
     1
 66
     7
176
     1
 43
1.0
176
     1
 76
     1
176
     1
 77
     6
176
     1
 78
     2
176
     1
 67
     7
176
     1
 79
     5
176
     1
170
     0
176
     1
171
     0
176
     1
290
     0
176
     1
 93
       13
176
     1
 44
0.0
176
     1
173
     0
176
     1
  0
VISUALSTYLE
  5
2C
102
{ACAD_REACTORS
330
2A
102
}
330
2A
100
AcDbVisualStyle
  2
FlatWithEdges
 70
     1
177
     2
291
     1
 71
     2
176
     1
 72
     1
176
     1
 73
     1
176
     1
 90
        2
176
     1
 40
-0.6
176
     1
 41
30.0
176
     1
 62
     5
 63
     7
421
 16777215
176
     1
 74
     1
176
     1
 91
        4
176
     1
 64
     7
176
     1
 65
   257
176
     1
 75
     1
176
     1
175
     1
176
     1
 42
1.0
176
     1
 92
        0
176
     1
 66
   257
176
     1
 43
1.0
176
     1
 76
     1
176
     1
 77
     6
176
     1
 78
     2
176
     1
 67
     7
176
     1
 79
     5
176
     1
170
     0
176
     1
171
     0
176
     1
290
     0
176
     1
 93
       13
176
     1
 44
0.0
176
     1
173
     0
176
     1
  0
VISUALSTYLE
  5
2D
102
{ACAD_REACTORS
330
2A
102
}
330
2A
100
AcDbVisualStyle
  2
Gouraud
 70
     2
177
     2
291
     1
 71
     2
176
     1
 72
     2
176
     1
 73
     1
176
     1
 90
        2
176
     1
 40
-0.6
176
     1
 41
30.0
176
     1
 62
     5
 63
     7
421
 16777215
176
     1
 74
     0
176
     1
 91
        4
176
     1
 64
     7
176
     1
 65
   257
176
     1
 75
     1
176
     1
175
     1
176
     1
 42
1.0
176
     1
 92
        0
176
     1
 66
     7
176
     1
 43
1.0
176
     1
 76
     1
176
     1
 77
     6
176
     1
 78
     2
176
     1
 67
     7
176
     1
 79
     5
176
     1
170
     0
176
     1
171
     0
176
     1
290
     0
176
     1
 93
       13
176
     1
 44
0.0
176
     1
173
     0
176
     1
  0
VISUALSTYLE
  5
2E
102
{ACAD_REACTORS
330
2A
102
}
330
2A
100
AcDbVisualStyle
  2
GouraudWithEdges
 70
     3
177
     2
291
     1
 71
     2
176
     1
 72
     2
176
     1
 73
     1
176
     1
 90
        2
176
     1
 40
-0.6
176
     1
 41
30.0
176
     1
 62
     5
 63
     7
421
 16777215
176
     1
 74
     1
176
     1
 91
        4
176
     1
 64
     7
176
     1
 65
   257
176
     1
 75
     1
176
     1
175
     1
176
     1
 42
1.0
176
     1
 92
        0
176
     1
 66
   257
176
     1
 43
1.0
176
     1
 76
     1
176
     1
 77
     6
176
     1
 78
     2
176
     1
 67
     7
176
     1
 79
     5
176
     1
170
     0
176
     1
171
     0
176
     1
290
     0
176
     1
 93
       13
176
     1
 44
0.0
176
     1
173
     0
176
     1
  0
VISUALSTYLE
  5
38
102
{ACAD_REACTORS
330
2A
102
}
330
2A
100
AcDbVisualStyle
  2
Linepattern
 70
    14
177
     2
291
     1
 71
     2
176
     1
 72
     2
176
     1
 73
     0
176
     1
 90
        0
176
     1
 40
-0.6
176
     1
 41
-30.0
176
     1
 62
     5
 63
     7
421
 16777215
176
     1
 74
     1
176
     1
 91
        4
176
     1
 64
     7
176
     1
 65
   257
176
     1
 75
     7
176
     1
175
     7
176
     1
 42
1.0
176
     1
 92
        8
176
     1
 66
     7
176
     1
 43
1.0
176
     1
 76
     1
176
     1
 77
     6
176
     1
 78
     2
176
     1
 67
     7
176
     1
 79
     5
176
     1
170
     0
176
     1
171
     0
176
     1
290
     0
176
     1
 93
        1
176
     1
 44
0.0
176
     1
173
     0
176
     1
  0
VISUALSTYLE
  5
33
102
{ACAD_REACTORS
330
2A
102
}
330
2A
100
AcDbVisualStyle
  2
Realistic
 70
     8
177
     2
291
     0
 71
     2
176
     1
 72
     2
176
     1
 73
     0
176
     1
 90
        0
176
     1
 40
-0.6
176
     1
 41
-30.0
176
     1
 62
     5
 63
     7
421
 16777215
176
     1
 74
     1
176
     1
 91
        0
176
     1
 64
     7
176
     1
 65
   257
176
     1
 75
     1
176
     1
175
     1
176
     1
 42
1.0
176
     1
 92
        8
176
     1
 66
     8
424
  7895160
176
     1
 43
1.0
176
     1
 76
     1
176
     1
 77
     6
176
     1
 78
     2
176
     1
 67
     7
176
     1
 79
     5
176
     1
170
     0
176
     1
171
     0
176
     1
290
     0
176
     1
 93
       13
176
     1
 44
0.0
176
     1
173
     0
176
     1
  0
VISUALSTYLE
  5
37
102
{ACAD_REACTORS
330
2A
102
}
330
2A
100
AcDbVisualStyle
  2
Thicken
 70
    13
177
     2
291
     1
 71
     2
176
     1
 72
     2
176
     1
 73
     0
176
     1
 90
        0
176
     1
 40
-0.6
176
     1
 41
-30.0
176
     1
 62
     5
 63
     7
421
 16777215
176
     1
 74
     1
176
     1
 91
        4
176
     1
 64
     7
176
     1
 65
   257
176
     1
 75
     1
176
     1
175
     1
176
     1
 42
1.0
176
     1
 92
       12
176
     1
 66
     7
176
     1
 43
1.0
176
     1
 76
     1
176
     1
 77
     6
176
     1
 78
     2
176
     1
 67
     7
176
     1
 79
     5
176
     1
170
     0
176
     1
171
     0
176
     1
290
     0
176
     1
 93
        1
176
     1
 44
0.0
176
     1
173
     0
176
     1
  0
ENDSEC
  0
EOF
