  0
SECTION
  2
HEADER
  9
$ACADVER
  1
AC1024
  9
$ACADMAINTVER
 70
     6
  9
$DWGCODEPAGE
  3
UNDEFINED
  9
$INSBASE
 10
0.0
 20
0.0
 30
0.0
  9
$EXTMIN
 10
1.000000000000000E+20
 20
1.000000000000000E+20
 30
1.000000000000000E+20
  9
$EXTMAX
 10
-1.000000000000000E+20
 20
-1.000000000000000E+20
 30
-1.000000000000000E+20
  9
$LIMMIN
 10
0.0
 20
0.0
  9
$LIMMAX
 10
12.0
 20
9.0
  9
$ORTHOMODE
 70
     0
  9
$REGENMODE
 70
     1
  9
$FILLMODE
 70
     1
  9
$QTEXTMODE
 70
     0
  9
$MIRRTEXT
 70
     1
  9
$LTSCALE
 40
1.0
  9
$ATTMODE
 70
     1
  9
$TEXTSIZE
 40
0.2
  9
$TRACEWID
 40
0.05
  9
$TEXTSTYLE
  7
Standard
  9
$CLAYER
  8
0
  9
$CELTYPE
  6
ByLayer
  9
$CECOLOR
 62
   256
  9
$CELTSCALE
 40
1.0
  9
$DISPSILH
 70
     0
  9
$DIMSCALE
 40
1.0
  9
$DIMASZ
 40
0.18
  9
$DIMEXO
 40
0.0625
  9
$DIMDLI
 40
0.38
  9
$DIMRND
 40
0.0
  9
$DIMDLE
 40
0.0
  9
$DIMEXE
 40
0.18
  9
$DIMTP
 40
0.0
  9
$DIMTM
 40
0.0
  9
$DIMTXT
 40
0.18
  9
$DIMCEN
 40
0.09
  9
$DIMTSZ
 40
0.0
  9
$DIMTOL
 70
     0
  9
$DIMLIM
 70
     0
  9
$DIMTIH
 70
     1
  9
$DIMTOH
 70
     1
  9
$DIMSE1
 70
     0
  9
$DIMSE2
 70
     0
  9
$DIMTAD
 70
     0
  9
$DIMZIN
 70
     0
  9
$DIMBLK
  1

  9
$DIMASO
 70
     1
  9
$DIMSHO
 70
     1
  9
$DIMPOST
  1

  9
$DIMAPOST
  1

  9
$DIMALT
 70
     0
  9
$DIMALTD
 70
     2
  9
$DIMALTF
 40
25.4
  9
$DIMLFAC
 40
1.0
  9
$DIMTOFL
 70
     0
  9
$DIMTVP
 40
0.0
  9
$DIMTIX
 70
     0
  9
$DIMSOXD
 70
     0
  9
$DIMSAH
 70
     0
  9
$DIMBLK1
  1

  9
$DIMBLK2
  1

  9
$DIMSTYLE
  2
Standard
  9
$DIMCLRD
 70
     0
  9
$DIMCLRE
 70
     0
  9
$DIMCLRT
 70
     0
  9
$DIMTFAC
 40
1.0
  9
$DIMGAP
 40
0.09
  9
$DIMJUST
 70
     0
  9
$DIMSD1
 70
     0
  9
$DIMSD2
 70
     0
  9
$DIMTOLJ
 70
     1
  9
$DIMTZIN
 70
     0
  9
$DIMALTZ
 70
     0
  9
$DIMALTTZ
 70
     0
  9
$DIMUPT
 70
     0
  9
$DIMDEC
 70
     4
  9
$DIMTDEC
 70
     4
  9
$DIMALTU
 70
     2
  9
$DIMALTTD
 70
     2
  9
$DIMTXSTY
  7
Standard
  9
$DIMAUNIT
 70
     0
  9
$DIMADEC
 70
     0
  9
$DIMALTRND
 40
0.0
  9
$DIMAZIN
 70
     0
  9
$DIMDSEP
 70
    46
  9
$DIMATFIT
 70
     3
  9
$DIMFRAC
 70
     0
  9
$DIMLDRBLK
  1

  9
$DIMLUNIT
 70
     2
  9
$DIMLWD
 70
    -2
  9
$DIMLWE
 70
    -2
  9
$DIMTMOVE
 70
     0
  9
$DIMFXL
 40
1.0
  9
$DIMFXLON
 70
     0
  9
$DIMJOGANG
 40
0.7853981633974483
  9
$DIMTFILL
 70
     0
  9
$DIMTFILLCLR
 70
     0
  9
$DIMARCSYM
 70
     0
  9
$DIMLTYPE
  6

  9
$DIMLTEX1
  6

  9
$DIMLTEX2
  6

  9
$DIMTXTDIRECTION
 70
     0
  9
$LUNITS
 70
     2
  9
$LUPREC
 70
     4
  9
$SKETCHINC
 40
0.1
  9
$FILLETRAD
 40
0.5
  9
$AUNITS
 70
     0
  9
$AUPREC
 70
     0
  9
$MENU
  1
.
  9
$ELEVATION
 40
0.0
  9
$PELEVATION
 40
0.0
  9
$THICKNESS
 40
0.0
  9
$LIMCHECK
 70
     0
  9
$CHAMFERA
 40
0.5
  9
$CHAMFERB
 40
0.5
  9
$CHAMFERC
 40
1.0
  9
$CHAMFERD
 40
0.0
  9
$SKPOLY
 70
     0
  9
$TDCREATE
 40
2457917.588761574
  9
$TDUCREATE
 40
2457917.213761574
  9
$TDUPDATE
 40
2457917.588761574
  9
$TDUUPDATE
 40
2457917.213761574
  9
$TDINDWG
 40
0.0000000116
  9
$TDUSRTIMER
 40
0.0000000116
  9
$USRTIMER
 70
     1
  9
$ANGBASE
 50
0.0
  9
$ANGDIR
 70
     0
  9
$PDMODE
 70
     0
  9
$PDSIZE
 40
0.0
  9
$PLINEWID
 40
0.0
  9
$SPLFRAME
 70
     0
  9
$SPLINETYPE
 70
     6
  9
$SPLINESEGS
 70
     8
  9
$HANDSEED
  5
146
  9
$SURFTAB1
 70
     6
  9
$SURFTAB2
 70
     6
  9
$SURFTYPE
 70
     6
  9
$SURFU
 70
     6
  9
$SURFV
 70
     6
  9
$UCSBASE
  2

  9
$UCSNAME
  2

  9
$UCSORG
 10
0.0
 20
0.0
 30
0.0
  9
$UCSXDIR
 10
1.0
 20
0.0
 30
0.0
  9
$UCSYDIR
 10
0.0
 20
1.0
 30
0.0
  9
$UCSORTHOREF
  2

  9
$UCSORTHOVIEW
 70
     0
  9
$UCSORGTOP
 10
0.0
 20
0.0
 30
0.0
  9
$UCSORGBOTTOM
 10
0.0
 20
0.0
 30
0.0
  9
$UCSORGLEFT
 10
0.0
 20
0.0
 30
0.0
  9
$UCSORGRIGHT
 10
0.0
 20
0.0
 30
0.0
  9
$UCSORGFRONT
 10
0.0
 20
0.0
 30
0.0
  9
$UCSORGBACK
 10
0.0
 20
0.0
 30
0.0
  9
$PUCSBASE
  2

  9
$PUCSNAME
  2

  9
$PUCSORG
 10
0.0
 20
0.0
 30
0.0
  9
$PUCSXDIR
 10
1.0
 20
0.0
 30
0.0
  9
$PUCSYDIR
 10
0.0
 20
1.0
 30
0.0
  9
$PUCSORTHOREF
  2

  9
$PUCSORTHOVIEW
 70
     0
  9
$PUCSORGTOP
 10
0.0
 20
0.0
 30
0.0
  9
$PUCSORGBOTTOM
 10
0.0
 20
0.0
 30
0.0
  9
$PUCSORGLEFT
 10
0.0
 20
0.0
 30
0.0
  9
$PUCSORGRIGHT
 10
0.0
 20
0.0
 30
0.0
  9
$PUCSORGFRONT
 10
0.0
 20
0.0
 30
0.0
  9
$PUCSORGBACK
 10
0.0
 20
0.0
 30
0.0
  9
$USERI1
 70
     0
  9
$USERI2
 70
     0
  9
$USERI3
 70
     0
  9
$USERI4
 70
     0
  9
$USERI5
 70
     0
  9
$USERR1
 40
0.0
  9
$USERR2
 40
0.0
  9
$USERR3
 40
0.0
  9
$USERR4
 40
0.0
  9
$USERR5
 40
0.0
  9
$WORLDVIEW
 70
     1
  9
$SHADEDGE
 70
     3
  9
$SHADEDIF
 70
    70
  9
$TILEMODE
 70
     1
  9
$MAXACTVP
 70
    64
  9
$PINSBASE
 10
0.0
 20
0.0
 30
0.0
  9
$PLIMCHECK
 70
     0
  9
$PEXTMIN
 10
1.000000000000000E+20
 20
1.000000000000000E+20
 30
1.000000000000000E+20
  9
$PEXTMAX
 10
-1.000000000000000E+20
 20
-1.000000000000000E+20
 30
-1.000000000000000E+20
  9
$PLIMMIN
 10
0.0
 20
0.0
  9
$PLIMMAX
 10
12.0
 20
9.0
  9
$UNITMODE
 70
     0
  9
$VISRETAIN
 70
     1
  9
$PLINEGEN
 70
     0
  9
$PSLTSCALE
 70
     1
  9
$TREEDEPTH
 70
  3020
  9
$CMLSTYLE
  2
Standard
  9
$CMLJUST
 70
     0
  9
$CMLSCALE
 40
1.0
  9
$PROXYGRAPHICS
 70
     1
  9
$MEASUREMENT
 70
     0
  9
$CELWEIGHT
370
    -1
  9
$ENDCAPS
280
     0
  9
$JOINSTYLE
280
     0
  9
$LWDISPLAY
290
     1
  9
$INSUNITS
 70
     1
  9
$HYPERLINKBASE
  1

  9
$STYLESHEET
  1

  9
$XEDIT
290
     1
  9
$CEPSNTYPE
380
     0
  9
$PSTYLEMODE
290
     1
  9
$FINGERPRINTGUID
  2
{E2188A45-6A91-8CCA-3786-9DE4B11F6FA8}
  9
$VERSIONGUID
  2
{FAEB1C32-E019-11D5-929B-00C0DF256EC4}
  9
$EXTNAMES
290
     1
  9
$PSVPSCALE
 40
0.0
  9
$OLESTARTUP
290
     0
  9
$SORTENTS
280
   127
  9
$INDEXCTL
280
     0
  9
$HIDETEXT
280
     1
  9
$XCLIPFRAME
280
     2
  9
$HALOGAP
280
     0
  9
$OBSCOLOR
 70
   257
  9
$OBSLTYPE
280
     0
  9
$INTERSECTIONDISPLAY
280
     0
  9
$INTERSECTIONCOLOR
 70
   257
  9
$DIMASSOC
280
     2
  9
$PROJECTNAME
  1

  9
$CAMERADISPLAY
290
     0
  9
$LENSLENGTH
 40
50.0
  9
$CAMERAHEIGHT
 40
0.0
  9
$STEPSPERSEC
 40
2.0
  9
$STEPSIZE
 40
6.0
  9
$3DDWFPREC
 40
2.0
  9
$PSOLWIDTH
 40
0.25
  9
$PSOLHEIGHT
 40
4.0
  9
$LOFTANG1
 40
1.570796326794897
  9
$LOFTANG2
 40
1.570796326794897
  9
$LOFTMAG1
 40
0.0
  9
$LOFTMAG2
 40
0.0
  9
$LOFTPARAM
 70
     7
  9
$LOFTNORMALS
280
     1
  9
$LATITUDE
 40
37.795
  9
$LONGITUDE
 40
-122.394
  9
$NORTHDIRECTION
 40
0.0
  9
$TIMEZONE
 70
 -8000
  9
$LIGHTGLYPHDISPLAY
280
     1
  9
$TILEMODELIGHTSYNCH
280
     1
  9
$CMATERIAL
347
3C
  9
$SOLIDHIST
280
     1
  9
$SHOWHIST
280
     1
  9
$DWFFRAME
280
     2
  9
$DGNFRAME
280
     2
  9
$REALWORLDSCALE
290
     1
  9
$INTERFERECOLOR
 62
   256
  9
$CSHADOW
280
     0
  9
$SHADOWPLANELOCATION
 40
0.0
  0
ENDSEC
  0
SECTION
  2
CLASSES
  0
CLASS
  1
ACDBDICTIONARYWDFLT
  2
AcDbDictionaryWithDefault
  3
ObjectDBX Classes
 90
        0
 91
        4
280
     0
281
     0
  0
CLASS
  1
VISUALSTYLE
  2
AcDbVisualStyle
  3
ObjectDBX Classes
 90
     4095
 91
        4
280
     0
281
     0
  0
CLASS
  1
MATERIAL
  2
AcDbMaterial
  3
ObjectDBX Classes
 90
     1153
 91
        4
280
     0
281
     0
  0
CLASS
  1
SUN
  2
AcDbSun
  3
SCENEOE
 90
     1024
 91
        4
280
     0
281
     0
  0
ENDSEC
  0
SECTION
  2
TABLES
  0
TABLE
  2
VPORT
  5
8
330
0
100
AcDbSymbolTable
 70
     1
  0
VPORT
  5
29
330
8
100
AcDbSymbolTableRecord
100
AcDbViewportTableRecord
  2
*Active
 70
     0
 10
0.0
 20
0.0
 11
1.0
 21
1.0
 12
0.0
 22
0.0
 13
0.0
 23
0.0
 14
0.5
 24
0.5
 15
0.5
 25
0.5
 16
0.0
 26
0.0
 36
1.0
 17
63.499999984125
 27
-89.00059456108309
 37
0.0
 40
178.0011891221662
 41
0.7134783795241226
 42
50.0
 43
0.0
 44
0.0
 50
0.0
 51
0.0
 71
     0
 72
   100
 73
     1
 74
     3
 75
     0
 76
     0
 77
     0
 78
     0
281
     0
 65
     1
110
0.0
120
0.0
130
0.0
111
1.0
121
0.0
131
0.0
112
0.0
122
1.0
132
0.0
 79
     0
146
0.0
 60
     3
 61
     5
292
     1
282
     1
141
0.0
142
0.0
 63
   250
361
3F
  0
ENDTAB
  0
TABLE
  2
LTYPE
  5
5
330
0
100
AcDbSymbolTable
 70
     1
  0
LTYPE
  5
14
330
5
100
AcDbSymbolTableRecord
100
AcDbLinetypeTableRecord
  2
ByBlock
 70
     0
  3

 72
    65
 73
     0
 40
0.0
  0
LTYPE
  5
15
330
5
100
AcDbSymbolTableRecord
100
AcDbLinetypeTableRecord
  2
ByLayer
 70
     0
  3

 72
    65
 73
     0
 40
0.0
  0
LTYPE
  5
16
330
5
100
AcDbSymbolTableRecord
100
AcDbLinetypeTableRecord
  2
Continuous
 70
     0
  3
Solid line
 72
    65
 73
     0
 40
0.0
  0
ENDTAB
  0
TABLE
  2
LAYER
  5
2
330
0
100
AcDbSymbolTable
 70
     2
  0
LAYER
  5
10
330
2
100
AcDbSymbolTableRecord
100
AcDbLayerTableRecord
  2
0
 70
     0
 62
     7
  6
Continuous
370
    -3
390
F
347
3E
  0
LAYER
  5
40
330
2
100
AcDbSymbolTableRecord
100
AcDbLayerTableRecord
  2
_U+30EC_U+30A4_U+30E4_U+30FC 1
 70
     0
 62
     7
  6
Continuous
370
    -3
390
F
347
3E
  0
ENDTAB
  0
TABLE
  2
STYLE
  5
3
330
0
100
AcDbSymbolTable
 70
     1
  0
STYLE
  5
11
330
3
100
AcDbSymbolTableRecord
100
AcDbTextStyleTableRecord
  2
Standard
 70
     0
 40
0.0
 41
1.0
 50
0.0
 71
     0
 42
0.2
  3
txt
  4

  0
ENDTAB
  0
TABLE
  2
VIEW
  5
6
330
0
100
AcDbSymbolTable
 70
     0
  0
ENDTAB
  0
TABLE
  2
UCS
  5
7
330
0
100
AcDbSymbolTable
 70
     0
  0
ENDTAB
  0
TABLE
  2
APPID
  5
9
330
0
100
AcDbSymbolTable
 70
     1
  0
APPID
  5
12
330
9
100
AcDbSymbolTableRecord
100
AcDbRegAppTableRecord
  2
ACAD
 70
     0
  0
ENDTAB
  0
TABLE
  2
DIMSTYLE
  5
A
330
0
100
AcDbSymbolTable
 70
     1
100
AcDbDimStyleTable
  0
DIMSTYLE
105
27
330
A
100
AcDbSymbolTableRecord
100
AcDbDimStyleTableRecord
  2
Standard
 70
     0
178
     0
340
11
  0
ENDTAB
  0
TABLE
  2
BLOCK_RECORD
  5
1
330
0
100
AcDbSymbolTable
 70
     6
  0
BLOCK_RECORD
  5
1F
330
1
100
AcDbSymbolTableRecord
100
AcDbBlockTableRecord
  2
*Model_Space
340
22
 70
     0
280
     1
281
     0
  0
BLOCK_RECORD
  5
1B
330
1
100
AcDbSymbolTableRecord
100
AcDbBlockTableRecord
  2
*Paper_Space
340
1E
 70
     0
280
     1
281
     0
  0
BLOCK_RECORD
  5
23
330
1
100
AcDbSymbolTableRecord
100
AcDbBlockTableRecord
  2
*Paper_Space0
340
26
 70
     0
280
     1
281
     0
  0
BLOCK_RECORD
  5
89
330
1
100
AcDbSymbolTableRecord
100
AcDbBlockTableRecord
  2
block 2
340
0
102
{BLKREFS
331
8A
102
}
 70
     0
280
     1
281
     0
  0
BLOCK_RECORD
  5
9B
330
1
100
AcDbSymbolTableRecord
100
AcDbBlockTableRecord
  2
block 3
340
0
102
{BLKREFS
331
9C
102
}
 70
     0
280
     1
281
     0
  0
BLOCK_RECORD
  5
B4
330
1
100
AcDbSymbolTableRecord
100
AcDbBlockTableRecord
  2
block 4
340
0
102
{BLKREFS
331
B5
102
}
 70
     0
280
     1
281
     0
  0
BLOCK_RECORD
  5
103
330
1
100
AcDbSymbolTableRecord
100
AcDbBlockTableRecord
  2
block 5
340
0
102
{BLKREFS
331
104
102
}
 70
     0
280
     1
281
     0
  0
BLOCK_RECORD
  5
126
330
1
100
AcDbSymbolTableRecord
100
AcDbBlockTableRecord
  2
block 6
340
0
102
{BLKREFS
331
127
102
}
 70
     0
280
     1
281
     0
  0
ENDTAB
  0
ENDSEC
  0
SECTION
  2
BLOCKS
  0
BLOCK
  5
20
330
1F
100
AcDbEntity
  8
0
100
AcDbBlockBegin
  2
*Model_Space
 70
     0
 10
0.0
 20
0.0
 30
0.0
  3
*Model_Space
  1

  0
ENDBLK
  5
21
330
1F
100
AcDbEntity
  8
0
100
AcDbBlockEnd
  0
BLOCK
  5
1C
330
1B
100
AcDbEntity
 67
     1
  8
0
100
AcDbBlockBegin
  2
*Paper_Space
 70
     0
 10
0.0
 20
0.0
 30
0.0
  3
*Paper_Space
  1

  0
ENDBLK
  5
1D
330
1B
100
AcDbEntity
 67
     1
  8
0
100
AcDbBlockEnd
  0
BLOCK
  5
24
330
23
100
AcDbEntity
  8
0
100
AcDbBlockBegin
  2
*Paper_Space0
 70
     0
 10
0.0
 20
0.0
 30
0.0
  3
*Paper_Space0
  1

  0
ENDBLK
  5
25
330
23
100
AcDbEntity
  8
0
100
AcDbBlockEnd
  0
BLOCK
  5
8B
330
89
100
AcDbEntity
  8
0
100
AcDbBlockBegin
  2
block 2
 70
     0
 10
0.0
 20
0.0
 30
0.0
  3
block 2
  1

  0
SPLINE
  5
8D
330
89
100
AcDbEntity
  8
_U+30EC_U+30A4_U+30E4_U+30FC 1
370
     0
100
AcDbSpline
210
0.0
220
0.0
230
1.0
 70
    11
 71
     3
 72
    62
 73
    58
 74
     0
 42
0.0000000001
 43
0.0000000001
 12
1.0
 22
0.0
 32
0.0
 13
1.0
 23
0.0
 33
0.0
 40
0.0
 40
0.0
 40
0.0
 40
0.0
 40
1.0
 40
1.0
 40
1.0
 40
2.0
 40
2.0
 40
2.0
 40
3.0
 40
3.0
 40
3.0
 40
4.0
 40
4.0
 40
4.0
 40
5.0
 40
5.0
 40
5.0
 40
6.0
 40
6.0
 40
6.0
 40
7.0
 40
7.0
 40
7.0
 40
8.0
 40
8.0
 40
8.0
 40
9.0
 40
9.0
 40
9.0
 40
10.0
 40
10.0
 40
10.0
 40
11.0
 40
11.0
 40
11.0
 40
12.0
 40
12.0
 40
12.0
 40
13.0
 40
13.0
 40
13.0
 40
14.0
 40
14.0
 40
14.0
 40
15.0
 40
15.0
 40
15.0
 40
16.0
 40
16.0
 40
16.0
 40
17.0
 40
17.0
 40
17.0
 40
18.0
 40
18.0
 40
18.0
 40
19.0
 40
19.0
 40
19.0
 40
19.0
 10
39.22964680008842
 20
-93.38551429957029
 30
0.0
 10
39.22964680008842
 20
-93.48714461638517
 30
0.0
 10
39.2086317176284
 20
-93.72003307118806
 30
0.0
 10
39.0225965614249
 20
-93.85335826646723
 30
0.0
 10
38.91028644860577
 20
-93.93259546262797
 30
0.0
 10
38.81106769863057
 20
-93.9370740867588
 30
0.0
 10
38.72631834969342
 20
-93.94155271088961
 30
0.0
 10
38.72631834969342
 20
-93.94155271088961
 30
0.0
 10
38.72631834969342
 20
-93.70659719879558
 30
0.0
 10
38.72631834969342
 20
-93.70659719879558
 30
0.0
 10
38.80038790262629
 20
-93.70418563195591
 30
0.0
 10
39.03499890517181
 20
-93.69281681685457
 30
0.0
 10
39.03499890517181
 20
-93.38999292370112
 30
0.0
 10
39.03499890517181
 20
-93.24288734648096
 30
0.0
 10
38.96540797636976
 20
-93.08027883957716
 30
0.0
 10
38.7369981456977
 20
-93.08027883957716
 30
0.0
 10
38.62055391829625
 20
-93.08027883957716
 30
0.0
 10
38.57197807195423
 20
-93.1209309663031
 30
0.0
 10
38.54028319348993
 20
-93.15469290205856
 30
0.0
 10
38.46621364055706
 20
-93.2339300982193
 30
0.0
 10
38.45346678726163
 20
-93.35829804523682
 30
0.0
 10
38.45346678726163
 20
-93.4172091780346
 30
0.0
 10
38.45346678726163
 20
-93.43753524139757
 30
0.0
 10
38.45553384455278
 20
-93.47577580128385
 30
0.0
 10
38.45966795913508
 20
-93.50540362245698
 30
0.0
 10
38.45966795913508
 20
-93.50540362245698
 30
0.0
 10
38.26502006421847
 20
-93.50540362245698
 30
0.0
 10
38.26502006421847
 20
-93.50540362245698
 30
0.0
 10
38.27156574564044
 20
-93.46475149573104
 30
0.0
 10
38.27363280293159
 20
-93.41927623532574
 30
0.0
 10
38.27363280293159
 20
-93.41273055390377
 30
0.0
 10
38.27363280293159
 20
-93.34245060600468
 30
0.0
 10
38.25227321092304
 20
-93.12988821456476
 30
0.0
 10
38.01559515108638
 20
-93.12988821456476
 30
0.0
 10
37.83782822404749
 20
-93.12988821456476
 30
0.0
 10
37.78270669628349
 20
-93.27010360081442
 30
0.0
 10
37.78270669628349
 20
-93.38758135686145
 30
0.0
 10
37.78270669628349
 20
-93.67042369620046
 30
0.0
 10
38.01559515108638
 20
-93.67938094446211
 30
0.0
 10
38.08725313717958
 20
-93.68385956859292
 30
0.0
 10
38.08725313717958
 20
-93.68385956859292
 30
0.0
 10
38.08725313717958
 20
-93.90090058416367
 30
0.0
 10
38.08725313717958
 20
-93.90090058416367
 30
0.0
 10
37.96254068061354
 20
-93.89194333590201
 30
0.0
 10
37.58599174407573
 20
-93.86266002427739
 30
0.0
 10
37.58599174407573
 20
-93.37414548446897
 30
0.0
 10
37.58599174407573
 20
-93.13436683869558
 30
0.0
 10
37.71311576748145
 20
-92.8766736963989
 30
0.0
 10
38.0090494696644
 20
-92.8766736963989
 30
0.0
 10
38.19542913541643
 20
-92.8766736963989
 30
0.0
 10
38.27776691751389
 20
-92.97864852276228
 30
0.0
 10
38.33908961715134
 20
-93.08475746370799
 30
0.0
 10
38.36665038103334
 20
-93.01930064948823
 30
0.0
 10
38.44692110583966
 20
-92.82465275457162
 30
0.0
 10
38.72425129240227
 20
-92.82465275457162
 30
0.0
 10
39.0625596690538
 20
-92.82465275457162
 30
0.0
 10
39.22964680008842
 20
-93.08923608783881
 30
0.0
 10
39.22964680008842
 20
-93.38551429957029
 30
0.0
  0
HATCH
  5
8E
330
89
100
AcDbEntity
  8
_U+30EC_U+30A4_U+30E4_U+30FC 1
 62
   179
420
  2234388
100
AcDbHatch
 10
0.0
 20
0.0
 30
0.0
210
0.0
220
0.0
230
1.0
  2
SOLID
 70
     1
 71
     0
 91
        1
 92
        1
 93
        1
 72
     4
 94
        3
 73
     0
 74
     1
 95
       62
 96
       58
 40
0.0
 40
0.0
 40
0.0
 40
0.0
 40
1.0
 40
1.0
 40
1.0
 40
2.0
 40
2.0
 40
2.0
 40
3.0
 40
3.0
 40
3.0
 40
4.0
 40
4.0
 40
4.0
 40
5.0
 40
5.0
 40
5.0
 40
6.0
 40
6.0
 40
6.0
 40
7.0
 40
7.0
 40
7.0
 40
8.0
 40
8.0
 40
8.0
 40
9.0
 40
9.0
 40
9.0
 40
10.0
 40
10.0
 40
10.0
 40
11.0
 40
11.0
 40
11.0
 40
12.0
 40
12.0
 40
12.0
 40
13.0
 40
13.0
 40
13.0
 40
14.0
 40
14.0
 40
14.0
 40
15.0
 40
15.0
 40
15.0
 40
16.0
 40
16.0
 40
16.0
 40
17.0
 40
17.0
 40
17.0
 40
18.0
 40
18.0
 40
18.0
 40
19.0
 40
19.0
 40
19.0
 40
19.0
 10
39.22964680008842
 20
-93.38551429957029
 10
39.22964680008842
 20
-93.48714461638517
 10
39.2086317176284
 20
-93.72003307118806
 10
39.0225965614249
 20
-93.85335826646723
 10
38.91028644860577
 20
-93.93259546262797
 10
38.81106769863057
 20
-93.9370740867588
 10
38.72631834969342
 20
-93.94155271088961
 10
38.72631834969342
 20
-93.94155271088961
 10
38.72631834969342
 20
-93.70659719879558
 10
38.72631834969342
 20
-93.70659719879558
 10
38.80038790262629
 20
-93.70418563195591
 10
39.03499890517181
 20
-93.69281681685457
 10
39.03499890517181
 20
-93.38999292370112
 10
39.03499890517181
 20
-93.24288734648096
 10
38.96540797636976
 20
-93.08027883957716
 10
38.7369981456977
 20
-93.08027883957716
 10
38.62055391829625
 20
-93.08027883957716
 10
38.57197807195423
 20
-93.1209309663031
 10
38.54028319348993
 20
-93.15469290205856
 10
38.46621364055706
 20
-93.2339300982193
 10
38.45346678726163
 20
-93.35829804523682
 10
38.45346678726163
 20
-93.4172091780346
 10
38.45346678726163
 20
-93.43753524139757
 10
38.45553384455278
 20
-93.47577580128385
 10
38.45966795913508
 20
-93.50540362245698
 10
38.45966795913508
 20
-93.50540362245698
 10
38.26502006421847
 20
-93.50540362245698
 10
38.26502006421847
 20
-93.50540362245698
 10
38.27156574564044
 20
-93.46475149573104
 10
38.27363280293159
 20
-93.41927623532574
 10
38.27363280293159
 20
-93.41273055390377
 10
38.27363280293159
 20
-93.34245060600468
 10
38.25227321092304
 20
-93.12988821456476
 10
38.01559515108638
 20
-93.12988821456476
 10
37.83782822404749
 20
-93.12988821456476
 10
37.78270669628349
 20
-93.27010360081442
 10
37.78270669628349
 20
-93.38758135686145
 10
37.78270669628349
 20
-93.67042369620046
 10
38.01559515108638
 20
-93.67938094446211
 10
38.08725313717958
 20
-93.68385956859292
 10
38.08725313717958
 20
-93.68385956859292
 10
38.08725313717958
 20
-93.90090058416367
 10
38.08725313717958
 20
-93.90090058416367
 10
37.96254068061354
 20
-93.89194333590201
 10
37.58599174407573
 20
-93.86266002427739
 10
37.58599174407573
 20
-93.37414548446897
 10
37.58599174407573
 20
-93.13436683869558
 10
37.71311576748145
 20
-92.8766736963989
 10
38.0090494696644
 20
-92.8766736963989
 10
38.19542913541643
 20
-92.8766736963989
 10
38.27776691751389
 20
-92.97864852276228
 10
38.33908961715134
 20
-93.08475746370799
 10
38.36665038103334
 20
-93.01930064948823
 10
38.44692110583966
 20
-92.82465275457162
 10
38.72425129240227
 20
-92.82465275457162
 10
39.0625596690538
 20
-92.82465275457162
 10
39.22964680008842
 20
-93.08923608783881
 10
39.22964680008842
 20
-93.38551429957029
 97
        0
 97
        0
 75
     2
 76
     1
 98
        0
  0
ENDBLK
  5
8C
330
89
100
AcDbEntity
  8
0
100
AcDbBlockEnd
  0
BLOCK
  5
9D
330
9B
100
AcDbEntity
  8
0
100
AcDbBlockBegin
  2
block 3
 70
     0
 10
0.0
 20
0.0
 30
0.0
  3
block 3
  1

  0
SPLINE
  5
9F
330
9B
100
AcDbEntity
  8
_U+30EC_U+30A4_U+30E4_U+30FC 1
370
     0
100
AcDbSpline
210
0.0
220
0.0
230
1.0
 70
    11
 71
     3
 72
    26
 73
    22
 74
     0
 42
0.0000000001
 43
0.0000000001
 12
1.0
 22
0.0
 32
0.0
 13
1.0
 23
0.0
 33
0.0
 40
0.0
 40
0.0
 40
0.0
 40
0.0
 40
1.0
 40
1.0
 40
1.0
 40
2.0
 40
2.0
 40
2.0
 40
3.0
 40
3.0
 40
3.0
 40
4.0
 40
4.0
 40
4.0
 40
5.0
 40
5.0
 40
5.0
 40
6.0
 40
6.0
 40
6.0
 40
7.0
 40
7.0
 40
7.0
 40
7.0
 10
48.09542777660462
 20
-97.5251410346465
 30
0.0
 10
48.09542777660462
 20
-97.5251410346465
 30
0.0
 10
48.09542777660462
 20
-96.42098793162393
 30
0.0
 10
48.09542777660462
 20
-96.42098793162393
 30
0.0
 10
48.09542777660462
 20
-96.42098793162393
 30
0.0
 10
47.74264999891503
 20
-96.42098793162393
 30
0.0
 10
47.74264999891503
 20
-96.42098793162393
 30
0.0
 10
47.74264999891503
 20
-96.42098793162393
 30
0.0
 10
47.74264999891503
 20
-96.27284882575817
 30
0.0
 10
47.74264999891503
 20
-96.27284882575817
 30
0.0
 10
48.09766708867003
 20
-96.2580349151716
 30
0.0
 10
48.14744871843189
 20
-96.09508189871929
 30
0.0
 10
48.17897134212193
 20
-95.980704728609
 30
0.0
 10
48.17897134212193
 20
-95.980704728609
 30
0.0
 10
48.33503416760374
 20
-95.980704728609
 30
0.0
 10
48.33503416760374
 20
-95.980704728609
 30
0.0
 10
48.33503416760374
 20
-95.980704728609
 30
0.0
 10
48.33503416760374
 20
-97.5251410346465
 30
0.0
 10
48.33503416760374
 20
-97.5251410346465
 30
0.0
 10
48.33503416760374
 20
-97.5251410346465
 30
0.0
 10
48.09542777660462
 20
-97.5251410346465
 30
0.0
 10
48.09542777660462
 20
-97.5251410346465
 30
0.0
  0
HATCH
  5
A0
330
9B
100
AcDbEntity
  8
_U+30EC_U+30A4_U+30E4_U+30FC 1
 62
   179
420
  2234388
100
AcDbHatch
 10
0.0
 20
0.0
 30
0.0
210
0.0
220
0.0
230
1.0
  2
SOLID
 70
     1
 71
     0
 91
        1
 92
        1
 93
        1
 72
     4
 94
        3
 73
     0
 74
     1
 95
       26
 96
       22
 40
0.0
 40
0.0
 40
0.0
 40
0.0
 40
1.0
 40
1.0
 40
1.0
 40
2.0
 40
2.0
 40
2.0
 40
3.0
 40
3.0
 40
3.0
 40
4.0
 40
4.0
 40
4.0
 40
5.0
 40
5.0
 40
5.0
 40
6.0
 40
6.0
 40
6.0
 40
7.0
 40
7.0
 40
7.0
 40
7.0
 10
48.09542777660462
 20
-97.5251410346465
 10
48.09542777660462
 20
-97.5251410346465
 10
48.09542777660462
 20
-96.42098793162393
 10
48.09542777660462
 20
-96.42098793162393
 10
48.09542777660462
 20
-96.42098793162393
 10
47.74264999891503
 20
-96.42098793162393
 10
47.74264999891503
 20
-96.42098793162393
 10
47.74264999891503
 20
-96.42098793162393
 10
47.74264999891503
 20
-96.27284882575817
 10
47.74264999891503
 20
-96.27284882575817
 10
48.09766708867003
 20
-96.2580349151716
 10
48.14744871843189
 20
-96.09508189871929
 10
48.17897134212193
 20
-95.980704728609
 10
48.17897134212193
 20
-95.980704728609
 10
48.33503416760374
 20
-95.980704728609
 10
48.33503416760374
 20
-95.980704728609
 10
48.33503416760374
 20
-95.980704728609
 10
48.33503416760374
 20
-97.5251410346465
 10
48.33503416760374
 20
-97.5251410346465
 10
48.33503416760374
 20
-97.5251410346465
 10
48.09542777660462
 20
-97.5251410346465
 10
48.09542777660462
 20
-97.5251410346465
 97
        0
 97
        0
 75
     2
 76
     1
 98
        0
  0
SPLINE
  5
A1
330
9B
100
AcDbEntity
  8
_U+30EC_U+30A4_U+30E4_U+30FC 1
370
     0
100
AcDbSpline
210
0.0
220
0.0
230
1.0
 70
    11
 71
     3
 72
    29
 73
    25
 74
     0
 42
0.0000000001
 43
0.0000000001
 12
1.0
 22
0.0
 32
0.0
 13
1.0
 23
0.0
 33
0.0
 40
0.0
 40
0.0
 40
0.0
 40
0.0
 40
1.0
 40
1.0
 40
1.0
 40
2.0
 40
2.0
 40
2.0
 40
3.0
 40
3.0
 40
3.0
 40
4.0
 40
4.0
 40
4.0
 40
5.0
 40
5.0
 40
5.0
 40
6.0
 40
6.0
 40
6.0
 40
7.0
 40
7.0
 40
7.0
 40
8.0
 40
8.0
 40
8.0
 40
8.0
 10
49.83020560820217
 20
-97.3473741076076
 30
0.0
 10
49.71496716422057
 20
-97.5568359131108
 30
0.0
 10
49.52962102711412
 20
-97.57578393827967
 30
0.0
 10
49.40525308009661
 20
-97.57578393827967
 30
0.0
 10
49.23334281538264
 20
-97.57578393827967
 30
0.0
 10
49.08193086880591
 20
-97.5292751492288
 30
0.0
 10
48.98012829721677
 20
-97.3473741076076
 30
0.0
 10
48.869368477366
 20
-97.152726212691
 30
0.0
 10
48.84904241400302
 20
-96.9157036433058
 30
0.0
 10
48.84904241400302
 20
-96.75309513640201
 30
0.0
 10
48.84904241400302
 20
-96.60909014511857
 30
0.0
 10
48.86712916530058
 20
-96.3572536651468
 30
0.0
 10
48.98012829721677
 20
-96.15847165564789
 30
0.0
 10
49.09553899597265
 20
-95.95555553156667
 30
0.0
 10
49.26727700591235
 20
-95.93212888226697
 30
0.0
 10
49.40525308009661
 20
-95.93212888226697
 30
0.0
 10
49.5747517779709
 20
-95.93212888226697
 30
0.0
 10
49.7285752913873
 20
-95.9765706140267
 30
0.0
 10
49.83020560820217
 20
-96.15847165564789
 30
0.0
 10
49.93648680392213
 20
-96.35105249327336
 30
0.0
 10
49.96146374619019
 20
-96.57946232394542
 30
0.0
 10
49.96146374619019
 20
-96.75309513640201
 30
0.0
 10
49.96146374619019
 20
-96.92431638201893
 30
0.0
 10
49.93872611598754
 20
-97.15479326998214
 30
0.0
 10
49.83020560820217
 20
-97.3473741076076
 30
0.0
  0
SPLINE
  5
A2
330
9B
100
AcDbEntity
  8
_U+30EC_U+30A4_U+30E4_U+30FC 1
370
     0
100
AcDbSpline
210
0.0
220
0.0
230
1.0
 70
    11
 71
     3
 72
    17
 73
    13
 74
     0
 42
0.0000000001
 43
0.0000000001
 12
1.0
 22
0.0
 32
0.0
 13
1.0
 23
0.0
 33
0.0
 40
0.0
 40
0.0
 40
0.0
 40
0.0
 40
1.0
 40
1.0
 40
1.0
 40
2.0
 40
2.0
 40
2.0
 40
3.0
 40
3.0
 40
3.0
 40
4.0
 40
4.0
 40
4.0
 40
4.0
 10
49.40525308009661
 20
-96.12470971989244
 30
0.0
 10
49.138430434764
 20
-96.12470971989244
 30
0.0
 10
49.08864880500214
 20
-96.4082410783285
 30
0.0
 10
49.08864880500214
 20
-96.75309513640201
 30
0.0
 10
49.08864880500214
 20
-97.07245548788467
 30
0.0
 10
49.12706161966268
 20
-97.38113604336306
 30
0.0
 10
49.40525308009661
 20
-97.38113604336306
 30
0.0
 10
49.66966415858953
 20
-97.38113604336306
 30
0.0
 10
49.72168510041681
 20
-97.10001625176666
 30
0.0
 10
49.72168510041681
 20
-96.75309513640201
 30
0.0
 10
49.72168510041681
 20
-96.43339027537083
 30
0.0
 10
49.68103297369085
 20
-96.12470971989244
 30
0.0
 10
49.40525308009661
 20
-96.12470971989244
 30
0.0
  0
HATCH
  5
A3
330
9B
100
AcDbEntity
  8
_U+30EC_U+30A4_U+30E4_U+30FC 1
 62
   179
420
  2234388
100
AcDbHatch
 10
0.0
 20
0.0
 30
0.0
210
0.0
220
0.0
230
1.0
  2
SOLID
 70
     1
 71
     0
 91
        2
 92
        1
 93
        1
 72
     4
 94
        3
 73
     0
 74
     1
 95
       29
 96
       25
 40
0.0
 40
0.0
 40
0.0
 40
0.0
 40
1.0
 40
1.0
 40
1.0
 40
2.0
 40
2.0
 40
2.0
 40
3.0
 40
3.0
 40
3.0
 40
4.0
 40
4.0
 40
4.0
 40
5.0
 40
5.0
 40
5.0
 40
6.0
 40
6.0
 40
6.0
 40
7.0
 40
7.0
 40
7.0
 40
8.0
 40
8.0
 40
8.0
 40
8.0
 10
49.83020560820217
 20
-97.3473741076076
 10
49.71496716422057
 20
-97.5568359131108
 10
49.52962102711412
 20
-97.57578393827967
 10
49.40525308009661
 20
-97.57578393827967
 10
49.23334281538264
 20
-97.57578393827967
 10
49.08193086880591
 20
-97.5292751492288
 10
48.98012829721677
 20
-97.3473741076076
 10
48.869368477366
 20
-97.152726212691
 10
48.84904241400302
 20
-96.9157036433058
 10
48.84904241400302
 20
-96.75309513640201
 10
48.84904241400302
 20
-96.60909014511857
 10
48.86712916530058
 20
-96.3572536651468
 10
48.98012829721677
 20
-96.15847165564789
 10
49.09553899597265
 20
-95.95555553156667
 10
49.26727700591235
 20
-95.93212888226697
 10
49.40525308009661
 20
-95.93212888226697
 10
49.5747517779709
 20
-95.93212888226697
 10
49.7285752913873
 20
-95.9765706140267
 10
49.83020560820217
 20
-96.15847165564789
 10
49.93648680392213
 20
-96.35105249327336
 10
49.96146374619019
 20
-96.57946232394542
 10
49.96146374619019
 20
-96.75309513640201
 10
49.96146374619019
 20
-96.92431638201893
 10
49.93872611598754
 20
-97.15479326998214
 10
49.83020560820217
 20
-97.3473741076076
 97
        0
 97
        0
 92
        1
 93
        1
 72
     4
 94
        3
 73
     0
 74
     1
 95
       17
 96
       13
 40
0.0
 40
0.0
 40
0.0
 40
0.0
 40
1.0
 40
1.0
 40
1.0
 40
2.0
 40
2.0
 40
2.0
 40
3.0
 40
3.0
 40
3.0
 40
4.0
 40
4.0
 40
4.0
 40
4.0
 10
49.40525308009661
 20
-96.12470971989244
 10
49.138430434764
 20
-96.12470971989244
 10
49.08864880500214
 20
-96.4082410783285
 10
49.08864880500214
 20
-96.75309513640201
 10
49.08864880500214
 20
-97.07245548788467
 10
49.12706161966268
 20
-97.38113604336306
 10
49.40525308009661
 20
-97.38113604336306
 10
49.66966415858953
 20
-97.38113604336306
 10
49.72168510041681
 20
-97.10001625176666
 10
49.72168510041681
 20
-96.75309513640201
 10
49.72168510041681
 20
-96.43339027537083
 10
49.68103297369085
 20
-96.12470971989244
 10
49.40525308009661
 20
-96.12470971989244
 97
        0
 97
        0
 75
     2
 76
     1
 98
        0
  0
ENDBLK
  5
9E
330
9B
100
AcDbEntity
  8
0
100
AcDbBlockEnd
  0
BLOCK
  5
B6
330
B4
100
AcDbEntity
  8
0
100
AcDbBlockBegin
  2
block 4
 70
     0
 10
0.0
 20
0.0
 30
0.0
  3
block 4
  1

  0
SPLINE
  5
B8
330
B4
100
AcDbEntity
  8
_U+30EC_U+30A4_U+30E4_U+30FC 1
370
     0
100
AcDbSpline
210
0.0
220
0.0
230
1.0
 70
    11
 71
     3
 72
   176
 73
   172
 74
     0
 42
0.0000000001
 43
0.0000000001
 12
1.0
 22
0.0
 32
0.0
 13
1.0
 23
0.0
 33
0.0
 40
0.0
 40
0.0
 40
0.0
 40
0.0
 40
1.0
 40
1.0
 40
1.0
 40
2.0
 40
2.0
 40
2.0
 40
3.0
 40
3.0
 40
3.0
 40
4.0
 40
4.0
 40
4.0
 40
5.0
 40
5.0
 40
5.0
 40
6.0
 40
6.0
 40
6.0
 40
7.0
 40
7.0
 40
7.0
 40
8.0
 40
8.0
 40
8.0
 40
9.0
 40
9.0
 40
9.0
 40
10.0
 40
10.0
 40
10.0
 40
11.0
 40
11.0
 40
11.0
 40
12.0
 40
12.0
 40
12.0
 40
13.0
 40
13.0
 40
13.0
 40
14.0
 40
14.0
 40
14.0
 40
15.0
 40
15.0
 40
15.0
 40
16.0
 40
16.0
 40
16.0
 40
17.0
 40
17.0
 40
17.0
 40
18.0
 40
18.0
 40
18.0
 40
19.0
 40
19.0
 40
19.0
 40
20.0
 40
20.0
 40
20.0
 40
21.0
 40
21.0
 40
21.0
 40
22.0
 40
22.0
 40
22.0
 40
23.0
 40
23.0
 40
23.0
 40
24.0
 40
24.0
 40
24.0
 40
25.0
 40
25.0
 40
25.0
 40
26.0
 40
26.0
 40
26.0
 40
27.0
 40
27.0
 40
27.0
 40
28.0
 40
28.0
 40
28.0
 40
29.0
 40
29.0
 40
29.0
 40
30.0
 40
30.0
 40
30.0
 40
31.0
 40
31.0
 40
31.0
 40
32.0
 40
32.0
 40
32.0
 40
33.0
 40
33.0
 40
33.0
 40
34.0
 40
34.0
 40
34.0
 40
35.0
 40
35.0
 40
35.0
 40
36.0
 40
36.0
 40
36.0
 40
37.0
 40
37.0
 40
37.0
 40
38.0
 40
38.0
 40
38.0
 40
39.0
 40
39.0
 40
39.0
 40
40.0
 40
40.0
 40
40.0
 40
41.0
 40
41.0
 40
41.0
 40
42.0
 40
42.0
 40
42.0
 40
43.0
 40
43.0
 40
43.0
 40
44.0
 40
44.0
 40
44.0
 40
45.0
 40
45.0
 40
45.0
 40
46.0
 40
46.0
 40
46.0
 40
47.0
 40
47.0
 40
47.0
 40
48.0
 40
48.0
 40
48.0
 40
49.0
 40
49.0
 40
49.0
 40
50.0
 40
50.0
 40
50.0
 40
51.0
 40
51.0
 40
51.0
 40
52.0
 40
52.0
 40
52.0
 40
53.0
 40
53.0
 40
53.0
 40
54.0
 40
54.0
 40
54.0
 40
55.0
 40
55.0
 40
55.0
 40
56.0
 40
56.0
 40
56.0
 40
57.0
 40
57.0
 40
57.0
 40
57.0
 10
59.81374781490768
 20
-78.09376896919184
 30
0.0
 10
59.81374781490768
 20
-78.09376896919184
 30
0.0
 10
59.56949054500346
 20
-78.09376896919184
 30
0.0
 10
59.56949054500346
 20
-78.09376896919184
 30
0.0
 10
59.56949054500346
 20
-78.09376896919184
 30
0.0
 10
59.56949054500346
 20
-78.34250486322688
 30
0.0
 10
59.56949054500346
 20
-78.34250486322688
 30
0.0
 10
59.56949054500346
 20
-78.34250486322688
 30
0.0
 10
59.81374781490768
 20
-78.34250486322688
 30
0.0
 10
59.81374781490768
 20
-78.34250486322688
 30
0.0
 10
59.86266817079822
 20
-78.34250486322688
 30
0.0
 10
59.89195148242285
 20
-78.34474417529229
 30
0.0
 10
60.14861109607396
 20
-78.3378539843218
 30
0.0
 10
60.39286836597817
 20
-78.33113604812556
 30
0.0
 10
60.41974011076312
 20
-78.32424585715505
 30
0.0
 10
60.45660263245529
 20
-78.32424585715505
 30
0.0
 10
60.45660263245529
 20
-78.35835230245902
 30
0.0
 10
60.44902342238775
 20
-78.45205889965783
 30
0.0
 10
60.44902342238775
 20
-78.55248343305286
 30
0.0
 10
60.44902342238775
 20
-78.55248343305286
 30
0.0
 10
60.44902342238775
 20
-79.16416013645896
 30
0.0
 10
60.44902342238775
 20
-79.16416013645896
 30
0.0
 10
60.44902342238775
 20
-79.64578448529689
 30
0.0
 10
60.45143498922742
 20
-79.69814993667269
 30
0.0
 10
60.44420028870839
 20
-79.73466794881634
 30
0.0
 10
60.4221516776028
 20
-79.86937118228961
 30
0.0
 10
60.2829698199987
 20
-79.87384980642042
 30
0.0
 10
60.20235458564386
 20
-79.87384980642042
 30
0.0
 10
60.14619952923429
 20
-79.87384980642042
 30
0.0
 10
60.08005369591749
 20
-79.87161049435501
 30
0.0
 10
60.02148707266824
 20
-79.8671318702242
 30
0.0
 10
60.02148707266824
 20
-79.8671318702242
 30
0.0
 10
59.93846027147372
 20
-79.6320041033559
 30
0.0
 10
59.93846027147372
 20
-79.6320041033559
 30
0.0
 10
59.98979219420394
 20
-79.6411336063918
 30
0.0
 10
60.09969074018341
 20
-79.65939261246363
 30
0.0
 10
60.15825736343266
 20
-79.65939261246363
 30
0.0
 10
60.22440319674946
 20
-79.65939261246363
 30
0.0
 10
60.22440319674946
 20
-79.62752547922507
 30
0.0
 10
60.22440319674946
 20
-79.54294838506219
 30
0.0
 10
60.22440319674946
 20
-79.54294838506219
 30
0.0
 10
60.22440319674946
 20
-78.52733423601053
 30
0.0
 10
60.22440319674946
 20
-78.52733423601053
 30
0.0
 10
60.22440319674946
 20
-78.52733423601053
 30
0.0
 10
59.56949054500346
 20
-78.52733423601053
 30
0.0
 10
59.56949054500346
 20
-78.52733423601053
 30
0.0
 10
59.56949054500346
 20
-78.52733423601053
 30
0.0
 10
59.56949054500346
 20
-79.2006781486026
 30
0.0
 10
59.56949054500346
 20
-79.2006781486026
 30
0.0
 10
59.56949054500346
 20
-79.2006781486026
 30
0.0
 10
59.811336248068
 20
-79.2006781486026
 30
0.0
 10
59.811336248068
 20
-79.2006781486026
 30
0.0
 10
59.811336248068
 20
-79.2006781486026
 30
0.0
 10
59.811336248068
 20
-78.97467988477023
 30
0.0
 10
59.811336248068
 20
-78.97467988477023
 30
0.0
 10
59.811336248068
 20
-78.90388317254833
 30
0.0
 10
59.80892468122833
 20
-78.85599634530337
 30
0.0
 10
59.80410154754897
 20
-78.70768498466336
 30
0.0
 10
59.80410154754897
 20
-78.70768498466336
 30
0.0
 10
60.02389863950792
 20
-78.7235324238955
 30
0.0
 10
60.02389863950792
 20
-78.7235324238955
 30
0.0
 10
60.03871255009449
 20
-78.7235324238955
 30
0.0
 10
60.08246526275716
 20
-78.7281833028006
 30
0.0
 10
60.08246526275716
 20
-78.75781112397374
 30
0.0
 10
60.08246526275716
 20
-78.78296032101606
 30
0.0
 10
60.05318195113254
 20
-78.8034586391533
 30
0.0
 10
60.04112411693416
 20
-78.8103488301238
 30
0.0
 10
60.03354490686662
 20
-78.91542424242392
 30
0.0
 10
60.03354490686662
 20
-78.94505206359707
 30
0.0
 10
60.03354490686662
 20
-79.00206839387796
 30
0.0
 10
60.03354490686662
 20
-79.00206839387796
 30
0.0
 10
60.03354490686662
 20
-79.10697155140382
 30
0.0
 10
60.03354490686662
 20
-79.10697155140382
 30
0.0
 10
60.03354490686662
 20
-79.15726994548847
 30
0.0
 10
60.03595647370629
 20
-79.250804287913
 30
0.0
 10
60.04594725061352
 20
-79.4060058395235
 30
0.0
 10
59.96050888257932
 20
-79.40376652745809
 30
0.0
 10
59.82580564910605
 20
-79.39463702442218
 30
0.0
 10
59.68903535834163
 20
-79.39463702442218
 30
0.0
 10
59.68903535834163
 20
-79.39463702442218
 30
0.0
 10
59.09510089668456
 20
-79.39463702442218
 30
0.0
 10
59.09510089668456
 20
-79.39463702442218
 30
0.0
 10
59.09510089668456
 20
-79.41737465462482
 30
0.0
 10
59.10026853991243
 20
-79.50866968498394
 30
0.0
 10
59.10026853991243
 20
-79.52692869105577
 30
0.0
 10
59.10026853991243
 20
-79.52692869105577
 30
0.0
 10
58.8556667604597
 20
-79.52692869105577
 30
0.0
 10
58.8556667604597
 20
-79.52692869105577
 30
0.0
 10
58.86565753736692
 20
-79.46078285773898
 30
0.0
 10
58.8680691042066
 20
-79.31023218503356
 30
0.0
 10
58.8680691042066
 20
-79.23943547281168
 30
0.0
 10
58.8680691042066
 20
-79.23943547281168
 30
0.0
 10
58.8680691042066
 20
-79.00895858484846
 30
0.0
 10
58.8680691042066
 20
-79.00895858484846
 30
0.0
 10
58.8680691042066
 20
-78.91766355448934
 30
0.0
 10
58.8680691042066
 20
-78.88114554234569
 30
0.0
 10
58.86290146097872
 20
-78.70303410575828
 30
0.0
 10
58.86290146097872
 20
-78.70303410575828
 30
0.0
 10
59.09510089668456
 20
-78.71681448769927
 30
0.0
 10
59.09510089668456
 20
-78.71681448769927
 30
0.0
 10
59.15642359632201
 20
-78.7212931118301
 30
0.0
 10
59.16365829684104
 20
-78.73283418170568
 30
0.0
 10
59.16365829684104
 20
-78.75109318777751
 30
0.0
 10
59.16365829684104
 20
-78.78072100895065
 30
0.0
 10
59.13678655205609
 20
-78.79208982405198
 30
0.0
 10
59.10509167359179
 20
-78.80810951805839
 30
0.0
 10
59.10026853991243
 20
-78.86064722420845
 30
0.0
 10
59.09510089668456
 20
-78.92679305752524
 30
0.0
 10
59.09510089668456
 20
-79.00430770594338
 30
0.0
 10
59.09510089668456
 20
-79.00430770594338
 30
0.0
 10
59.09510089668456
 20
-79.2006781486026
 30
0.0
 10
59.09510089668456
 20
-79.2006781486026
 30
0.0
 10
59.09510089668456
 20
-79.2006781486026
 30
0.0
 10
59.33487954245795
 20
-79.2006781486026
 30
0.0
 10
59.33487954245795
 20
-79.2006781486026
 30
0.0
 10
59.33487954245795
 20
-79.2006781486026
 30
0.0
 10
59.33487954245795
 20
-78.52733423601053
 30
0.0
 10
59.33487954245795
 20
-78.52733423601053
 30
0.0
 10
59.33487954245795
 20
-78.52733423601053
 30
0.0
 10
58.66032984644603
 20
-78.52733423601053
 30
0.0
 10
58.66032984644603
 20
-78.52733423601053
 30
0.0
 10
58.66032984644603
 20
-78.52733423601053
 30
0.0
 10
58.66032984644603
 20
-79.13677162735122
 30
0.0
 10
58.66032984644603
 20
-79.13677162735122
 30
0.0
 10
58.66032984644603
 20
-79.34433863033753
 30
0.0
 10
58.66032984644603
 20
-79.69125974570218
 30
0.0
 10
58.66997611380473
 20
-79.88539087629601
 30
0.0
 10
58.66997611380473
 20
-79.88539087629601
 30
0.0
 10
58.40849336647427
 20
-79.88539087629601
 30
0.0
 10
58.40849336647427
 20
-79.88539087629601
 30
0.0
 10
58.43054197757986
 20
-79.74155813978683
 30
0.0
 10
58.43295354441954
 20
-79.43339434863124
 30
0.0
 10
58.43295354441954
 20
-79.41065671842858
 30
0.0
 10
58.43295354441954
 20
-79.41065671842858
 30
0.0
 10
58.43295354441954
 20
-78.60502113920292
 30
0.0
 10
58.43295354441954
 20
-78.60502113920292
 30
0.0
 10
58.43295354441954
 20
-78.48392603289638
 30
0.0
 10
58.4281304107402
 20
-78.35835230245902
 30
0.0
 10
58.4281304107402
 20
-78.32424585715505
 30
0.0
 10
58.65550671276668
 20
-78.33561467225638
 30
0.0
 10
58.94386120488209
 20
-78.34250486322688
 30
0.0
 10
59.17330456419973
 20
-78.34250486322688
 30
0.0
 10
59.17330456419973
 20
-78.34250486322688
 30
0.0
 10
59.33487954245795
 20
-78.34250486322688
 30
0.0
 10
59.33487954245795
 20
-78.34250486322688
 30
0.0
 10
59.33487954245795
 20
-78.34250486322688
 30
0.0
 10
59.33487954245795
 20
-78.09376896919184
 30
0.0
 10
59.33487954245795
 20
-78.09376896919184
 30
0.0
 10
59.33487954245795
 20
-78.09376896919184
 30
0.0
 10
59.07821992880684
 20
-78.09376896919184
 30
0.0
 10
59.07821992880684
 20
-78.09376896919184
 30
0.0
 10
58.84119735942165
 20
-78.09376896919184
 30
0.0
 10
58.56248913466494
 20
-78.09376896919184
 30
0.0
 10
58.342692042706
 20
-78.10513778429316
 30
0.0
 10
58.342692042706
 20
-78.10513778429316
 30
0.0
 10
58.342692042706
 20
-77.89963783859801
 30
0.0
 10
58.342692042706
 20
-77.89963783859801
 30
0.0
 10
58.64069280218011
 20
-77.92013615673525
 30
0.0
 10
59.05134818402189
 20
-77.92013615673525
 30
0.0
 10
59.07821992880684
 20
-77.92013615673525
 30
0.0
 10
59.07821992880684
 20
-77.92013615673525
 30
0.0
 10
59.81374781490768
 20
-77.92013615673525
 30
0.0
 10
59.81374781490768
 20
-77.92013615673525
 30
0.0
 10
60.05800508481189
 20
-77.92013615673525
 30
0.0
 10
60.30260686426463
 20
-77.91565753260443
 30
0.0
 10
60.54686413416884
 20
-77.89963783859801
 30
0.0
 10
60.54686413416884
 20
-77.89963783859801
 30
0.0
 10
60.54686413416884
 20
-78.10513778429316
 30
0.0
 10
60.54686413416884
 20
-78.10513778429316
 30
0.0
 10
60.33430174272893
 20
-78.09376896919184
 30
0.0
 10
60.12897405180804
 20
-78.09376896919184
 30
0.0
 10
59.81374781490768
 20
-78.09376896919184
 30
0.0
  0
HATCH
  5
B9
330
B4
100
AcDbEntity
  8
_U+30EC_U+30A4_U+30E4_U+30FC 1
 62
   179
420
  2234388
100
AcDbHatch
 10
0.0
 20
0.0
 30
0.0
210
0.0
220
0.0
230
1.0
  2
SOLID
 70
     1
 71
     0
 91
        1
 92
        1
 93
        1
 72
     4
 94
        3
 73
     0
 74
     1
 95
      176
 96
      172
 40
0.0
 40
0.0
 40
0.0
 40
0.0
 40
1.0
 40
1.0
 40
1.0
 40
2.0
 40
2.0
 40
2.0
 40
3.0
 40
3.0
 40
3.0
 40
4.0
 40
4.0
 40
4.0
 40
5.0
 40
5.0
 40
5.0
 40
6.0
 40
6.0
 40
6.0
 40
7.0
 40
7.0
 40
7.0
 40
8.0
 40
8.0
 40
8.0
 40
9.0
 40
9.0
 40
9.0
 40
10.0
 40
10.0
 40
10.0
 40
11.0
 40
11.0
 40
11.0
 40
12.0
 40
12.0
 40
12.0
 40
13.0
 40
13.0
 40
13.0
 40
14.0
 40
14.0
 40
14.0
 40
15.0
 40
15.0
 40
15.0
 40
16.0
 40
16.0
 40
16.0
 40
17.0
 40
17.0
 40
17.0
 40
18.0
 40
18.0
 40
18.0
 40
19.0
 40
19.0
 40
19.0
 40
20.0
 40
20.0
 40
20.0
 40
21.0
 40
21.0
 40
21.0
 40
22.0
 40
22.0
 40
22.0
 40
23.0
 40
23.0
 40
23.0
 40
24.0
 40
24.0
 40
24.0
 40
25.0
 40
25.0
 40
25.0
 40
26.0
 40
26.0
 40
26.0
 40
27.0
 40
27.0
 40
27.0
 40
28.0
 40
28.0
 40
28.0
 40
29.0
 40
29.0
 40
29.0
 40
30.0
 40
30.0
 40
30.0
 40
31.0
 40
31.0
 40
31.0
 40
32.0
 40
32.0
 40
32.0
 40
33.0
 40
33.0
 40
33.0
 40
34.0
 40
34.0
 40
34.0
 40
35.0
 40
35.0
 40
35.0
 40
36.0
 40
36.0
 40
36.0
 40
37.0
 40
37.0
 40
37.0
 40
38.0
 40
38.0
 40
38.0
 40
39.0
 40
39.0
 40
39.0
 40
40.0
 40
40.0
 40
40.0
 40
41.0
 40
41.0
 40
41.0
 40
42.0
 40
42.0
 40
42.0
 40
43.0
 40
43.0
 40
43.0
 40
44.0
 40
44.0
 40
44.0
 40
45.0
 40
45.0
 40
45.0
 40
46.0
 40
46.0
 40
46.0
 40
47.0
 40
47.0
 40
47.0
 40
48.0
 40
48.0
 40
48.0
 40
49.0
 40
49.0
 40
49.0
 40
50.0
 40
50.0
 40
50.0
 40
51.0
 40
51.0
 40
51.0
 40
52.0
 40
52.0
 40
52.0
 40
53.0
 40
53.0
 40
53.0
 40
54.0
 40
54.0
 40
54.0
 40
55.0
 40
55.0
 40
55.0
 40
56.0
 40
56.0
 40
56.0
 40
57.0
 40
57.0
 40
57.0
 40
57.0
 10
59.81374781490768
 20
-78.09376896919184
 10
59.81374781490768
 20
-78.09376896919184
 10
59.56949054500346
 20
-78.09376896919184
 10
59.56949054500346
 20
-78.09376896919184
 10
59.56949054500346
 20
-78.09376896919184
 10
59.56949054500346
 20
-78.34250486322688
 10
59.56949054500346
 20
-78.34250486322688
 10
59.56949054500346
 20
-78.34250486322688
 10
59.81374781490768
 20
-78.34250486322688
 10
59.81374781490768
 20
-78.34250486322688
 10
59.86266817079822
 20
-78.34250486322688
 10
59.89195148242285
 20
-78.34474417529229
 10
60.14861109607396
 20
-78.3378539843218
 10
60.39286836597817
 20
-78.33113604812556
 10
60.41974011076312
 20
-78.32424585715505
 10
60.45660263245529
 20
-78.32424585715505
 10
60.45660263245529
 20
-78.35835230245902
 10
60.44902342238775
 20
-78.45205889965783
 10
60.44902342238775
 20
-78.55248343305286
 10
60.44902342238775
 20
-78.55248343305286
 10
60.44902342238775
 20
-79.16416013645896
 10
60.44902342238775
 20
-79.16416013645896
 10
60.44902342238775
 20
-79.64578448529689
 10
60.45143498922742
 20
-79.69814993667269
 10
60.44420028870839
 20
-79.73466794881634
 10
60.4221516776028
 20
-79.86937118228961
 10
60.2829698199987
 20
-79.87384980642042
 10
60.20235458564386
 20
-79.87384980642042
 10
60.14619952923429
 20
-79.87384980642042
 10
60.08005369591749
 20
-79.87161049435501
 10
60.02148707266824
 20
-79.8671318702242
 10
60.02148707266824
 20
-79.8671318702242
 10
59.93846027147372
 20
-79.6320041033559
 10
59.93846027147372
 20
-79.6320041033559
 10
59.98979219420394
 20
-79.6411336063918
 10
60.09969074018341
 20
-79.65939261246363
 10
60.15825736343266
 20
-79.65939261246363
 10
60.22440319674946
 20
-79.65939261246363
 10
60.22440319674946
 20
-79.62752547922507
 10
60.22440319674946
 20
-79.54294838506219
 10
60.22440319674946
 20
-79.54294838506219
 10
60.22440319674946
 20
-78.52733423601053
 10
60.22440319674946
 20
-78.52733423601053
 10
60.22440319674946
 20
-78.52733423601053
 10
59.56949054500346
 20
-78.52733423601053
 10
59.56949054500346
 20
-78.52733423601053
 10
59.56949054500346
 20
-78.52733423601053
 10
59.56949054500346
 20
-79.2006781486026
 10
59.56949054500346
 20
-79.2006781486026
 10
59.56949054500346
 20
-79.2006781486026
 10
59.811336248068
 20
-79.2006781486026
 10
59.811336248068
 20
-79.2006781486026
 10
59.811336248068
 20
-79.2006781486026
 10
59.811336248068
 20
-78.97467988477023
 10
59.811336248068
 20
-78.97467988477023
 10
59.811336248068
 20
-78.90388317254833
 10
59.80892468122833
 20
-78.85599634530337
 10
59.80410154754897
 20
-78.70768498466336
 10
59.80410154754897
 20
-78.70768498466336
 10
60.02389863950792
 20
-78.7235324238955
 10
60.02389863950792
 20
-78.7235324238955
 10
60.03871255009449
 20
-78.7235324238955
 10
60.08246526275716
 20
-78.7281833028006
 10
60.08246526275716
 20
-78.75781112397374
 10
60.08246526275716
 20
-78.78296032101606
 10
60.05318195113254
 20
-78.8034586391533
 10
60.04112411693416
 20
-78.8103488301238
 10
60.03354490686662
 20
-78.91542424242392
 10
60.03354490686662
 20
-78.94505206359707
 10
60.03354490686662
 20
-79.00206839387796
 10
60.03354490686662
 20
-79.00206839387796
 10
60.03354490686662
 20
-79.10697155140382
 10
60.03354490686662
 20
-79.10697155140382
 10
60.03354490686662
 20
-79.15726994548847
 10
60.03595647370629
 20
-79.250804287913
 10
60.04594725061352
 20
-79.4060058395235
 10
59.96050888257932
 20
-79.40376652745809
 10
59.82580564910605
 20
-79.39463702442218
 10
59.68903535834163
 20
-79.39463702442218
 10
59.68903535834163
 20
-79.39463702442218
 10
59.09510089668456
 20
-79.39463702442218
 10
59.09510089668456
 20
-79.39463702442218
 10
59.09510089668456
 20
-79.41737465462482
 10
59.10026853991243
 20
-79.50866968498394
 10
59.10026853991243
 20
-79.52692869105577
 10
59.10026853991243
 20
-79.52692869105577
 10
58.8556667604597
 20
-79.52692869105577
 10
58.8556667604597
 20
-79.52692869105577
 10
58.86565753736692
 20
-79.46078285773898
 10
58.8680691042066
 20
-79.31023218503356
 10
58.8680691042066
 20
-79.23943547281168
 10
58.8680691042066
 20
-79.23943547281168
 10
58.8680691042066
 20
-79.00895858484846
 10
58.8680691042066
 20
-79.00895858484846
 10
58.8680691042066
 20
-78.91766355448934
 10
58.8680691042066
 20
-78.88114554234569
 10
58.86290146097872
 20
-78.70303410575828
 10
58.86290146097872
 20
-78.70303410575828
 10
59.09510089668456
 20
-78.71681448769927
 10
59.09510089668456
 20
-78.71681448769927
 10
59.15642359632201
 20
-78.7212931118301
 10
59.16365829684104
 20
-78.73283418170568
 10
59.16365829684104
 20
-78.75109318777751
 10
59.16365829684104
 20
-78.78072100895065
 10
59.13678655205609
 20
-78.79208982405198
 10
59.10509167359179
 20
-78.80810951805839
 10
59.10026853991243
 20
-78.86064722420845
 10
59.09510089668456
 20
-78.92679305752524
 10
59.09510089668456
 20
-79.00430770594338
 10
59.09510089668456
 20
-79.00430770594338
 10
59.09510089668456
 20
-79.2006781486026
 10
59.09510089668456
 20
-79.2006781486026
 10
59.09510089668456
 20
-79.2006781486026
 10
59.33487954245795
 20
-79.2006781486026
 10
59.33487954245795
 20
-79.2006781486026
 10
59.33487954245795
 20
-79.2006781486026
 10
59.33487954245795
 20
-78.52733423601053
 10
59.33487954245795
 20
-78.52733423601053
 10
59.33487954245795
 20
-78.52733423601053
 10
58.66032984644603
 20
-78.52733423601053
 10
58.66032984644603
 20
-78.52733423601053
 10
58.66032984644603
 20
-78.52733423601053
 10
58.66032984644603
 20
-79.13677162735122
 10
58.66032984644603
 20
-79.13677162735122
 10
58.66032984644603
 20
-79.34433863033753
 10
58.66032984644603
 20
-79.69125974570218
 10
58.66997611380473
 20
-79.88539087629601
 10
58.66997611380473
 20
-79.88539087629601
 10
58.40849336647427
 20
-79.88539087629601
 10
58.40849336647427
 20
-79.88539087629601
 10
58.43054197757986
 20
-79.74155813978683
 10
58.43295354441954
 20
-79.43339434863124
 10
58.43295354441954
 20
-79.41065671842858
 10
58.43295354441954
 20
-79.41065671842858
 10
58.43295354441954
 20
-78.60502113920292
 10
58.43295354441954
 20
-78.60502113920292
 10
58.43295354441954
 20
-78.48392603289638
 10
58.4281304107402
 20
-78.35835230245902
 10
58.4281304107402
 20
-78.32424585715505
 10
58.65550671276668
 20
-78.33561467225638
 10
58.94386120488209
 20
-78.34250486322688
 10
59.17330456419973
 20
-78.34250486322688
 10
59.17330456419973
 20
-78.34250486322688
 10
59.33487954245795
 20
-78.34250486322688
 10
59.33487954245795
 20
-78.34250486322688
 10
59.33487954245795
 20
-78.34250486322688
 10
59.33487954245795
 20
-78.09376896919184
 10
59.33487954245795
 20
-78.09376896919184
 10
59.33487954245795
 20
-78.09376896919184
 10
59.07821992880684
 20
-78.09376896919184
 10
59.07821992880684
 20
-78.09376896919184
 10
58.84119735942165
 20
-78.09376896919184
 10
58.56248913466494
 20
-78.09376896919184
 10
58.342692042706
 20
-78.10513778429316
 10
58.342692042706
 20
-78.10513778429316
 10
58.342692042706
 20
-77.89963783859801
 10
58.342692042706
 20
-77.89963783859801
 10
58.64069280218011
 20
-77.92013615673525
 10
59.05134818402189
 20
-77.92013615673525
 10
59.07821992880684
 20
-77.92013615673525
 10
59.07821992880684
 20
-77.92013615673525
 10
59.81374781490768
 20
-77.92013615673525
 10
59.81374781490768
 20
-77.92013615673525
 10
60.05800508481189
 20
-77.92013615673525
 10
60.30260686426463
 20
-77.91565753260443
 10
60.54686413416884
 20
-77.89963783859801
 10
60.54686413416884
 20
-77.89963783859801
 10
60.54686413416884
 20
-78.10513778429316
 10
60.54686413416884
 20
-78.10513778429316
 10
60.33430174272893
 20
-78.09376896919184
 10
60.12897405180804
 20
-78.09376896919184
 10
59.81374781490768
 20
-78.09376896919184
 97
        0
 97
        0
 75
     2
 76
     1
 98
        0
  0
SPLINE
  5
BA
330
B4
100
AcDbEntity
  8
_U+30EC_U+30A4_U+30E4_U+30FC 1
370
     0
100
AcDbSpline
210
0.0
220
0.0
230
1.0
 70
    11
 71
     3
 72
    89
 73
    85
 74
     0
 42
0.0000000001
 43
0.0000000001
 12
1.0
 22
0.0
 32
0.0
 13
1.0
 23
0.0
 33
0.0
 40
0.0
 40
0.0
 40
0.0
 40
0.0
 40
1.0
 40
1.0
 40
1.0
 40
2.0
 40
2.0
 40
2.0
 40
3.0
 40
3.0
 40
3.0
 40
4.0
 40
4.0
 40
4.0
 40
5.0
 40
5.0
 40
5.0
 40
6.0
 40
6.0
 40
6.0
 40
7.0
 40
7.0
 40
7.0
 40
8.0
 40
8.0
 40
8.0
 40
9.0
 40
9.0
 40
9.0
 40
10.0
 40
10.0
 40
10.0
 40
11.0
 40
11.0
 40
11.0
 40
12.0
 40
12.0
 40
12.0
 40
13.0
 40
13.0
 40
13.0
 40
14.0
 40
14.0
 40
14.0
 40
15.0
 40
15.0
 40
15.0
 40
16.0
 40
16.0
 40
16.0
 40
17.0
 40
17.0
 40
17.0
 40
18.0
 40
18.0
 40
18.0
 40
19.0
 40
19.0
 40
19.0
 40
20.0
 40
20.0
 40
20.0
 40
21.0
 40
21.0
 40
21.0
 40
22.0
 40
22.0
 40
22.0
 40
23.0
 40
23.0
 40
23.0
 40
24.0
 40
24.0
 40
24.0
 40
25.0
 40
25.0
 40
25.0
 40
26.0
 40
26.0
 40
26.0
 40
27.0
 40
27.0
 40
27.0
 40
28.0
 40
28.0
 40
28.0
 40
28.0
 10
62.20188800528286
 20
-78.07309839628034
 30
0.0
 10
62.20188800528286
 20
-78.07309839628034
 30
0.0
 10
62.01860892546757
 20
-78.07309839628034
 30
0.0
 10
62.01860892546757
 20
-78.07309839628034
 30
0.0
 10
61.98691404700327
 20
-78.1917819357472
 30
0.0
 10
61.9817464037754
 20
-78.21228025388443
 30
0.0
 10
61.91353351316745
 20
-78.37661130853085
 30
0.0
 10
61.91353351316745
 20
-78.37661130853085
 30
0.0
 10
62.18948566153596
 20
-78.37661130853085
 30
0.0
 10
62.18948566153596
 20
-78.37661130853085
 30
0.0
 10
62.25321992801309
 20
-78.37661130853085
 30
0.0
 10
62.52434894270225
 20
-78.36989337233462
 30
0.0
 10
62.57809243227214
 20
-78.36989337233462
 30
0.0
 10
62.77136228899466
 20
-78.36524249342952
 30
0.0
 10
62.84198674644228
 20
-78.35835230245902
 30
0.0
 10
62.90813257975908
 20
-78.35163436626279
 30
0.0
 10
62.90089787924006
 20
-78.44516870868732
 30
0.0
 10
62.89573023601218
 20
-78.76470131494425
 30
0.0
 10
62.89573023601218
 20
-78.87201603930978
 30
0.0
 10
62.89573023601218
 20
-78.87201603930978
 30
0.0
 10
62.89573023601218
 20
-79.35122882130803
 30
0.0
 10
62.89573023601218
 20
-79.35122882130803
 30
0.0
 10
62.89573023601218
 20
-79.38085664248118
 30
0.0
 10
62.89848631240038
 20
-79.49041067891213
 30
0.0
 10
62.90330944607973
 20
-79.57498777307501
 30
0.0
 10
62.91054414659875
 20
-79.70056150351236
 30
0.0
 10
62.92019041395746
 20
-79.83061385808054
 30
0.0
 10
62.92294649034565
 20
-79.86937118228961
 30
0.0
 10
62.92294649034565
 20
-79.86937118228961
 30
0.0
 10
62.64906139926829
 20
-79.86937118228961
 30
0.0
 10
62.64906139926829
 20
-79.86937118228961
 30
0.0
 10
62.658707666627
 20
-79.82837454601513
 30
0.0
 10
62.66869844353422
 20
-79.76205645792407
 30
0.0
 10
62.67352157721357
 20
-79.71640894274451
 30
0.0
 10
62.67352157721357
 20
-79.71640894274451
 30
0.0
 10
61.09980195955144
 20
-79.71640894274451
 30
0.0
 10
61.09980195955144
 20
-79.71640894274451
 30
0.0
 10
61.10221352639112
 20
-79.78031546399589
 30
0.0
 10
61.10221352639112
 20
-79.7872056549664
 30
0.0
 10
61.10944822691014
 20
-79.8671318702242
 30
0.0
 10
61.10944822691014
 20
-79.8671318702242
 30
0.0
 10
60.86519095700593
 20
-79.8671318702242
 30
0.0
 10
60.86519095700593
 20
-79.8671318702242
 30
0.0
 10
60.886895058563
 20
-79.70504012764319
 30
0.0
 10
60.8896511349512
 20
-79.57033689416991
 30
0.0
 10
60.8896511349512
 20
-79.35364038814771
 30
0.0
 10
60.8896511349512
 20
-79.35364038814771
 30
0.0
 10
60.8896511349512
 20
-78.95194225456757
 30
0.0
 10
60.8896511349512
 20
-78.95194225456757
 30
0.0
 10
60.8896511349512
 20
-78.80587020599297
 30
0.0
 10
60.87966035804398
 20
-78.48392603289638
 30
0.0
 10
60.87242565752495
 20
-78.35835230245902
 30
0.0
 10
61.08739961580454
 20
-78.37213268440003
 30
0.0
 10
61.4343207311692
 20
-78.37661130853085
 30
0.0
 10
61.65928546635602
 20
-78.37661130853085
 30
0.0
 10
61.70579425540689
 20
-78.28531627817173
 30
0.0
 10
61.75471461129744
 20
-78.16215411457405
 30
0.0
 10
61.77400714601483
 20
-78.07309839628034
 30
0.0
 10
61.77400714601483
 20
-78.07309839628034
 30
0.0
 10
61.53698457662964
 20
-78.07309839628034
 30
0.0
 10
61.53698457662964
 20
-78.07309839628034
 30
0.0
 10
61.25379772774211
 20
-78.07309839628034
 30
0.0
 10
61.04089082675367
 20
-78.07309839628034
 30
0.0
 10
60.81144746743603
 20
-78.10513778429316
 30
0.0
 10
60.81144746743603
 20
-78.10513778429316
 30
0.0
 10
60.81144746743603
 20
-77.87913952046077
 30
0.0
 10
60.81144746743603
 20
-77.87913952046077
 30
0.0
 10
60.94098305768142
 20
-77.8973985265326
 30
0.0
 10
61.51011283184469
 20
-77.89963783859801
 30
0.0
 10
61.55903318773525
 20
-77.89963783859801
 30
0.0
 10
61.55903318773525
 20
-77.89963783859801
 30
0.0
 10
62.20912270580189
 20
-77.89963783859801
 30
0.0
 10
62.20912270580189
 20
-77.89963783859801
 30
0.0
 10
62.27010089589081
 20
-77.89963783859801
 30
0.0
 10
62.73691133414216
 20
-77.89291990240177
 30
0.0
 10
62.82028264488521
 20
-77.8905083355621
 30
0.0
 10
62.88608396865348
 20
-77.88826902349669
 30
0.0
 10
62.91777884711778
 20
-77.8836181445916
 30
0.0
 10
62.97152233668768
 20
-77.87690020839536
 30
0.0
 10
62.97152233668768
 20
-77.87690020839536
 30
0.0
 10
62.97152233668768
 20
-78.09135740235216
 30
0.0
 10
62.97152233668768
 20
-78.09135740235216
 30
0.0
 10
62.73208820046281
 20
-78.07550996312001
 30
0.0
 10
62.21911348270911
 20
-78.07309839628034
 30
0.0
 10
62.20188800528286
 20
-78.07309839628034
 30
0.0
  0
POLYLINE
  5
BB
330
B4
100
AcDbEntity
  8
_U+30EC_U+30A4_U+30E4_U+30FC 1
370
     0
100
AcDb2dPolyline
 66
     1
 10
0.0
 20
0.0
 30
0.0
  0
VERTEX
  5
BC
330
BB
100
AcDbEntity
  8
_U+30EC_U+30A4_U+30E4_U+30FC 1
370
     0
100
AcDbVertex
100
AcDb2dVertex
 10
61.41743976329148
 20
-78.5592013692491
 30
0.0
  0
VERTEX
  5
BD
330
BB
100
AcDbEntity
  8
_U+30EC_U+30A4_U+30E4_U+30FC 1
370
     0
100
AcDbVertex
100
AcDb2dVertex
 10
61.09980195955144
 20
-78.5592013692491
 30
0.0
  0
VERTEX
  5
BE
330
BB
100
AcDbEntity
  8
_U+30EC_U+30A4_U+30E4_U+30FC 1
370
     0
100
AcDbVertex
100
AcDb2dVertex
 10
61.09980195955144
 20
-79.53157956996085
 30
0.0
  0
VERTEX
  5
BF
330
BB
100
AcDbEntity
  8
_U+30EC_U+30A4_U+30E4_U+30FC 1
370
     0
100
AcDbVertex
100
AcDb2dVertex
 10
61.41743976329148
 20
-79.53157956996085
 30
0.0
  0
VERTEX
  5
C0
330
BB
100
AcDbEntity
  8
_U+30EC_U+30A4_U+30E4_U+30FC 1
370
     0
100
AcDbVertex
100
AcDb2dVertex
 10
61.41743976329148
 20
-78.5592013692491
 30
0.0
  0
SEQEND
  5
C1
330
BB
100
AcDbEntity
  8
_U+30EC_U+30A4_U+30E4_U+30FC 1
370
     0
  0
POLYLINE
  5
C2
330
B4
100
AcDbEntity
  8
_U+30EC_U+30A4_U+30E4_U+30FC 1
370
     0
100
AcDb2dPolyline
 66
     1
 10
0.0
 20
0.0
 30
0.0
  0
VERTEX
  5
C3
330
C2
100
AcDbEntity
  8
_U+30EC_U+30A4_U+30E4_U+30FC 1
370
     0
100
AcDbVertex
100
AcDb2dVertex
 10
62.14332138203362
 20
-78.5592013692491
 30
0.0
  0
VERTEX
  5
C4
330
C2
100
AcDbEntity
  8
_U+30EC_U+30A4_U+30E4_U+30FC 1
370
     0
100
AcDbVertex
100
AcDb2dVertex
 10
61.62035588737269
 20
-78.5592013692491
 30
0.0
  0
VERTEX
  5
C5
330
C2
100
AcDbEntity
  8
_U+30EC_U+30A4_U+30E4_U+30FC 1
370
     0
100
AcDbVertex
100
AcDb2dVertex
 10
61.62035588737269
 20
-78.76470131494425
 30
0.0
  0
VERTEX
  5
C6
330
C2
100
AcDbEntity
  8
_U+30EC_U+30A4_U+30E4_U+30FC 1
370
     0
100
AcDbVertex
100
AcDb2dVertex
 10
62.14332138203362
 20
-78.76470131494425
 30
0.0
  0
VERTEX
  5
C7
330
C2
100
AcDbEntity
  8
_U+30EC_U+30A4_U+30E4_U+30FC 1
370
     0
100
AcDbVertex
100
AcDb2dVertex
 10
62.14332138203362
 20
-78.5592013692491
 30
0.0
  0
SEQEND
  5
C8
330
C2
100
AcDbEntity
  8
_U+30EC_U+30A4_U+30E4_U+30FC 1
370
     0
  0
POLYLINE
  5
C9
330
B4
100
AcDbEntity
  8
_U+30EC_U+30A4_U+30E4_U+30FC 1
370
     0
100
AcDb2dPolyline
 66
     1
 10
0.0
 20
0.0
 30
0.0
  0
VERTEX
  5
CA
330
C9
100
AcDbEntity
  8
_U+30EC_U+30A4_U+30E4_U+30FC 1
370
     0
100
AcDbVertex
100
AcDb2dVertex
 10
62.14332138203362
 20
-78.93816187262658
 30
0.0
  0
VERTEX
  5
CB
330
C9
100
AcDbEntity
  8
_U+30EC_U+30A4_U+30E4_U+30FC 1
370
     0
100
AcDbVertex
100
AcDb2dVertex
 10
61.62035588737269
 20
-78.93816187262658
 30
0.0
  0
VERTEX
  5
CC
330
C9
100
AcDbEntity
  8
_U+30EC_U+30A4_U+30E4_U+30FC 1
370
     0
100
AcDbVertex
100
AcDb2dVertex
 10
61.62035588737269
 20
-79.14348956354746
 30
0.0
  0
VERTEX
  5
CD
330
C9
100
AcDbEntity
  8
_U+30EC_U+30A4_U+30E4_U+30FC 1
370
     0
100
AcDbVertex
100
AcDb2dVertex
 10
62.14332138203362
 20
-79.14348956354746
 30
0.0
  0
VERTEX
  5
CE
330
C9
100
AcDbEntity
  8
_U+30EC_U+30A4_U+30E4_U+30FC 1
370
     0
100
AcDbVertex
100
AcDb2dVertex
 10
62.14332138203362
 20
-78.93816187262658
 30
0.0
  0
SEQEND
  5
CF
330
C9
100
AcDbEntity
  8
_U+30EC_U+30A4_U+30E4_U+30FC 1
370
     0
  0
POLYLINE
  5
D0
330
B4
100
AcDbEntity
  8
_U+30EC_U+30A4_U+30E4_U+30FC 1
370
     0
100
AcDb2dPolyline
 66
     1
 10
0.0
 20
0.0
 30
0.0
  0
VERTEX
  5
D1
330
D0
100
AcDbEntity
  8
_U+30EC_U+30A4_U+30E4_U+30FC 1
370
     0
100
AcDbVertex
100
AcDb2dVertex
 10
62.14332138203362
 20
-79.31712237600405
 30
0.0
  0
VERTEX
  5
D2
330
D0
100
AcDbEntity
  8
_U+30EC_U+30A4_U+30E4_U+30FC 1
370
     0
100
AcDbVertex
100
AcDb2dVertex
 10
61.62035588737269
 20
-79.31712237600405
 30
0.0
  0
VERTEX
  5
D3
330
D0
100
AcDbEntity
  8
_U+30EC_U+30A4_U+30E4_U+30FC 1
370
     0
100
AcDbVertex
100
AcDb2dVertex
 10
61.62035588737269
 20
-79.53157956996085
 30
0.0
  0
VERTEX
  5
D4
330
D0
100
AcDbEntity
  8
_U+30EC_U+30A4_U+30E4_U+30FC 1
370
     0
100
AcDbVertex
100
AcDb2dVertex
 10
62.14332138203362
 20
-79.53157956996085
 30
0.0
  0
VERTEX
  5
D5
330
D0
100
AcDbEntity
  8
_U+30EC_U+30A4_U+30E4_U+30FC 1
370
     0
100
AcDbVertex
100
AcDb2dVertex
 10
62.14332138203362
 20
-79.31712237600405
 30
0.0
  0
SEQEND
  5
D6
330
D0
100
AcDbEntity
  8
_U+30EC_U+30A4_U+30E4_U+30FC 1
370
     0
  0
POLYLINE
  5
D7
330
B4
100
AcDbEntity
  8
_U+30EC_U+30A4_U+30E4_U+30FC 1
370
     0
100
AcDb2dPolyline
 66
     1
 10
0.0
 20
0.0
 30
0.0
  0
VERTEX
  5
D8
330
D7
100
AcDbEntity
  8
_U+30EC_U+30A4_U+30E4_U+30FC 1
370
     0
100
AcDbVertex
100
AcDb2dVertex
 10
62.67593314405324
 20
-78.5592013692491
 30
0.0
  0
VERTEX
  5
D9
330
D7
100
AcDbEntity
  8
_U+30EC_U+30A4_U+30E4_U+30FC 1
370
     0
100
AcDbVertex
100
AcDb2dVertex
 10
62.35829534031321
 20
-78.5592013692491
 30
0.0
  0
VERTEX
  5
DA
330
D7
100
AcDbEntity
  8
_U+30EC_U+30A4_U+30E4_U+30FC 1
370
     0
100
AcDbVertex
100
AcDb2dVertex
 10
62.35829534031321
 20
-79.53157956996085
 30
0.0
  0
VERTEX
  5
DB
330
D7
100
AcDbEntity
  8
_U+30EC_U+30A4_U+30E4_U+30FC 1
370
     0
100
AcDbVertex
100
AcDb2dVertex
 10
62.67593314405324
 20
-79.53157956996085
 30
0.0
  0
VERTEX
  5
DC
330
D7
100
AcDbEntity
  8
_U+30EC_U+30A4_U+30E4_U+30FC 1
370
     0
100
AcDbVertex
100
AcDb2dVertex
 10
62.67593314405324
 20
-78.5592013692491
 30
0.0
  0
SEQEND
  5
DD
330
D7
100
AcDbEntity
  8
_U+30EC_U+30A4_U+30E4_U+30FC 1
370
     0
  0
HATCH
  5
DE
330
B4
100
AcDbEntity
  8
_U+30EC_U+30A4_U+30E4_U+30FC 1
 62
   179
420
  2234388
100
AcDbHatch
 10
0.0
 20
0.0
 30
0.0
210
0.0
220
0.0
230
1.0
  2
SOLID
 70
     1
 71
     0
 91
        6
 92
        1
 93
        1
 72
     4
 94
        3
 73
     0
 74
     1
 95
       89
 96
       85
 40
0.0
 40
0.0
 40
0.0
 40
0.0
 40
1.0
 40
1.0
 40
1.0
 40
2.0
 40
2.0
 40
2.0
 40
3.0
 40
3.0
 40
3.0
 40
4.0
 40
4.0
 40
4.0
 40
5.0
 40
5.0
 40
5.0
 40
6.0
 40
6.0
 40
6.0
 40
7.0
 40
7.0
 40
7.0
 40
8.0
 40
8.0
 40
8.0
 40
9.0
 40
9.0
 40
9.0
 40
10.0
 40
10.0
 40
10.0
 40
11.0
 40
11.0
 40
11.0
 40
12.0
 40
12.0
 40
12.0
 40
13.0
 40
13.0
 40
13.0
 40
14.0
 40
14.0
 40
14.0
 40
15.0
 40
15.0
 40
15.0
 40
16.0
 40
16.0
 40
16.0
 40
17.0
 40
17.0
 40
17.0
 40
18.0
 40
18.0
 40
18.0
 40
19.0
 40
19.0
 40
19.0
 40
20.0
 40
20.0
 40
20.0
 40
21.0
 40
21.0
 40
21.0
 40
22.0
 40
22.0
 40
22.0
 40
23.0
 40
23.0
 40
23.0
 40
24.0
 40
24.0
 40
24.0
 40
25.0
 40
25.0
 40
25.0
 40
26.0
 40
26.0
 40
26.0
 40
27.0
 40
27.0
 40
27.0
 40
28.0
 40
28.0
 40
28.0
 40
28.0
 10
62.20188800528286
 20
-78.07309839628034
 10
62.20188800528286
 20
-78.07309839628034
 10
62.01860892546757
 20
-78.07309839628034
 10
62.01860892546757
 20
-78.07309839628034
 10
61.98691404700327
 20
-78.1917819357472
 10
61.9817464037754
 20
-78.21228025388443
 10
61.91353351316745
 20
-78.37661130853085
 10
61.91353351316745
 20
-78.37661130853085
 10
62.18948566153596
 20
-78.37661130853085
 10
62.18948566153596
 20
-78.37661130853085
 10
62.25321992801309
 20
-78.37661130853085
 10
62.52434894270225
 20
-78.36989337233462
 10
62.57809243227214
 20
-78.36989337233462
 10
62.77136228899466
 20
-78.36524249342952
 10
62.84198674644228
 20
-78.35835230245902
 10
62.90813257975908
 20
-78.35163436626279
 10
62.90089787924006
 20
-78.44516870868732
 10
62.89573023601218
 20
-78.76470131494425
 10
62.89573023601218
 20
-78.87201603930978
 10
62.89573023601218
 20
-78.87201603930978
 10
62.89573023601218
 20
-79.35122882130803
 10
62.89573023601218
 20
-79.35122882130803
 10
62.89573023601218
 20
-79.38085664248118
 10
62.89848631240038
 20
-79.49041067891213
 10
62.90330944607973
 20
-79.57498777307501
 10
62.91054414659875
 20
-79.70056150351236
 10
62.92019041395746
 20
-79.83061385808054
 10
62.92294649034565
 20
-79.86937118228961
 10
62.92294649034565
 20
-79.86937118228961
 10
62.64906139926829
 20
-79.86937118228961
 10
62.64906139926829
 20
-79.86937118228961
 10
62.658707666627
 20
-79.82837454601513
 10
62.66869844353422
 20
-79.76205645792407
 10
62.67352157721357
 20
-79.71640894274451
 10
62.67352157721357
 20
-79.71640894274451
 10
61.09980195955144
 20
-79.71640894274451
 10
61.09980195955144
 20
-79.71640894274451
 10
61.10221352639112
 20
-79.78031546399589
 10
61.10221352639112
 20
-79.7872056549664
 10
61.10944822691014
 20
-79.8671318702242
 10
61.10944822691014
 20
-79.8671318702242
 10
60.86519095700593
 20
-79.8671318702242
 10
60.86519095700593
 20
-79.8671318702242
 10
60.886895058563
 20
-79.70504012764319
 10
60.8896511349512
 20
-79.57033689416991
 10
60.8896511349512
 20
-79.35364038814771
 10
60.8896511349512
 20
-79.35364038814771
 10
60.8896511349512
 20
-78.95194225456757
 10
60.8896511349512
 20
-78.95194225456757
 10
60.8896511349512
 20
-78.80587020599297
 10
60.87966035804398
 20
-78.48392603289638
 10
60.87242565752495
 20
-78.35835230245902
 10
61.08739961580454
 20
-78.37213268440003
 10
61.4343207311692
 20
-78.37661130853085
 10
61.65928546635602
 20
-78.37661130853085
 10
61.70579425540689
 20
-78.28531627817173
 10
61.75471461129744
 20
-78.16215411457405
 10
61.77400714601483
 20
-78.07309839628034
 10
61.77400714601483
 20
-78.07309839628034
 10
61.53698457662964
 20
-78.07309839628034
 10
61.53698457662964
 20
-78.07309839628034
 10
61.25379772774211
 20
-78.07309839628034
 10
61.04089082675367
 20
-78.07309839628034
 10
60.81144746743603
 20
-78.10513778429316
 10
60.81144746743603
 20
-78.10513778429316
 10
60.81144746743603
 20
-77.87913952046077
 10
60.81144746743603
 20
-77.87913952046077
 10
60.94098305768142
 20
-77.8973985265326
 10
61.51011283184469
 20
-77.89963783859801
 10
61.55903318773525
 20
-77.89963783859801
 10
61.55903318773525
 20
-77.89963783859801
 10
62.20912270580189
 20
-77.89963783859801
 10
62.20912270580189
 20
-77.89963783859801
 10
62.27010089589081
 20
-77.89963783859801
 10
62.73691133414216
 20
-77.89291990240177
 10
62.82028264488521
 20
-77.8905083355621
 10
62.88608396865348
 20
-77.88826902349669
 10
62.91777884711778
 20
-77.8836181445916
 10
62.97152233668768
 20
-77.87690020839536
 10
62.97152233668768
 20
-77.87690020839536
 10
62.97152233668768
 20
-78.09135740235216
 10
62.97152233668768
 20
-78.09135740235216
 10
62.73208820046281
 20
-78.07550996312001
 10
62.21911348270911
 20
-78.07309839628034
 10
62.20188800528286
 20
-78.07309839628034
 97
        0
 97
        0
 92
        1
 93
        4
 72
     1
 10
61.41743976329148
 20
-78.5592013692491
 11
61.09980195955144
 21
-78.5592013692491
 72
     1
 10
61.09980195955144
 20
-78.5592013692491
 11
61.09980195955144
 21
-79.53157956996085
 72
     1
 10
61.09980195955144
 20
-79.53157956996085
 11
61.41743976329148
 21
-79.53157956996085
 72
     1
 10
61.41743976329148
 20
-79.53157956996085
 11
61.41743976329148
 21
-78.5592013692491
 97
        0
 92
        1
 93
        4
 72
     1
 10
62.14332138203362
 20
-78.5592013692491
 11
61.62035588737269
 21
-78.5592013692491
 72
     1
 10
61.62035588737269
 20
-78.5592013692491
 11
61.62035588737269
 21
-78.76470131494425
 72
     1
 10
61.62035588737269
 20
-78.76470131494425
 11
62.14332138203362
 21
-78.76470131494425
 72
     1
 10
62.14332138203362
 20
-78.76470131494425
 11
62.14332138203362
 21
-78.5592013692491
 97
        0
 92
        1
 93
        4
 72
     1
 10
62.14332138203362
 20
-78.93816187262658
 11
61.62035588737269
 21
-78.93816187262658
 72
     1
 10
61.62035588737269
 20
-78.93816187262658
 11
61.62035588737269
 21
-79.14348956354746
 72
     1
 10
61.62035588737269
 20
-79.14348956354746
 11
62.14332138203362
 21
-79.14348956354746
 72
     1
 10
62.14332138203362
 20
-79.14348956354746
 11
62.14332138203362
 21
-78.93816187262658
 97
        0
 92
        1
 93
        4
 72
     1
 10
62.14332138203362
 20
-79.31712237600405
 11
61.62035588737269
 21
-79.31712237600405
 72
     1
 10
61.62035588737269
 20
-79.31712237600405
 11
61.62035588737269
 21
-79.53157956996085
 72
     1
 10
61.62035588737269
 20
-79.53157956996085
 11
62.14332138203362
 21
-79.53157956996085
 72
     1
 10
62.14332138203362
 20
-79.53157956996085
 11
62.14332138203362
 21
-79.31712237600405
 97
        0
 92
        1
 93
        4
 72
     1
 10
62.67593314405324
 20
-78.5592013692491
 11
62.35829534031321
 21
-78.5592013692491
 72
     1
 10
62.35829534031321
 20
-78.5592013692491
 11
62.35829534031321
 21
-79.53157956996085
 72
     1
 10
62.35829534031321
 20
-79.53157956996085
 11
62.67593314405324
 21
-79.53157956996085
 72
     1
 10
62.67593314405324
 20
-79.53157956996085
 11
62.67593314405324
 21
-78.5592013692491
 97
        0
 75
     2
 76
     1
 98
        0
  0
SPLINE
  5
DF
330
B4
100
AcDbEntity
  8
_U+30EC_U+30A4_U+30E4_U+30FC 1
370
     0
100
AcDbSpline
210
0.0
220
0.0
230
1.0
 70
    11
 71
     3
 72
   242
 73
   238
 74
     0
 42
0.0000000001
 43
0.0000000001
 12
1.0
 22
0.0
 32
0.0
 13
1.0
 23
0.0
 33
0.0
 40
0.0
 40
0.0
 40
0.0
 40
0.0
 40
1.0
 40
1.0
 40
1.0
 40
2.0
 40
2.0
 40
2.0
 40
3.0
 40
3.0
 40
3.0
 40
4.0
 40
4.0
 40
4.0
 40
5.0
 40
5.0
 40
5.0
 40
6.0
 40
6.0
 40
6.0
 40
7.0
 40
7.0
 40
7.0
 40
8.0
 40
8.0
 40
8.0
 40
9.0
 40
9.0
 40
9.0
 40
10.0
 40
10.0
 40
10.0
 40
11.0
 40
11.0
 40
11.0
 40
12.0
 40
12.0
 40
12.0
 40
13.0
 40
13.0
 40
13.0
 40
14.0
 40
14.0
 40
14.0
 40
15.0
 40
15.0
 40
15.0
 40
16.0
 40
16.0
 40
16.0
 40
17.0
 40
17.0
 40
17.0
 40
18.0
 40
18.0
 40
18.0
 40
19.0
 40
19.0
 40
19.0
 40
20.0
 40
20.0
 40
20.0
 40
21.0
 40
21.0
 40
21.0
 40
22.0
 40
22.0
 40
22.0
 40
23.0
 40
23.0
 40
23.0
 40
24.0
 40
24.0
 40
24.0
 40
25.0
 40
25.0
 40
25.0
 40
26.0
 40
26.0
 40
26.0
 40
27.0
 40
27.0
 40
27.0
 40
28.0
 40
28.0
 40
28.0
 40
29.0
 40
29.0
 40
29.0
 40
30.0
 40
30.0
 40
30.0
 40
31.0
 40
31.0
 40
31.0
 40
32.0
 40
32.0
 40
32.0
 40
33.0
 40
33.0
 40
33.0
 40
34.0
 40
34.0
 40
34.0
 40
35.0
 40
35.0
 40
35.0
 40
36.0
 40
36.0
 40
36.0
 40
37.0
 40
37.0
 40
37.0
 40
38.0
 40
38.0
 40
38.0
 40
39.0
 40
39.0
 40
39.0
 40
40.0
 40
40.0
 40
40.0
 40
41.0
 40
41.0
 40
41.0
 40
42.0
 40
42.0
 40
42.0
 40
43.0
 40
43.0
 40
43.0
 40
44.0
 40
44.0
 40
44.0
 40
45.0
 40
45.0
 40
45.0
 40
46.0
 40
46.0
 40
46.0
 40
47.0
 40
47.0
 40
47.0
 40
48.0
 40
48.0
 40
48.0
 40
49.0
 40
49.0
 40
49.0
 40
50.0
 40
50.0
 40
50.0
 40
51.0
 40
51.0
 40
51.0
 40
52.0
 40
52.0
 40
52.0
 40
53.0
 40
53.0
 40
53.0
 40
54.0
 40
54.0
 40
54.0
 40
55.0
 40
55.0
 40
55.0
 40
56.0
 40
56.0
 40
56.0
 40
57.0
 40
57.0
 40
57.0
 40
58.0
 40
58.0
 40
58.0
 40
59.0
 40
59.0
 40
59.0
 40
60.0
 40
60.0
 40
60.0
 40
61.0
 40
61.0
 40
61.0
 40
62.0
 40
62.0
 40
62.0
 40
63.0
 40
63.0
 40
63.0
 40
64.0
 40
64.0
 40
64.0
 40
65.0
 40
65.0
 40
65.0
 40
66.0
 40
66.0
 40
66.0
 40
67.0
 40
67.0
 40
67.0
 40
68.0
 40
68.0
 40
68.0
 40
69.0
 40
69.0
 40
69.0
 40
70.0
 40
70.0
 40
70.0
 40
71.0
 40
71.0
 40
71.0
 40
72.0
 40
72.0
 40
72.0
 40
73.0
 40
73.0
 40
73.0
 40
74.0
 40
74.0
 40
74.0
 40
75.0
 40
75.0
 40
75.0
 40
76.0
 40
76.0
 40
76.0
 40
77.0
 40
77.0
 40
77.0
 40
78.0
 40
78.0
 40
78.0
 40
79.0
 40
79.0
 40
79.0
 40
79.0
 10
65.19119735783414
 20
-78.71905379976468
 30
0.0
 10
65.19119735783414
 20
-78.71905379976468
 30
0.0
 10
64.89801973203939
 20
-78.71905379976468
 30
0.0
 10
64.89801973203939
 20
-78.71905379976468
 30
0.0
 10
64.89801973203939
 20
-78.71905379976468
 30
0.0
 10
64.57762585191115
 20
-78.71905379976468
 30
0.0
 10
64.57762585191115
 20
-78.71905379976468
 30
0.0
 10
64.57762585191115
 20
-78.71905379976468
 30
0.0
 10
64.7243869195828
 20
-78.76470131494425
 30
0.0
 10
64.7243869195828
 20
-78.76470131494425
 30
0.0
 10
64.73644475378117
 20
-78.76935219384933
 30
0.0
 10
64.75125866436774
 20
-78.77607013004557
 30
0.0
 10
64.75125866436774
 20
-78.78985051198657
 30
0.0
 10
64.75125866436774
 20
-78.81258814218921
 30
0.0
 10
64.7147406522241
 20
-78.81947833315972
 30
0.0
 10
64.69028047427882
 20
-78.8241292120648
 30
0.0
 10
64.67787813053192
 20
-78.84910615433287
 30
0.0
 10
64.64377168522795
 20
-78.91990286655475
 30
0.0
 10
64.62172307412234
 20
-78.96778969379972
 30
0.0
 10
64.62172307412234
 20
-78.96778969379972
 30
0.0
 10
64.93453774418303
 20
-78.96778969379972
 30
0.0
 10
64.93453774418303
 20
-78.96778969379972
 30
0.0
 10
65.03961315648316
 20
-78.96778969379972
 30
0.0
 10
65.26698945850964
 20
-78.9633110696689
 30
0.0
 10
65.43063149405901
 20
-78.95418156663298
 30
0.0
 10
65.43063149405901
 20
-78.95418156663298
 30
0.0
 10
65.43063149405901
 20
-79.14590113038714
 30
0.0
 10
65.43063149405901
 20
-79.14590113038714
 30
0.0
 10
65.3352023491176
 20
-79.14125025148205
 30
0.0
 10
65.31074217117232
 20
-79.14125025148205
 30
0.0
 10
65.10334742296028
 20
-79.13677162735122
 30
0.0
 10
65.0664849012681
 20
-79.30334199406306
 30
0.0
 10
65.01515297853788
 20
-79.39015840029136
 30
0.0
 10
64.96382105580766
 20
-79.46543373664406
 30
0.0
 10
65.10334742296028
 20
-79.52934025789544
 30
0.0
 10
65.22530380313812
 20
-79.60237628218275
 30
0.0
 10
65.34519312602481
 20
-79.69125974570218
 30
0.0
 10
65.34519312602481
 20
-79.69125974570218
 30
0.0
 10
65.2084228352604
 20
-79.87161049435501
 30
0.0
 10
65.2084228352604
 20
-79.87161049435501
 30
0.0
 10
65.18120658092693
 20
-79.85111217621778
 30
0.0
 10
65.16673717988887
 20
-79.84198267318187
 30
0.0
 10
65.03720158964349
 20
-79.75068764282275
 30
0.0
 10
64.98104653323391
 20
-79.70951875177401
 30
0.0
 10
64.91248913307744
 20
-79.67076142756495
 30
0.0
 10
64.81981606452422
 20
-79.62287460031997
 30
0.0
 10
64.57521428507148
 20
-79.82372366711004
 30
0.0
 10
64.33819171568629
 20
-79.84887286415237
 30
0.0
 10
64.00332843452
 20
-79.88073999739093
 30
0.0
 10
64.00332843452
 20
-79.88073999739093
 30
0.0
 10
63.88378362118183
 20
-79.68678112157136
 30
0.0
 10
63.88378362118183
 20
-79.68678112157136
 30
0.0
 10
64.25034178081242
 20
-79.68230249744055
 30
0.0
 10
64.45325790489363
 20
-79.65474173355854
 30
0.0
 10
64.62895777464138
 20
-79.53623044886595
 30
0.0
 10
64.49218748387696
 20
-79.48145343065048
 30
0.0
 10
64.3895236384165
 20
-79.45165335470307
 30
0.0
 10
64.34818249259351
 20
-79.43804522753632
 30
0.0
 10
64.32613388148792
 20
-79.46767304870947
 30
0.0
 10
64.30890840406167
 20
-79.48817136684671
 30
0.0
 10
64.27721352559736
 20
-79.52468937899036
 30
0.0
 10
64.27721352559736
 20
-79.52468937899036
 30
0.0
 10
64.04983722357088
 20
-79.43563366069665
 30
0.0
 10
64.04983722357088
 20
-79.43563366069665
 30
0.0
 10
64.1452663685123
 20
-79.34898950924261
 30
0.0
 10
64.21589082595992
 20
-79.24632566378217
 30
0.0
 10
64.28203665927671
 20
-79.13677162735122
 30
0.0
 10
64.06223956731777
 20
-79.14125025148205
 30
0.0
 10
64.0377793893725
 20
-79.14125025148205
 30
0.0
 10
63.94235024443108
 20
-79.14590113038714
 30
0.0
 10
63.94235024443108
 20
-79.14590113038714
 30
0.0
 10
63.94235024443108
 20
-78.95418156663298
 30
0.0
 10
63.94235024443108
 20
-78.95418156663298
 30
0.0
 10
64.10358071314077
 20
-78.96089950282922
 30
0.0
 10
64.34542641620531
 20
-78.96555038173432
 30
0.0
 10
64.37505423737846
 20
-78.96555038173432
 30
0.0
 10
64.39434677209586
 20
-78.92903236959066
 30
0.0
 10
64.45808103857298
 20
-78.79898001502248
 30
0.0
 10
64.48012964967859
 20
-78.71905379976468
 30
0.0
 10
64.45808103857298
 20
-78.71905379976468
 30
0.0
 10
64.25275334765209
 20
-78.72594399073519
 30
0.0
 10
64.02778861246527
 20
-78.73955211790192
 30
0.0
 10
64.02778861246527
 20
-78.73955211790192
 30
0.0
 10
64.02778861246527
 20
-78.8833848544111
 30
0.0
 10
64.02778861246527
 20
-78.8833848544111
 30
0.0
 10
63.97163355605571
 20
-78.91077336351884
 30
0.0
 10
63.90307615589924
 20
-78.94505206359707
 30
0.0
 10
63.74942489725709
 20
-79.0156765210447
 30
0.0
 10
63.74942489725709
 20
-79.0156765210447
 30
0.0
 10
63.74942489725709
 20
-79.17328963949488
 30
0.0
 10
63.74942489725709
 20
-79.17328963949488
 30
0.0
 10
63.74942489725709
 20
-79.17328963949488
 30
0.0
 10
63.74942489725709
 20
-79.67765161853545
 30
0.0
 10
63.74942489725709
 20
-79.67765161853545
 30
0.0
 10
63.74942489725709
 20
-79.81459416407414
 30
0.0
 10
63.70773924188557
 20
-79.87850068532552
 30
0.0
 10
63.38011066123831
 20
-79.86937118228961
 30
0.0
 10
63.38011066123831
 20
-79.86937118228961
 30
0.0
 10
63.26056584790014
 20
-79.64578448529689
 30
0.0
 10
63.26056584790014
 20
-79.64578448529689
 30
0.0
 10
63.33394638173596
 20
-79.65939261246363
 30
0.0
 10
63.39010143814554
 20
-79.66404349136872
 30
0.0
 10
63.4366102271964
 20
-79.66404349136872
 30
0.0
 10
63.52446016207028
 20
-79.66404349136872
 30
0.0
 10
63.53651799626865
 20
-79.63889429432639
 30
0.0
 10
63.53651799626865
 20
-79.56809758210451
 30
0.0
 10
63.53651799626865
 20
-79.56809758210451
 30
0.0
 10
63.53651799626865
 20
-79.1047322393384
 30
0.0
 10
63.53651799626865
 20
-79.1047322393384
 30
0.0
 10
63.4242078834495
 20
-79.14814044245256
 30
0.0
 10
63.40457083918358
 20
-79.15503063342305
 30
0.0
 10
63.35082734961369
 20
-79.17552895156028
 30
0.0
 10
63.34600421593434
 20
-79.19826658176294
 30
0.0
 10
63.34118108225498
 20
-79.23030596977576
 30
0.0
 10
63.31913247114939
 20
-79.23030596977576
 30
0.0
 10
63.30948620379068
 20
-79.23030596977576
 30
0.0
 10
63.29708386004378
 20
-79.22582734564493
 30
0.0
 10
63.28984915952476
 20
-79.2006781486026
 30
0.0
 10
63.28984915952476
 20
-79.2006781486026
 30
0.0
 10
63.22887096943584
 20
-78.99293889084204
 30
0.0
 10
63.22887096943584
 20
-78.99293889084204
 30
0.0
 10
63.39733613866456
 20
-78.9426404967574
 30
0.0
 10
63.47312823934006
 20
-78.91766355448934
 30
0.0
 10
63.53651799626865
 20
-78.89475366951243
 30
0.0
 10
63.53651799626865
 20
-78.89475366951243
 30
0.0
 10
63.53651799626865
 20
-78.44964733281815
 30
0.0
 10
63.53651799626865
 20
-78.44964733281815
 30
0.0
 10
63.53651799626865
 20
-78.44964733281815
 30
0.0
 10
63.47553980617973
 20
-78.44964733281815
 30
0.0
 10
63.47553980617973
 20
-78.44964733281815
 30
0.0
 10
63.47553980617973
 20
-78.44964733281815
 30
0.0
 10
63.38527830446618
 20
-78.44964733281815
 30
0.0
 10
63.38527830446618
 20
-78.44964733281815
 30
0.0
 10
63.30707463695101
 20
-78.44964733281815
 30
0.0
 10
63.29708386004378
 20
-78.44964733281815
 30
0.0
 10
63.25574271422079
 20
-78.45653752378864
 30
0.0
 10
63.25574271422079
 20
-78.45653752378864
 30
0.0
 10
63.25574271422079
 20
-78.24655895396268
 30
0.0
 10
63.25574271422079
 20
-78.24655895396268
 30
0.0
 10
63.28743759268509
 20
-78.25344914493317
 30
0.0
 10
63.29708386004378
 20
-78.25344914493317
 30
0.0
 10
63.37769909439864
 20
-78.25344914493317
 30
0.0
 10
63.37769909439864
 20
-78.25344914493317
 30
0.0
 10
63.5316948625893
 20
-78.25344914493317
 30
0.0
 10
63.5316948625893
 20
-78.25344914493317
 30
0.0
 10
63.5316948625893
 20
-78.17817380858045
 30
0.0
 10
63.5316948625893
 20
-78.08911809028675
 30
0.0
 10
63.52928329574963
 20
-78.08446721138166
 30
0.0
 10
63.51963702839092
 20
-77.8905083355621
 30
0.0
 10
63.51963702839092
 20
-77.87001001742486
 30
0.0
 10
63.51722546155125
 20
-77.81988387811448
 30
0.0
 10
63.51722546155125
 20
-77.81988387811448
 30
0.0
 10
63.76630586513482
 20
-77.82884112637613
 30
0.0
 10
63.76630586513482
 20
-77.82884112637613
 30
0.0
 10
63.77870820888172
 20
-77.82884112637613
 30
0.0
 10
63.80316838682699
 20
-77.8312526932158
 30
0.0
 10
63.80316838682699
 20
-77.84951169928763
 30
0.0
 10
63.80316838682699
 20
-77.87001001742486
 30
0.0
 10
63.78594290940074
 20
-77.88137883252618
 30
0.0
 10
63.75665959777611
 20
-77.90187715066342
 30
0.0
 10
63.75665959777611
 20
-77.9566541688789
 30
0.0
 10
63.74942489725709
 20
-78.20332300562278
 30
0.0
 10
63.75183646409677
 20
-78.25344914493317
 30
0.0
 10
63.90066458905956
 20
-78.25344914493317
 30
0.0
 10
63.91547849964613
 20
-78.25344914493317
 30
0.0
 10
64.02778861246527
 20
-78.24431964189726
 30
0.0
 10
64.02778861246527
 20
-78.24431964189726
 30
0.0
 10
64.02778861246527
 20
-78.45429821172324
 30
0.0
 10
64.02778861246527
 20
-78.45429821172324
 30
0.0
 10
63.98403589980261
 20
-78.45205889965783
 30
0.0
 10
63.90583223228743
 20
-78.44740802075273
 30
0.0
 10
63.74942489725709
 20
-78.44964733281815
 30
0.0
 10
63.74942489725709
 20
-78.44964733281815
 30
0.0
 10
63.74942489725709
 20
-78.81482745425463
 30
0.0
 10
63.74942489725709
 20
-78.81482745425463
 30
0.0
 10
63.81281465418569
 20
-78.78985051198657
 30
0.0
 10
63.88860675486119
 20
-78.76005043603915
 30
0.0
 10
63.94476181127076
 20
-78.7350734937711
 30
0.0
 10
63.94476181127076
 20
-78.7350734937711
 30
0.0
 10
63.94476181127076
 20
-78.54335393001695
 30
0.0
 10
63.94476181127076
 20
-78.54335393001695
 30
0.0
 10
64.07670896835583
 20
-78.55696205718368
 30
0.0
 10
64.21347925912025
 20
-78.55696205718368
 30
0.0
 10
64.34818249259351
 20
-78.55696205718368
 30
0.0
 10
64.32131074780857
 20
-78.45429821172324
 30
0.0
 10
64.28927135979573
 20
-78.36524249342952
 30
0.0
 10
64.21589082595992
 20
-78.22158201169461
 30
0.0
 10
64.16490341277822
 20
-78.22382132376002
 30
0.0
 10
64.0694742678368
 20
-78.22829994789085
 30
0.0
 10
64.0253770456256
 20
-78.23053925995626
 30
0.0
 10
64.0253770456256
 20
-78.23053925995626
 30
0.0
 10
64.0253770456256
 20
-78.0365803841367
 30
0.0
 10
64.0253770456256
 20
-78.0365803841367
 30
0.0
 10
64.16972654645757
 20
-78.0457098871726
 30
0.0
 10
64.36988659415059
 20
-78.05036076607769
 30
0.0
 10
64.465315739092
 20
-78.05036076607769
 30
0.0
 10
64.465315739092
 20
-78.05036076607769
 30
0.0
 10
64.56074488403343
 20
-78.05036076607769
 30
0.0
 10
64.56074488403343
 20
-78.05036076607769
 30
0.0
 10
64.56074488403343
 20
-77.87466089632996
 30
0.0
 10
64.56074488403343
 20
-77.86311982645437
 30
0.0
 10
64.55833331719376
 20
-77.80386418410806
 30
0.0
 10
64.55833331719376
 20
-77.80386418410806
 30
0.0
 10
64.81740449768454
 20
-77.8312526932158
 30
0.0
 10
64.81740449768454
 20
-77.8312526932158
 30
0.0
 10
64.82222763136389
 20
-77.8312526932158
 30
0.0
 10
64.84668780930916
 20
-77.83349200528122
 30
0.0
 10
64.84668780930916
 20
-77.85175101135304
 30
0.0
 10
64.84668780930916
 20
-77.86777070535945
 30
0.0
 10
64.83428546556226
 20
-77.87690020839536
 30
0.0
 10
64.80259058709797
 20
-77.89291990240177
 30
0.0
 10
64.79535588657895
 20
-77.9635443598494
 30
0.0
 10
64.79294431973926
 20
-77.9864542448263
 30
0.0
 10
64.79294431973926
 20
-78.05036076607769
 30
0.0
 10
64.79294431973926
 20
-78.05036076607769
 30
0.0
 10
64.90284286571874
 20
-78.05036076607769
 30
0.0
 10
64.90284286571874
 20
-78.05036076607769
 30
0.0
 10
64.99792750111163
 20
-78.05036076607769
 30
0.0
 10
65.19843205835318
 20
-78.0457098871726
 30
0.0
 10
65.34278155918514
 20
-78.0365803841367
 30
0.0
 10
65.34278155918514
 20
-78.0365803841367
 30
0.0
 10
65.34278155918514
 20
-78.23053925995626
 30
0.0
 10
65.34278155918514
 20
-78.23053925995626
 30
0.0
 10
65.30833060433264
 20
-78.22829994789085
 30
0.0
 10
65.17156031356822
 20
-78.22382132376002
 30
0.0
 10
65.12505152451735
 20
-78.22158201169461
 30
0.0
 10
65.10817055663962
 20
-78.27635902991008
 30
0.0
 10
65.06889646810778
 20
-78.39728188144235
 30
0.0
 10
64.99310436743228
 20
-78.54783255414777
 30
0.0
 10
65.04202472332283
 20
-78.54783255414777
 30
0.0
 10
65.36207409390254
 20
-78.52733423601053
 30
0.0
 10
65.43304306089868
 20
-78.52509492394512
 30
0.0
 10
65.43304306089868
 20
-78.52509492394512
 30
0.0
 10
65.43304306089868
 20
-78.7235324238955
 30
0.0
 10
65.43304306089868
 20
-78.7235324238955
 30
0.0
 10
65.3989366155947
 20
-78.7235324238955
 30
0.0
 10
65.37929957132879
 20
-78.71905379976468
 30
0.0
 10
65.19119735783414
 20
-78.71905379976468
 30
0.0
  0
SPLINE
  5
E0
330
B4
100
AcDbEntity
  8
_U+30EC_U+30A4_U+30E4_U+30FC 1
370
     0
100
AcDbSpline
210
0.0
220
0.0
230
1.0
 70
    11
 71
     3
 72
    20
 73
    16
 74
     0
 42
0.0000000001
 43
0.0000000001
 12
1.0
 22
0.0
 32
0.0
 13
1.0
 23
0.0
 33
0.0
 40
0.0
 40
0.0
 40
0.0
 40
0.0
 40
1.0
 40
1.0
 40
1.0
 40
2.0
 40
2.0
 40
2.0
 40
3.0
 40
3.0
 40
3.0
 40
4.0
 40
4.0
 40
4.0
 40
5.0
 40
5.0
 40
5.0
 40
5.0
 10
64.465315739092
 20
-78.21693113278953
 30
0.0
 10
64.465315739092
 20
-78.21693113278953
 30
0.0
 10
64.42879772694836
 20
-78.21693113278953
 30
0.0
 10
64.42879772694836
 20
-78.21693113278953
 30
0.0
 10
64.48254121651826
 20
-78.32424585715505
 30
0.0
 10
64.5190592286619
 20
-78.41089000860909
 30
0.0
 10
64.55833331719376
 20
-78.54783255414777
 30
0.0
 10
64.55833331719376
 20
-78.54783255414777
 30
0.0
 10
64.79776745341861
 20
-78.54783255414777
 30
0.0
 10
64.79776745341861
 20
-78.54783255414777
 30
0.0
 10
64.83428546556226
 20
-78.44740802075273
 30
0.0
 10
64.86115721034722
 20
-78.35611299039361
 30
0.0
 10
64.88802895513216
 20
-78.21693113278953
 30
0.0
 10
64.88802895513216
 20
-78.21693113278953
 30
0.0
 10
64.465315739092
 20
-78.21693113278953
 30
0.0
 10
64.465315739092
 20
-78.21693113278953
 30
0.0
  0
SPLINE
  5
E1
330
B4
100
AcDbEntity
  8
_U+30EC_U+30A4_U+30E4_U+30FC 1
370
     0
100
AcDbSpline
210
0.0
220
0.0
230
1.0
 70
    11
 71
     3
 72
    17
 73
    13
 74
     0
 42
0.0000000001
 43
0.0000000001
 12
1.0
 22
0.0
 32
0.0
 13
1.0
 23
0.0
 33
0.0
 40
0.0
 40
0.0
 40
0.0
 40
0.0
 40
1.0
 40
1.0
 40
1.0
 40
2.0
 40
2.0
 40
2.0
 40
3.0
 40
3.0
 40
3.0
 40
4.0
 40
4.0
 40
4.0
 40
4.0
 10
64.53869627292782
 20
-79.13453231528581
 30
0.0
 10
64.5190592286619
 20
-79.16639944852437
 30
0.0
 10
64.46049260541265
 20
-79.26682398191942
 30
0.0
 10
64.44809026166575
 20
-79.28732230005664
 30
0.0
 10
64.66823186317322
 20
-79.35122882130803
 30
0.0
 10
64.69269204111849
 20
-79.35811901227854
 30
0.0
 10
64.77571884231301
 20
-79.38774683345167
 30
0.0
 10
64.83910859924161
 20
-79.29421249102714
 30
0.0
 10
64.86598034402657
 20
-79.21428627576935
 30
0.0
 10
64.88320582145282
 20
-79.13453231528581
 30
0.0
 10
64.88320582145282
 20
-79.13453231528581
 30
0.0
 10
64.53869627292782
 20
-79.13453231528581
 30
0.0
 10
64.53869627292782
 20
-79.13453231528581
 30
0.0
  0
HATCH
  5
E2
330
B4
100
AcDbEntity
  8
_U+30EC_U+30A4_U+30E4_U+30FC 1
 62
   179
420
  2234388
100
AcDbHatch
 10
0.0
 20
0.0
 30
0.0
210
0.0
220
0.0
230
1.0
  2
SOLID
 70
     1
 71
     0
 91
        3
 92
        1
 93
        1
 72
     4
 94
        3
 73
     0
 74
     1
 95
      242
 96
      238
 40
0.0
 40
0.0
 40
0.0
 40
0.0
 40
1.0
 40
1.0
 40
1.0
 40
2.0
 40
2.0
 40
2.0
 40
3.0
 40
3.0
 40
3.0
 40
4.0
 40
4.0
 40
4.0
 40
5.0
 40
5.0
 40
5.0
 40
6.0
 40
6.0
 40
6.0
 40
7.0
 40
7.0
 40
7.0
 40
8.0
 40
8.0
 40
8.0
 40
9.0
 40
9.0
 40
9.0
 40
10.0
 40
10.0
 40
10.0
 40
11.0
 40
11.0
 40
11.0
 40
12.0
 40
12.0
 40
12.0
 40
13.0
 40
13.0
 40
13.0
 40
14.0
 40
14.0
 40
14.0
 40
15.0
 40
15.0
 40
15.0
 40
16.0
 40
16.0
 40
16.0
 40
17.0
 40
17.0
 40
17.0
 40
18.0
 40
18.0
 40
18.0
 40
19.0
 40
19.0
 40
19.0
 40
20.0
 40
20.0
 40
20.0
 40
21.0
 40
21.0
 40
21.0
 40
22.0
 40
22.0
 40
22.0
 40
23.0
 40
23.0
 40
23.0
 40
24.0
 40
24.0
 40
24.0
 40
25.0
 40
25.0
 40
25.0
 40
26.0
 40
26.0
 40
26.0
 40
27.0
 40
27.0
 40
27.0
 40
28.0
 40
28.0
 40
28.0
 40
29.0
 40
29.0
 40
29.0
 40
30.0
 40
30.0
 40
30.0
 40
31.0
 40
31.0
 40
31.0
 40
32.0
 40
32.0
 40
32.0
 40
33.0
 40
33.0
 40
33.0
 40
34.0
 40
34.0
 40
34.0
 40
35.0
 40
35.0
 40
35.0
 40
36.0
 40
36.0
 40
36.0
 40
37.0
 40
37.0
 40
37.0
 40
38.0
 40
38.0
 40
38.0
 40
39.0
 40
39.0
 40
39.0
 40
40.0
 40
40.0
 40
40.0
 40
41.0
 40
41.0
 40
41.0
 40
42.0
 40
42.0
 40
42.0
 40
43.0
 40
43.0
 40
43.0
 40
44.0
 40
44.0
 40
44.0
 40
45.0
 40
45.0
 40
45.0
 40
46.0
 40
46.0
 40
46.0
 40
47.0
 40
47.0
 40
47.0
 40
48.0
 40
48.0
 40
48.0
 40
49.0
 40
49.0
 40
49.0
 40
50.0
 40
50.0
 40
50.0
 40
51.0
 40
51.0
 40
51.0
 40
52.0
 40
52.0
 40
52.0
 40
53.0
 40
53.0
 40
53.0
 40
54.0
 40
54.0
 40
54.0
 40
55.0
 40
55.0
 40
55.0
 40
56.0
 40
56.0
 40
56.0
 40
57.0
 40
57.0
 40
57.0
 40
58.0
 40
58.0
 40
58.0
 40
59.0
 40
59.0
 40
59.0
 40
60.0
 40
60.0
 40
60.0
 40
61.0
 40
61.0
 40
61.0
 40
62.0
 40
62.0
 40
62.0
 40
63.0
 40
63.0
 40
63.0
 40
64.0
 40
64.0
 40
64.0
 40
65.0
 40
65.0
 40
65.0
 40
66.0
 40
66.0
 40
66.0
 40
67.0
 40
67.0
 40
67.0
 40
68.0
 40
68.0
 40
68.0
 40
69.0
 40
69.0
 40
69.0
 40
70.0
 40
70.0
 40
70.0
 40
71.0
 40
71.0
 40
71.0
 40
72.0
 40
72.0
 40
72.0
 40
73.0
 40
73.0
 40
73.0
 40
74.0
 40
74.0
 40
74.0
 40
75.0
 40
75.0
 40
75.0
 40
76.0
 40
76.0
 40
76.0
 40
77.0
 40
77.0
 40
77.0
 40
78.0
 40
78.0
 40
78.0
 40
79.0
 40
79.0
 40
79.0
 40
79.0
 10
65.19119735783414
 20
-78.71905379976468
 10
65.19119735783414
 20
-78.71905379976468
 10
64.89801973203939
 20
-78.71905379976468
 10
64.89801973203939
 20
-78.71905379976468
 10
64.89801973203939
 20
-78.71905379976468
 10
64.57762585191115
 20
-78.71905379976468
 10
64.57762585191115
 20
-78.71905379976468
 10
64.57762585191115
 20
-78.71905379976468
 10
64.7243869195828
 20
-78.76470131494425
 10
64.7243869195828
 20
-78.76470131494425
 10
64.73644475378117
 20
-78.76935219384933
 10
64.75125866436774
 20
-78.77607013004557
 10
64.75125866436774
 20
-78.78985051198657
 10
64.75125866436774
 20
-78.81258814218921
 10
64.7147406522241
 20
-78.81947833315972
 10
64.69028047427882
 20
-78.8241292120648
 10
64.67787813053192
 20
-78.84910615433287
 10
64.64377168522795
 20
-78.91990286655475
 10
64.62172307412234
 20
-78.96778969379972
 10
64.62172307412234
 20
-78.96778969379972
 10
64.93453774418303
 20
-78.96778969379972
 10
64.93453774418303
 20
-78.96778969379972
 10
65.03961315648316
 20
-78.96778969379972
 10
65.26698945850964
 20
-78.9633110696689
 10
65.43063149405901
 20
-78.95418156663298
 10
65.43063149405901
 20
-78.95418156663298
 10
65.43063149405901
 20
-79.14590113038714
 10
65.43063149405901
 20
-79.14590113038714
 10
65.3352023491176
 20
-79.14125025148205
 10
65.31074217117232
 20
-79.14125025148205
 10
65.10334742296028
 20
-79.13677162735122
 10
65.0664849012681
 20
-79.30334199406306
 10
65.01515297853788
 20
-79.39015840029136
 10
64.96382105580766
 20
-79.46543373664406
 10
65.10334742296028
 20
-79.52934025789544
 10
65.22530380313812
 20
-79.60237628218275
 10
65.34519312602481
 20
-79.69125974570218
 10
65.34519312602481
 20
-79.69125974570218
 10
65.2084228352604
 20
-79.87161049435501
 10
65.2084228352604
 20
-79.87161049435501
 10
65.18120658092693
 20
-79.85111217621778
 10
65.16673717988887
 20
-79.84198267318187
 10
65.03720158964349
 20
-79.75068764282275
 10
64.98104653323391
 20
-79.70951875177401
 10
64.91248913307744
 20
-79.67076142756495
 10
64.81981606452422
 20
-79.62287460031997
 10
64.57521428507148
 20
-79.82372366711004
 10
64.33819171568629
 20
-79.84887286415237
 10
64.00332843452
 20
-79.88073999739093
 10
64.00332843452
 20
-79.88073999739093
 10
63.88378362118183
 20
-79.68678112157136
 10
63.88378362118183
 20
-79.68678112157136
 10
64.25034178081242
 20
-79.68230249744055
 10
64.45325790489363
 20
-79.65474173355854
 10
64.62895777464138
 20
-79.53623044886595
 10
64.49218748387696
 20
-79.48145343065048
 10
64.3895236384165
 20
-79.45165335470307
 10
64.34818249259351
 20
-79.43804522753632
 10
64.32613388148792
 20
-79.46767304870947
 10
64.30890840406167
 20
-79.48817136684671
 10
64.27721352559736
 20
-79.52468937899036
 10
64.27721352559736
 20
-79.52468937899036
 10
64.04983722357088
 20
-79.43563366069665
 10
64.04983722357088
 20
-79.43563366069665
 10
64.1452663685123
 20
-79.34898950924261
 10
64.21589082595992
 20
-79.24632566378217
 10
64.28203665927671
 20
-79.13677162735122
 10
64.06223956731777
 20
-79.14125025148205
 10
64.0377793893725
 20
-79.14125025148205
 10
63.94235024443108
 20
-79.14590113038714
 10
63.94235024443108
 20
-79.14590113038714
 10
63.94235024443108
 20
-78.95418156663298
 10
63.94235024443108
 20
-78.95418156663298
 10
64.10358071314077
 20
-78.96089950282922
 10
64.34542641620531
 20
-78.96555038173432
 10
64.37505423737846
 20
-78.96555038173432
 10
64.39434677209586
 20
-78.92903236959066
 10
64.45808103857298
 20
-78.79898001502248
 10
64.48012964967859
 20
-78.71905379976468
 10
64.45808103857298
 20
-78.71905379976468
 10
64.25275334765209
 20
-78.72594399073519
 10
64.02778861246527
 20
-78.73955211790192
 10
64.02778861246527
 20
-78.73955211790192
 10
64.02778861246527
 20
-78.8833848544111
 10
64.02778861246527
 20
-78.8833848544111
 10
63.97163355605571
 20
-78.91077336351884
 10
63.90307615589924
 20
-78.94505206359707
 10
63.74942489725709
 20
-79.0156765210447
 10
63.74942489725709
 20
-79.0156765210447
 10
63.74942489725709
 20
-79.17328963949488
 10
63.74942489725709
 20
-79.17328963949488
 10
63.74942489725709
 20
-79.17328963949488
 10
63.74942489725709
 20
-79.67765161853545
 10
63.74942489725709
 20
-79.67765161853545
 10
63.74942489725709
 20
-79.81459416407414
 10
63.70773924188557
 20
-79.87850068532552
 10
63.38011066123831
 20
-79.86937118228961
 10
63.38011066123831
 20
-79.86937118228961
 10
63.26056584790014
 20
-79.64578448529689
 10
63.26056584790014
 20
-79.64578448529689
 10
63.33394638173596
 20
-79.65939261246363
 10
63.39010143814554
 20
-79.66404349136872
 10
63.4366102271964
 20
-79.66404349136872
 10
63.52446016207028
 20
-79.66404349136872
 10
63.53651799626865
 20
-79.63889429432639
 10
63.53651799626865
 20
-79.56809758210451
 10
63.53651799626865
 20
-79.56809758210451
 10
63.53651799626865
 20
-79.1047322393384
 10
63.53651799626865
 20
-79.1047322393384
 10
63.4242078834495
 20
-79.14814044245256
 10
63.40457083918358
 20
-79.15503063342305
 10
63.35082734961369
 20
-79.17552895156028
 10
63.34600421593434
 20
-79.19826658176294
 10
63.34118108225498
 20
-79.23030596977576
 10
63.31913247114939
 20
-79.23030596977576
 10
63.30948620379068
 20
-79.23030596977576
 10
63.29708386004378
 20
-79.22582734564493
 10
63.28984915952476
 20
-79.2006781486026
 10
63.28984915952476
 20
-79.2006781486026
 10
63.22887096943584
 20
-78.99293889084204
 10
63.22887096943584
 20
-78.99293889084204
 10
63.39733613866456
 20
-78.9426404967574
 10
63.47312823934006
 20
-78.91766355448934
 10
63.53651799626865
 20
-78.89475366951243
 10
63.53651799626865
 20
-78.89475366951243
 10
63.53651799626865
 20
-78.44964733281815
 10
63.53651799626865
 20
-78.44964733281815
 10
63.53651799626865
 20
-78.44964733281815
 10
63.47553980617973
 20
-78.44964733281815
 10
63.47553980617973
 20
-78.44964733281815
 10
63.47553980617973
 20
-78.44964733281815
 10
63.38527830446618
 20
-78.44964733281815
 10
63.38527830446618
 20
-78.44964733281815
 10
63.30707463695101
 20
-78.44964733281815
 10
63.29708386004378
 20
-78.44964733281815
 10
63.25574271422079
 20
-78.45653752378864
 10
63.25574271422079
 20
-78.45653752378864
 10
63.25574271422079
 20
-78.24655895396268
 10
63.25574271422079
 20
-78.24655895396268
 10
63.28743759268509
 20
-78.25344914493317
 10
63.29708386004378
 20
-78.25344914493317
 10
63.37769909439864
 20
-78.25344914493317
 10
63.37769909439864
 20
-78.25344914493317
 10
63.5316948625893
 20
-78.25344914493317
 10
63.5316948625893
 20
-78.25344914493317
 10
63.5316948625893
 20
-78.17817380858045
 10
63.5316948625893
 20
-78.08911809028675
 10
63.52928329574963
 20
-78.08446721138166
 10
63.51963702839092
 20
-77.8905083355621
 10
63.51963702839092
 20
-77.87001001742486
 10
63.51722546155125
 20
-77.81988387811448
 10
63.51722546155125
 20
-77.81988387811448
 10
63.76630586513482
 20
-77.82884112637613
 10
63.76630586513482
 20
-77.82884112637613
 10
63.77870820888172
 20
-77.82884112637613
 10
63.80316838682699
 20
-77.8312526932158
 10
63.80316838682699
 20
-77.84951169928763
 10
63.80316838682699
 20
-77.87001001742486
 10
63.78594290940074
 20
-77.88137883252618
 10
63.75665959777611
 20
-77.90187715066342
 10
63.75665959777611
 20
-77.9566541688789
 10
63.74942489725709
 20
-78.20332300562278
 10
63.75183646409677
 20
-78.25344914493317
 10
63.90066458905956
 20
-78.25344914493317
 10
63.91547849964613
 20
-78.25344914493317
 10
64.02778861246527
 20
-78.24431964189726
 10
64.02778861246527
 20
-78.24431964189726
 10
64.02778861246527
 20
-78.45429821172324
 10
64.02778861246527
 20
-78.45429821172324
 10
63.98403589980261
 20
-78.45205889965783
 10
63.90583223228743
 20
-78.44740802075273
 10
63.74942489725709
 20
-78.44964733281815
 10
63.74942489725709
 20
-78.44964733281815
 10
63.74942489725709
 20
-78.81482745425463
 10
63.74942489725709
 20
-78.81482745425463
 10
63.81281465418569
 20
-78.78985051198657
 10
63.88860675486119
 20
-78.76005043603915
 10
63.94476181127076
 20
-78.7350734937711
 10
63.94476181127076
 20
-78.7350734937711
 10
63.94476181127076
 20
-78.54335393001695
 10
63.94476181127076
 20
-78.54335393001695
 10
64.07670896835583
 20
-78.55696205718368
 10
64.21347925912025
 20
-78.55696205718368
 10
64.34818249259351
 20
-78.55696205718368
 10
64.32131074780857
 20
-78.45429821172324
 10
64.28927135979573
 20
-78.36524249342952
 10
64.21589082595992
 20
-78.22158201169461
 10
64.16490341277822
 20
-78.22382132376002
 10
64.0694742678368
 20
-78.22829994789085
 10
64.0253770456256
 20
-78.23053925995626
 10
64.0253770456256
 20
-78.23053925995626
 10
64.0253770456256
 20
-78.0365803841367
 10
64.0253770456256
 20
-78.0365803841367
 10
64.16972654645757
 20
-78.0457098871726
 10
64.36988659415059
 20
-78.05036076607769
 10
64.465315739092
 20
-78.05036076607769
 10
64.465315739092
 20
-78.05036076607769
 10
64.56074488403343
 20
-78.05036076607769
 10
64.56074488403343
 20
-78.05036076607769
 10
64.56074488403343
 20
-77.87466089632996
 10
64.56074488403343
 20
-77.86311982645437
 10
64.55833331719376
 20
-77.80386418410806
 10
64.55833331719376
 20
-77.80386418410806
 10
64.81740449768454
 20
-77.8312526932158
 10
64.81740449768454
 20
-77.8312526932158
 10
64.82222763136389
 20
-77.8312526932158
 10
64.84668780930916
 20
-77.83349200528122
 10
64.84668780930916
 20
-77.85175101135304
 10
64.84668780930916
 20
-77.86777070535945
 10
64.83428546556226
 20
-77.87690020839536
 10
64.80259058709797
 20
-77.89291990240177
 10
64.79535588657895
 20
-77.9635443598494
 10
64.79294431973926
 20
-77.9864542448263
 10
64.79294431973926
 20
-78.05036076607769
 10
64.79294431973926
 20
-78.05036076607769
 10
64.90284286571874
 20
-78.05036076607769
 10
64.90284286571874
 20
-78.05036076607769
 10
64.99792750111163
 20
-78.05036076607769
 10
65.19843205835318
 20
-78.0457098871726
 10
65.34278155918514
 20
-78.0365803841367
 10
65.34278155918514
 20
-78.0365803841367
 10
65.34278155918514
 20
-78.23053925995626
 10
65.34278155918514
 20
-78.23053925995626
 10
65.30833060433264
 20
-78.22829994789085
 10
65.17156031356822
 20
-78.22382132376002
 10
65.12505152451735
 20
-78.22158201169461
 10
65.10817055663962
 20
-78.27635902991008
 10
65.06889646810778
 20
-78.39728188144235
 10
64.99310436743228
 20
-78.54783255414777
 10
65.04202472332283
 20
-78.54783255414777
 10
65.36207409390254
 20
-78.52733423601053
 10
65.43304306089868
 20
-78.52509492394512
 10
65.43304306089868
 20
-78.52509492394512
 10
65.43304306089868
 20
-78.7235324238955
 10
65.43304306089868
 20
-78.7235324238955
 10
65.3989366155947
 20
-78.7235324238955
 10
65.37929957132879
 20
-78.71905379976468
 10
65.19119735783414
 20
-78.71905379976468
 97
        0
 97
        0
 92
        1
 93
        1
 72
     4
 94
        3
 73
     0
 74
     1
 95
       20
 96
       16
 40
0.0
 40
0.0
 40
0.0
 40
0.0
 40
1.0
 40
1.0
 40
1.0
 40
2.0
 40
2.0
 40
2.0
 40
3.0
 40
3.0
 40
3.0
 40
4.0
 40
4.0
 40
4.0
 40
5.0
 40
5.0
 40
5.0
 40
5.0
 10
64.465315739092
 20
-78.21693113278953
 10
64.465315739092
 20
-78.21693113278953
 10
64.42879772694836
 20
-78.21693113278953
 10
64.42879772694836
 20
-78.21693113278953
 10
64.48254121651826
 20
-78.32424585715505
 10
64.5190592286619
 20
-78.41089000860909
 10
64.55833331719376
 20
-78.54783255414777
 10
64.55833331719376
 20
-78.54783255414777
 10
64.79776745341861
 20
-78.54783255414777
 10
64.79776745341861
 20
-78.54783255414777
 10
64.83428546556226
 20
-78.44740802075273
 10
64.86115721034722
 20
-78.35611299039361
 10
64.88802895513216
 20
-78.21693113278953
 10
64.88802895513216
 20
-78.21693113278953
 10
64.465315739092
 20
-78.21693113278953
 10
64.465315739092
 20
-78.21693113278953
 97
        0
 97
        0
 92
        1
 93
        1
 72
     4
 94
        3
 73
     0
 74
     1
 95
       17
 96
       13
 40
0.0
 40
0.0
 40
0.0
 40
0.0
 40
1.0
 40
1.0
 40
1.0
 40
2.0
 40
2.0
 40
2.0
 40
3.0
 40
3.0
 40
3.0
 40
4.0
 40
4.0
 40
4.0
 40
4.0
 10
64.53869627292782
 20
-79.13453231528581
 10
64.5190592286619
 20
-79.16639944852437
 10
64.46049260541265
 20
-79.26682398191942
 10
64.44809026166575
 20
-79.28732230005664
 10
64.66823186317322
 20
-79.35122882130803
 10
64.69269204111849
 20
-79.35811901227854
 10
64.77571884231301
 20
-79.38774683345167
 10
64.83910859924161
 20
-79.29421249102714
 10
64.86598034402657
 20
-79.21428627576935
 10
64.88320582145282
 20
-79.13453231528581
 10
64.88320582145282
 20
-79.13453231528581
 10
64.53869627292782
 20
-79.13453231528581
 10
64.53869627292782
 20
-79.13453231528581
 97
        0
 97
        0
 75
     2
 76
     1
 98
        0
  0
SPLINE
  5
E3
330
B4
100
AcDbEntity
  8
_U+30EC_U+30A4_U+30E4_U+30FC 1
370
     0
100
AcDbSpline
210
0.0
220
0.0
230
1.0
 70
    11
 71
     3
 72
   203
 73
   199
 74
     0
 42
0.0000000001
 43
0.0000000001
 12
1.0
 22
0.0
 32
0.0
 13
1.0
 23
0.0
 33
0.0
 40
0.0
 40
0.0
 40
0.0
 40
0.0
 40
1.0
 40
1.0
 40
1.0
 40
2.0
 40
2.0
 40
2.0
 40
3.0
 40
3.0
 40
3.0
 40
4.0
 40
4.0
 40
4.0
 40
5.0
 40
5.0
 40
5.0
 40
6.0
 40
6.0
 40
6.0
 40
7.0
 40
7.0
 40
7.0
 40
8.0
 40
8.0
 40
8.0
 40
9.0
 40
9.0
 40
9.0
 40
10.0
 40
10.0
 40
10.0
 40
11.0
 40
11.0
 40
11.0
 40
12.0
 40
12.0
 40
12.0
 40
13.0
 40
13.0
 40
13.0
 40
14.0
 40
14.0
 40
14.0
 40
15.0
 40
15.0
 40
15.0
 40
16.0
 40
16.0
 40
16.0
 40
17.0
 40
17.0
 40
17.0
 40
18.0
 40
18.0
 40
18.0
 40
19.0
 40
19.0
 40
19.0
 40
20.0
 40
20.0
 40
20.0
 40
21.0
 40
21.0
 40
21.0
 40
22.0
 40
22.0
 40
22.0
 40
23.0
 40
23.0
 40
23.0
 40
24.0
 40
24.0
 40
24.0
 40
25.0
 40
25.0
 40
25.0
 40
26.0
 40
26.0
 40
26.0
 40
27.0
 40
27.0
 40
27.0
 40
28.0
 40
28.0
 40
28.0
 40
29.0
 40
29.0
 40
29.0
 40
30.0
 40
30.0
 40
30.0
 40
31.0
 40
31.0
 40
31.0
 40
32.0
 40
32.0
 40
32.0
 40
33.0
 40
33.0
 40
33.0
 40
34.0
 40
34.0
 40
34.0
 40
35.0
 40
35.0
 40
35.0
 40
36.0
 40
36.0
 40
36.0
 40
37.0
 40
37.0
 40
37.0
 40
38.0
 40
38.0
 40
38.0
 40
39.0
 40
39.0
 40
39.0
 40
40.0
 40
40.0
 40
40.0
 40
41.0
 40
41.0
 40
41.0
 40
42.0
 40
42.0
 40
42.0
 40
43.0
 40
43.0
 40
43.0
 40
44.0
 40
44.0
 40
44.0
 40
45.0
 40
45.0
 40
45.0
 40
46.0
 40
46.0
 40
46.0
 40
47.0
 40
47.0
 40
47.0
 40
48.0
 40
48.0
 40
48.0
 40
49.0
 40
49.0
 40
49.0
 40
50.0
 40
50.0
 40
50.0
 40
51.0
 40
51.0
 40
51.0
 40
52.0
 40
52.0
 40
52.0
 40
53.0
 40
53.0
 40
53.0
 40
54.0
 40
54.0
 40
54.0
 40
55.0
 40
55.0
 40
55.0
 40
56.0
 40
56.0
 40
56.0
 40
57.0
 40
57.0
 40
57.0
 40
58.0
 40
58.0
 40
58.0
 40
59.0
 40
59.0
 40
59.0
 40
60.0
 40
60.0
 40
60.0
 40
61.0
 40
61.0
 40
61.0
 40
62.0
 40
62.0
 40
62.0
 40
63.0
 40
63.0
 40
63.0
 40
64.0
 40
64.0
 40
64.0
 40
65.0
 40
65.0
 40
65.0
 40
66.0
 40
66.0
 40
66.0
 40
66.0
 10
67.1418104215826
 20
-78.79208982405198
 30
0.0
 10
67.1418104215826
 20
-78.79208982405198
 30
0.0
 10
66.4965440371953
 20
-78.79208982405198
 30
0.0
 10
66.4965440371953
 20
-78.79208982405198
 30
0.0
 10
66.48448620299693
 20
-78.83997665129695
 30
0.0
 10
66.47449542608972
 20
-78.87425535137518
 30
0.0
 10
66.46002602505166
 20
-78.91542424242392
 30
0.0
 10
66.48930933667629
 20
-78.91542424242392
 30
0.0
 10
66.50653481410254
 20
-78.91766355448934
 30
0.0
 10
66.51376951462156
 20
-78.91766355448934
 30
0.0
 10
66.51376951462156
 20
-78.91766355448934
 30
0.0
 10
66.73115503974083
 20
-78.91766355448934
 30
0.0
 10
66.73115503974083
 20
-78.91766355448934
 30
0.0
 10
66.73115503974083
 20
-78.91766355448934
 30
0.0
 10
67.16385903268821
 20
-78.91766355448934
 30
0.0
 10
67.16385903268821
 20
-78.91766355448934
 30
0.0
 10
67.22242565593746
 20
-78.91766355448934
 30
0.0
 10
67.55005423658471
 20
-78.90388317254833
 30
0.0
 10
67.58657224872836
 20
-78.90388317254833
 30
0.0
 10
67.58416068188869
 20
-78.93368324849575
 30
0.0
 10
67.581749115049
 20
-78.95418156663298
 30
0.0
 10
67.581749115049
 20
-78.98604869987155
 30
0.0
 10
67.57933754820934
 20
-79.02032739994978
 30
0.0
 10
67.57933754820934
 20
-79.16639944852437
 30
0.0
 10
67.57933754820934
 20
-79.19602726969752
 30
0.0
 10
67.57933754820934
 20
-79.19602726969752
 30
0.0
 10
67.57933754820934
 20
-79.46078285773898
 30
0.0
 10
67.57933754820934
 20
-79.46078285773898
 30
0.0
 10
67.57933754820934
 20
-79.50866968498394
 30
0.0
 10
67.58416068188869
 20
-79.7210598216496
 30
0.0
 10
67.58898381556803
 20
-79.88539087629601
 30
0.0
 10
67.58898381556803
 20
-79.88539087629601
 30
0.0
 10
67.32750106823757
 20
-79.88539087629601
 30
0.0
 10
67.32750106823757
 20
-79.88539087629601
 30
0.0
 10
67.32750106823757
 20
-79.88539087629601
 30
0.0
 10
67.32991263507725
 20
-79.84887286415237
 30
0.0
 10
67.32991263507725
 20
-79.84887286415237
 30
0.0
 10
67.32991263507725
 20
-79.84887286415237
 30
0.0
 10
66.51859264830091
 20
-79.84887286415237
 30
0.0
 10
66.51859264830091
 20
-79.84887286415237
 30
0.0
 10
66.51859264830091
 20
-79.84887286415237
 30
0.0
 10
66.52100421514058
 20
-79.88539087629601
 30
0.0
 10
66.52100421514058
 20
-79.88539087629601
 30
0.0
 10
66.52100421514058
 20
-79.88539087629601
 30
0.0
 10
66.26951224471735
 20
-79.88539087629601
 30
0.0
 10
66.26951224471735
 20
-79.88539087629601
 30
0.0
 10
66.2743353783967
 20
-79.82596297917546
 30
0.0
 10
66.2743353783967
 20
-79.81235485200872
 30
0.0
 10
66.28157007891572
 20
-79.68902043363677
 30
0.0
 10
66.28398164575539
 20
-79.65939261246363
 30
0.0
 10
66.28639321259507
 20
-79.51555987595445
 30
0.0
 10
66.28639321259507
 20
-79.49506155781721
 30
0.0
 10
66.28639321259507
 20
-79.49506155781721
 30
0.0
 10
66.28639321259507
 20
-79.27595348495532
 30
0.0
 10
66.28639321259507
 20
-79.27595348495532
 30
0.0
 10
66.12516274388538
 20
-79.5451876971276
 30
0.0
 10
65.92982582987172
 20
-79.68678112157136
 30
0.0
 10
65.80752494014534
 20
-79.75757783379325
 30
0.0
 10
65.80752494014534
 20
-79.75757783379325
 30
0.0
 10
65.6070203829038
 20
-79.60685490631357
 30
0.0
 10
65.6070203829038
 20
-79.60685490631357
 30
0.0
 10
65.70968422836425
 20
-79.5520778880981
 30
0.0
 10
65.8757378307533
 20
-79.45854354567356
 30
0.0
 10
66.03490124217183
 20
-79.24856497584759
 30
0.0
 10
66.13997665447195
 20
-79.1116224303089
 30
0.0
 10
66.21542424559892
 20
-78.9564208786984
 30
0.0
 10
66.25469833413078
 20
-78.79208982405198
 30
0.0
 10
65.99080401996063
 20
-78.7943291361174
 30
0.0
 10
65.78306476220007
 20
-78.80121932708789
 30
0.0
 10
65.6731662162206
 20
-78.8034586391533
 30
0.0
 10
65.6731662162206
 20
-78.8034586391533
 30
0.0
 10
65.6731662162206
 20
-78.61173907539916
 30
0.0
 10
65.6731662162206
 20
-78.61173907539916
 30
0.0
 10
65.90019800869857
 20
-78.61862926636965
 30
0.0
 10
66.22782658934582
 20
-78.62328014527473
 30
0.0
 10
66.40145940180241
 20
-78.62328014527473
 30
0.0
 10
66.40145940180241
 20
-78.62328014527473
 30
0.0
 10
66.6481282385463
 20
-78.62328014527473
 30
0.0
 10
66.6481282385463
 20
-78.62328014527473
 30
0.0
 10
66.6481282385463
 20
-78.62328014527473
 30
0.0
 10
66.6481282385463
 20
-78.50683591787329
 30
0.0
 10
66.6481282385463
 20
-78.50683591787329
 30
0.0
 10
66.6481282385463
 20
-78.50683591787329
 30
0.0
 10
66.47966306931758
 20
-78.50683591787329
 30
0.0
 10
66.47966306931758
 20
-78.50683591787329
 30
0.0
 10
66.28398164575539
 20
-78.50683591787329
 30
0.0
 10
66.08864473174174
 20
-78.51131454200411
 30
0.0
 10
65.89537487501921
 20
-78.51820473297462
 30
0.0
 10
65.89537487501921
 20
-78.51820473297462
 30
0.0
 10
65.89537487501921
 20
-78.33337536019097
 30
0.0
 10
65.89537487501921
 20
-78.33337536019097
 30
0.0
 10
66.07383082115516
 20
-78.34474417529229
 30
0.0
 10
66.28880477943474
 20
-78.34474417529229
 30
0.0
 10
66.47966306931758
 20
-78.34474417529229
 30
0.0
 10
66.47966306931758
 20
-78.34474417529229
 30
0.0
 10
66.6481282385463
 20
-78.34474417529229
 30
0.0
 10
66.6481282385463
 20
-78.34474417529229
 30
0.0
 10
66.6481282385463
 20
-78.34474417529229
 30
0.0
 10
66.6481282385463
 20
-78.21693113278953
 30
0.0
 10
66.6481282385463
 20
-78.21693113278953
 30
0.0
 10
66.6481282385463
 20
-78.21693113278953
 30
0.0
 10
66.4965440371953
 20
-78.21693113278953
 30
0.0
 10
66.4965440371953
 20
-78.21693113278953
 30
0.0
 10
66.44280054762541
 20
-78.21693113278953
 30
0.0
 10
66.2081895450799
 20
-78.22606063582543
 30
0.0
 10
66.15926918918936
 20
-78.22606063582543
 30
0.0
 10
65.92465818664384
 20
-78.23053925995626
 30
0.0
 10
65.83680825176997
 20
-78.23295082679593
 30
0.0
 10
65.7462022405079
 20
-78.23519013886134
 30
0.0
 10
65.7462022405079
 20
-78.23519013886134
 30
0.0
 10
65.7462022405079
 20
-78.0365803841367
 30
0.0
 10
65.7462022405079
 20
-78.0365803841367
 30
0.0
 10
65.87849390714149
 20
-78.0457098871726
 30
0.0
 10
65.92982582987172
 20
-78.0457098871726
 30
0.0
 10
66.37183158062926
 20
-78.05483939020851
 30
0.0
 10
66.29879555634197
 20
-77.95217554474807
 30
0.0
 10
66.26675616832915
 20
-77.92254772357492
 30
0.0
 10
66.22541502250616
 20
-77.8836181445916
 30
0.0
 10
66.22541502250616
 20
-77.8836181445916
 30
0.0
 10
66.42833114658737
 20
-77.79473468107216
 30
0.0
 10
66.42833114658737
 20
-77.79473468107216
 30
0.0
 10
66.47449542608972
 20
-77.83349200528122
 30
0.0
 10
66.52582734881993
 20
-77.87913952046077
 30
0.0
 10
66.61161022640266
 20
-77.99782305992763
 30
0.0
 10
66.61161022640266
 20
-77.99782305992763
 30
0.0
 10
66.47966306931758
 20
-78.0572509570482
 30
0.0
 10
66.47966306931758
 20
-78.0572509570482
 30
0.0
 10
66.47966306931758
 20
-78.0572509570482
 30
0.0
 10
66.49172090351597
 20
-78.0572509570482
 30
0.0
 10
66.49172090351597
 20
-78.0572509570482
 30
0.0
 10
66.49172090351597
 20
-78.0572509570482
 30
0.0
 10
67.09530163253173
 20
-78.0572509570482
 30
0.0
 10
67.09530163253173
 20
-78.0572509570482
 30
0.0
 10
67.09530163253173
 20
-78.0572509570482
 30
0.0
 10
66.98540308655227
 20
-78.00919187502896
 30
0.0
 10
66.98540308655227
 20
-78.00919187502896
 30
0.0
 10
67.01709796501656
 20
-77.96819523875448
 30
0.0
 10
67.08324379833336
 20
-77.88137883252618
 30
0.0
 10
67.10012476621108
 20
-77.80162487204265
 30
0.0
 10
67.10012476621108
 20
-77.80162487204265
 30
0.0
 10
67.3471381125035
 20
-77.87001001742486
 30
0.0
 10
67.3471381125035
 20
-77.87001001742486
 30
0.0
 10
67.35678437986219
 20
-77.87224932949027
 30
0.0
 10
67.38124455780746
 20
-77.8836181445916
 30
0.0
 10
67.38124455780746
 20
-77.9065280295685
 30
0.0
 10
67.38124455780746
 20
-77.94769692061725
 30
0.0
 10
67.30545245713198
 20
-77.94769692061725
 30
0.0
 10
67.28340384602637
 20
-77.94769692061725
 30
0.0
 10
67.271346011828
 20
-77.96819523875448
 30
0.0
 10
67.24447426704305
 20
-78.01143118709437
 30
0.0
 10
67.21036782173908
 20
-78.05483939020851
 30
0.0
 10
67.67201061676256
 20
-78.04794919923802
 30
0.0
 10
67.70646157161505
 20
-78.0457098871726
 30
0.0
 10
67.79431150648892
 20
-78.03899195097637
 30
0.0
 10
67.79431150648892
 20
-78.03899195097637
 30
0.0
 10
67.79431150648892
 20
-78.23519013886134
 30
0.0
 10
67.79431150648892
 20
-78.23519013886134
 30
0.0
 10
67.77226289538332
 20
-78.23519013886134
 30
0.0
 10
67.7429795837587
 20
-78.23295082679593
 30
0.0
 10
67.48873153694727
 20
-78.22382132376002
 30
0.0
 10
67.43016491369802
 20
-78.22158201169461
 30
0.0
 10
67.17591686688658
 20
-78.21693113278953
 30
0.0
 10
67.12458494415635
 20
-78.21693113278953
 30
0.0
 10
67.12458494415635
 20
-78.21693113278953
 30
0.0
 10
66.87550454057279
 20
-78.21693113278953
 30
0.0
 10
66.87550454057279
 20
-78.21693113278953
 30
0.0
 10
66.87550454057279
 20
-78.21693113278953
 30
0.0
 10
66.87550454057279
 20
-78.34474417529229
 30
0.0
 10
66.87550454057279
 20
-78.34474417529229
 30
0.0
 10
66.87550454057279
 20
-78.34474417529229
 30
0.0
 10
67.07600909781434
 20
-78.34474417529229
 30
0.0
 10
67.07600909781434
 20
-78.34474417529229
 30
0.0
 10
67.26411131130898
 20
-78.34474417529229
 30
0.0
 10
67.48390840326792
 20
-78.34474417529229
 30
0.0
 10
67.66477591624353
 20
-78.33337536019097
 30
0.0
 10
67.66477591624353
 20
-78.33337536019097
 30
0.0
 10
67.66477591624353
 20
-78.51820473297462
 30
0.0
 10
67.66477591624353
 20
-78.51820473297462
 30
0.0
 10
67.42293021317899
 20
-78.5090752299387
 30
0.0
 10
67.1955539111525
 20
-78.50683591787329
 30
0.0
 10
67.07600909781434
 20
-78.50683591787329
 30
0.0
 10
67.07600909781434
 20
-78.50683591787329
 30
0.0
 10
66.87550454057279
 20
-78.50683591787329
 30
0.0
 10
66.87550454057279
 20
-78.50683591787329
 30
0.0
 10
66.87550454057279
 20
-78.50683591787329
 30
0.0
 10
66.87550454057279
 20
-78.62328014527473
 30
0.0
 10
66.87550454057279
 20
-78.62328014527473
 30
0.0
 10
66.87550454057279
 20
-78.62328014527473
 30
0.0
 10
67.1418104215826
 20
-78.62328014527473
 30
0.0
 10
67.1418104215826
 20
-78.62328014527473
 30
0.0
 10
67.29580618977327
 20
-78.62328014527473
 30
0.0
 10
67.62825790409988
 20
-78.61862926636965
 30
0.0
 10
67.87010360716442
 20
-78.61173907539916
 30
0.0
 10
67.87010360716442
 20
-78.61173907539916
 30
0.0
 10
67.87010360716442
 20
-78.8034586391533
 30
0.0
 10
67.87010360716442
 20
-78.8034586391533
 30
0.0
 10
67.64755043881728
 20
-78.79656844818281
 30
0.0
 10
67.28615992241457
 20
-78.79208982405198
 30
0.0
 10
67.1418104215826
 20
-78.79208982405198
 30
0.0
  0
POLYLINE
  5
E4
330
B4
100
AcDbEntity
  8
_U+30EC_U+30A4_U+30E4_U+30FC 1
370
     0
100
AcDb2dPolyline
 66
     1
 10
0.0
 20
0.0
 30
0.0
  0
VERTEX
  5
E5
330
E4
100
AcDbEntity
  8
_U+30EC_U+30A4_U+30E4_U+30FC 1
370
     0
100
AcDbVertex
100
AcDb2dVertex
 10
67.33232420191692
 20
-79.06821422719476
 30
0.0
  0
VERTEX
  5
E6
330
E4
100
AcDbEntity
  8
_U+30EC_U+30A4_U+30E4_U+30FC 1
370
     0
100
AcDbVertex
100
AcDb2dVertex
 10
66.51618108146124
 20
-79.06821422719476
 30
0.0
  0
VERTEX
  5
E7
330
E4
100
AcDbEntity
  8
_U+30EC_U+30A4_U+30E4_U+30FC 1
370
     0
100
AcDbVertex
100
AcDb2dVertex
 10
66.51618108146124
 20
-79.1846584545962
 30
0.0
  0
VERTEX
  5
E8
330
E4
100
AcDbEntity
  8
_U+30EC_U+30A4_U+30E4_U+30FC 1
370
     0
100
AcDbVertex
100
AcDb2dVertex
 10
67.33232420191692
 20
-79.1846584545962
 30
0.0
  0
VERTEX
  5
E9
330
E4
100
AcDbEntity
  8
_U+30EC_U+30A4_U+30E4_U+30FC 1
370
     0
100
AcDbVertex
100
AcDb2dVertex
 10
67.33232420191692
 20
-79.06821422719476
 30
0.0
  0
SEQEND
  5
EA
330
E4
100
AcDbEntity
  8
_U+30EC_U+30A4_U+30E4_U+30FC 1
370
     0
  0
POLYLINE
  5
EB
330
B4
100
AcDbEntity
  8
_U+30EC_U+30A4_U+30E4_U+30FC 1
370
     0
100
AcDb2dPolyline
 66
     1
 10
0.0
 20
0.0
 30
0.0
  0
VERTEX
  5
EC
330
EB
100
AcDbEntity
  8
_U+30EC_U+30A4_U+30E4_U+30FC 1
370
     0
100
AcDbVertex
100
AcDb2dVertex
 10
67.33232420191692
 20
-79.31936168806946
 30
0.0
  0
VERTEX
  5
ED
330
EB
100
AcDbEntity
  8
_U+30EC_U+30A4_U+30E4_U+30FC 1
370
     0
100
AcDbVertex
100
AcDb2dVertex
 10
66.51618108146124
 20
-79.31936168806946
 30
0.0
  0
VERTEX
  5
EE
330
EB
100
AcDbEntity
  8
_U+30EC_U+30A4_U+30E4_U+30FC 1
370
     0
100
AcDbVertex
100
AcDb2dVertex
 10
66.51618108146124
 20
-79.44252385166715
 30
0.0
  0
VERTEX
  5
EF
330
EB
100
AcDbEntity
  8
_U+30EC_U+30A4_U+30E4_U+30FC 1
370
     0
100
AcDbVertex
100
AcDb2dVertex
 10
67.33232420191692
 20
-79.44252385166715
 30
0.0
  0
VERTEX
  5
F0
330
EB
100
AcDbEntity
  8
_U+30EC_U+30A4_U+30E4_U+30FC 1
370
     0
100
AcDbVertex
100
AcDb2dVertex
 10
67.33232420191692
 20
-79.31936168806946
 30
0.0
  0
SEQEND
  5
F1
330
EB
100
AcDbEntity
  8
_U+30EC_U+30A4_U+30E4_U+30FC 1
370
     0
  0
POLYLINE
  5
F2
330
B4
100
AcDbEntity
  8
_U+30EC_U+30A4_U+30E4_U+30FC 1
370
     0
100
AcDb2dPolyline
 66
     1
 10
0.0
 20
0.0
 30
0.0
  0
VERTEX
  5
F3
330
F2
100
AcDbEntity
  8
_U+30EC_U+30A4_U+30E4_U+30FC 1
370
     0
100
AcDbVertex
100
AcDb2dVertex
 10
67.33232420191692
 20
-79.58170570927125
 30
0.0
  0
VERTEX
  5
F4
330
F2
100
AcDbEntity
  8
_U+30EC_U+30A4_U+30E4_U+30FC 1
370
     0
100
AcDbVertex
100
AcDb2dVertex
 10
66.51618108146124
 20
-79.58170570927125
 30
0.0
  0
VERTEX
  5
F5
330
F2
100
AcDbEntity
  8
_U+30EC_U+30A4_U+30E4_U+30FC 1
370
     0
100
AcDbVertex
100
AcDb2dVertex
 10
66.51618108146124
 20
-79.70504012764319
 30
0.0
  0
VERTEX
  5
F6
330
F2
100
AcDbEntity
  8
_U+30EC_U+30A4_U+30E4_U+30FC 1
370
     0
100
AcDbVertex
100
AcDb2dVertex
 10
67.33232420191692
 20
-79.70504012764319
 30
0.0
  0
VERTEX
  5
F7
330
F2
100
AcDbEntity
  8
_U+30EC_U+30A4_U+30E4_U+30FC 1
370
     0
100
AcDbVertex
100
AcDb2dVertex
 10
67.33232420191692
 20
-79.58170570927125
 30
0.0
  0
SEQEND
  5
F8
330
F2
100
AcDbEntity
  8
_U+30EC_U+30A4_U+30E4_U+30FC 1
370
     0
  0
HATCH
  5
F9
330
B4
100
AcDbEntity
  8
_U+30EC_U+30A4_U+30E4_U+30FC 1
 62
   179
420
  2234388
100
AcDbHatch
 10
0.0
 20
0.0
 30
0.0
210
0.0
220
0.0
230
1.0
  2
SOLID
 70
     1
 71
     0
 91
        4
 92
        1
 93
        1
 72
     4
 94
        3
 73
     0
 74
     1
 95
      203
 96
      199
 40
0.0
 40
0.0
 40
0.0
 40
0.0
 40
1.0
 40
1.0
 40
1.0
 40
2.0
 40
2.0
 40
2.0
 40
3.0
 40
3.0
 40
3.0
 40
4.0
 40
4.0
 40
4.0
 40
5.0
 40
5.0
 40
5.0
 40
6.0
 40
6.0
 40
6.0
 40
7.0
 40
7.0
 40
7.0
 40
8.0
 40
8.0
 40
8.0
 40
9.0
 40
9.0
 40
9.0
 40
10.0
 40
10.0
 40
10.0
 40
11.0
 40
11.0
 40
11.0
 40
12.0
 40
12.0
 40
12.0
 40
13.0
 40
13.0
 40
13.0
 40
14.0
 40
14.0
 40
14.0
 40
15.0
 40
15.0
 40
15.0
 40
16.0
 40
16.0
 40
16.0
 40
17.0
 40
17.0
 40
17.0
 40
18.0
 40
18.0
 40
18.0
 40
19.0
 40
19.0
 40
19.0
 40
20.0
 40
20.0
 40
20.0
 40
21.0
 40
21.0
 40
21.0
 40
22.0
 40
22.0
 40
22.0
 40
23.0
 40
23.0
 40
23.0
 40
24.0
 40
24.0
 40
24.0
 40
25.0
 40
25.0
 40
25.0
 40
26.0
 40
26.0
 40
26.0
 40
27.0
 40
27.0
 40
27.0
 40
28.0
 40
28.0
 40
28.0
 40
29.0
 40
29.0
 40
29.0
 40
30.0
 40
30.0
 40
30.0
 40
31.0
 40
31.0
 40
31.0
 40
32.0
 40
32.0
 40
32.0
 40
33.0
 40
33.0
 40
33.0
 40
34.0
 40
34.0
 40
34.0
 40
35.0
 40
35.0
 40
35.0
 40
36.0
 40
36.0
 40
36.0
 40
37.0
 40
37.0
 40
37.0
 40
38.0
 40
38.0
 40
38.0
 40
39.0
 40
39.0
 40
39.0
 40
40.0
 40
40.0
 40
40.0
 40
41.0
 40
41.0
 40
41.0
 40
42.0
 40
42.0
 40
42.0
 40
43.0
 40
43.0
 40
43.0
 40
44.0
 40
44.0
 40
44.0
 40
45.0
 40
45.0
 40
45.0
 40
46.0
 40
46.0
 40
46.0
 40
47.0
 40
47.0
 40
47.0
 40
48.0
 40
48.0
 40
48.0
 40
49.0
 40
49.0
 40
49.0
 40
50.0
 40
50.0
 40
50.0
 40
51.0
 40
51.0
 40
51.0
 40
52.0
 40
52.0
 40
52.0
 40
53.0
 40
53.0
 40
53.0
 40
54.0
 40
54.0
 40
54.0
 40
55.0
 40
55.0
 40
55.0
 40
56.0
 40
56.0
 40
56.0
 40
57.0
 40
57.0
 40
57.0
 40
58.0
 40
58.0
 40
58.0
 40
59.0
 40
59.0
 40
59.0
 40
60.0
 40
60.0
 40
60.0
 40
61.0
 40
61.0
 40
61.0
 40
62.0
 40
62.0
 40
62.0
 40
63.0
 40
63.0
 40
63.0
 40
64.0
 40
64.0
 40
64.0
 40
65.0
 40
65.0
 40
65.0
 40
66.0
 40
66.0
 40
66.0
 40
66.0
 10
67.1418104215826
 20
-78.79208982405198
 10
67.1418104215826
 20
-78.79208982405198
 10
66.4965440371953
 20
-78.79208982405198
 10
66.4965440371953
 20
-78.79208982405198
 10
66.48448620299693
 20
-78.83997665129695
 10
66.47449542608972
 20
-78.87425535137518
 10
66.46002602505166
 20
-78.91542424242392
 10
66.48930933667629
 20
-78.91542424242392
 10
66.50653481410254
 20
-78.91766355448934
 10
66.51376951462156
 20
-78.91766355448934
 10
66.51376951462156
 20
-78.91766355448934
 10
66.73115503974083
 20
-78.91766355448934
 10
66.73115503974083
 20
-78.91766355448934
 10
66.73115503974083
 20
-78.91766355448934
 10
67.16385903268821
 20
-78.91766355448934
 10
67.16385903268821
 20
-78.91766355448934
 10
67.22242565593746
 20
-78.91766355448934
 10
67.55005423658471
 20
-78.90388317254833
 10
67.58657224872836
 20
-78.90388317254833
 10
67.58416068188869
 20
-78.93368324849575
 10
67.581749115049
 20
-78.95418156663298
 10
67.581749115049
 20
-78.98604869987155
 10
67.57933754820934
 20
-79.02032739994978
 10
67.57933754820934
 20
-79.16639944852437
 10
67.57933754820934
 20
-79.19602726969752
 10
67.57933754820934
 20
-79.19602726969752
 10
67.57933754820934
 20
-79.46078285773898
 10
67.57933754820934
 20
-79.46078285773898
 10
67.57933754820934
 20
-79.50866968498394
 10
67.58416068188869
 20
-79.7210598216496
 10
67.58898381556803
 20
-79.88539087629601
 10
67.58898381556803
 20
-79.88539087629601
 10
67.32750106823757
 20
-79.88539087629601
 10
67.32750106823757
 20
-79.88539087629601
 10
67.32750106823757
 20
-79.88539087629601
 10
67.32991263507725
 20
-79.84887286415237
 10
67.32991263507725
 20
-79.84887286415237
 10
67.32991263507725
 20
-79.84887286415237
 10
66.51859264830091
 20
-79.84887286415237
 10
66.51859264830091
 20
-79.84887286415237
 10
66.51859264830091
 20
-79.84887286415237
 10
66.52100421514058
 20
-79.88539087629601
 10
66.52100421514058
 20
-79.88539087629601
 10
66.52100421514058
 20
-79.88539087629601
 10
66.26951224471735
 20
-79.88539087629601
 10
66.26951224471735
 20
-79.88539087629601
 10
66.2743353783967
 20
-79.82596297917546
 10
66.2743353783967
 20
-79.81235485200872
 10
66.28157007891572
 20
-79.68902043363677
 10
66.28398164575539
 20
-79.65939261246363
 10
66.28639321259507
 20
-79.51555987595445
 10
66.28639321259507
 20
-79.49506155781721
 10
66.28639321259507
 20
-79.49506155781721
 10
66.28639321259507
 20
-79.27595348495532
 10
66.28639321259507
 20
-79.27595348495532
 10
66.12516274388538
 20
-79.5451876971276
 10
65.92982582987172
 20
-79.68678112157136
 10
65.80752494014534
 20
-79.75757783379325
 10
65.80752494014534
 20
-79.75757783379325
 10
65.6070203829038
 20
-79.60685490631357
 10
65.6070203829038
 20
-79.60685490631357
 10
65.70968422836425
 20
-79.5520778880981
 10
65.8757378307533
 20
-79.45854354567356
 10
66.03490124217183
 20
-79.24856497584759
 10
66.13997665447195
 20
-79.1116224303089
 10
66.21542424559892
 20
-78.9564208786984
 10
66.25469833413078
 20
-78.79208982405198
 10
65.99080401996063
 20
-78.7943291361174
 10
65.78306476220007
 20
-78.80121932708789
 10
65.6731662162206
 20
-78.8034586391533
 10
65.6731662162206
 20
-78.8034586391533
 10
65.6731662162206
 20
-78.61173907539916
 10
65.6731662162206
 20
-78.61173907539916
 10
65.90019800869857
 20
-78.61862926636965
 10
66.22782658934582
 20
-78.62328014527473
 10
66.40145940180241
 20
-78.62328014527473
 10
66.40145940180241
 20
-78.62328014527473
 10
66.6481282385463
 20
-78.62328014527473
 10
66.6481282385463
 20
-78.62328014527473
 10
66.6481282385463
 20
-78.62328014527473
 10
66.6481282385463
 20
-78.50683591787329
 10
66.6481282385463
 20
-78.50683591787329
 10
66.6481282385463
 20
-78.50683591787329
 10
66.47966306931758
 20
-78.50683591787329
 10
66.47966306931758
 20
-78.50683591787329
 10
66.28398164575539
 20
-78.50683591787329
 10
66.08864473174174
 20
-78.51131454200411
 10
65.89537487501921
 20
-78.51820473297462
 10
65.89537487501921
 20
-78.51820473297462
 10
65.89537487501921
 20
-78.33337536019097
 10
65.89537487501921
 20
-78.33337536019097
 10
66.07383082115516
 20
-78.34474417529229
 10
66.28880477943474
 20
-78.34474417529229
 10
66.47966306931758
 20
-78.34474417529229
 10
66.47966306931758
 20
-78.34474417529229
 10
66.6481282385463
 20
-78.34474417529229
 10
66.6481282385463
 20
-78.34474417529229
 10
66.6481282385463
 20
-78.34474417529229
 10
66.6481282385463
 20
-78.21693113278953
 10
66.6481282385463
 20
-78.21693113278953
 10
66.6481282385463
 20
-78.21693113278953
 10
66.4965440371953
 20
-78.21693113278953
 10
66.4965440371953
 20
-78.21693113278953
 10
66.44280054762541
 20
-78.21693113278953
 10
66.2081895450799
 20
-78.22606063582543
 10
66.15926918918936
 20
-78.22606063582543
 10
65.92465818664384
 20
-78.23053925995626
 10
65.83680825176997
 20
-78.23295082679593
 10
65.7462022405079
 20
-78.23519013886134
 10
65.7462022405079
 20
-78.23519013886134
 10
65.7462022405079
 20
-78.0365803841367
 10
65.7462022405079
 20
-78.0365803841367
 10
65.87849390714149
 20
-78.0457098871726
 10
65.92982582987172
 20
-78.0457098871726
 10
66.37183158062926
 20
-78.05483939020851
 10
66.29879555634197
 20
-77.95217554474807
 10
66.26675616832915
 20
-77.92254772357492
 10
66.22541502250616
 20
-77.8836181445916
 10
66.22541502250616
 20
-77.8836181445916
 10
66.42833114658737
 20
-77.79473468107216
 10
66.42833114658737
 20
-77.79473468107216
 10
66.47449542608972
 20
-77.83349200528122
 10
66.52582734881993
 20
-77.87913952046077
 10
66.61161022640266
 20
-77.99782305992763
 10
66.61161022640266
 20
-77.99782305992763
 10
66.47966306931758
 20
-78.0572509570482
 10
66.47966306931758
 20
-78.0572509570482
 10
66.47966306931758
 20
-78.0572509570482
 10
66.49172090351597
 20
-78.0572509570482
 10
66.49172090351597
 20
-78.0572509570482
 10
66.49172090351597
 20
-78.0572509570482
 10
67.09530163253173
 20
-78.0572509570482
 10
67.09530163253173
 20
-78.0572509570482
 10
67.09530163253173
 20
-78.0572509570482
 10
66.98540308655227
 20
-78.00919187502896
 10
66.98540308655227
 20
-78.00919187502896
 10
67.01709796501656
 20
-77.96819523875448
 10
67.08324379833336
 20
-77.88137883252618
 10
67.10012476621108
 20
-77.80162487204265
 10
67.10012476621108
 20
-77.80162487204265
 10
67.3471381125035
 20
-77.87001001742486
 10
67.3471381125035
 20
-77.87001001742486
 10
67.35678437986219
 20
-77.87224932949027
 10
67.38124455780746
 20
-77.8836181445916
 10
67.38124455780746
 20
-77.9065280295685
 10
67.38124455780746
 20
-77.94769692061725
 10
67.30545245713198
 20
-77.94769692061725
 10
67.28340384602637
 20
-77.94769692061725
 10
67.271346011828
 20
-77.96819523875448
 10
67.24447426704305
 20
-78.01143118709437
 10
67.21036782173908
 20
-78.05483939020851
 10
67.67201061676256
 20
-78.04794919923802
 10
67.70646157161505
 20
-78.0457098871726
 10
67.79431150648892
 20
-78.03899195097637
 10
67.79431150648892
 20
-78.03899195097637
 10
67.79431150648892
 20
-78.23519013886134
 10
67.79431150648892
 20
-78.23519013886134
 10
67.77226289538332
 20
-78.23519013886134
 10
67.7429795837587
 20
-78.23295082679593
 10
67.48873153694727
 20
-78.22382132376002
 10
67.43016491369802
 20
-78.22158201169461
 10
67.17591686688658
 20
-78.21693113278953
 10
67.12458494415635
 20
-78.21693113278953
 10
67.12458494415635
 20
-78.21693113278953
 10
66.87550454057279
 20
-78.21693113278953
 10
66.87550454057279
 20
-78.21693113278953
 10
66.87550454057279
 20
-78.21693113278953
 10
66.87550454057279
 20
-78.34474417529229
 10
66.87550454057279
 20
-78.34474417529229
 10
66.87550454057279
 20
-78.34474417529229
 10
67.07600909781434
 20
-78.34474417529229
 10
67.07600909781434
 20
-78.34474417529229
 10
67.26411131130898
 20
-78.34474417529229
 10
67.48390840326792
 20
-78.34474417529229
 10
67.66477591624353
 20
-78.33337536019097
 10
67.66477591624353
 20
-78.33337536019097
 10
67.66477591624353
 20
-78.51820473297462
 10
67.66477591624353
 20
-78.51820473297462
 10
67.42293021317899
 20
-78.5090752299387
 10
67.1955539111525
 20
-78.50683591787329
 10
67.07600909781434
 20
-78.50683591787329
 10
67.07600909781434
 20
-78.50683591787329
 10
66.87550454057279
 20
-78.50683591787329
 10
66.87550454057279
 20
-78.50683591787329
 10
66.87550454057279
 20
-78.50683591787329
 10
66.87550454057279
 20
-78.62328014527473
 10
66.87550454057279
 20
-78.62328014527473
 10
66.87550454057279
 20
-78.62328014527473
 10
67.1418104215826
 20
-78.62328014527473
 10
67.1418104215826
 20
-78.62328014527473
 10
67.29580618977327
 20
-78.62328014527473
 10
67.62825790409988
 20
-78.61862926636965
 10
67.87010360716442
 20
-78.61173907539916
 10
67.87010360716442
 20
-78.61173907539916
 10
67.87010360716442
 20
-78.8034586391533
 10
67.87010360716442
 20
-78.8034586391533
 10
67.64755043881728
 20
-78.79656844818281
 10
67.28615992241457
 20
-78.79208982405198
 10
67.1418104215826
 20
-78.79208982405198
 97
        0
 97
        0
 92
        1
 93
        4
 72
     1
 10
67.33232420191692
 20
-79.06821422719476
 11
66.51618108146124
 21
-79.06821422719476
 72
     1
 10
66.51618108146124
 20
-79.06821422719476
 11
66.51618108146124
 21
-79.1846584545962
 72
     1
 10
66.51618108146124
 20
-79.1846584545962
 11
67.33232420191692
 21
-79.1846584545962
 72
     1
 10
67.33232420191692
 20
-79.1846584545962
 11
67.33232420191692
 21
-79.06821422719476
 97
        0
 92
        1
 93
        4
 72
     1
 10
67.33232420191692
 20
-79.31936168806946
 11
66.51618108146124
 21
-79.31936168806946
 72
     1
 10
66.51618108146124
 20
-79.31936168806946
 11
66.51618108146124
 21
-79.44252385166715
 72
     1
 10
66.51618108146124
 20
-79.44252385166715
 11
67.33232420191692
 21
-79.44252385166715
 72
     1
 10
67.33232420191692
 20
-79.44252385166715
 11
67.33232420191692
 21
-79.31936168806946
 97
        0
 92
        1
 93
        4
 72
     1
 10
67.33232420191692
 20
-79.58170570927125
 11
66.51618108146124
 21
-79.58170570927125
 72
     1
 10
66.51618108146124
 20
-79.58170570927125
 11
66.51618108146124
 21
-79.70504012764319
 72
     1
 10
66.51618108146124
 20
-79.70504012764319
 11
67.33232420191692
 21
-79.70504012764319
 72
     1
 10
67.33232420191692
 20
-79.70504012764319
 11
67.33232420191692
 21
-79.58170570927125
 97
        0
 75
     2
 76
     1
 98
        0
  0
SPLINE
  5
FA
330
B4
100
AcDbEntity
  8
_U+30EC_U+30A4_U+30E4_U+30FC 1
370
     0
100
AcDbSpline
210
0.0
220
0.0
230
1.0
 70
    11
 71
     3
 72
    47
 73
    43
 74
     0
 42
0.0000000001
 43
0.0000000001
 12
1.0
 22
0.0
 32
0.0
 13
1.0
 23
0.0
 33
0.0
 40
0.0
 40
0.0
 40
0.0
 40
0.0
 40
1.0
 40
1.0
 40
1.0
 40
2.0
 40
2.0
 40
2.0
 40
3.0
 40
3.0
 40
3.0
 40
4.0
 40
4.0
 40
4.0
 40
5.0
 40
5.0
 40
5.0
 40
6.0
 40
6.0
 40
6.0
 40
7.0
 40
7.0
 40
7.0
 40
8.0
 40
8.0
 40
8.0
 40
9.0
 40
9.0
 40
9.0
 40
10.0
 40
10.0
 40
10.0
 40
11.0
 40
11.0
 40
11.0
 40
12.0
 40
12.0
 40
12.0
 40
13.0
 40
13.0
 40
13.0
 40
14.0
 40
14.0
 40
14.0
 40
14.0
 10
69.422463632818
 20
-78.76694062700966
 30
0.0
 10
69.422463632818
 20
-78.76694062700966
 30
0.0
 10
69.3053303863195
 20
-78.76694062700966
 30
0.0
 10
69.3053303863195
 20
-78.76694062700966
 30
0.0
 10
69.3053303863195
 20
-78.86064722420845
 30
0.0
 10
69.28087020837422
 20
-79.2806043638604
 30
0.0
 10
69.05349390634774
 20
-79.51797144279412
 30
0.0
 10
68.87744952705147
 20
-79.70056150351236
 30
0.0
 10
68.63801539082661
 20
-79.77583683986508
 30
0.0
 10
68.54017467904552
 20
-79.80546466103822
 30
0.0
 10
68.54017467904552
 20
-79.80546466103822
 30
0.0
 10
68.31555445340723
 20
-79.62511391238539
 30
0.0
 10
68.31555445340723
 20
-79.62511391238539
 30
0.0
 10
68.42786456622638
 20
-79.61150578521865
 30
0.0
 10
68.63078069030759
 20
-79.58635658817633
 30
0.0
 10
68.84816621542684
 20
-79.38326820932085
 30
0.0
 10
68.93360458346105
 20
-79.30558130612847
 30
0.0
 10
69.05349390634774
 20
-79.15503063342305
 30
0.0
 10
69.05349390634774
 20
-78.76694062700966
 30
0.0
 10
69.05349390634774
 20
-78.76694062700966
 30
0.0
 10
68.78718802533793
 20
-78.76694062700966
 30
0.0
 10
68.78718802533793
 20
-78.76694062700966
 30
0.0
 10
68.57221406705834
 20
-78.76694062700966
 30
0.0
 10
68.35689559923023
 20
-78.77159150591474
 30
0.0
 10
68.14192164095063
 20
-78.78761119992116
 30
0.0
 10
68.14192164095063
 20
-78.78761119992116
 30
0.0
 10
68.14192164095063
 20
-78.55024412098744
 30
0.0
 10
68.14192164095063
 20
-78.55024412098744
 30
0.0
 10
68.3593071660699
 20
-78.56609156021959
 30
0.0
 10
68.68934731355684
 20
-78.57074243912469
 30
0.0
 10
68.78718802533793
 20
-78.57074243912469
 30
0.0
 10
68.78718802533793
 20
-78.57074243912469
 30
0.0
 10
69.422463632818
 20
-78.57074243912469
 30
0.0
 10
69.422463632818
 20
-78.57074243912469
 30
0.0
 10
69.4445122439236
 20
-78.57074243912469
 30
0.0
 10
69.81107040355418
 20
-78.57074243912469
 30
0.0
 10
70.07496471772431
 20
-78.55024412098744
 30
0.0
 10
70.07496471772431
 20
-78.55024412098744
 30
0.0
 10
70.07496471772431
 20
-78.78761119992116
 30
0.0
 10
70.07496471772431
 20
-78.78761119992116
 30
0.0
 10
69.85757919260506
 20
-78.77159150591474
 30
0.0
 10
69.63984915793726
 20
-78.76694062700966
 30
0.0
 10
69.422463632818
 20
-78.76694062700966
 30
0.0
  0
SPLINE
  5
FB
330
B4
100
AcDbEntity
  8
_U+30EC_U+30A4_U+30E4_U+30FC 1
370
     0
100
AcDbSpline
210
0.0
220
0.0
230
1.0
 70
    11
 71
     3
 72
    29
 73
    25
 74
     0
 42
0.0000000001
 43
0.0000000001
 12
1.0
 22
0.0
 32
0.0
 13
1.0
 23
0.0
 33
0.0
 40
0.0
 40
0.0
 40
0.0
 40
0.0
 40
1.0
 40
1.0
 40
1.0
 40
2.0
 40
2.0
 40
2.0
 40
3.0
 40
3.0
 40
3.0
 40
4.0
 40
4.0
 40
4.0
 40
5.0
 40
5.0
 40
5.0
 40
6.0
 40
6.0
 40
6.0
 40
7.0
 40
7.0
 40
7.0
 40
8.0
 40
8.0
 40
8.0
 40
8.0
 10
69.3053303863195
 20
-78.19643281465228
 30
0.0
 10
69.3053303863195
 20
-78.19643281465228
 30
0.0
 10
68.8970865713174
 20
-78.19643281465228
 30
0.0
 10
68.8970865713174
 20
-78.19643281465228
 30
0.0
 10
68.767550981072
 20
-78.19643281465228
 30
0.0
 10
68.60632051236232
 20
-78.20332300562278
 30
0.0
 10
68.48160805579627
 20
-78.21693113278953
 30
0.0
 10
68.48160805579627
 20
-78.21693113278953
 30
0.0
 10
68.48160805579627
 20
-77.9635443598494
 30
0.0
 10
68.48160805579627
 20
-77.9635443598494
 30
0.0
 10
68.61837834656069
 20
-77.97956405385581
 30
0.0
 10
68.8309407380006
 20
-77.98421493276089
 30
0.0
 10
68.8970865713174
 20
-77.98421493276089
 30
0.0
 10
68.8970865713174
 20
-77.98421493276089
 30
0.0
 10
69.3053303863195
 20
-77.98421493276089
 30
0.0
 10
69.3053303863195
 20
-77.98421493276089
 30
0.0
 10
69.32703448787657
 20
-77.98421493276089
 30
0.0
 10
69.56198999997062
 20
-77.98421493276089
 30
0.0
 10
69.72563203551998
 20
-77.9635443598494
 30
0.0
 10
69.72563203551998
 20
-77.9635443598494
 30
0.0
 10
69.72563203551998
 20
-78.21693113278953
 30
0.0
 10
69.72563203551998
 20
-78.21693113278953
 30
0.0
 10
69.54476452254437
 20
-78.19643281465228
 30
0.0
 10
69.3246229210369
 20
-78.19643281465228
 30
0.0
 10
69.3053303863195
 20
-78.19643281465228
 30
0.0
  0
HATCH
  5
FC
330
B4
100
AcDbEntity
  8
_U+30EC_U+30A4_U+30E4_U+30FC 1
 62
   179
420
  2234388
100
AcDbHatch
 10
0.0
 20
0.0
 30
0.0
210
0.0
220
0.0
230
1.0
  2
SOLID
 70
     1
 71
     0
 91
        2
 92
        1
 93
        1
 72
     4
 94
        3
 73
     0
 74
     1
 95
       47
 96
       43
 40
0.0
 40
0.0
 40
0.0
 40
0.0
 40
1.0
 40
1.0
 40
1.0
 40
2.0
 40
2.0
 40
2.0
 40
3.0
 40
3.0
 40
3.0
 40
4.0
 40
4.0
 40
4.0
 40
5.0
 40
5.0
 40
5.0
 40
6.0
 40
6.0
 40
6.0
 40
7.0
 40
7.0
 40
7.0
 40
8.0
 40
8.0
 40
8.0
 40
9.0
 40
9.0
 40
9.0
 40
10.0
 40
10.0
 40
10.0
 40
11.0
 40
11.0
 40
11.0
 40
12.0
 40
12.0
 40
12.0
 40
13.0
 40
13.0
 40
13.0
 40
14.0
 40
14.0
 40
14.0
 40
14.0
 10
69.422463632818
 20
-78.76694062700966
 10
69.422463632818
 20
-78.76694062700966
 10
69.3053303863195
 20
-78.76694062700966
 10
69.3053303863195
 20
-78.76694062700966
 10
69.3053303863195
 20
-78.86064722420845
 10
69.28087020837422
 20
-79.2806043638604
 10
69.05349390634774
 20
-79.51797144279412
 10
68.87744952705147
 20
-79.70056150351236
 10
68.63801539082661
 20
-79.77583683986508
 10
68.54017467904552
 20
-79.80546466103822
 10
68.54017467904552
 20
-79.80546466103822
 10
68.31555445340723
 20
-79.62511391238539
 10
68.31555445340723
 20
-79.62511391238539
 10
68.42786456622638
 20
-79.61150578521865
 10
68.63078069030759
 20
-79.58635658817633
 10
68.84816621542684
 20
-79.38326820932085
 10
68.93360458346105
 20
-79.30558130612847
 10
69.05349390634774
 20
-79.15503063342305
 10
69.05349390634774
 20
-78.76694062700966
 10
69.05349390634774
 20
-78.76694062700966
 10
68.78718802533793
 20
-78.76694062700966
 10
68.78718802533793
 20
-78.76694062700966
 10
68.57221406705834
 20
-78.76694062700966
 10
68.35689559923023
 20
-78.77159150591474
 10
68.14192164095063
 20
-78.78761119992116
 10
68.14192164095063
 20
-78.78761119992116
 10
68.14192164095063
 20
-78.55024412098744
 10
68.14192164095063
 20
-78.55024412098744
 10
68.3593071660699
 20
-78.56609156021959
 10
68.68934731355684
 20
-78.57074243912469
 10
68.78718802533793
 20
-78.57074243912469
 10
68.78718802533793
 20
-78.57074243912469
 10
69.422463632818
 20
-78.57074243912469
 10
69.422463632818
 20
-78.57074243912469
 10
69.4445122439236
 20
-78.57074243912469
 10
69.81107040355418
 20
-78.57074243912469
 10
70.07496471772431
 20
-78.55024412098744
 10
70.07496471772431
 20
-78.55024412098744
 10
70.07496471772431
 20
-78.78761119992116
 10
70.07496471772431
 20
-78.78761119992116
 10
69.85757919260506
 20
-78.77159150591474
 10
69.63984915793726
 20
-78.76694062700966
 10
69.422463632818
 20
-78.76694062700966
 97
        0
 97
        0
 92
        1
 93
        1
 72
     4
 94
        3
 73
     0
 74
     1
 95
       29
 96
       25
 40
0.0
 40
0.0
 40
0.0
 40
0.0
 40
1.0
 40
1.0
 40
1.0
 40
2.0
 40
2.0
 40
2.0
 40
3.0
 40
3.0
 40
3.0
 40
4.0
 40
4.0
 40
4.0
 40
5.0
 40
5.0
 40
5.0
 40
6.0
 40
6.0
 40
6.0
 40
7.0
 40
7.0
 40
7.0
 40
8.0
 40
8.0
 40
8.0
 40
8.0
 10
69.3053303863195
 20
-78.19643281465228
 10
69.3053303863195
 20
-78.19643281465228
 10
68.8970865713174
 20
-78.19643281465228
 10
68.8970865713174
 20
-78.19643281465228
 10
68.767550981072
 20
-78.19643281465228
 10
68.60632051236232
 20
-78.20332300562278
 10
68.48160805579627
 20
-78.21693113278953
 10
68.48160805579627
 20
-78.21693113278953
 10
68.48160805579627
 20
-77.9635443598494
 10
68.48160805579627
 20
-77.9635443598494
 10
68.61837834656069
 20
-77.97956405385581
 10
68.8309407380006
 20
-77.98421493276089
 10
68.8970865713174
 20
-77.98421493276089
 10
68.8970865713174
 20
-77.98421493276089
 10
69.3053303863195
 20
-77.98421493276089
 10
69.3053303863195
 20
-77.98421493276089
 10
69.32703448787657
 20
-77.98421493276089
 10
69.56198999997062
 20
-77.98421493276089
 10
69.72563203551998
 20
-77.9635443598494
 10
69.72563203551998
 20
-77.9635443598494
 10
69.72563203551998
 20
-78.21693113278953
 10
69.72563203551998
 20
-78.21693113278953
 10
69.54476452254437
 20
-78.19643281465228
 10
69.3246229210369
 20
-78.19643281465228
 10
69.3053303863195
 20
-78.19643281465228
 97
        0
 97
        0
 75
     2
 76
     1
 98
        0
  0
SPLINE
  5
FD
330
B4
100
AcDbEntity
  8
_U+30EC_U+30A4_U+30E4_U+30FC 1
370
     0
100
AcDbSpline
210
0.0
220
0.0
230
1.0
 70
    11
 71
     3
 72
    29
 73
    25
 74
     0
 42
0.0000000001
 43
0.0000000001
 12
1.0
 22
0.0
 32
0.0
 13
1.0
 23
0.0
 33
0.0
 40
0.0
 40
0.0
 40
0.0
 40
0.0
 40
1.0
 40
1.0
 40
1.0
 40
2.0
 40
2.0
 40
2.0
 40
3.0
 40
3.0
 40
3.0
 40
4.0
 40
4.0
 40
4.0
 40
5.0
 40
5.0
 40
5.0
 40
6.0
 40
6.0
 40
6.0
 40
7.0
 40
7.0
 40
7.0
 40
8.0
 40
8.0
 40
8.0
 40
8.0
 10
71.55187715225092
 20
-78.9426404967574
 30
0.0
 10
71.55187715225092
 20
-78.9426404967574
 30
0.0
 10
70.99239364544636
 20
-78.9426404967574
 30
0.0
 10
70.99239364544636
 20
-78.9426404967574
 30
0.0
 10
70.96069876698205
 20
-78.9426404967574
 30
0.0
 10
70.59414060735146
 20
-78.9426404967574
 30
0.0
 10
70.34953882789873
 20
-78.9702012606394
 30
0.0
 10
70.34953882789873
 20
-78.9702012606394
 30
0.0
 10
70.34953882789873
 20
-78.7212931118301
 30
0.0
 10
70.34953882789873
 20
-78.7212931118301
 30
0.0
 10
70.53281790771402
 20
-78.74644230887242
 30
0.0
 10
70.75295950922148
 20
-78.74868162093783
 30
0.0
 10
70.99239364544636
 20
-78.74868162093783
 30
0.0
 10
70.99239364544636
 20
-78.74868162093783
 30
0.0
 10
71.55187715225092
 20
-78.74868162093783
 30
0.0
 10
71.55187715225092
 20
-78.74868162093783
 30
0.0
 10
71.76719562007904
 20
-78.74868162093783
 30
0.0
 10
71.98216957835862
 20
-78.74644230887242
 30
0.0
 10
72.19473196979854
 20
-78.7212931118301
 30
0.0
 10
72.19473196979854
 20
-78.7212931118301
 30
0.0
 10
72.19473196979854
 20
-78.9702012606394
 30
0.0
 10
72.19473196979854
 20
-78.9702012606394
 30
0.0
 10
71.98216957835862
 20
-78.94505206359707
 30
0.0
 10
71.69622665308289
 20
-78.9426404967574
 30
0.0
 10
71.55187715225092
 20
-78.9426404967574
 30
0.0
  0
HATCH
  5
FE
330
B4
100
AcDbEntity
  8
_U+30EC_U+30A4_U+30E4_U+30FC 1
 62
   179
420
  2234388
100
AcDbHatch
 10
0.0
 20
0.0
 30
0.0
210
0.0
220
0.0
230
1.0
  2
SOLID
 70
     1
 71
     0
 91
        1
 92
        1
 93
        1
 72
     4
 94
        3
 73
     0
 74
     1
 95
       29
 96
       25
 40
0.0
 40
0.0
 40
0.0
 40
0.0
 40
1.0
 40
1.0
 40
1.0
 40
2.0
 40
2.0
 40
2.0
 40
3.0
 40
3.0
 40
3.0
 40
4.0
 40
4.0
 40
4.0
 40
5.0
 40
5.0
 40
5.0
 40
6.0
 40
6.0
 40
6.0
 40
7.0
 40
7.0
 40
7.0
 40
8.0
 40
8.0
 40
8.0
 40
8.0
 10
71.55187715225092
 20
-78.9426404967574
 10
71.55187715225092
 20
-78.9426404967574
 10
70.99239364544636
 20
-78.9426404967574
 10
70.99239364544636
 20
-78.9426404967574
 10
70.96069876698205
 20
-78.9426404967574
 10
70.59414060735146
 20
-78.9426404967574
 10
70.34953882789873
 20
-78.9702012606394
 10
70.34953882789873
 20
-78.9702012606394
 10
70.34953882789873
 20
-78.7212931118301
 10
70.34953882789873
 20
-78.7212931118301
 10
70.53281790771402
 20
-78.74644230887242
 10
70.75295950922148
 20
-78.74868162093783
 10
70.99239364544636
 20
-78.74868162093783
 10
70.99239364544636
 20
-78.74868162093783
 10
71.55187715225092
 20
-78.74868162093783
 10
71.55187715225092
 20
-78.74868162093783
 10
71.76719562007904
 20
-78.74868162093783
 10
71.98216957835862
 20
-78.74644230887242
 10
72.19473196979854
 20
-78.7212931118301
 10
72.19473196979854
 20
-78.7212931118301
 10
72.19473196979854
 20
-78.9702012606394
 10
72.19473196979854
 20
-78.9702012606394
 10
71.98216957835862
 20
-78.94505206359707
 10
71.69622665308289
 20
-78.9426404967574
 10
71.55187715225092
 20
-78.9426404967574
 97
        0
 97
        0
 75
     2
 76
     1
 98
        0
  0
SPLINE
  5
FF
330
B4
100
AcDbEntity
  8
_U+30EC_U+30A4_U+30E4_U+30FC 1
370
     0
100
AcDbSpline
210
0.0
220
0.0
230
1.0
 70
    11
 71
     3
 72
    44
 73
    40
 74
     0
 42
0.0000000001
 43
0.0000000001
 12
1.0
 22
0.0
 32
0.0
 13
1.0
 23
0.0
 33
0.0
 40
0.0
 40
0.0
 40
0.0
 40
0.0
 40
1.0
 40
1.0
 40
1.0
 40
2.0
 40
2.0
 40
2.0
 40
3.0
 40
3.0
 40
3.0
 40
4.0
 40
4.0
 40
4.0
 40
5.0
 40
5.0
 40
5.0
 40
6.0
 40
6.0
 40
6.0
 40
7.0
 40
7.0
 40
7.0
 40
8.0
 40
8.0
 40
8.0
 40
9.0
 40
9.0
 40
9.0
 40
10.0
 40
10.0
 40
10.0
 40
11.0
 40
11.0
 40
11.0
 40
12.0
 40
12.0
 40
12.0
 40
13.0
 40
13.0
 40
13.0
 40
13.0
 10
74.104003887724
 20
-78.47031790572964
 30
0.0
 10
73.97446829747861
 20
-78.86736516040469
 30
0.0
 10
73.91590167422936
 20
-79.03858640602161
 30
0.0
 10
73.68852537220288
 20
-79.30782061819389
 30
0.0
 10
73.47596298076296
 20
-79.55672876700318
 30
0.0
 10
73.20242239923412
 20
-79.75757783379325
 30
0.0
 10
72.8796169522662
 20
-79.85800236718828
 30
0.0
 10
72.8796169522662
 20
-79.85800236718828
 30
0.0
 10
72.6574082934676
 20
-79.66404349136872
 30
0.0
 10
72.6574082934676
 20
-79.66404349136872
 30
0.0
 10
73.39775931324779
 20
-79.49971243672229
 30
0.0
 10
73.77913138346494
 20
-78.89940454841751
 30
0.0
 10
73.85251191730076
 20
-78.42467039055009
 30
0.0
 10
73.85251191730076
 20
-78.42467039055009
 30
0.0
 10
72.9678113966886
 20
-78.42467039055009
 30
0.0
 10
72.9678113966886
 20
-78.42467039055009
 30
0.0
 10
72.86032441754881
 20
-78.42467039055009
 30
0.0
 10
72.64741751656037
 20
-78.42914901468092
 30
0.0
 10
72.46655000358476
 20
-78.44964733281815
 30
0.0
 10
72.46655000358476
 20
-78.44964733281815
 30
0.0
 10
72.46655000358476
 20
-78.21228025388443
 30
0.0
 10
72.46655000358476
 20
-78.21228025388443
 30
0.0
 10
72.56680228220553
 20
-78.23519013886134
 30
0.0
 10
72.85756834116061
 20
-78.23519013886134
 30
0.0
 10
72.97263453036796
 20
-78.23519013886134
 30
0.0
 10
72.97263453036796
 20
-78.23519013886134
 30
0.0
 10
73.4711398470836
 20
-78.23519013886134
 30
0.0
 10
73.4711398470836
 20
-78.23519013886134
 30
0.0
 10
73.52006020297415
 20
-78.23519013886134
 30
0.0
 10
73.79118921766332
 20
-78.23295082679593
 30
0.0
 10
73.83528643987451
 20
-78.22606063582543
 30
0.0
 10
73.88420679576507
 20
-78.21917044485494
 30
0.0
 10
73.88661836260474
 20
-78.21693113278953
 30
0.0
 10
73.95758732960088
 20
-78.17352292967537
 30
0.0
 10
73.95758732960088
 20
-78.17352292967537
 30
0.0
 10
74.17497285472015
 20
-78.34009329638721
 30
0.0
 10
74.17497285472015
 20
-78.34009329638721
 30
0.0
 10
74.14086640941618
 20
-78.37213268440003
 30
0.0
 10
74.12364093198993
 20
-78.40641138447826
 30
0.0
 10
74.104003887724
 20
-78.47031790572964
 30
0.0
  0
SPLINE
  5
100
330
B4
100
AcDbEntity
  8
_U+30EC_U+30A4_U+30E4_U+30FC 1
370
     0
100
AcDbSpline
210
0.0
220
0.0
230
1.0
 70
    11
 71
     3
 72
    17
 73
    13
 74
     0
 42
0.0000000001
 43
0.0000000001
 12
1.0
 22
0.0
 32
0.0
 13
1.0
 23
0.0
 33
0.0
 40
0.0
 40
0.0
 40
0.0
 40
0.0
 40
1.0
 40
1.0
 40
1.0
 40
2.0
 40
2.0
 40
2.0
 40
3.0
 40
3.0
 40
3.0
 40
4.0
 40
4.0
 40
4.0
 40
4.0
 10
74.34619410033707
 20
-78.25568845699858
 30
0.0
 10
74.19943303266543
 20
-78.25568845699858
 30
0.0
 10
74.0819552766184
 20
-78.14613442056763
 30
0.0
 10
74.0819552766184
 20
-78.00919187502896
 30
0.0
 10
74.0819552766184
 20
-77.87224932949027
 30
0.0
 10
74.19943303266543
 20
-77.76045598099391
 30
0.0
 10
74.34619410033707
 20
-77.76045598099391
 30
0.0
 10
74.49261065846018
 20
-77.76045598099391
 30
0.0
 10
74.61249998134687
 20
-77.87224932949027
 30
0.0
 10
74.61249998134687
 20
-78.00919187502896
 30
0.0
 10
74.61249998134687
 20
-78.14613442056763
 30
0.0
 10
74.49261065846018
 20
-78.25568845699858
 30
0.0
 10
74.34619410033707
 20
-78.25568845699858
 30
0.0
  0
SPLINE
  5
101
330
B4
100
AcDbEntity
  8
_U+30EC_U+30A4_U+30E4_U+30FC 1
370
     0
100
AcDbSpline
210
0.0
220
0.0
230
1.0
 70
    11
 71
     3
 72
    17
 73
    13
 74
     0
 42
0.0000000001
 43
0.0000000001
 12
1.0
 22
0.0
 32
0.0
 13
1.0
 23
0.0
 33
0.0
 40
0.0
 40
0.0
 40
0.0
 40
0.0
 40
1.0
 40
1.0
 40
1.0
 40
2.0
 40
2.0
 40
2.0
 40
3.0
 40
3.0
 40
3.0
 40
4.0
 40
4.0
 40
4.0
 40
4.0
 10
74.34343802394886
 20
-77.89963783859801
 30
0.0
 10
74.28004826702026
 20
-77.89963783859801
 30
0.0
 10
74.22871634429005
 20
-77.94769692061725
 30
0.0
 10
74.22871634429005
 20
-78.00695256296355
 30
0.0
 10
74.22871634429005
 20
-78.06861977214952
 30
0.0
 10
74.28004826702026
 20
-78.12098522352531
 30
0.0
 10
74.34860566717674
 20
-78.12098522352531
 30
0.0
 10
74.4168185577847
 20
-78.12098522352531
 30
0.0
 10
74.46332734683556
 20
-78.06620820530983
 30
0.0
 10
74.46332734683556
 20
-78.00919187502896
 30
0.0
 10
74.46332734683556
 20
-77.94769692061725
 30
0.0
 10
74.40958385726566
 20
-77.89963783859801
 30
0.0
 10
74.34343802394886
 20
-77.89963783859801
 30
0.0
  0
HATCH
  5
102
330
B4
100
AcDbEntity
  8
_U+30EC_U+30A4_U+30E4_U+30FC 1
 62
   179
420
  2234388
100
AcDbHatch
 10
0.0
 20
0.0
 30
0.0
210
0.0
220
0.0
230
1.0
  2
SOLID
 70
     1
 71
     0
 91
        3
 92
        1
 93
        1
 72
     4
 94
        3
 73
     0
 74
     1
 95
       44
 96
       40
 40
0.0
 40
0.0
 40
0.0
 40
0.0
 40
1.0
 40
1.0
 40
1.0
 40
2.0
 40
2.0
 40
2.0
 40
3.0
 40
3.0
 40
3.0
 40
4.0
 40
4.0
 40
4.0
 40
5.0
 40
5.0
 40
5.0
 40
6.0
 40
6.0
 40
6.0
 40
7.0
 40
7.0
 40
7.0
 40
8.0
 40
8.0
 40
8.0
 40
9.0
 40
9.0
 40
9.0
 40
10.0
 40
10.0
 40
10.0
 40
11.0
 40
11.0
 40
11.0
 40
12.0
 40
12.0
 40
12.0
 40
13.0
 40
13.0
 40
13.0
 40
13.0
 10
74.104003887724
 20
-78.47031790572964
 10
73.97446829747861
 20
-78.86736516040469
 10
73.91590167422936
 20
-79.03858640602161
 10
73.68852537220288
 20
-79.30782061819389
 10
73.47596298076296
 20
-79.55672876700318
 10
73.20242239923412
 20
-79.75757783379325
 10
72.8796169522662
 20
-79.85800236718828
 10
72.8796169522662
 20
-79.85800236718828
 10
72.6574082934676
 20
-79.66404349136872
 10
72.6574082934676
 20
-79.66404349136872
 10
73.39775931324779
 20
-79.49971243672229
 10
73.77913138346494
 20
-78.89940454841751
 10
73.85251191730076
 20
-78.42467039055009
 10
73.85251191730076
 20
-78.42467039055009
 10
72.9678113966886
 20
-78.42467039055009
 10
72.9678113966886
 20
-78.42467039055009
 10
72.86032441754881
 20
-78.42467039055009
 10
72.64741751656037
 20
-78.42914901468092
 10
72.46655000358476
 20
-78.44964733281815
 10
72.46655000358476
 20
-78.44964733281815
 10
72.46655000358476
 20
-78.21228025388443
 10
72.46655000358476
 20
-78.21228025388443
 10
72.56680228220553
 20
-78.23519013886134
 10
72.85756834116061
 20
-78.23519013886134
 10
72.97263453036796
 20
-78.23519013886134
 10
72.97263453036796
 20
-78.23519013886134
 10
73.4711398470836
 20
-78.23519013886134
 10
73.4711398470836
 20
-78.23519013886134
 10
73.52006020297415
 20
-78.23519013886134
 10
73.79118921766332
 20
-78.23295082679593
 10
73.83528643987451
 20
-78.22606063582543
 10
73.88420679576507
 20
-78.21917044485494
 10
73.88661836260474
 20
-78.21693113278953
 10
73.95758732960088
 20
-78.17352292967537
 10
73.95758732960088
 20
-78.17352292967537
 10
74.17497285472015
 20
-78.34009329638721
 10
74.17497285472015
 20
-78.34009329638721
 10
74.14086640941618
 20
-78.37213268440003
 10
74.12364093198993
 20
-78.40641138447826
 10
74.104003887724
 20
-78.47031790572964
 97
        0
 97
        0
 92
        1
 93
        1
 72
     4
 94
        3
 73
     0
 74
     1
 95
       17
 96
       13
 40
0.0
 40
0.0
 40
0.0
 40
0.0
 40
1.0
 40
1.0
 40
1.0
 40
2.0
 40
2.0
 40
2.0
 40
3.0
 40
3.0
 40
3.0
 40
4.0
 40
4.0
 40
4.0
 40
4.0
 10
74.34619410033707
 20
-78.25568845699858
 10
74.19943303266543
 20
-78.25568845699858
 10
74.0819552766184
 20
-78.14613442056763
 10
74.0819552766184
 20
-78.00919187502896
 10
74.0819552766184
 20
-77.87224932949027
 10
74.19943303266543
 20
-77.76045598099391
 10
74.34619410033707
 20
-77.76045598099391
 10
74.49261065846018
 20
-77.76045598099391
 10
74.61249998134687
 20
-77.87224932949027
 10
74.61249998134687
 20
-78.00919187502896
 10
74.61249998134687
 20
-78.14613442056763
 10
74.49261065846018
 20
-78.25568845699858
 10
74.34619410033707
 20
-78.25568845699858
 97
        0
 97
        0
 92
        1
 93
        1
 72
     4
 94
        3
 73
     0
 74
     1
 95
       17
 96
       13
 40
0.0
 40
0.0
 40
0.0
 40
0.0
 40
1.0
 40
1.0
 40
1.0
 40
2.0
 40
2.0
 40
2.0
 40
3.0
 40
3.0
 40
3.0
 40
4.0
 40
4.0
 40
4.0
 40
4.0
 10
74.34343802394886
 20
-77.89963783859801
 10
74.28004826702026
 20
-77.89963783859801
 10
74.22871634429005
 20
-77.94769692061725
 10
74.22871634429005
 20
-78.00695256296355
 10
74.22871634429005
 20
-78.06861977214952
 10
74.28004826702026
 20
-78.12098522352531
 10
74.34860566717674
 20
-78.12098522352531
 10
74.4168185577847
 20
-78.12098522352531
 10
74.46332734683556
 20
-78.06620820530983
 10
74.46332734683556
 20
-78.00919187502896
 10
74.46332734683556
 20
-77.94769692061725
 10
74.40958385726566
 20
-77.89963783859801
 10
74.34343802394886
 20
-77.89963783859801
 97
        0
 97
        0
 75
     2
 76
     1
 98
        0
  0
ENDBLK
  5
B7
330
B4
100
AcDbEntity
  8
0
100
AcDbBlockEnd
  0
BLOCK
  5
105
330
103
100
AcDbEntity
  8
0
100
AcDbBlockBegin
  2
block 5
 70
     0
 10
0.0
 20
0.0
 30
0.0
  3
block 5
  1

  0
POLYLINE
  5
107
330
103
100
AcDbEntity
  8
_U+30EC_U+30A4_U+30E4_U+30FC 1
 62
   179
420
  2234388
370
    25
100
AcDb2dPolyline
 66
     1
 10
0.0
 20
0.0
 30
0.0
  0
VERTEX
  5
108
330
107
100
AcDbEntity
  8
_U+30EC_U+30A4_U+30E4_U+30FC 1
 62
   179
420
  2234388
370
    25
100
AcDbVertex
100
AcDb2dVertex
 10
77.77578579355217
 20
-91.87691525480862
 30
0.0
  0
VERTEX
  5
109
330
107
100
AcDbEntity
  8
_U+30EC_U+30A4_U+30E4_U+30FC 1
 62
   179
420
  2234388
370
    25
100
AcDbVertex
100
AcDb2dVertex
 10
77.77578579355217
 20
-94.87725497628072
 30
0.0
  0
SEQEND
  5
10A
330
107
100
AcDbEntity
  8
_U+30EC_U+30A4_U+30E4_U+30FC 1
 62
   179
420
  2234388
370
    25
  0
POLYLINE
  5
10B
330
103
100
AcDbEntity
  8
_U+30EC_U+30A4_U+30E4_U+30FC 1
 62
   179
420
  2234388
370
    25
100
AcDb2dPolyline
 66
     1
 10
0.0
 20
0.0
 30
0.0
  0
VERTEX
  5
10C
330
10B
100
AcDbEntity
  8
_U+30EC_U+30A4_U+30E4_U+30FC 1
 62
   179
420
  2234388
370
    25
100
AcDbVertex
100
AcDb2dVertex
 10
67.77570021534228
 20
-91.87691525480862
 30
0.0
  0
VERTEX
  5
10D
330
10B
100
AcDbEntity
  8
_U+30EC_U+30A4_U+30E4_U+30FC 1
 62
   179
420
  2234388
370
    25
100
AcDbVertex
100
AcDb2dVertex
 10
77.77578579355217
 20
-91.87691525480862
 30
0.0
  0
VERTEX
  5
10E
330
10B
100
AcDbEntity
  8
_U+30EC_U+30A4_U+30E4_U+30FC 1
 62
   179
420
  2234388
370
    25
100
AcDbVertex
100
AcDb2dVertex
 10
91.77594793637829
 20
-83.79403553460696
 30
0.0
  0
SEQEND
  5
10F
330
10B
100
AcDbEntity
  8
_U+30EC_U+30A4_U+30E4_U+30FC 1
 62
   179
420
  2234388
370
    25
  0
POLYLINE
  5
110
330
103
100
AcDbEntity
  8
_U+30EC_U+30A4_U+30E4_U+30FC 1
 62
   179
420
  2234388
370
    25
100
AcDb2dPolyline
 66
     1
 10
0.0
 20
0.0
 30
0.0
  0
VERTEX
  5
111
330
110
100
AcDbEntity
  8
_U+30EC_U+30A4_U+30E4_U+30FC 1
 62
   179
420
  2234388
370
    25
100
AcDbVertex
100
AcDb2dVertex
 10
91.77594793637829
 20
-86.79402247830163
 30
0.0
  0
VERTEX
  5
112
330
110
100
AcDbEntity
  8
_U+30EC_U+30A4_U+30E4_U+30FC 1
 62
   179
420
  2234388
370
    25
100
AcDbVertex
100
AcDb2dVertex
 10
77.77578579355217
 20
-94.87725497628072
 30
0.0
  0
VERTEX
  5
113
330
110
100
AcDbEntity
  8
_U+30EC_U+30A4_U+30E4_U+30FC 1
 62
   179
420
  2234388
370
    25
100
AcDbVertex
100
AcDb2dVertex
 10
67.77570021534228
 20
-94.87725497628072
 30
0.0
  0
VERTEX
  5
114
330
110
100
AcDbEntity
  8
_U+30EC_U+30A4_U+30E4_U+30FC 1
 62
   179
420
  2234388
370
    25
100
AcDbVertex
100
AcDb2dVertex
 10
67.77570021534228
 20
-93.8767771987533
 30
0.0
  0
VERTEX
  5
115
330
110
100
AcDbEntity
  8
_U+30EC_U+30A4_U+30E4_U+30FC 1
 62
   179
420
  2234388
370
    25
100
AcDbVertex
100
AcDb2dVertex
 10
76.77534331907559
 20
-93.8767771987533
 30
0.0
  0
VERTEX
  5
116
330
110
100
AcDbEntity
  8
_U+30EC_U+30A4_U+30E4_U+30FC 1
 62
   179
420
  2234388
370
    25
100
AcDbVertex
100
AcDb2dVertex
 10
76.77534331907559
 20
-92.87668747678052
 30
0.0
  0
VERTEX
  5
117
330
110
100
AcDbEntity
  8
_U+30EC_U+30A4_U+30E4_U+30FC 1
 62
   179
420
  2234388
370
    25
100
AcDbVertex
100
AcDb2dVertex
 10
67.7753474375735
 20
-92.87668747678052
 30
0.0
  0
VERTEX
  5
118
330
110
100
AcDbEntity
  8
_U+30EC_U+30A4_U+30E4_U+30FC 1
 62
   179
420
  2234388
370
    25
100
AcDbVertex
100
AcDb2dVertex
 10
67.77570021534228
 20
-91.87691525480862
 30
0.0
  0
VERTEX
  5
119
330
110
100
AcDbEntity
  8
_U+30EC_U+30A4_U+30E4_U+30FC 1
 62
   179
420
  2234388
370
    25
100
AcDbVertex
100
AcDb2dVertex
 10
81.77554485817649
 20
-83.79403553460696
 30
0.0
  0
SEQEND
  5
11A
330
110
100
AcDbEntity
  8
_U+30EC_U+30A4_U+30E4_U+30FC 1
 62
   179
420
  2234388
370
    25
  0
POLYLINE
  5
11B
330
103
100
AcDbEntity
  8
_U+30EC_U+30A4_U+30E4_U+30FC 1
 62
   179
420
  2234388
370
    25
100
AcDb2dPolyline
 66
     1
 10
0.0
 20
0.0
 30
0.0
  0
VERTEX
  5
11C
330
11B
100
AcDbEntity
  8
_U+30EC_U+30A4_U+30E4_U+30FC 1
 62
   179
420
  2234388
370
    25
100
AcDbVertex
100
AcDb2dVertex
 10
90.72590490761155
 20
-84.05378581231997
 30
0.0
  0
VERTEX
  5
11D
330
11B
100
AcDbEntity
  8
_U+30EC_U+30A4_U+30E4_U+30FC 1
 62
   179
420
  2234388
370
    25
100
AcDbVertex
100
AcDb2dVertex
 10
78.04174495343366
 20
-91.37667636604492
 30
0.0
  0
VERTEX
  5
11E
330
11B
100
AcDbEntity
  8
_U+30EC_U+30A4_U+30E4_U+30FC 1
 62
   179
420
  2234388
370
    25
100
AcDbVertex
100
AcDb2dVertex
 10
69.24159767794411
 20
-91.37667636604492
 30
0.0
  0
VERTEX
  5
11F
330
11B
100
AcDbEntity
  8
_U+30EC_U+30A4_U+30E4_U+30FC 1
 62
   179
420
  2234388
370
    25
100
AcDbVertex
100
AcDb2dVertex
 10
81.92575763212201
 20
-84.05378581231997
 30
0.0
  0
SEQEND
  5
121
330
11B
100
AcDbEntity
  8
_U+30EC_U+30A4_U+30E4_U+30FC 1
 62
   179
420
  2234388
370
    25
  0
HATCH
  5
120
330
103
100
AcDbEntity
  8
_U+30EC_U+30A4_U+30E4_U+30FC 1
 62
   161
420
  9020372
100
AcDbHatch
 10
0.0
 20
0.0
 30
0.0
210
0.0
220
0.0
230
1.0
  2
SOLID
 70
     1
 71
     0
 91
        1
 92
        1
 93
        4
 72
     1
 10
90.72590490761155
 20
-84.05378581231997
 11
78.04174495343365
 21
-91.37667636604492
 72
     1
 10
78.04174495343366
 20
-91.37667636604492
 11
69.24159767794413
 21
-91.37667636604492
 72
     1
 10
69.24159767794411
 20
-91.37667636604492
 11
81.92575763212201
 21
-84.05378581231997
 72
     1
 10
81.92575763212201
 20
-84.05378581231997
 11
90.72590490761155
 21
-84.05378581231997
 97
        0
 75
     2
 76
     1
 98
        0
  0
SPLINE
  5
122
330
103
100
AcDbEntity
  8
_U+30EC_U+30A4_U+30E4_U+30FC 1
 62
   179
420
  2234388
370
    25
100
AcDbSpline
210
0.0
220
0.0
230
1.0
 70
     8
 71
     3
 72
    20
 73
    16
 74
     0
 42
0.0000000001
 43
0.0000000001
 12
1.0
 22
0.0
 32
0.0
 13
1.0
 23
0.0
 33
0.0
 40
0.0
 40
0.0
 40
0.0
 40
0.0
 40
1.0
 40
1.0
 40
1.0
 40
2.0
 40
2.0
 40
2.0
 40
3.0
 40
3.0
 40
3.0
 40
4.0
 40
4.0
 40
4.0
 40
5.0
 40
5.0
 40
5.0
 40
5.0
 10
76.77534331907559
 20
-92.87668747678052
 30
0.0
 10
76.77534331907559
 20
-92.87668747678052
 30
0.0
 10
76.77534331907559
 20
-93.8767771987533
 30
0.0
 10
76.77534331907559
 20
-93.8767771987533
 30
0.0
 10
76.77534331907559
 20
-93.8767771987533
 30
0.0
 10
75.04383947436105
 20
-94.87690219850298
 30
0.0
 10
75.04383947436105
 20
-94.87690219850298
 30
0.0
 10
70.69782902968146
 20
-97.45588414230252
 30
0.0
 10
66.64949246629645
 20
-97.67947469780205
 30
0.0
 10
65.23838139118578
 20
-97.23850247569007
 30
0.0
 10
64.76781112541326
 20
-97.12035719794189
 30
0.0
 10
64.70921473801928
 20
-95.98554164266997
 30
0.0
 10
64.70921473801928
 20
-95.98554164266997
 30
0.0
 10
64.70921473801928
 20
-95.98554164266997
 30
0.0
 10
67.5900332756346
 20
-93.39826942109495
 30
0.0
 10
67.5900332756346
 20
-93.39826942109495
 30
0.0
  0
HATCH
  5
123
330
103
100
AcDbEntity
  8
_U+30EC_U+30A4_U+30E4_U+30FC 1
 62
     7
420
 16711422
100
AcDbHatch
 10
0.0
 20
0.0
 30
0.0
210
0.0
220
0.0
230
1.0
  2
SOLID
 70
     1
 71
     0
 91
        1
 92
        1
 93
        2
 72
     4
 94
        3
 73
     0
 74
     0
 95
       20
 96
       16
 40
0.0
 40
0.0
 40
0.0
 40
0.0
 40
0.3527777776895833
 40
0.3527777776895833
 40
0.3527777776895833
 40
0.7055555553791667
 40
0.7055555553791667
 40
0.7055555553791667
 40
1.05833333306875
 40
1.05833333306875
 40
1.05833333306875
 40
1.411111110758333
 40
1.411111110758333
 40
1.411111110758333
 40
1.763888888447917
 40
1.763888888447917
 40
1.763888888447917
 40
1.763888888447917
 10
76.77534331907559
 20
-92.87668747678052
 10
76.77534331907559
 20
-92.87668747678052
 10
76.77534331907559
 20
-93.8767771987533
 10
76.77534331907559
 20
-93.8767771987533
 10
76.77534331907559
 20
-93.8767771987533
 10
75.04383947436105
 20
-94.87690219850298
 10
75.04383947436105
 20
-94.87690219850298
 10
70.69782902968146
 20
-97.45588414230252
 10
66.64949246629645
 20
-97.67947469780205
 10
65.23838139118578
 20
-97.23850247569007
 10
64.76781112541326
 20
-97.12035719794189
 10
64.70921473801928
 20
-95.98554164266997
 10
64.70921473801928
 20
-95.98554164266997
 10
64.70921473801928
 20
-95.98554164266997
 10
67.5900332756346
 20
-93.39826942109495
 10
67.5900332756346
 20
-93.39826942109495
 97
        0
 72
     1
 10
67.5900332756346
 20
-93.39826942109495
 11
76.77534331907559
 21
-92.87668747678052
 97
        0
 75
     2
 76
     1
 98
        0
  0
SPLINE
  5
124
330
103
100
AcDbEntity
  8
_U+30EC_U+30A4_U+30E4_U+30FC 1
 62
   179
420
  2234388
370
    25
100
AcDbSpline
210
0.0
220
0.0
230
1.0
 70
    11
 71
     3
 72
    20
 73
    16
 74
     0
 42
0.0000000001
 43
0.0000000001
 12
1.0
 22
0.0
 32
0.0
 13
1.0
 23
0.0
 33
0.0
 40
0.0
 40
0.0
 40
0.0
 40
0.0
 40
1.0
 40
1.0
 40
1.0
 40
2.0
 40
2.0
 40
2.0
 40
3.0
 40
3.0
 40
3.0
 40
4.0
 40
4.0
 40
4.0
 40
5.0
 40
5.0
 40
5.0
 40
5.0
 10
76.77534331907559
 20
-92.87668747678052
 30
0.0
 10
76.77534331907559
 20
-92.87668747678052
 30
0.0
 10
75.04313391882349
 20
-93.8767771987533
 30
0.0
 10
75.04313391882349
 20
-93.8767771987533
 30
0.0
 10
70.69747625191268
 20
-96.45579442033038
 30
0.0
 10
66.64949246629645
 20
-96.77929164247153
 30
0.0
 10
65.23838139118578
 20
-96.33831942035957
 30
0.0
 10
64.31509141474088
 20
-96.04995886487613
 30
0.0
 10
64.53282585363046
 20
-94.86829442072725
 30
0.0
 10
66.35531108491276
 20
-93.69248608768768
 30
0.0
 10
66.35531108491276
 20
-93.69248608768768
 30
0.0
 10
67.7753474375735
 20
-92.87668747678052
 30
0.0
 10
67.7753474375735
 20
-92.87668747678052
 30
0.0
 10
67.7753474375735
 20
-92.87668747678052
 30
0.0
 10
76.77534331907559
 20
-92.87668747678052
 30
0.0
 10
76.77534331907559
 20
-92.87668747678052
 30
0.0
  0
HATCH
  5
125
330
103
100
AcDbEntity
  8
_U+30EC_U+30A4_U+30E4_U+30FC 1
 62
     7
420
 16711422
100
AcDbHatch
 10
0.0
 20
0.0
 30
0.0
210
0.0
220
0.0
230
1.0
  2
SOLID
 70
     1
 71
     0
 91
        1
 92
        1
 93
        1
 72
     4
 94
        3
 73
     0
 74
     1
 95
       20
 96
       16
 40
0.0
 40
0.0
 40
0.0
 40
0.0
 40
1.0
 40
1.0
 40
1.0
 40
2.0
 40
2.0
 40
2.0
 40
3.0
 40
3.0
 40
3.0
 40
4.0
 40
4.0
 40
4.0
 40
5.0
 40
5.0
 40
5.0
 40
5.0
 10
76.77534331907559
 20
-92.87668747678052
 10
76.77534331907559
 20
-92.87668747678052
 10
75.04313391882349
 20
-93.8767771987533
 10
75.04313391882349
 20
-93.8767771987533
 10
70.69747625191268
 20
-96.45579442033038
 10
66.64949246629645
 20
-96.77929164247153
 10
65.23838139118578
 20
-96.33831942035957
 10
64.31509141474088
 20
-96.04995886487613
 10
64.53282585363046
 20
-94.86829442072725
 10
66.35531108491276
 20
-93.69248608768768
 10
66.35531108491276
 20
-93.69248608768768
 10
67.7753474375735
 20
-92.87668747678052
 10
67.7753474375735
 20
-92.87668747678052
 10
67.7753474375735
 20
-92.87668747678052
 10
76.77534331907559
 20
-92.87668747678052
 10
76.77534331907559
 20
-92.87668747678052
 97
        0
 97
        0
 75
     2
 76
     1
 98
        0
  0
ENDBLK
  5
106
330
103
100
AcDbEntity
  8
0
100
AcDbBlockEnd
  0
BLOCK
  5
128
330
126
100
AcDbEntity
  8
0
100
AcDbBlockBegin
  2
block 6
 70
     0
 10
0.0
 20
0.0
 30
0.0
  3
block 6
  1

  0
SPLINE
  5
12A
330
126
100
AcDbEntity
  8
_U+30EC_U+30A4_U+30E4_U+30FC 1
370
     0
100
AcDbSpline
210
0.0
220
0.0
230
1.0
 70
    11
 71
     3
 72
    20
 73
    16
 74
     0
 42
0.0000000001
 43
0.0000000001
 12
1.0
 22
0.0
 32
0.0
 13
1.0
 23
0.0
 33
0.0
 40
0.0
 40
0.0
 40
0.0
 40
0.0
 40
1.0
 40
1.0
 40
1.0
 40
2.0
 40
2.0
 40
2.0
 40
3.0
 40
3.0
 40
3.0
 40
4.0
 40
4.0
 40
4.0
 40
5.0
 40
5.0
 40
5.0
 40
5.0
 10
62.72347546174969
 20
-100.5433891892739
 30
0.0
 10
62.65009492791387
 20
-100.4955023620289
 30
0.0
 10
62.61340466099595
 20
-100.4727647318263
 30
0.0
 10
62.45458575912594
 20
-100.4086859558006
 30
0.0
 10
62.27871363460394
 20
-100.338061498353
 30
0.0
 10
62.22979327871339
 20
-100.3222140591208
 30
0.0
 10
62.17363822230381
 20
-100.303955053049
 30
0.0
 10
62.17363822230381
 20
-100.303955053049
 30
0.0
 10
62.27871363460394
 20
-100.1099961772294
 30
0.0
 10
62.27871363460394
 20
-100.1099961772294
 30
0.0
 10
62.34468721314647
 20
-100.1351453742718
 30
0.0
 10
62.65267874952781
 20
-100.2512450921247
 30
0.0
 10
62.83096244088949
 20
-100.3676893195261
 30
0.0
 10
62.83096244088949
 20
-100.3676893195261
 30
0.0
 10
62.72347546174969
 20
-100.5433891892739
 30
0.0
 10
62.72347546174969
 20
-100.5433891892739
 30
0.0
  0
SPLINE
  5
12B
330
126
100
AcDbEntity
  8
_U+30EC_U+30A4_U+30E4_U+30FC 1
370
     0
100
AcDbSpline
210
0.0
220
0.0
230
1.0
 70
    11
 71
     3
 72
    26
 73
    22
 74
     0
 42
0.0000000001
 43
0.0000000001
 12
1.0
 22
0.0
 32
0.0
 13
1.0
 23
0.0
 33
0.0
 40
0.0
 40
0.0
 40
0.0
 40
0.0
 40
1.0
 40
1.0
 40
1.0
 40
2.0
 40
2.0
 40
2.0
 40
3.0
 40
3.0
 40
3.0
 40
4.0
 40
4.0
 40
4.0
 40
5.0
 40
5.0
 40
5.0
 40
6.0
 40
6.0
 40
6.0
 40
7.0
 40
7.0
 40
7.0
 40
7.0
 10
62.57688664885231
 20
-101.4656412506753
 30
0.0
 10
62.57447508201263
 20
-101.4928575050087
 30
0.0
 10
62.56947969355902
 20
-101.5476345232242
 30
0.0
 10
62.52555472612209
 20
-101.5476345232242
 30
0.0
 10
62.5181477708288
 20
-101.5476345232242
 30
0.0
 10
62.49868298133714
 20
-101.5407443322537
 30
0.0
 10
62.48404132552483
 20
-101.5248968930216
 30
0.0
 10
62.48404132552483
 20
-101.5248968930216
 30
0.0
 10
62.30058999093527
 20
-101.3013101960288
 30
0.0
 10
62.30058999093527
 20
-101.3013101960288
 30
0.0
 10
62.4327094027946
 20
-101.2672037507249
 30
0.0
 10
62.69660371696474
 20
-101.1986463505684
 30
0.0
 10
63.13895397727082
 20
-100.8675726744359
 30
0.0
 10
63.49810518160812
 20
-100.600577774329
 30
0.0
 10
63.67897269458373
 20
-100.385948325598
 30
0.0
 10
63.84761011858671
 20
-100.1485812466642
 30
0.0
 10
63.84761011858671
 20
-100.1485812466642
 30
0.0
 10
63.99678275309803
 20
-100.338061498353
 30
0.0
 10
63.99678275309803
 20
-100.338061498353
 30
0.0
 10
63.64486624927976
 20
-100.8630940503051
 30
0.0
 10
62.9043429747253
 20
-101.3402397750122
 30
0.0
 10
62.57688664885231
 20
-101.4656412506753
 30
0.0
  0
SPLINE
  5
12C
330
126
100
AcDbEntity
  8
_U+30EC_U+30A4_U+30E4_U+30FC 1
370
     0
100
AcDbSpline
210
0.0
220
0.0
230
1.0
 70
    11
 71
     3
 72
    17
 73
    13
 74
     0
 42
0.0000000001
 43
0.0000000001
 12
1.0
 22
0.0
 32
0.0
 13
1.0
 23
0.0
 33
0.0
 40
0.0
 40
0.0
 40
0.0
 40
0.0
 40
1.0
 40
1.0
 40
1.0
 40
2.0
 40
2.0
 40
2.0
 40
3.0
 40
3.0
 40
3.0
 40
4.0
 40
4.0
 40
4.0
 40
4.0
 10
62.99959986489247
 20
-100.0025091980897
 30
0.0
 10
62.83595782934309
 20
-99.87951928926624
 30
0.0
 10
62.58911673782494
 20
-99.7878797493586
 30
0.0
 10
62.43994410331363
 20
-99.74688311308412
 30
0.0
 10
62.43994410331363
 20
-99.74688311308412
 30
0.0
 10
62.5401963819344
 20
-99.55740286139537
 30
0.0
 10
62.5401963819344
 20
-99.55740286139537
 30
0.0
 10
62.75517034021399
 20
-99.63732907665317
 30
0.0
 10
62.94826794216224
 20
-99.73103567385196
 30
0.0
 10
63.10467527719258
 20
-99.81991913737141
 30
0.0
 10
63.10467527719258
 20
-99.81991913737141
 30
0.0
 10
62.99959986489247
 20
-100.0025091980897
 30
0.0
 10
62.99959986489247
 20
-100.0025091980897
 30
0.0
  0
SPLINE
  5
12D
330
126
100
AcDbEntity
  8
_U+30EC_U+30A4_U+30E4_U+30FC 1
370
     0
100
AcDbSpline
210
0.0
220
0.0
230
1.0
 70
    11
 71
     3
 72
    17
 73
    13
 74
     0
 42
0.0000000001
 43
0.0000000001
 12
1.0
 22
0.0
 32
0.0
 13
1.0
 23
0.0
 33
0.0
 40
0.0
 40
0.0
 40
0.0
 40
0.0
 40
1.0
 40
1.0
 40
1.0
 40
2.0
 40
2.0
 40
2.0
 40
3.0
 40
3.0
 40
3.0
 40
4.0
 40
4.0
 40
4.0
 40
4.0
 10
63.7571763620989
 20
-99.92258298283186
 30
0.0
 10
63.69361435039605
 20
-99.86091577364589
 30
0.0
 10
63.62281763817416
 20
-99.79718150716876
 30
0.0
 10
63.49087048108909
 20
-99.71966685875064
 30
0.0
 10
63.49087048108909
 20
-99.71966685875064
 30
0.0
 10
63.60076902706856
 20
-99.60770125548002
 30
0.0
 10
63.60076902706856
 20
-99.60770125548002
 30
0.0
 10
63.69120278355637
 20
-99.65352102543385
 30
0.0
 10
63.8109198516688
 20
-99.71725529191097
 30
0.0
 10
63.87964950659953
 20
-99.80648326497894
 30
0.0
 10
63.87964950659953
 20
-99.80648326497894
 30
0.0
 10
63.7571763620989
 20
-99.92258298283186
 30
0.0
 10
63.7571763620989
 20
-99.92258298283186
 30
0.0
  0
SPLINE
  5
12E
330
126
100
AcDbEntity
  8
_U+30EC_U+30A4_U+30E4_U+30FC 1
370
     0
100
AcDbSpline
210
0.0
220
0.0
230
1.0
 70
    11
 71
     3
 72
    17
 73
    13
 74
     0
 42
0.0000000001
 43
0.0000000001
 12
1.0
 22
0.0
 32
0.0
 13
1.0
 23
0.0
 33
0.0
 40
0.0
 40
0.0
 40
0.0
 40
0.0
 40
1.0
 40
1.0
 40
1.0
 40
2.0
 40
2.0
 40
2.0
 40
3.0
 40
3.0
 40
3.0
 40
4.0
 40
4.0
 40
4.0
 40
4.0
 10
64.01883136420363
 20
-99.75618487089429
 30
0.0
 10
63.99678275309803
 20
-99.73792586482247
 30
0.0
 10
63.75958792893858
 20
-99.5687716764967
 30
0.0
 10
63.72789305047428
 20
-99.54844561313372
 30
0.0
 10
63.72789305047428
 20
-99.54844561313372
 30
0.0
 10
63.85260550704032
 20
-99.42958981889261
 30
0.0
 10
63.85260550704032
 20
-99.42958981889261
 30
0.0
 10
63.97955727567178
 20
-99.51192760099008
 30
0.0
 10
63.99402667670983
 20
-99.5232964160914
 30
0.0
 10
64.14078774438147
 20
-99.63732907665317
 30
0.0
 10
64.14078774438147
 20
-99.63732907665317
 30
0.0
 10
64.01883136420363
 20
-99.75618487089429
 30
0.0
 10
64.01883136420363
 20
-99.75618487089429
 30
0.0
  0
HATCH
  5
12F
330
126
100
AcDbEntity
  8
_U+30EC_U+30A4_U+30E4_U+30FC 1
 62
   179
420
  2234388
100
AcDbHatch
 10
0.0
 20
0.0
 30
0.0
210
0.0
220
0.0
230
1.0
  2
SOLID
 70
     1
 71
     0
 91
        5
 92
        1
 93
        1
 72
     4
 94
        3
 73
     0
 74
     1
 95
       20
 96
       16
 40
0.0
 40
0.0
 40
0.0
 40
0.0
 40
1.0
 40
1.0
 40
1.0
 40
2.0
 40
2.0
 40
2.0
 40
3.0
 40
3.0
 40
3.0
 40
4.0
 40
4.0
 40
4.0
 40
5.0
 40
5.0
 40
5.0
 40
5.0
 10
62.72347546174969
 20
-100.5433891892739
 10
62.65009492791387
 20
-100.4955023620289
 10
62.61340466099595
 20
-100.4727647318263
 10
62.45458575912594
 20
-100.4086859558006
 10
62.27871363460394
 20
-100.338061498353
 10
62.22979327871339
 20
-100.3222140591208
 10
62.17363822230381
 20
-100.303955053049
 10
62.17363822230381
 20
-100.303955053049
 10
62.27871363460394
 20
-100.1099961772294
 10
62.27871363460394
 20
-100.1099961772294
 10
62.34468721314647
 20
-100.1351453742718
 10
62.65267874952781
 20
-100.2512450921247
 10
62.83096244088949
 20
-100.3676893195261
 10
62.83096244088949
 20
-100.3676893195261
 10
62.72347546174969
 20
-100.5433891892739
 10
62.72347546174969
 20
-100.5433891892739
 97
        0
 97
        0
 92
        1
 93
        1
 72
     4
 94
        3
 73
     0
 74
     1
 95
       26
 96
       22
 40
0.0
 40
0.0
 40
0.0
 40
0.0
 40
1.0
 40
1.0
 40
1.0
 40
2.0
 40
2.0
 40
2.0
 40
3.0
 40
3.0
 40
3.0
 40
4.0
 40
4.0
 40
4.0
 40
5.0
 40
5.0
 40
5.0
 40
6.0
 40
6.0
 40
6.0
 40
7.0
 40
7.0
 40
7.0
 40
7.0
 10
62.57688664885231
 20
-101.4656412506753
 10
62.57447508201263
 20
-101.4928575050087
 10
62.56947969355902
 20
-101.5476345232242
 10
62.52555472612209
 20
-101.5476345232242
 10
62.5181477708288
 20
-101.5476345232242
 10
62.49868298133714
 20
-101.5407443322537
 10
62.48404132552483
 20
-101.5248968930216
 10
62.48404132552483
 20
-101.5248968930216
 10
62.30058999093527
 20
-101.3013101960288
 10
62.30058999093527
 20
-101.3013101960288
 10
62.4327094027946
 20
-101.2672037507249
 10
62.69660371696474
 20
-101.1986463505684
 10
63.13895397727082
 20
-100.8675726744359
 10
63.49810518160812
 20
-100.600577774329
 10
63.67897269458373
 20
-100.385948325598
 10
63.84761011858671
 20
-100.1485812466642
 10
63.84761011858671
 20
-100.1485812466642
 10
63.99678275309803
 20
-100.338061498353
 10
63.99678275309803
 20
-100.338061498353
 10
63.64486624927976
 20
-100.8630940503051
 10
62.9043429747253
 20
-101.3402397750122
 10
62.57688664885231
 20
-101.4656412506753
 97
        0
 97
        0
 92
        1
 93
        1
 72
     4
 94
        3
 73
     0
 74
     1
 95
       17
 96
       13
 40
0.0
 40
0.0
 40
0.0
 40
0.0
 40
1.0
 40
1.0
 40
1.0
 40
2.0
 40
2.0
 40
2.0
 40
3.0
 40
3.0
 40
3.0
 40
4.0
 40
4.0
 40
4.0
 40
4.0
 10
62.99959986489247
 20
-100.0025091980897
 10
62.83595782934309
 20
-99.87951928926624
 10
62.58911673782494
 20
-99.7878797493586
 10
62.43994410331363
 20
-99.74688311308412
 10
62.43994410331363
 20
-99.74688311308412
 10
62.5401963819344
 20
-99.55740286139537
 10
62.5401963819344
 20
-99.55740286139537
 10
62.75517034021399
 20
-99.63732907665317
 10
62.94826794216224
 20
-99.73103567385196
 10
63.10467527719258
 20
-99.81991913737141
 10
63.10467527719258
 20
-99.81991913737141
 10
62.99959986489247
 20
-100.0025091980897
 10
62.99959986489247
 20
-100.0025091980897
 97
        0
 97
        0
 92
        1
 93
        1
 72
     4
 94
        3
 73
     0
 74
     1
 95
       17
 96
       13
 40
0.0
 40
0.0
 40
0.0
 40
0.0
 40
1.0
 40
1.0
 40
1.0
 40
2.0
 40
2.0
 40
2.0
 40
3.0
 40
3.0
 40
3.0
 40
4.0
 40
4.0
 40
4.0
 40
4.0
 10
63.7571763620989
 20
-99.92258298283186
 10
63.69361435039605
 20
-99.86091577364589
 10
63.62281763817416
 20
-99.79718150716876
 10
63.49087048108909
 20
-99.71966685875064
 10
63.49087048108909
 20
-99.71966685875064
 10
63.60076902706856
 20
-99.60770125548002
 10
63.60076902706856
 20
-99.60770125548002
 10
63.69120278355637
 20
-99.65352102543385
 10
63.8109198516688
 20
-99.71725529191097
 10
63.87964950659953
 20
-99.80648326497894
 10
63.87964950659953
 20
-99.80648326497894
 10
63.7571763620989
 20
-99.92258298283186
 10
63.7571763620989
 20
-99.92258298283186
 97
        0
 97
        0
 92
        1
 93
        1
 72
     4
 94
        3
 73
     0
 74
     1
 95
       17
 96
       13
 40
0.0
 40
0.0
 40
0.0
 40
0.0
 40
1.0
 40
1.0
 40
1.0
 40
2.0
 40
2.0
 40
2.0
 40
3.0
 40
3.0
 40
3.0
 40
4.0
 40
4.0
 40
4.0
 40
4.0
 10
64.01883136420363
 20
-99.75618487089429
 10
63.99678275309803
 20
-99.73792586482247
 10
63.75958792893858
 20
-99.5687716764967
 10
63.72789305047428
 20
-99.54844561313372
 10
63.72789305047428
 20
-99.54844561313372
 10
63.85260550704032
 20
-99.42958981889261
 10
63.85260550704032
 20
-99.42958981889261
 10
63.97955727567178
 20
-99.51192760099008
 10
63.99402667670983
 20
-99.5232964160914
 10
64.14078774438147
 20
-99.63732907665317
 10
64.14078774438147
 20
-99.63732907665317
 10
64.01883136420363
 20
-99.75618487089429
 10
64.01883136420363
 20
-99.75618487089429
 97
        0
 97
        0
 75
     2
 76
     1
 98
        0
  0
SPLINE
  5
130
330
126
100
AcDbEntity
  8
_U+30EC_U+30A4_U+30E4_U+30FC 1
370
     0
100
AcDbSpline
210
0.0
220
0.0
230
1.0
 70
    11
 71
     3
 72
    68
 73
    64
 74
     0
 42
0.0000000001
 43
0.0000000001
 12
1.0
 22
0.0
 32
0.0
 13
1.0
 23
0.0
 33
0.0
 40
0.0
 40
0.0
 40
0.0
 40
0.0
 40
1.0
 40
1.0
 40
1.0
 40
2.0
 40
2.0
 40
2.0
 40
3.0
 40
3.0
 40
3.0
 40
4.0
 40
4.0
 40
4.0
 40
5.0
 40
5.0
 40
5.0
 40
6.0
 40
6.0
 40
6.0
 40
7.0
 40
7.0
 40
7.0
 40
8.0
 40
8.0
 40
8.0
 40
9.0
 40
9.0
 40
9.0
 40
10.0
 40
10.0
 40
10.0
 40
11.0
 40
11.0
 40
11.0
 40
12.0
 40
12.0
 40
12.0
 40
13.0
 40
13.0
 40
13.0
 40
14.0
 40
14.0
 40
14.0
 40
15.0
 40
15.0
 40
15.0
 40
16.0
 40
16.0
 40
16.0
 40
17.0
 40
17.0
 40
17.0
 40
18.0
 40
18.0
 40
18.0
 40
19.0
 40
19.0
 40
19.0
 40
20.0
 40
20.0
 40
20.0
 40
21.0
 40
21.0
 40
21.0
 40
21.0
 10
65.42718639857377
 20
-101.4587510597048
 30
0.0
 10
65.42994247496196
 20
-101.4153428565906
 30
0.0
 10
65.42994247496196
 20
-101.3946722836791
 30
0.0
 10
65.43200953225312
 20
-101.3674560293456
 30
0.0
 10
65.43200953225312
 20
-101.3674560293456
 30
0.0
 10
64.70164928938014
 20
-101.3674560293456
 30
0.0
 10
64.70164928938014
 20
-101.3674560293456
 30
0.0
 10
64.61345484495774
 20
-101.3674560293456
 30
0.0
 10
64.43293184153066
 20
-101.3719346534765
 30
0.0
 10
64.29581704121772
 20
-101.3812364112866
 30
0.0
 10
64.29581704121772
 20
-101.3812364112866
 30
0.0
 10
64.29581704121772
 20
-101.2031249746992
 30
0.0
 10
64.29581704121772
 20
-101.2031249746992
 30
0.0
 10
64.40089245351784
 20
-101.2120822229609
 30
0.0
 10
64.6182779786371
 20
-101.2189724139314
 30
0.0
 10
64.70164928938014
 20
-101.2189724139314
 30
0.0
 10
64.70164928938014
 20
-101.2189724139314
 30
0.0
 10
65.43200953225312
 20
-101.2189724139314
 30
0.0
 10
65.43200953225312
 20
-101.2189724139314
 30
0.0
 10
65.43200953225312
 20
-101.2189724139314
 30
0.0
 10
65.43200953225312
 20
-100.8493136683641
 30
0.0
 10
65.43200953225312
 20
-100.8493136683641
 30
0.0
 10
65.43200953225312
 20
-100.8493136683641
 30
0.0
 10
64.75263670256184
 20
-100.8493136683641
 30
0.0
 10
64.75263670256184
 20
-100.8493136683641
 30
0.0
 10
64.63791502290303
 20
-100.8493136683641
 30
0.0
 10
64.49632159845926
 20
-100.8562038593346
 30
0.0
 10
64.34714896394794
 20
-100.8655056171447
 30
0.0
 10
64.34714896394794
 20
-100.8655056171447
 30
0.0
 10
64.34714896394794
 20
-100.6849826137177
 30
0.0
 10
64.34714896394794
 20
-100.6849826137177
 30
0.0
 10
64.4694498536743
 20
-100.6942843715278
 30
0.0
 10
64.68683537879357
 20
-100.7008300529498
 30
0.0
 10
64.75263670256184
 20
-100.7008300529498
 30
0.0
 10
64.75263670256184
 20
-100.7008300529498
 30
0.0
 10
65.43200953225312
 20
-100.7008300529498
 30
0.0
 10
65.43200953225312
 20
-100.7008300529498
 30
0.0
 10
65.43200953225312
 20
-100.7008300529498
 30
0.0
 10
65.43200953225312
 20
-100.338061498353
 30
0.0
 10
65.43200953225312
 20
-100.338061498353
 30
0.0
 10
65.43200953225312
 20
-100.338061498353
 30
0.0
 10
64.73334416784445
 20
-100.338061498353
 30
0.0
 10
64.73334416784445
 20
-100.338061498353
 30
0.0
 10
64.61104327811807
 20
-100.338061498353
 30
0.0
 10
64.49632159845926
 20
-100.3425401224838
 30
0.0
 10
64.32751191968201
 20
-100.3542534471337
 30
0.0
 10
64.32751191968201
 20
-100.3542534471337
 30
0.0
 10
64.32751191968201
 20
-100.1737304437066
 30
0.0
 10
64.32751191968201
 20
-100.1737304437066
 30
0.0
 10
64.43982203250116
 20
-100.1830322015168
 30
0.0
 10
64.64514972342205
 20
-100.1895778829387
 30
0.0
 10
64.73334416784445
 20
-100.1895778829387
 30
0.0
 10
64.73334416784445
 20
-100.1895778829387
 30
0.0
 10
65.6180446884566
 20
-100.1895778829387
 30
0.0
 10
65.6180446884566
 20
-100.1895778829387
 30
0.0
 10
65.6180446884566
 20
-100.1895778829387
 30
0.0
 10
65.6180446884566
 20
-101.0615315502555
 30
0.0
 10
65.6180446884566
 20
-101.0615315502555
 30
0.0
 10
65.6180446884566
 20
-101.1300889504119
 30
0.0
 10
65.62286782213596
 20
-101.3037217628685
 30
0.0
 10
65.63251408949465
 20
-101.4587510597048
 30
0.0
 10
65.63251408949465
 20
-101.4587510597048
 30
0.0
 10
65.42718639857377
 20
-101.4587510597048
 30
0.0
 10
65.42718639857377
 20
-101.4587510597048
 30
0.0
  0
HATCH
  5
131
330
126
100
AcDbEntity
  8
_U+30EC_U+30A4_U+30E4_U+30FC 1
 62
   179
420
  2234388
100
AcDbHatch
 10
0.0
 20
0.0
 30
0.0
210
0.0
220
0.0
230
1.0
  2
SOLID
 70
     1
 71
     0
 91
        1
 92
        1
 93
        1
 72
     4
 94
        3
 73
     0
 74
     1
 95
       68
 96
       64
 40
0.0
 40
0.0
 40
0.0
 40
0.0
 40
1.0
 40
1.0
 40
1.0
 40
2.0
 40
2.0
 40
2.0
 40
3.0
 40
3.0
 40
3.0
 40
4.0
 40
4.0
 40
4.0
 40
5.0
 40
5.0
 40
5.0
 40
6.0
 40
6.0
 40
6.0
 40
7.0
 40
7.0
 40
7.0
 40
8.0
 40
8.0
 40
8.0
 40
9.0
 40
9.0
 40
9.0
 40
10.0
 40
10.0
 40
10.0
 40
11.0
 40
11.0
 40
11.0
 40
12.0
 40
12.0
 40
12.0
 40
13.0
 40
13.0
 40
13.0
 40
14.0
 40
14.0
 40
14.0
 40
15.0
 40
15.0
 40
15.0
 40
16.0
 40
16.0
 40
16.0
 40
17.0
 40
17.0
 40
17.0
 40
18.0
 40
18.0
 40
18.0
 40
19.0
 40
19.0
 40
19.0
 40
20.0
 40
20.0
 40
20.0
 40
21.0
 40
21.0
 40
21.0
 40
21.0
 10
65.42718639857377
 20
-101.4587510597048
 10
65.42994247496196
 20
-101.4153428565906
 10
65.42994247496196
 20
-101.3946722836791
 10
65.43200953225312
 20
-101.3674560293456
 10
65.43200953225312
 20
-101.3674560293456
 10
64.70164928938014
 20
-101.3674560293456
 10
64.70164928938014
 20
-101.3674560293456
 10
64.61345484495774
 20
-101.3674560293456
 10
64.43293184153066
 20
-101.3719346534765
 10
64.29581704121772
 20
-101.3812364112866
 10
64.29581704121772
 20
-101.3812364112866
 10
64.29581704121772
 20
-101.2031249746992
 10
64.29581704121772
 20
-101.2031249746992
 10
64.40089245351784
 20
-101.2120822229609
 10
64.6182779786371
 20
-101.2189724139314
 10
64.70164928938014
 20
-101.2189724139314
 10
64.70164928938014
 20
-101.2189724139314
 10
65.43200953225312
 20
-101.2189724139314
 10
65.43200953225312
 20
-101.2189724139314
 10
65.43200953225312
 20
-101.2189724139314
 10
65.43200953225312
 20
-100.8493136683641
 10
65.43200953225312
 20
-100.8493136683641
 10
65.43200953225312
 20
-100.8493136683641
 10
64.75263670256184
 20
-100.8493136683641
 10
64.75263670256184
 20
-100.8493136683641
 10
64.63791502290303
 20
-100.8493136683641
 10
64.49632159845926
 20
-100.8562038593346
 10
64.34714896394794
 20
-100.8655056171447
 10
64.34714896394794
 20
-100.8655056171447
 10
64.34714896394794
 20
-100.6849826137177
 10
64.34714896394794
 20
-100.6849826137177
 10
64.4694498536743
 20
-100.6942843715278
 10
64.68683537879357
 20
-100.7008300529498
 10
64.75263670256184
 20
-100.7008300529498
 10
64.75263670256184
 20
-100.7008300529498
 10
65.43200953225312
 20
-100.7008300529498
 10
65.43200953225312
 20
-100.7008300529498
 10
65.43200953225312
 20
-100.7008300529498
 10
65.43200953225312
 20
-100.338061498353
 10
65.43200953225312
 20
-100.338061498353
 10
65.43200953225312
 20
-100.338061498353
 10
64.73334416784445
 20
-100.338061498353
 10
64.73334416784445
 20
-100.338061498353
 10
64.61104327811807
 20
-100.338061498353
 10
64.49632159845926
 20
-100.3425401224838
 10
64.32751191968201
 20
-100.3542534471337
 10
64.32751191968201
 20
-100.3542534471337
 10
64.32751191968201
 20
-100.1737304437066
 10
64.32751191968201
 20
-100.1737304437066
 10
64.43982203250116
 20
-100.1830322015168
 10
64.64514972342205
 20
-100.1895778829387
 10
64.73334416784445
 20
-100.1895778829387
 10
64.73334416784445
 20
-100.1895778829387
 10
65.6180446884566
 20
-100.1895778829387
 10
65.6180446884566
 20
-100.1895778829387
 10
65.6180446884566
 20
-100.1895778829387
 10
65.6180446884566
 20
-101.0615315502555
 10
65.6180446884566
 20
-101.0615315502555
 10
65.6180446884566
 20
-101.1300889504119
 10
65.62286782213596
 20
-101.3037217628685
 10
65.63251408949465
 20
-101.4587510597048
 10
65.63251408949465
 20
-101.4587510597048
 10
65.42718639857377
 20
-101.4587510597048
 10
65.42718639857377
 20
-101.4587510597048
 97
        0
 97
        0
 75
     2
 76
     1
 98
        0
  0
SPLINE
  5
132
330
126
100
AcDbEntity
  8
_U+30EC_U+30A4_U+30E4_U+30FC 1
370
     0
100
AcDbSpline
210
0.0
220
0.0
230
1.0
 70
    11
 71
     3
 72
    50
 73
    46
 74
     0
 42
0.0000000001
 43
0.0000000001
 12
1.0
 22
0.0
 32
0.0
 13
1.0
 23
0.0
 33
0.0
 40
0.0
 40
0.0
 40
0.0
 40
0.0
 40
1.0
 40
1.0
 40
1.0
 40
2.0
 40
2.0
 40
2.0
 40
3.0
 40
3.0
 40
3.0
 40
4.0
 40
4.0
 40
4.0
 40
5.0
 40
5.0
 40
5.0
 40
6.0
 40
6.0
 40
6.0
 40
7.0
 40
7.0
 40
7.0
 40
8.0
 40
8.0
 40
8.0
 40
9.0
 40
9.0
 40
9.0
 40
10.0
 40
10.0
 40
10.0
 40
11.0
 40
11.0
 40
11.0
 40
12.0
 40
12.0
 40
12.0
 40
13.0
 40
13.0
 40
13.0
 40
14.0
 40
14.0
 40
14.0
 40
15.0
 40
15.0
 40
15.0
 40
15.0
 10
67.5180148485719
 20
-99.83817814344324
 30
0.0
 10
67.27582463595883
 20
-100.0686550314065
 30
0.0
 10
67.19314234431283
 20
-100.1465141893731
 30
0.0
 10
67.02915579921493
 20
-100.2743272318759
 30
0.0
 10
67.02915579921493
 20
-100.2743272318759
 30
0.0
 10
67.02915579921493
 20
-100.8858316805077
 30
0.0
 10
67.02915579921493
 20
-100.8858316805077
 30
0.0
 10
67.02915579921493
 20
-101.048095677863
 30
0.0
 10
67.03673500928248
 20
-101.068421741226
 30
0.0
 10
67.04155814296183
 20
-101.2603135597544
 30
0.0
 10
67.04362520025299
 20
-101.4015624746496
 30
0.0
 10
67.05120441032054
 20
-101.4542724355739
 30
0.0
 10
67.05843911083956
 20
-101.5180067020511
 30
0.0
 10
67.05843911083956
 20
-101.5180067020511
 30
0.0
 10
66.7969563635091
 20
-101.5180067020511
 30
0.0
 10
66.7969563635091
 20
-101.5180067020511
 30
0.0
 10
66.80177949718845
 20
-101.4701198748061
 30
0.0
 10
66.8066026308678
 20
-101.4198214807214
 30
0.0
 10
66.8066026308678
 20
-101.4108642324598
 30
0.0
 10
66.8066026308678
 20
-101.3240478262315
 30
0.0
 10
66.81142576454715
 20
-100.945087322854
 30
0.0
 10
66.81142576454715
 20
-100.8675726744359
 30
0.0
 10
66.81142576454715
 20
-100.8675726744359
 30
0.0
 10
66.81142576454715
 20
-100.4293565287121
 30
0.0
 10
66.81142576454715
 20
-100.4293565287121
 30
0.0
 10
66.6012749399469
 20
-100.5640597621854
 30
0.0
 10
66.37665471430861
 20
-100.6829155564265
 30
0.0
 10
66.14204371176311
 20
-100.7762776440768
 30
0.0
 10
66.14204371176311
 20
-100.7762776440768
 30
0.0
 10
65.90743270921759
 20
-100.600577774329
 30
0.0
 10
65.90743270921759
 20
-100.600577774329
 30
0.0
 10
66.04937064320988
 20
-100.5616481953457
 30
0.0
 10
66.34495983584432
 20
-100.4817219800879
 30
0.0
 10
66.7432128739392
 20
-100.2057698317194
 30
0.0
 10
66.99263778707129
 20
-100.0345485861025
 30
0.0
 10
67.21484644586991
 20
-99.83128795247274
 30
0.0
 10
67.39089082516617
 20
-99.59392087353902
 30
0.0
 10
67.39089082516617
 20
-99.59392087353902
 30
0.0
 10
67.61344399351331
 20
-99.74929467992379
 30
0.0
 10
67.61344399351331
 20
-99.74929467992379
 30
0.0
 10
67.62791339455136
 20
-99.76066349502511
 30
0.0
 10
67.63755966191006
 20
-99.77651093425726
 30
0.0
 10
67.63755966191006
 20
-99.79029131619826
 30
0.0
 10
67.63755966191006
 20
-99.83369951931242
 30
0.0
 10
67.59346243969885
 20
-99.83369951931242
 30
0.0
 10
67.5180148485719
 20
-99.83817814344324
 30
0.0
  0
HATCH
  5
133
330
126
100
AcDbEntity
  8
_U+30EC_U+30A4_U+30E4_U+30FC 1
 62
   179
420
  2234388
100
AcDbHatch
 10
0.0
 20
0.0
 30
0.0
210
0.0
220
0.0
230
1.0
  2
SOLID
 70
     1
 71
     0
 91
        1
 92
        1
 93
        1
 72
     4
 94
        3
 73
     0
 74
     1
 95
       50
 96
       46
 40
0.0
 40
0.0
 40
0.0
 40
0.0
 40
1.0
 40
1.0
 40
1.0
 40
2.0
 40
2.0
 40
2.0
 40
3.0
 40
3.0
 40
3.0
 40
4.0
 40
4.0
 40
4.0
 40
5.0
 40
5.0
 40
5.0
 40
6.0
 40
6.0
 40
6.0
 40
7.0
 40
7.0
 40
7.0
 40
8.0
 40
8.0
 40
8.0
 40
9.0
 40
9.0
 40
9.0
 40
10.0
 40
10.0
 40
10.0
 40
11.0
 40
11.0
 40
11.0
 40
12.0
 40
12.0
 40
12.0
 40
13.0
 40
13.0
 40
13.0
 40
14.0
 40
14.0
 40
14.0
 40
15.0
 40
15.0
 40
15.0
 40
15.0
 10
67.5180148485719
 20
-99.83817814344324
 10
67.27582463595883
 20
-100.0686550314065
 10
67.19314234431283
 20
-100.1465141893731
 10
67.02915579921493
 20
-100.2743272318759
 10
67.02915579921493
 20
-100.2743272318759
 10
67.02915579921493
 20
-100.8858316805077
 10
67.02915579921493
 20
-100.8858316805077
 10
67.02915579921493
 20
-101.048095677863
 10
67.03673500928248
 20
-101.068421741226
 10
67.04155814296183
 20
-101.2603135597544
 10
67.04362520025299
 20
-101.4015624746496
 10
67.05120441032054
 20
-101.4542724355739
 10
67.05843911083956
 20
-101.5180067020511
 10
67.05843911083956
 20
-101.5180067020511
 10
66.7969563635091
 20
-101.5180067020511
 10
66.7969563635091
 20
-101.5180067020511
 10
66.80177949718845
 20
-101.4701198748061
 10
66.8066026308678
 20
-101.4198214807214
 10
66.8066026308678
 20
-101.4108642324598
 10
66.8066026308678
 20
-101.3240478262315
 10
66.81142576454715
 20
-100.945087322854
 10
66.81142576454715
 20
-100.8675726744359
 10
66.81142576454715
 20
-100.8675726744359
 10
66.81142576454715
 20
-100.4293565287121
 10
66.81142576454715
 20
-100.4293565287121
 10
66.6012749399469
 20
-100.5640597621854
 10
66.37665471430861
 20
-100.6829155564265
 10
66.14204371176311
 20
-100.7762776440768
 10
66.14204371176311
 20
-100.7762776440768
 10
65.90743270921759
 20
-100.600577774329
 10
65.90743270921759
 20
-100.600577774329
 10
66.04937064320988
 20
-100.5616481953457
 10
66.34495983584432
 20
-100.4817219800879
 10
66.7432128739392
 20
-100.2057698317194
 10
66.99263778707129
 20
-100.0345485861025
 10
67.21484644586991
 20
-99.83128795247274
 10
67.39089082516617
 20
-99.59392087353902
 10
67.39089082516617
 20
-99.59392087353902
 10
67.61344399351331
 20
-99.74929467992379
 10
67.61344399351331
 20
-99.74929467992379
 10
67.62791339455136
 20
-99.76066349502511
 10
67.63755966191006
 20
-99.77651093425726
 10
67.63755966191006
 20
-99.79029131619826
 10
67.63755966191006
 20
-99.83369951931242
 10
67.59346243969885
 20
-99.83369951931242
 10
67.5180148485719
 20
-99.83817814344324
 97
        0
 97
        0
 75
     2
 76
     1
 98
        0
  0
SPLINE
  5
134
330
126
100
AcDbEntity
  8
_U+30EC_U+30A4_U+30E4_U+30FC 1
370
     0
100
AcDbSpline
210
0.0
220
0.0
230
1.0
 70
    11
 71
     3
 72
    26
 73
    22
 74
     0
 42
0.0000000001
 43
0.0000000001
 12
1.0
 22
0.0
 32
0.0
 13
1.0
 23
0.0
 33
0.0
 40
0.0
 40
0.0
 40
0.0
 40
0.0
 40
1.0
 40
1.0
 40
1.0
 40
2.0
 40
2.0
 40
2.0
 40
3.0
 40
3.0
 40
3.0
 40
4.0
 40
4.0
 40
4.0
 40
5.0
 40
5.0
 40
5.0
 40
6.0
 40
6.0
 40
6.0
 40
7.0
 40
7.0
 40
7.0
 40
7.0
 10
68.16397025205623
 20
-101.378824844447
 30
0.0
 10
68.15914711837688
 20
-101.3881266022571
 30
0.0
 10
68.14674477462998
 20
-101.4246446144008
 30
0.0
 10
68.14192164095063
 20
-101.4311902958228
 30
0.0
 10
68.13709850727129
 20
-101.4404920536329
 30
0.0
 10
68.12745223991259
 20
-101.4449706777638
 30
0.0
 10
68.11504989616569
 20
-101.4449706777638
 30
0.0
 10
68.09782441873944
 20
-101.4449706777638
 30
0.0
 10
68.09058971822041
 20
-101.4360134295021
 30
0.0
 10
68.06371797343546
 20
-101.3901936595483
 30
0.0
 10
68.06371797343546
 20
-101.3901936595483
 30
0.0
 10
67.9317708163504
 20
-101.1528265806146
 30
0.0
 10
67.9317708163504
 20
-101.1528265806146
 30
0.0
 10
68.30797524333967
 20
-101.1049397533696
 30
0.0
 10
69.18785263027249
 20
-100.7466498229036
 30
0.0
 10
69.65225150168416
 20
-100.1875108256476
 30
0.0
 10
69.65225150168416
 20
-100.1875108256476
 30
0.0
 10
69.75009221346525
 20
-100.4086859558006
 30
0.0
 10
69.75009221346525
 20
-100.4086859558006
 30
0.0
 10
69.27122394101553
 20
-100.9361300745924
 30
0.0
 10
68.50124510006219
 20
-101.2441216109737
 30
0.0
 10
68.16397025205623
 20
-101.378824844447
 30
0.0
  0
SPLINE
  5
135
330
126
100
AcDbEntity
  8
_U+30EC_U+30A4_U+30E4_U+30FC 1
370
     0
100
AcDbSpline
210
0.0
220
0.0
230
1.0
 70
    11
 71
     3
 72
    17
 73
    13
 74
     0
 42
0.0000000001
 43
0.0000000001
 12
1.0
 22
0.0
 32
0.0
 13
1.0
 23
0.0
 33
0.0
 40
0.0
 40
0.0
 40
0.0
 40
0.0
 40
1.0
 40
1.0
 40
1.0
 40
2.0
 40
2.0
 40
2.0
 40
3.0
 40
3.0
 40
3.0
 40
4.0
 40
4.0
 40
4.0
 40
4.0
 10
68.50365666690186
 20
-100.2012912075886
 30
0.0
 10
68.34242619819217
 20
-100.0572862163051
 30
0.0
 10
68.09058971822041
 20
-99.93395179793319
 30
0.0
 10
67.97104490488225
 20
-99.88606497068821
 30
0.0
 10
67.97104490488225
 20
-99.88606497068821
 30
0.0
 10
68.10540362880698
 20
-99.68073727976731
 30
0.0
 10
68.10540362880698
 20
-99.68073727976731
 30
0.0
 10
68.46920571204937
 20
-99.84300127712258
 30
0.0
 10
68.57944876757736
 20
-99.94084198890368
 30
0.0
 10
68.64283852450596
 20
-99.99803057395883
 30
0.0
 10
68.64283852450596
 20
-99.99803057395883
 30
0.0
 10
68.50365666690186
 20
-100.2012912075886
 30
0.0
 10
68.50365666690186
 20
-100.2012912075886
 30
0.0
  0
HATCH
  5
136
330
126
100
AcDbEntity
  8
_U+30EC_U+30A4_U+30E4_U+30FC 1
 62
   179
420
  2234388
100
AcDbHatch
 10
0.0
 20
0.0
 30
0.0
210
0.0
220
0.0
230
1.0
  2
SOLID
 70
     1
 71
     0
 91
        2
 92
        1
 93
        1
 72
     4
 94
        3
 73
     0
 74
     1
 95
       26
 96
       22
 40
0.0
 40
0.0
 40
0.0
 40
0.0
 40
1.0
 40
1.0
 40
1.0
 40
2.0
 40
2.0
 40
2.0
 40
3.0
 40
3.0
 40
3.0
 40
4.0
 40
4.0
 40
4.0
 40
5.0
 40
5.0
 40
5.0
 40
6.0
 40
6.0
 40
6.0
 40
7.0
 40
7.0
 40
7.0
 40
7.0
 10
68.16397025205623
 20
-101.378824844447
 10
68.15914711837688
 20
-101.3881266022571
 10
68.14674477462998
 20
-101.4246446144008
 10
68.14192164095063
 20
-101.4311902958228
 10
68.13709850727129
 20
-101.4404920536329
 10
68.12745223991259
 20
-101.4449706777638
 10
68.11504989616569
 20
-101.4449706777638
 10
68.09782441873944
 20
-101.4449706777638
 10
68.09058971822041
 20
-101.4360134295021
 10
68.06371797343546
 20
-101.3901936595483
 10
68.06371797343546
 20
-101.3901936595483
 10
67.9317708163504
 20
-101.1528265806146
 10
67.9317708163504
 20
-101.1528265806146
 10
68.30797524333967
 20
-101.1049397533696
 10
69.18785263027249
 20
-100.7466498229036
 10
69.65225150168416
 20
-100.1875108256476
 10
69.65225150168416
 20
-100.1875108256476
 10
69.75009221346525
 20
-100.4086859558006
 10
69.75009221346525
 20
-100.4086859558006
 10
69.27122394101553
 20
-100.9361300745924
 10
68.50124510006219
 20
-101.2441216109737
 10
68.16397025205623
 20
-101.378824844447
 97
        0
 97
        0
 92
        1
 93
        1
 72
     4
 94
        3
 73
     0
 74
     1
 95
       17
 96
       13
 40
0.0
 40
0.0
 40
0.0
 40
0.0
 40
1.0
 40
1.0
 40
1.0
 40
2.0
 40
2.0
 40
2.0
 40
3.0
 40
3.0
 40
3.0
 40
4.0
 40
4.0
 40
4.0
 40
4.0
 10
68.50365666690186
 20
-100.2012912075886
 10
68.34242619819217
 20
-100.0572862163051
 10
68.09058971822041
 20
-99.93395179793319
 10
67.97104490488225
 20
-99.88606497068821
 10
67.97104490488225
 20
-99.88606497068821
 10
68.10540362880698
 20
-99.68073727976731
 10
68.10540362880698
 20
-99.68073727976731
 10
68.46920571204937
 20
-99.84300127712258
 10
68.57944876757736
 20
-99.94084198890368
 10
68.64283852450596
 20
-99.99803057395883
 10
68.64283852450596
 20
-99.99803057395883
 10
68.50365666690186
 20
-100.2012912075886
 10
68.50365666690186
 20
-100.2012912075886
 97
        0
 97
        0
 75
     2
 76
     1
 98
        0
  0
SPLINE
  5
137
330
126
100
AcDbEntity
  8
_U+30EC_U+30A4_U+30E4_U+30FC 1
370
     0
100
AcDbSpline
210
0.0
220
0.0
230
1.0
 70
    11
 71
     3
 72
    56
 73
    52
 74
     0
 42
0.0000000001
 43
0.0000000001
 12
1.0
 22
0.0
 32
0.0
 13
1.0
 23
0.0
 33
0.0
 40
0.0
 40
0.0
 40
0.0
 40
0.0
 40
1.0
 40
1.0
 40
1.0
 40
2.0
 40
2.0
 40
2.0
 40
3.0
 40
3.0
 40
3.0
 40
4.0
 40
4.0
 40
4.0
 40
5.0
 40
5.0
 40
5.0
 40
6.0
 40
6.0
 40
6.0
 40
7.0
 40
7.0
 40
7.0
 40
8.0
 40
8.0
 40
8.0
 40
9.0
 40
9.0
 40
9.0
 40
10.0
 40
10.0
 40
10.0
 40
11.0
 40
11.0
 40
11.0
 40
12.0
 40
12.0
 40
12.0
 40
13.0
 40
13.0
 40
13.0
 40
14.0
 40
14.0
 40
14.0
 40
15.0
 40
15.0
 40
15.0
 40
16.0
 40
16.0
 40
16.0
 40
17.0
 40
17.0
 40
17.0
 40
17.0
 10
71.04648164456478
 20
-100.9430202655629
 30
0.0
 10
70.9145344874797
 20
-100.8196858471909
 30
0.0
 10
70.69473739552076
 20
-100.61435815627
 30
0.0
 10
70.32301159266231
 20
-100.4703531649866
 30
0.0
 10
70.32301159266231
 20
-100.4703531649866
 30
0.0
 10
70.32301159266231
 20
-100.8493136683641
 30
0.0
 10
70.32301159266231
 20
-100.8493136683641
 30
0.0
 10
70.32301159266231
 20
-100.9840169018373
 30
0.0
 10
70.33300236956953
 20
-101.3833034685778
 30
0.0
 10
70.34988333744725
 20
-101.4997476959792
 30
0.0
 10
70.34988333744725
 20
-101.4997476959792
 30
0.0
 10
70.05429414481281
 20
-101.4997476959792
 30
0.0
 10
70.05429414481281
 20
-101.4997476959792
 30
0.0
 10
70.07117511269054
 20
-101.3857150354175
 30
0.0
 10
70.07393118907875
 20
-101.2120822229609
 30
0.0
 10
70.07393118907875
 20
-101.1641953957159
 30
0.0
 10
70.07599824636989
 20
-101.1118299443401
 30
0.0
 10
70.08357745643744
 20
-100.8813530563769
 30
0.0
 10
70.08357745643744
 20
-100.8334662291319
 30
0.0
 10
70.08357745643744
 20
-100.8334662291319
 30
0.0
 10
70.08357745643744
 20
-100.2378092197322
 30
0.0
 10
70.08357745643744
 20
-100.2378092197322
 30
0.0
 10
70.08357745643744
 20
-100.1485812466642
 30
0.0
 10
70.07599824636989
 20
-99.90432397676004
 30
0.0
 10
70.0691080553994
 20
-99.81991913737141
 30
0.0
 10
70.06394041217152
 20
-99.76066349502511
 30
0.0
 10
70.0567057116525
 20
-99.71966685875064
 30
0.0
 10
70.0443033679056
 20
-99.669368464666
 30
0.0
 10
70.0443033679056
 20
-99.669368464666
 30
0.0
 10
70.36952038171317
 20
-99.69003903757749
 30
0.0
 10
70.36952038171317
 20
-99.69003903757749
 30
0.0
 10
70.38398978275123
 20
-99.69003903757749
 30
0.0
 10
70.41568466121552
 20
-99.69451766170832
 30
0.0
 10
70.41568466121552
 20
-99.72414548288147
 30
0.0
 10
70.41568466121552
 20
-99.74688311308412
 30
0.0
 10
70.38881291643058
 20
-99.7630750618648
 30
0.0
 10
70.33506942686068
 20
-99.79270288303795
 30
0.0
 10
70.32542315950198
 20
-99.93395179793319
 30
0.0
 10
70.32301159266231
 20
-100.0755452223769
 30
0.0
 10
70.32301159266231
 20
-100.214727079981
 30
0.0
 10
70.32301159266231
 20
-100.214727079981
 30
0.0
 10
70.32301159266231
 20
-100.4682861076954
 30
0.0
 10
70.32301159266231
 20
-100.4682861076954
 30
0.0
 10
70.32301159266231
 20
-100.4682861076954
 30
0.0
 10
70.43773327232113
 20
-100.2650254740657
 30
0.0
 10
70.43773327232113
 20
-100.2650254740657
 30
0.0
 10
70.77535262987561
 20
-100.4086859558006
 30
0.0
 10
71.10263670097434
 20
-100.6395073533124
 30
0.0
 10
71.20771211327447
 20
-100.7624972621358
 30
0.0
 10
71.20771211327447
 20
-100.7624972621358
 30
0.0
 10
71.04648164456478
 20
-100.9430202655629
 30
0.0
 10
71.04648164456478
 20
-100.9430202655629
 30
0.0
  0
HATCH
  5
138
330
126
100
AcDbEntity
  8
_U+30EC_U+30A4_U+30E4_U+30FC 1
 62
   179
420
  2234388
100
AcDbHatch
 10
0.0
 20
0.0
 30
0.0
210
0.0
220
0.0
230
1.0
  2
SOLID
 70
     1
 71
     0
 91
        1
 92
        1
 93
        1
 72
     4
 94
        3
 73
     0
 74
     1
 95
       56
 96
       52
 40
0.0
 40
0.0
 40
0.0
 40
0.0
 40
1.0
 40
1.0
 40
1.0
 40
2.0
 40
2.0
 40
2.0
 40
3.0
 40
3.0
 40
3.0
 40
4.0
 40
4.0
 40
4.0
 40
5.0
 40
5.0
 40
5.0
 40
6.0
 40
6.0
 40
6.0
 40
7.0
 40
7.0
 40
7.0
 40
8.0
 40
8.0
 40
8.0
 40
9.0
 40
9.0
 40
9.0
 40
10.0
 40
10.0
 40
10.0
 40
11.0
 40
11.0
 40
11.0
 40
12.0
 40
12.0
 40
12.0
 40
13.0
 40
13.0
 40
13.0
 40
14.0
 40
14.0
 40
14.0
 40
15.0
 40
15.0
 40
15.0
 40
16.0
 40
16.0
 40
16.0
 40
17.0
 40
17.0
 40
17.0
 40
17.0
 10
71.04648164456478
 20
-100.9430202655629
 10
70.9145344874797
 20
-100.8196858471909
 10
70.69473739552076
 20
-100.61435815627
 10
70.32301159266231
 20
-100.4703531649866
 10
70.32301159266231
 20
-100.4703531649866
 10
70.32301159266231
 20
-100.8493136683641
 10
70.32301159266231
 20
-100.8493136683641
 10
70.32301159266231
 20
-100.9840169018373
 10
70.33300236956953
 20
-101.3833034685778
 10
70.34988333744725
 20
-101.4997476959792
 10
70.34988333744725
 20
-101.4997476959792
 10
70.05429414481281
 20
-101.4997476959792
 10
70.05429414481281
 20
-101.4997476959792
 10
70.07117511269054
 20
-101.3857150354175
 10
70.07393118907875
 20
-101.2120822229609
 10
70.07393118907875
 20
-101.1641953957159
 10
70.07599824636989
 20
-101.1118299443401
 10
70.08357745643744
 20
-100.8813530563769
 10
70.08357745643744
 20
-100.8334662291319
 10
70.08357745643744
 20
-100.8334662291319
 10
70.08357745643744
 20
-100.2378092197322
 10
70.08357745643744
 20
-100.2378092197322
 10
70.08357745643744
 20
-100.1485812466642
 10
70.07599824636989
 20
-99.90432397676004
 10
70.0691080553994
 20
-99.81991913737141
 10
70.06394041217152
 20
-99.76066349502511
 10
70.0567057116525
 20
-99.71966685875064
 10
70.0443033679056
 20
-99.669368464666
 10
70.0443033679056
 20
-99.669368464666
 10
70.36952038171317
 20
-99.69003903757749
 10
70.36952038171317
 20
-99.69003903757749
 10
70.38398978275123
 20
-99.69003903757749
 10
70.41568466121552
 20
-99.69451766170832
 10
70.41568466121552
 20
-99.72414548288147
 10
70.41568466121552
 20
-99.74688311308412
 10
70.38881291643058
 20
-99.7630750618648
 10
70.33506942686068
 20
-99.79270288303795
 10
70.32542315950198
 20
-99.93395179793319
 10
70.32301159266231
 20
-100.0755452223769
 10
70.32301159266231
 20
-100.214727079981
 10
70.32301159266231
 20
-100.214727079981
 10
70.32301159266231
 20
-100.4682861076954
 10
70.32301159266231
 20
-100.4682861076954
 10
70.32301159266231
 20
-100.4682861076954
 10
70.43773327232113
 20
-100.2650254740657
 10
70.43773327232113
 20
-100.2650254740657
 10
70.77535262987561
 20
-100.4086859558006
 10
71.10263670097434
 20
-100.6395073533124
 10
71.20771211327447
 20
-100.7624972621358
 10
71.20771211327447
 20
-100.7624972621358
 10
71.04648164456478
 20
-100.9430202655629
 10
71.04648164456478
 20
-100.9430202655629
 97
        0
 97
        0
 75
     2
 76
     1
 98
        0
  0
SPLINE
  5
139
330
126
100
AcDbEntity
  8
_U+30EC_U+30A4_U+30E4_U+30FC 1
370
     0
100
AcDbSpline
210
0.0
220
0.0
230
1.0
 70
    11
 71
     3
 72
    53
 73
    49
 74
     0
 42
0.0000000001
 43
0.0000000001
 12
1.0
 22
0.0
 32
0.0
 13
1.0
 23
0.0
 33
0.0
 40
0.0
 40
0.0
 40
0.0
 40
0.0
 40
1.0
 40
1.0
 40
1.0
 40
2.0
 40
2.0
 40
2.0
 40
3.0
 40
3.0
 40
3.0
 40
4.0
 40
4.0
 40
4.0
 40
5.0
 40
5.0
 40
5.0
 40
6.0
 40
6.0
 40
6.0
 40
7.0
 40
7.0
 40
7.0
 40
8.0
 40
8.0
 40
8.0
 40
9.0
 40
9.0
 40
9.0
 40
10.0
 40
10.0
 40
10.0
 40
11.0
 40
11.0
 40
11.0
 40
12.0
 40
12.0
 40
12.0
 40
13.0
 40
13.0
 40
13.0
 40
14.0
 40
14.0
 40
14.0
 40
15.0
 40
15.0
 40
15.0
 40
16.0
 40
16.0
 40
16.0
 40
16.0
 10
72.16165905314014
 20
-99.72655704972114
 30
0.0
 10
72.08311087607645
 20
-99.89088810436756
 30
0.0
 10
72.03453502973443
 20
-99.97529294375619
 30
0.0
 10
71.99043780752322
 20
-100.0483289680435
 30
0.0
 10
72.03935816341378
 20
-100.0710665982461
 30
0.0
 10
72.04418129709312
 20
-100.0734781650858
 30
0.0
 10
72.04418129709312
 20
-100.0893256043179
 30
0.0
 10
72.04418129709312
 20
-100.103105986259
 30
0.0
 10
72.0052517181098
 20
-100.1396239984026
 30
0.0
 10
71.9928493743629
 20
-100.1485812466642
 30
0.0
 10
71.99043780752322
 20
-100.3607991285556
 30
0.0
 10
71.99043780752322
 20
-100.3838812683068
 30
0.0
 10
71.99043780752322
 20
-100.5275417500417
 30
0.0
 10
71.98802624068355
 20
-100.5413221319827
 30
0.0
 10
71.98802624068355
 20
-100.5571695712149
 30
0.0
 10
71.98802624068355
 20
-100.5733615199956
 30
0.0
 10
71.98802624068355
 20
-100.5733615199956
 30
0.0
 10
71.98802624068355
 20
-101.1507595233234
 30
0.0
 10
71.98802624068355
 20
-101.1507595233234
 30
0.0
 10
71.98802624068355
 20
-101.2282741717415
 30
0.0
 10
71.9928493743629
 20
-101.4814886899074
 30
0.0
 10
72.0024956417216
 20
-101.6003444841485
 30
0.0
 10
72.0024956417216
 20
-101.6003444841485
 30
0.0
 10
71.72172035967374
 20
-101.6003444841485
 30
0.0
 10
71.72172035967374
 20
-101.6003444841485
 30
0.0
 10
71.7485921044587
 20
-101.4291232385316
 30
0.0
 10
71.75582680497772
 20
-101.1690185293952
 30
0.0
 10
71.75582680497772
 20
-101.1459363896441
 30
0.0
 10
71.75582680497772
 20
-101.1459363896441
 30
0.0
 10
71.75582680497772
 20
-100.372167943657
 30
0.0
 10
71.75582680497772
 20
-100.372167943657
 30
0.0
 10
71.65075139267759
 20
-100.4955023620289
 30
0.0
 10
71.58012693522997
 20
-100.5595811380546
 30
0.0
 10
71.53120657933943
 20
-100.6050563984599
 30
0.0
 10
71.53120657933943
 20
-100.6050563984599
 30
0.0
 10
71.31106497783196
 20
-100.4569172925941
 30
0.0
 10
71.31106497783196
 20
-100.4569172925941
 30
0.0
 10
71.63593748209102
 20
-100.2240288377912
 30
0.0
 10
71.85849065043816
 20
-99.89088810436756
 30
0.0
 10
71.98802624068355
 20
-99.52777504022222
 30
0.0
 10
71.98802624068355
 20
-99.52777504022222
 30
0.0
 10
72.242274287495
 20
-99.65110945859418
 30
0.0
 10
72.242274287495
 20
-99.65110945859418
 30
0.0
 10
72.25674368853304
 20
-99.65799964956467
 30
0.0
 10
72.26638995589174
 20
-99.6624782736955
 30
0.0
 10
72.26638995589174
 20
-99.67832571292764
 30
0.0
 10
72.26638995589174
 20
-99.70588647680964
 30
0.0
 10
72.24709742117435
 20
-99.71036510094046
 30
0.0
 10
72.16165905314014
 20
-99.72655704972114
 30
0.0
  0
SPLINE
  5
13A
330
126
100
AcDbEntity
  8
_U+30EC_U+30A4_U+30E4_U+30FC 1
370
     0
100
AcDbSpline
210
0.0
220
0.0
230
1.0
 70
    11
 71
     3
 72
    77
 73
    73
 74
     0
 42
0.0000000001
 43
0.0000000001
 12
1.0
 22
0.0
 32
0.0
 13
1.0
 23
0.0
 33
0.0
 40
0.0
 40
0.0
 40
0.0
 40
0.0
 40
1.0
 40
1.0
 40
1.0
 40
2.0
 40
2.0
 40
2.0
 40
3.0
 40
3.0
 40
3.0
 40
4.0
 40
4.0
 40
4.0
 40
5.0
 40
5.0
 40
5.0
 40
6.0
 40
6.0
 40
6.0
 40
7.0
 40
7.0
 40
7.0
 40
8.0
 40
8.0
 40
8.0
 40
9.0
 40
9.0
 40
9.0
 40
10.0
 40
10.0
 40
10.0
 40
11.0
 40
11.0
 40
11.0
 40
12.0
 40
12.0
 40
12.0
 40
13.0
 40
13.0
 40
13.0
 40
14.0
 40
14.0
 40
14.0
 40
15.0
 40
15.0
 40
15.0
 40
16.0
 40
16.0
 40
16.0
 40
17.0
 40
17.0
 40
17.0
 40
18.0
 40
18.0
 40
18.0
 40
19.0
 40
19.0
 40
19.0
 40
20.0
 40
20.0
 40
20.0
 40
21.0
 40
21.0
 40
21.0
 40
22.0
 40
22.0
 40
22.0
 40
23.0
 40
23.0
 40
23.0
 40
24.0
 40
24.0
 40
24.0
 40
24.0
 10
73.49077689134953
 20
-100.2650254740657
 30
0.0
 10
73.41016165699469
 20
-100.2605468499349
 30
0.0
 10
73.33230249902805
 20
-100.2605468499349
 30
0.0
 10
73.25375432196434
 20
-100.2605468499349
 30
0.0
 10
73.25375432196434
 20
-100.2605468499349
 30
0.0
 10
73.25375432196434
 20
-101.095982505108
 30
0.0
 10
73.25375432196434
 20
-101.095982505108
 30
0.0
 10
73.25375432196434
 20
-101.3812364112866
 30
0.0
 10
73.2516872646732
 20
-101.4132757992995
 30
0.0
 10
73.24410805460565
 20
-101.4449706777638
 30
0.0
 10
73.20483396607379
 20
-101.5889756690472
 30
0.0
 10
73.0877007195753
 20
-101.5979329173089
 30
0.0
 10
72.88512910504261
 20
-101.5979329173089
 30
0.0
 10
72.8382758064432
 20
-101.5979329173089
 30
0.0
 10
72.81898327172581
 20
-101.5979329173089
 30
0.0
 10
72.77247448267494
 20
-101.593454293178
 30
0.0
 10
72.77247448267494
 20
-101.593454293178
 30
0.0
 10
72.62812498184297
 20
-101.3333495840417
 30
0.0
 10
72.62812498184297
 20
-101.3333495840417
 30
0.0
 10
72.76282821531625
 20
-101.3674560293456
 30
0.0
 10
72.85825736025767
 20
-101.3674560293456
 30
0.0
 10
72.88512910504261
 20
-101.3674560293456
 30
0.0
 10
72.96574433939746
 20
-101.3674560293456
 30
0.0
 10
73.00467391838077
 20
-101.3491970232738
 30
0.0
 10
73.00984156160865
 20
-101.2875298140878
 30
0.0
 10
73.00984156160865
 20
-101.2737494321468
 30
0.0
 10
73.01190861889981
 20
-101.1690185293952
 30
0.0
 10
73.01190861889981
 20
-101.1073513202093
 30
0.0
 10
73.01190861889981
 20
-101.1073513202093
 30
0.0
 10
73.01190861889981
 20
-100.2581352830952
 30
0.0
 10
73.01190861889981
 20
-100.2581352830952
 30
0.0
 10
73.01190861889981
 20
-100.2581352830952
 30
0.0
 10
72.67222220405417
 20
-100.2581352830952
 30
0.0
 10
72.67222220405417
 20
-100.2581352830952
 30
0.0
 10
72.50375703482545
 20
-100.2581352830952
 30
0.0
 10
72.33529186559673
 20
-100.2650254740657
 30
0.0
 10
72.16889375365916
 20
-100.2788058560067
 30
0.0
 10
72.16889375365916
 20
-100.2788058560067
 30
0.0
 10
72.16889375365916
 20
-100.055219159014
 30
0.0
 10
72.16889375365916
 20
-100.055219159014
 30
0.0
 10
72.34218205656724
 20
-100.0686550314065
 30
0.0
 10
72.59436304608752
 20
-100.0734781650858
 30
0.0
 10
72.67222220405417
 20
-100.0734781650858
 30
0.0
 10
72.67222220405417
 20
-100.0734781650858
 30
0.0
 10
73.01190861889981
 20
-100.0734781650858
 30
0.0
 10
73.01190861889981
 20
-100.0734781650858
 30
0.0
 10
73.00984156160865
 20
-99.78340112522777
 30
0.0
 10
73.00984156160865
 20
-99.70140785267881
 30
0.0
 10
72.99985078470144
 20
-99.54155542216323
 30
0.0
 10
72.99985078470144
 20
-99.54155542216323
 30
0.0
 10
73.29785154417554
 20
-99.5825520584377
 30
0.0
 10
73.29785154417554
 20
-99.5825520584377
 30
0.0
 10
73.3150770216018
 20
-99.58496362527737
 30
0.0
 10
73.33230249902805
 20
-99.59185381624788
 30
0.0
 10
73.33230249902805
 20
-99.61459144645052
 30
0.0
 10
73.33230249902805
 20
-99.63526201936202
 30
0.0
 10
73.32472328896048
 20
-99.63732907665317
 30
0.0
 10
73.25892196519221
 20
-99.67384708879682
 30
0.0
 10
73.25375432196434
 20
-99.75825192818544
 30
0.0
 10
73.25375432196434
 20
-99.77444387696612
 30
0.0
 10
73.25375432196434
 20
-100.0734781650858
 30
0.0
 10
73.45908201288523
 20
-100.0686550314065
 30
0.0
 10
73.48113062399084
 20
-100.0686550314065
 30
0.0
 10
73.52040471252268
 20
-100.0641764072756
 30
0.0
 10
73.57897133577193
 20
-100.0596977831448
 30
0.0
 10
73.58379446945128
 20
-100.0572862163051
 30
0.0
 10
73.63547090173003
 20
-100.055219159014
 30
0.0
 10
73.63547090173003
 20
-100.055219159014
 30
0.0
 10
73.63547090173003
 20
-100.2788058560067
 30
0.0
 10
73.63547090173003
 20
-100.2788058560067
 30
0.0
 10
73.60101994687753
 20
-100.276394289167
 30
0.0
 10
73.53763018994893
 20
-100.2674370409054
 30
0.0
 10
73.49077689134953
 20
-100.2650254740657
 30
0.0
  0
SPLINE
  5
13B
330
126
100
AcDbEntity
  8
_U+30EC_U+30A4_U+30E4_U+30FC 1
370
     0
100
AcDbSpline
210
0.0
220
0.0
230
1.0
 70
    11
 71
     3
 72
    20
 73
    16
 74
     0
 42
0.0000000001
 43
0.0000000001
 12
1.0
 22
0.0
 32
0.0
 13
1.0
 23
0.0
 33
0.0
 40
0.0
 40
0.0
 40
0.0
 40
0.0
 40
1.0
 40
1.0
 40
1.0
 40
2.0
 40
2.0
 40
2.0
 40
3.0
 40
3.0
 40
3.0
 40
4.0
 40
4.0
 40
4.0
 40
5.0
 40
5.0
 40
5.0
 40
5.0
 10
72.60125323705802
 20
-101.048095677863
 30
0.0
 10
72.54750974748812
 20
-100.8562038593346
 30
0.0
 10
72.43519963466898
 20
-100.7032416197895
 30
0.0
 10
72.27396916595929
 20
-100.5847303350969
 30
0.0
 10
72.27396916595929
 20
-100.5847303350969
 30
0.0
 10
72.45965981261425
 20
-100.4613959167249
 30
0.0
 10
72.45965981261425
 20
-100.4613959167249
 30
0.0
 10
72.5306287796104
 20
-100.5068711771302
 30
0.0
 10
72.57713756866127
 20
-100.5433891892739
 30
0.0
 10
72.66498750353514
 20
-100.6598334166753
 30
0.0
 10
72.75766057208837
 20
-100.7855794018869
 30
0.0
 10
72.78246525958217
 20
-100.8424234773936
 30
0.0
 10
72.81140406165827
 20
-100.9133924443897
 30
0.0
 10
72.81140406165827
 20
-100.9133924443897
 30
0.0
 10
72.60125323705802
 20
-101.048095677863
 30
0.0
 10
72.60125323705802
 20
-101.048095677863
 30
0.0
  0
HATCH
  5
13C
330
126
100
AcDbEntity
  8
_U+30EC_U+30A4_U+30E4_U+30FC 1
 62
   179
420
  2234388
100
AcDbHatch
 10
0.0
 20
0.0
 30
0.0
210
0.0
220
0.0
230
1.0
  2
SOLID
 70
     1
 71
     0
 91
        3
 92
        1
 93
        1
 72
     4
 94
        3
 73
     0
 74
     1
 95
       53
 96
       49
 40
0.0
 40
0.0
 40
0.0
 40
0.0
 40
1.0
 40
1.0
 40
1.0
 40
2.0
 40
2.0
 40
2.0
 40
3.0
 40
3.0
 40
3.0
 40
4.0
 40
4.0
 40
4.0
 40
5.0
 40
5.0
 40
5.0
 40
6.0
 40
6.0
 40
6.0
 40
7.0
 40
7.0
 40
7.0
 40
8.0
 40
8.0
 40
8.0
 40
9.0
 40
9.0
 40
9.0
 40
10.0
 40
10.0
 40
10.0
 40
11.0
 40
11.0
 40
11.0
 40
12.0
 40
12.0
 40
12.0
 40
13.0
 40
13.0
 40
13.0
 40
14.0
 40
14.0
 40
14.0
 40
15.0
 40
15.0
 40
15.0
 40
16.0
 40
16.0
 40
16.0
 40
16.0
 10
72.16165905314014
 20
-99.72655704972114
 10
72.08311087607645
 20
-99.89088810436756
 10
72.03453502973443
 20
-99.97529294375619
 10
71.99043780752322
 20
-100.0483289680435
 10
72.03935816341378
 20
-100.0710665982461
 10
72.04418129709312
 20
-100.0734781650858
 10
72.04418129709312
 20
-100.0893256043179
 10
72.04418129709312
 20
-100.103105986259
 10
72.0052517181098
 20
-100.1396239984026
 10
71.9928493743629
 20
-100.1485812466642
 10
71.99043780752322
 20
-100.3607991285556
 10
71.99043780752322
 20
-100.3838812683068
 10
71.99043780752322
 20
-100.5275417500417
 10
71.98802624068355
 20
-100.5413221319827
 10
71.98802624068355
 20
-100.5571695712149
 10
71.98802624068355
 20
-100.5733615199956
 10
71.98802624068355
 20
-100.5733615199956
 10
71.98802624068355
 20
-101.1507595233234
 10
71.98802624068355
 20
-101.1507595233234
 10
71.98802624068355
 20
-101.2282741717415
 10
71.9928493743629
 20
-101.4814886899074
 10
72.0024956417216
 20
-101.6003444841485
 10
72.0024956417216
 20
-101.6003444841485
 10
71.72172035967374
 20
-101.6003444841485
 10
71.72172035967374
 20
-101.6003444841485
 10
71.7485921044587
 20
-101.4291232385316
 10
71.75582680497772
 20
-101.1690185293952
 10
71.75582680497772
 20
-101.1459363896441
 10
71.75582680497772
 20
-101.1459363896441
 10
71.75582680497772
 20
-100.372167943657
 10
71.75582680497772
 20
-100.372167943657
 10
71.65075139267759
 20
-100.4955023620289
 10
71.58012693522997
 20
-100.5595811380546
 10
71.53120657933943
 20
-100.6050563984599
 10
71.53120657933943
 20
-100.6050563984599
 10
71.31106497783196
 20
-100.4569172925941
 10
71.31106497783196
 20
-100.4569172925941
 10
71.63593748209102
 20
-100.2240288377912
 10
71.85849065043816
 20
-99.89088810436756
 10
71.98802624068355
 20
-99.52777504022222
 10
71.98802624068355
 20
-99.52777504022222
 10
72.242274287495
 20
-99.65110945859418
 10
72.242274287495
 20
-99.65110945859418
 10
72.25674368853304
 20
-99.65799964956467
 10
72.26638995589174
 20
-99.6624782736955
 10
72.26638995589174
 20
-99.67832571292764
 10
72.26638995589174
 20
-99.70588647680964
 10
72.24709742117435
 20
-99.71036510094046
 10
72.16165905314014
 20
-99.72655704972114
 97
        0
 97
        0
 92
        1
 93
        1
 72
     4
 94
        3
 73
     0
 74
     1
 95
       77
 96
       73
 40
0.0
 40
0.0
 40
0.0
 40
0.0
 40
1.0
 40
1.0
 40
1.0
 40
2.0
 40
2.0
 40
2.0
 40
3.0
 40
3.0
 40
3.0
 40
4.0
 40
4.0
 40
4.0
 40
5.0
 40
5.0
 40
5.0
 40
6.0
 40
6.0
 40
6.0
 40
7.0
 40
7.0
 40
7.0
 40
8.0
 40
8.0
 40
8.0
 40
9.0
 40
9.0
 40
9.0
 40
10.0
 40
10.0
 40
10.0
 40
11.0
 40
11.0
 40
11.0
 40
12.0
 40
12.0
 40
12.0
 40
13.0
 40
13.0
 40
13.0
 40
14.0
 40
14.0
 40
14.0
 40
15.0
 40
15.0
 40
15.0
 40
16.0
 40
16.0
 40
16.0
 40
17.0
 40
17.0
 40
17.0
 40
18.0
 40
18.0
 40
18.0
 40
19.0
 40
19.0
 40
19.0
 40
20.0
 40
20.0
 40
20.0
 40
21.0
 40
21.0
 40
21.0
 40
22.0
 40
22.0
 40
22.0
 40
23.0
 40
23.0
 40
23.0
 40
24.0
 40
24.0
 40
24.0
 40
24.0
 10
73.49077689134953
 20
-100.2650254740657
 10
73.41016165699469
 20
-100.2605468499349
 10
73.33230249902805
 20
-100.2605468499349
 10
73.25375432196434
 20
-100.2605468499349
 10
73.25375432196434
 20
-100.2605468499349
 10
73.25375432196434
 20
-101.095982505108
 10
73.25375432196434
 20
-101.095982505108
 10
73.25375432196434
 20
-101.3812364112866
 10
73.2516872646732
 20
-101.4132757992995
 10
73.24410805460565
 20
-101.4449706777638
 10
73.20483396607379
 20
-101.5889756690472
 10
73.0877007195753
 20
-101.5979329173089
 10
72.88512910504261
 20
-101.5979329173089
 10
72.8382758064432
 20
-101.5979329173089
 10
72.81898327172581
 20
-101.5979329173089
 10
72.77247448267494
 20
-101.593454293178
 10
72.77247448267494
 20
-101.593454293178
 10
72.62812498184297
 20
-101.3333495840417
 10
72.62812498184297
 20
-101.3333495840417
 10
72.76282821531625
 20
-101.3674560293456
 10
72.85825736025767
 20
-101.3674560293456
 10
72.88512910504261
 20
-101.3674560293456
 10
72.96574433939746
 20
-101.3674560293456
 10
73.00467391838077
 20
-101.3491970232738
 10
73.00984156160865
 20
-101.2875298140878
 10
73.00984156160865
 20
-101.2737494321468
 10
73.01190861889981
 20
-101.1690185293952
 10
73.01190861889981
 20
-101.1073513202093
 10
73.01190861889981
 20
-101.1073513202093
 10
73.01190861889981
 20
-100.2581352830952
 10
73.01190861889981
 20
-100.2581352830952
 10
73.01190861889981
 20
-100.2581352830952
 10
72.67222220405417
 20
-100.2581352830952
 10
72.67222220405417
 20
-100.2581352830952
 10
72.50375703482545
 20
-100.2581352830952
 10
72.33529186559673
 20
-100.2650254740657
 10
72.16889375365916
 20
-100.2788058560067
 10
72.16889375365916
 20
-100.2788058560067
 10
72.16889375365916
 20
-100.055219159014
 10
72.16889375365916
 20
-100.055219159014
 10
72.34218205656724
 20
-100.0686550314065
 10
72.59436304608752
 20
-100.0734781650858
 10
72.67222220405417
 20
-100.0734781650858
 10
72.67222220405417
 20
-100.0734781650858
 10
73.01190861889981
 20
-100.0734781650858
 10
73.01190861889981
 20
-100.0734781650858
 10
73.00984156160865
 20
-99.78340112522777
 10
73.00984156160865
 20
-99.70140785267881
 10
72.99985078470144
 20
-99.54155542216323
 10
72.99985078470144
 20
-99.54155542216323
 10
73.29785154417554
 20
-99.5825520584377
 10
73.29785154417554
 20
-99.5825520584377
 10
73.3150770216018
 20
-99.58496362527737
 10
73.33230249902805
 20
-99.59185381624788
 10
73.33230249902805
 20
-99.61459144645052
 10
73.33230249902805
 20
-99.63526201936202
 10
73.32472328896048
 20
-99.63732907665317
 10
73.25892196519221
 20
-99.67384708879682
 10
73.25375432196434
 20
-99.75825192818544
 10
73.25375432196434
 20
-99.77444387696612
 10
73.25375432196434
 20
-100.0734781650858
 10
73.45908201288523
 20
-100.0686550314065
 10
73.48113062399084
 20
-100.0686550314065
 10
73.52040471252268
 20
-100.0641764072756
 10
73.57897133577193
 20
-100.0596977831448
 10
73.58379446945128
 20
-100.0572862163051
 10
73.63547090173003
 20
-100.055219159014
 10
73.63547090173003
 20
-100.055219159014
 10
73.63547090173003
 20
-100.2788058560067
 10
73.63547090173003
 20
-100.2788058560067
 10
73.60101994687753
 20
-100.276394289167
 10
73.53763018994893
 20
-100.2674370409054
 10
73.49077689134953
 20
-100.2650254740657
 97
        0
 97
        0
 92
        1
 93
        1
 72
     4
 94
        3
 73
     0
 74
     1
 95
       20
 96
       16
 40
0.0
 40
0.0
 40
0.0
 40
0.0
 40
1.0
 40
1.0
 40
1.0
 40
2.0
 40
2.0
 40
2.0
 40
3.0
 40
3.0
 40
3.0
 40
4.0
 40
4.0
 40
4.0
 40
5.0
 40
5.0
 40
5.0
 40
5.0
 10
72.60125323705802
 20
-101.048095677863
 10
72.54750974748812
 20
-100.8562038593346
 10
72.43519963466898
 20
-100.7032416197895
 10
72.27396916595929
 20
-100.5847303350969
 10
72.27396916595929
 20
-100.5847303350969
 10
72.45965981261425
 20
-100.4613959167249
 10
72.45965981261425
 20
-100.4613959167249
 10
72.5306287796104
 20
-100.5068711771302
 10
72.57713756866127
 20
-100.5433891892739
 10
72.66498750353514
 20
-100.6598334166753
 10
72.75766057208837
 20
-100.7855794018869
 10
72.78246525958217
 20
-100.8424234773936
 10
72.81140406165827
 20
-100.9133924443897
 10
72.81140406165827
 20
-100.9133924443897
 10
72.60125323705802
 20
-101.048095677863
 10
72.60125323705802
 20
-101.048095677863
 97
        0
 97
        0
 75
     2
 76
     1
 98
        0
  0
SPLINE
  5
13D
330
126
100
AcDbEntity
  8
_U+30EC_U+30A4_U+30E4_U+30FC 1
370
     0
100
AcDbSpline
210
0.0
220
0.0
230
1.0
 70
    11
 71
     3
 72
    38
 73
    34
 74
     0
 42
0.0000000001
 43
0.0000000001
 12
1.0
 22
0.0
 32
0.0
 13
1.0
 23
0.0
 33
0.0
 40
0.0
 40
0.0
 40
0.0
 40
0.0
 40
1.0
 40
1.0
 40
1.0
 40
2.0
 40
2.0
 40
2.0
 40
3.0
 40
3.0
 40
3.0
 40
4.0
 40
4.0
 40
4.0
 40
5.0
 40
5.0
 40
5.0
 40
6.0
 40
6.0
 40
6.0
 40
7.0
 40
7.0
 40
7.0
 40
8.0
 40
8.0
 40
8.0
 40
9.0
 40
9.0
 40
9.0
 40
10.0
 40
10.0
 40
10.0
 40
11.0
 40
11.0
 40
11.0
 40
11.0
 10
75.54922144378631
 20
-99.93395179793319
 30
0.0
 10
75.3683539308107
 20
-99.98666175885751
 30
0.0
 10
75.06518552810871
 20
-100.0755452223769
 30
0.0
 10
74.81369355768547
 20
-100.4520941589148
 30
0.0
 10
74.73307832333062
 20
-100.5733615199956
 30
0.0
 10
74.69380423479878
 20
-100.696351428819
 30
0.0
 10
74.69380423479878
 20
-100.7969482169883
 30
0.0
 10
74.69380423479878
 20
-101.0777234990361
 30
0.0
 10
75.0114420385388
 20
-101.2623806170455
 30
0.0
 10
75.38799097507662
 20
-101.2899413809275
 30
0.0
 10
75.38799097507662
 20
-101.2899413809275
 30
0.0
 10
75.30703123117324
 20
-101.5180067020511
 30
0.0
 10
75.30703123117324
 20
-101.5180067020511
 30
0.0
 10
74.53498533292876
 20
-101.3946722836791
 30
0.0
 10
74.45195853173423
 20
-100.9750596535757
 30
0.0
 10
74.45195853173423
 20
-100.7969482169883
 30
0.0
 10
74.45195853173423
 20
-100.6691351744855
 30
0.0
 10
74.50087888762478
 20
-100.3129123013107
 30
0.0
 10
75.06794160449691
 20
-99.95255531355353
 30
0.0
 10
74.68656953427976
 20
-99.96840275278568
 30
0.0
 10
74.2101128286697
 20
-100.0390272102333
 30
0.0
 10
73.91659069332641
 20
-100.103105986259
 30
0.0
 10
73.91659069332641
 20
-100.103105986259
 30
0.0
 10
73.88007268118277
 20
-99.84300127712258
 30
0.0
 10
73.88007268118277
 20
-99.84300127712258
 30
0.0
 10
74.27591415243796
 20
-99.85437009222392
 30
0.0
 10
75.28773869645585
 20
-99.77892250109694
 30
0.0
 10
75.78142087949215
 20
-99.66488984053517
 30
0.0
 10
75.78142087949215
 20
-99.66488984053517
 30
0.0
 10
75.78142087949215
 20
-99.90432397676004
 30
0.0
 10
75.78142087949215
 20
-99.90432397676004
 30
0.0
 10
75.73491209044127
 20
-99.90432397676004
 30
0.0
 10
75.63500432136902
 20
-99.90914711043938
 30
0.0
 10
75.54922144378631
 20
-99.93395179793319
 30
0.0
  0
SPLINE
  5
13E
330
126
100
AcDbEntity
  8
_U+30EC_U+30A4_U+30E4_U+30FC 1
370
     0
100
AcDbSpline
210
0.0
220
0.0
230
1.0
 70
    11
 71
     3
 72
    17
 73
    13
 74
     0
 42
0.0000000001
 43
0.0000000001
 12
1.0
 22
0.0
 32
0.0
 13
1.0
 23
0.0
 33
0.0
 40
0.0
 40
0.0
 40
0.0
 40
0.0
 40
1.0
 40
1.0
 40
1.0
 40
2.0
 40
2.0
 40
2.0
 40
3.0
 40
3.0
 40
3.0
 40
4.0
 40
4.0
 40
4.0
 40
4.0
 10
75.63500432136902
 20
-100.5754285772867
 30
0.0
 10
75.54922144378631
 20
-100.5003254957083
 30
0.0
 10
75.45861543252424
 20
-100.4431369106531
 30
0.0
 10
75.35112845338445
 20
-100.3973171406993
 30
0.0
 10
75.35112845338445
 20
-100.3973171406993
 30
0.0
 10
75.44896916516554
 20
-100.2719156650362
 30
0.0
 10
75.44896916516554
 20
-100.2719156650362
 30
0.0
 10
75.57127005489191
 20
-100.303955053049
 30
0.0
 10
75.68358016771106
 20
-100.3907714592773
 30
0.0
 10
75.74249130050883
 20
-100.4545057257544
 30
0.0
 10
75.74249130050883
 20
-100.4545057257544
 30
0.0
 10
75.63500432136902
 20
-100.5754285772867
 30
0.0
 10
75.63500432136902
 20
-100.5754285772867
 30
0.0
  0
SPLINE
  5
13F
330
126
100
AcDbEntity
  8
_U+30EC_U+30A4_U+30E4_U+30FC 1
370
     0
100
AcDbSpline
210
0.0
220
0.0
230
1.0
 70
    11
 71
     3
 72
    17
 73
    13
 74
     0
 42
0.0000000001
 43
0.0000000001
 12
1.0
 22
0.0
 32
0.0
 13
1.0
 23
0.0
 33
0.0
 40
0.0
 40
0.0
 40
0.0
 40
0.0
 40
1.0
 40
1.0
 40
1.0
 40
2.0
 40
2.0
 40
2.0
 40
3.0
 40
3.0
 40
3.0
 40
4.0
 40
4.0
 40
4.0
 40
4.0
 10
75.88408472495259
 20
-100.338061498353
 30
0.0
 10
75.77143010258493
 20
-100.2446994107027
 30
0.0
 10
75.70321721197698
 20
-100.1988796407489
 30
0.0
 10
75.57850475541093
 20
-100.1441026225334
 30
0.0
 10
75.57850475541093
 20
-100.1441026225334
 30
0.0
 10
75.68599173455073
 20
-100.0255913378408
 30
0.0
 10
75.68599173455073
 20
-100.0255913378408
 30
0.0
 10
75.7325005236016
 20
-100.041438777073
 30
0.0
 10
75.84239906958108
 20
-100.0800238465078
 30
0.0
 10
75.97951386989402
 20
-100.2057698317194
 30
0.0
 10
75.97951386989402
 20
-100.2057698317194
 30
0.0
 10
75.88408472495259
 20
-100.338061498353
 30
0.0
 10
75.88408472495259
 20
-100.338061498353
 30
0.0
  0
HATCH
  5
140
330
126
100
AcDbEntity
  8
_U+30EC_U+30A4_U+30E4_U+30FC 1
 62
   179
420
  2234388
100
AcDbHatch
 10
0.0
 20
0.0
 30
0.0
210
0.0
220
0.0
230
1.0
  2
SOLID
 70
     1
 71
     0
 91
        3
 92
        1
 93
        1
 72
     4
 94
        3
 73
     0
 74
     1
 95
       38
 96
       34
 40
0.0
 40
0.0
 40
0.0
 40
0.0
 40
1.0
 40
1.0
 40
1.0
 40
2.0
 40
2.0
 40
2.0
 40
3.0
 40
3.0
 40
3.0
 40
4.0
 40
4.0
 40
4.0
 40
5.0
 40
5.0
 40
5.0
 40
6.0
 40
6.0
 40
6.0
 40
7.0
 40
7.0
 40
7.0
 40
8.0
 40
8.0
 40
8.0
 40
9.0
 40
9.0
 40
9.0
 40
10.0
 40
10.0
 40
10.0
 40
11.0
 40
11.0
 40
11.0
 40
11.0
 10
75.54922144378631
 20
-99.93395179793319
 10
75.3683539308107
 20
-99.98666175885751
 10
75.06518552810871
 20
-100.0755452223769
 10
74.81369355768547
 20
-100.4520941589148
 10
74.73307832333062
 20
-100.5733615199956
 10
74.69380423479878
 20
-100.696351428819
 10
74.69380423479878
 20
-100.7969482169883
 10
74.69380423479878
 20
-101.0777234990361
 10
75.0114420385388
 20
-101.2623806170455
 10
75.38799097507662
 20
-101.2899413809275
 10
75.38799097507662
 20
-101.2899413809275
 10
75.30703123117324
 20
-101.5180067020511
 10
75.30703123117324
 20
-101.5180067020511
 10
74.53498533292876
 20
-101.3946722836791
 10
74.45195853173423
 20
-100.9750596535757
 10
74.45195853173423
 20
-100.7969482169883
 10
74.45195853173423
 20
-100.6691351744855
 10
74.50087888762478
 20
-100.3129123013107
 10
75.06794160449691
 20
-99.95255531355353
 10
74.68656953427976
 20
-99.96840275278568
 10
74.2101128286697
 20
-100.0390272102333
 10
73.91659069332641
 20
-100.103105986259
 10
73.91659069332641
 20
-100.103105986259
 10
73.88007268118277
 20
-99.84300127712258
 10
73.88007268118277
 20
-99.84300127712258
 10
74.27591415243796
 20
-99.85437009222392
 10
75.28773869645585
 20
-99.77892250109694
 10
75.78142087949215
 20
-99.66488984053517
 10
75.78142087949215
 20
-99.66488984053517
 10
75.78142087949215
 20
-99.90432397676004
 10
75.78142087949215
 20
-99.90432397676004
 10
75.73491209044127
 20
-99.90432397676004
 10
75.63500432136902
 20
-99.90914711043938
 10
75.54922144378631
 20
-99.93395179793319
 97
        0
 97
        0
 92
        1
 93
        1
 72
     4
 94
        3
 73
     0
 74
     1
 95
       17
 96
       13
 40
0.0
 40
0.0
 40
0.0
 40
0.0
 40
1.0
 40
1.0
 40
1.0
 40
2.0
 40
2.0
 40
2.0
 40
3.0
 40
3.0
 40
3.0
 40
4.0
 40
4.0
 40
4.0
 40
4.0
 10
75.63500432136902
 20
-100.5754285772867
 10
75.54922144378631
 20
-100.5003254957083
 10
75.45861543252424
 20
-100.4431369106531
 10
75.35112845338445
 20
-100.3973171406993
 10
75.35112845338445
 20
-100.3973171406993
 10
75.44896916516554
 20
-100.2719156650362
 10
75.44896916516554
 20
-100.2719156650362
 10
75.57127005489191
 20
-100.303955053049
 10
75.68358016771106
 20
-100.3907714592773
 10
75.74249130050883
 20
-100.4545057257544
 10
75.74249130050883
 20
-100.4545057257544
 10
75.63500432136902
 20
-100.5754285772867
 10
75.63500432136902
 20
-100.5754285772867
 97
        0
 97
        0
 92
        1
 93
        1
 72
     4
 94
        3
 73
     0
 74
     1
 95
       17
 96
       13
 40
0.0
 40
0.0
 40
0.0
 40
0.0
 40
1.0
 40
1.0
 40
1.0
 40
2.0
 40
2.0
 40
2.0
 40
3.0
 40
3.0
 40
3.0
 40
4.0
 40
4.0
 40
4.0
 40
4.0
 10
75.88408472495259
 20
-100.338061498353
 10
75.77143010258493
 20
-100.2446994107027
 10
75.70321721197698
 20
-100.1988796407489
 10
75.57850475541093
 20
-100.1441026225334
 10
75.57850475541093
 20
-100.1441026225334
 10
75.68599173455073
 20
-100.0255913378408
 10
75.68599173455073
 20
-100.0255913378408
 10
75.7325005236016
 20
-100.041438777073
 10
75.84239906958108
 20
-100.0800238465078
 10
75.97951386989402
 20
-100.2057698317194
 10
75.97951386989402
 20
-100.2057698317194
 10
75.88408472495259
 20
-100.338061498353
 10
75.88408472495259
 20
-100.338061498353
 97
        0
 97
        0
 75
     2
 76
     1
 98
        0
  0
SPLINE
  5
141
330
126
100
AcDbEntity
  8
_U+30EC_U+30A4_U+30E4_U+30FC 1
370
     0
100
AcDbSpline
210
0.0
220
0.0
230
1.0
 70
    11
 71
     3
 72
    83
 73
    79
 74
     0
 42
0.0000000001
 43
0.0000000001
 12
1.0
 22
0.0
 32
0.0
 13
1.0
 23
0.0
 33
0.0
 40
0.0
 40
0.0
 40
0.0
 40
0.0
 40
1.0
 40
1.0
 40
1.0
 40
2.0
 40
2.0
 40
2.0
 40
3.0
 40
3.0
 40
3.0
 40
4.0
 40
4.0
 40
4.0
 40
5.0
 40
5.0
 40
5.0
 40
6.0
 40
6.0
 40
6.0
 40
7.0
 40
7.0
 40
7.0
 40
8.0
 40
8.0
 40
8.0
 40
9.0
 40
9.0
 40
9.0
 40
10.0
 40
10.0
 40
10.0
 40
11.0
 40
11.0
 40
11.0
 40
12.0
 40
12.0
 40
12.0
 40
13.0
 40
13.0
 40
13.0
 40
14.0
 40
14.0
 40
14.0
 40
15.0
 40
15.0
 40
15.0
 40
16.0
 40
16.0
 40
16.0
 40
17.0
 40
17.0
 40
17.0
 40
18.0
 40
18.0
 40
18.0
 40
19.0
 40
19.0
 40
19.0
 40
20.0
 40
20.0
 40
20.0
 40
21.0
 40
21.0
 40
21.0
 40
22.0
 40
22.0
 40
22.0
 40
23.0
 40
23.0
 40
23.0
 40
24.0
 40
24.0
 40
24.0
 40
25.0
 40
25.0
 40
25.0
 40
26.0
 40
26.0
 40
26.0
 40
26.0
 10
77.63453774100803
 20
-100.0710665982461
 30
0.0
 10
77.4781304059777
 20
-100.0710665982461
 30
0.0
 10
77.41956378272845
 20
-100.0755452223769
 30
0.0
 10
77.32413463778703
 20
-100.0824354133475
 30
0.0
 10
77.31931150410767
 20
-100.1327338074321
 30
0.0
 10
77.3072536699093
 20
-100.3542534471337
 30
0.0
 10
77.3044975935211
 20
-100.399728707539
 30
0.0
 10
77.3485948157323
 20
-100.4817219800879
 30
0.0
 10
77.4119845726609
 20
-100.5981662074894
 30
0.0
 10
77.4119845726609
 20
-100.7762776440768
 30
0.0
 10
77.4119845726609
 20
-100.8606824834654
 30
0.0
 10
77.38786890426415
 20
-101.2851182472482
 30
0.0
 10
77.01614310140569
 20
-101.613780356541
 30
0.0
 10
77.01614310140569
 20
-101.613780356541
 30
0.0
 10
76.73743487664898
 20
-101.5090494537894
 30
0.0
 10
76.73743487664898
 20
-101.5090494537894
 30
0.0
 10
76.79875757628642
 20
-101.4814886899074
 30
0.0
 10
76.88178437748094
 20
-101.4429036204726
 30
0.0
 10
76.96963431235481
 20
-101.3467854564341
 30
0.0
 10
77.07987736788282
 20
-101.2282741717415
 30
0.0
 10
77.10674911266776
 20
-101.1256103262811
 30
0.0
 10
77.12604164738516
 20
-101.054641359285
 30
0.0
 10
77.08194442517396
 20
-101.082202123167
 30
0.0
 10
77.03336857883194
 20
-101.1118299443401
 30
0.0
 10
76.94069551027872
 20
-101.1118299443401
 30
0.0
 10
76.703328431345
 20
-101.1118299443401
 30
0.0
 10
76.59825301904489
 20
-100.9020236292884
 30
0.0
 10
76.59825301904489
 20
-100.7328694409626
 30
0.0
 10
76.59825301904489
 20
-100.5389105651431
 30
0.0
 10
76.73536781935783
 20
-100.2970648620785
 30
0.0
 10
76.9844482229414
 20
-100.2970648620785
 30
0.0
 10
77.02820093560406
 20
-100.2970648620785
 30
0.0
 10
77.08194442517396
 20
-100.3015434862093
 30
0.0
 10
77.09916990260021
 20
-100.303955053049
 30
0.0
 10
77.1019259789884
 20
-100.242287843863
 30
0.0
 10
77.1019259789884
 20
-100.228507461922
 30
0.0
 10
77.1019259789884
 20
-100.0986273621281
 30
0.0
 10
76.92829316653182
 20
-100.1006944194193
 30
0.0
 10
76.42255314929714
 20
-100.1282551833013
 30
0.0
 10
76.12179631343483
 20
-100.1782090678374
 30
0.0
 10
76.12179631343483
 20
-100.1782090678374
 30
0.0
 10
76.09492456864989
 20
-99.94084198890368
 30
0.0
 10
76.09492456864989
 20
-99.94084198890368
 30
0.0
 10
76.16072589241816
 20
-99.94325355574335
 30
0.0
 10
76.17795136984441
 20
-99.94566512258304
 30
0.0
 10
76.25133190368022
 20
-99.94566512258304
 30
0.0
 10
76.3391818385541
 20
-99.94566512258304
 30
0.0
 10
76.7253770424506
 20
-99.93188474064203
 30
0.0
 10
76.80358070996577
 20
-99.92947317380236
 30
0.0
 10
76.91347925594525
 20
-99.92740611651121
 30
0.0
 10
76.97445744603417
 20
-99.92740611651121
 30
0.0
 10
77.09434676892086
 20
-99.92499454967154
 30
0.0
 10
77.09434676892086
 20
-99.82439776150224
 30
0.0
 10
77.09193520208119
 20
-99.69451766170832
 30
0.0
 10
77.06506345729623
 20
-99.55533580410423
 30
0.0
 10
77.06506345729623
 20
-99.55533580410423
 30
0.0
 10
77.3265462046267
 20
-99.56670461920555
 30
0.0
 10
77.3265462046267
 20
-99.56670461920555
 30
0.0
 10
77.36582029315855
 20
-99.5687716764967
 30
0.0
 10
77.41956378272845
 20
-99.5687716764967
 30
0.0
 10
77.41956378272845
 20
-99.60528968864035
 30
0.0
 10
77.41956378272845
 20
-99.62148163742103
 30
0.0
 10
77.4023383053022
 20
-99.63285045252235
 30
0.0
 10
77.39475909523465
 20
-99.63732907665317
 30
0.0
 10
77.3706434268379
 20
-99.65558808272499
 30
0.0
 10
77.36788735044969
 20
-99.65799964956467
 30
0.0
 10
77.34618324889263
 20
-99.67384708879682
 30
0.0
 10
77.3361924719854
 20
-99.73344724069165
 30
0.0
 10
77.33412541469426
 20
-99.75136173721494
 30
0.0
 10
77.32895777146638
 20
-99.91121416773053
 30
0.0
 10
77.43885631744584
 20
-99.91121416773053
 30
0.0
 10
77.86191404303453
 20
-99.89536672849839
 30
0.0
 10
78.08171113499347
 20
-99.85437009222392
 30
0.0
 10
78.08171113499347
 20
-99.85437009222392
 30
0.0
 10
78.09135740235216
 20
-100.0869140374783
 30
0.0
 10
78.09135740235216
 20
-100.0869140374783
 30
0.0
 10
77.8739718772329
 20
-100.0710665982461
 30
0.0
 10
77.68828123057793
 20
-100.0710665982461
 30
0.0
 10
77.63453774100803
 20
-100.0710665982461
 30
0.0
  0
SPLINE
  5
142
330
126
100
AcDbEntity
  8
_U+30EC_U+30A4_U+30E4_U+30FC 1
370
     0
100
AcDbSpline
210
0.0
220
0.0
230
1.0
 70
    11
 71
     3
 72
    17
 73
    13
 74
     0
 42
0.0000000001
 43
0.0000000001
 12
1.0
 22
0.0
 32
0.0
 13
1.0
 23
0.0
 33
0.0
 40
0.0
 40
0.0
 40
0.0
 40
0.0
 40
1.0
 40
1.0
 40
1.0
 40
2.0
 40
2.0
 40
2.0
 40
3.0
 40
3.0
 40
3.0
 40
4.0
 40
4.0
 40
4.0
 40
4.0
 10
76.98927135662075
 20
-100.4955023620289
 30
0.0
 10
76.88660751116029
 20
-100.4955023620289
 30
0.0
 10
76.81598305371267
 20
-100.6029893411687
 30
0.0
 10
76.81598305371267
 20
-100.7308023836715
 30
0.0
 10
76.81598305371267
 20
-100.8768744322461
 30
0.0
 10
76.91347925594525
 20
-100.924761259491
 30
0.0
 10
76.96239961183579
 20
-100.924761259491
 30
0.0
 10
77.11880694686613
 20
-100.924761259491
 30
0.0
 10
77.1432671248114
 20
-100.7762776440768
 30
0.0
 10
77.1432671248114
 20
-100.6987629956586
 30
0.0
 10
77.1432671248114
 20
-100.5685383863162
 30
0.0
 10
77.06988659097559
 20
-100.4955023620289
 30
0.0
 10
76.98927135662075
 20
-100.4955023620289
 30
0.0
  0
HATCH
  5
143
330
126
100
AcDbEntity
  8
_U+30EC_U+30A4_U+30E4_U+30FC 1
 62
   179
420
  2234388
100
AcDbHatch
 10
0.0
 20
0.0
 30
0.0
210
0.0
220
0.0
230
1.0
  2
SOLID
 70
     1
 71
     0
 91
        2
 92
        1
 93
        1
 72
     4
 94
        3
 73
     0
 74
     1
 95
       83
 96
       79
 40
0.0
 40
0.0
 40
0.0
 40
0.0
 40
1.0
 40
1.0
 40
1.0
 40
2.0
 40
2.0
 40
2.0
 40
3.0
 40
3.0
 40
3.0
 40
4.0
 40
4.0
 40
4.0
 40
5.0
 40
5.0
 40
5.0
 40
6.0
 40
6.0
 40
6.0
 40
7.0
 40
7.0
 40
7.0
 40
8.0
 40
8.0
 40
8.0
 40
9.0
 40
9.0
 40
9.0
 40
10.0
 40
10.0
 40
10.0
 40
11.0
 40
11.0
 40
11.0
 40
12.0
 40
12.0
 40
12.0
 40
13.0
 40
13.0
 40
13.0
 40
14.0
 40
14.0
 40
14.0
 40
15.0
 40
15.0
 40
15.0
 40
16.0
 40
16.0
 40
16.0
 40
17.0
 40
17.0
 40
17.0
 40
18.0
 40
18.0
 40
18.0
 40
19.0
 40
19.0
 40
19.0
 40
20.0
 40
20.0
 40
20.0
 40
21.0
 40
21.0
 40
21.0
 40
22.0
 40
22.0
 40
22.0
 40
23.0
 40
23.0
 40
23.0
 40
24.0
 40
24.0
 40
24.0
 40
25.0
 40
25.0
 40
25.0
 40
26.0
 40
26.0
 40
26.0
 40
26.0
 10
77.63453774100803
 20
-100.0710665982461
 10
77.4781304059777
 20
-100.0710665982461
 10
77.41956378272845
 20
-100.0755452223769
 10
77.32413463778703
 20
-100.0824354133475
 10
77.31931150410767
 20
-100.1327338074321
 10
77.3072536699093
 20
-100.3542534471337
 10
77.3044975935211
 20
-100.399728707539
 10
77.3485948157323
 20
-100.4817219800879
 10
77.4119845726609
 20
-100.5981662074894
 10
77.4119845726609
 20
-100.7762776440768
 10
77.4119845726609
 20
-100.8606824834654
 10
77.38786890426415
 20
-101.2851182472482
 10
77.01614310140569
 20
-101.613780356541
 10
77.01614310140569
 20
-101.613780356541
 10
76.73743487664898
 20
-101.5090494537894
 10
76.73743487664898
 20
-101.5090494537894
 10
76.79875757628642
 20
-101.4814886899074
 10
76.88178437748094
 20
-101.4429036204726
 10
76.96963431235481
 20
-101.3467854564341
 10
77.07987736788282
 20
-101.2282741717415
 10
77.10674911266776
 20
-101.1256103262811
 10
77.12604164738516
 20
-101.054641359285
 10
77.08194442517396
 20
-101.082202123167
 10
77.03336857883194
 20
-101.1118299443401
 10
76.94069551027872
 20
-101.1118299443401
 10
76.703328431345
 20
-101.1118299443401
 10
76.59825301904489
 20
-100.9020236292884
 10
76.59825301904489
 20
-100.7328694409626
 10
76.59825301904489
 20
-100.5389105651431
 10
76.73536781935783
 20
-100.2970648620785
 10
76.9844482229414
 20
-100.2970648620785
 10
77.02820093560406
 20
-100.2970648620785
 10
77.08194442517396
 20
-100.3015434862093
 10
77.09916990260021
 20
-100.303955053049
 10
77.1019259789884
 20
-100.242287843863
 10
77.1019259789884
 20
-100.228507461922
 10
77.1019259789884
 20
-100.0986273621281
 10
76.92829316653182
 20
-100.1006944194193
 10
76.42255314929714
 20
-100.1282551833013
 10
76.12179631343483
 20
-100.1782090678374
 10
76.12179631343483
 20
-100.1782090678374
 10
76.09492456864989
 20
-99.94084198890368
 10
76.09492456864989
 20
-99.94084198890368
 10
76.16072589241816
 20
-99.94325355574335
 10
76.17795136984441
 20
-99.94566512258304
 10
76.25133190368022
 20
-99.94566512258304
 10
76.3391818385541
 20
-99.94566512258304
 10
76.7253770424506
 20
-99.93188474064203
 10
76.80358070996577
 20
-99.92947317380236
 10
76.91347925594525
 20
-99.92740611651121
 10
76.97445744603417
 20
-99.92740611651121
 10
77.09434676892086
 20
-99.92499454967154
 10
77.09434676892086
 20
-99.82439776150224
 10
77.09193520208119
 20
-99.69451766170832
 10
77.06506345729623
 20
-99.55533580410423
 10
77.06506345729623
 20
-99.55533580410423
 10
77.3265462046267
 20
-99.56670461920555
 10
77.3265462046267
 20
-99.56670461920555
 10
77.36582029315855
 20
-99.5687716764967
 10
77.41956378272845
 20
-99.5687716764967
 10
77.41956378272845
 20
-99.60528968864035
 10
77.41956378272845
 20
-99.62148163742103
 10
77.4023383053022
 20
-99.63285045252235
 10
77.39475909523465
 20
-99.63732907665317
 10
77.3706434268379
 20
-99.65558808272499
 10
77.36788735044969
 20
-99.65799964956467
 10
77.34618324889263
 20
-99.67384708879682
 10
77.3361924719854
 20
-99.73344724069165
 10
77.33412541469426
 20
-99.75136173721494
 10
77.32895777146638
 20
-99.91121416773053
 10
77.43885631744584
 20
-99.91121416773053
 10
77.86191404303453
 20
-99.89536672849839
 10
78.08171113499347
 20
-99.85437009222392
 10
78.08171113499347
 20
-99.85437009222392
 10
78.09135740235216
 20
-100.0869140374783
 10
78.09135740235216
 20
-100.0869140374783
 10
77.8739718772329
 20
-100.0710665982461
 10
77.68828123057793
 20
-100.0710665982461
 10
77.63453774100803
 20
-100.0710665982461
 97
        0
 97
        0
 92
        1
 93
        1
 72
     4
 94
        3
 73
     0
 74
     1
 95
       17
 96
       13
 40
0.0
 40
0.0
 40
0.0
 40
0.0
 40
1.0
 40
1.0
 40
1.0
 40
2.0
 40
2.0
 40
2.0
 40
3.0
 40
3.0
 40
3.0
 40
4.0
 40
4.0
 40
4.0
 40
4.0
 10
76.98927135662075
 20
-100.4955023620289
 10
76.88660751116029
 20
-100.4955023620289
 10
76.81598305371267
 20
-100.6029893411687
 10
76.81598305371267
 20
-100.7308023836715
 10
76.81598305371267
 20
-100.8768744322461
 10
76.91347925594525
 20
-100.924761259491
 10
76.96239961183579
 20
-100.924761259491
 10
77.11880694686613
 20
-100.924761259491
 10
77.1432671248114
 20
-100.7762776440768
 10
77.1432671248114
 20
-100.6987629956586
 10
77.1432671248114
 20
-100.5685383863162
 10
77.06988659097559
 20
-100.4955023620289
 10
76.98927135662075
 20
-100.4955023620289
 97
        0
 97
        0
 75
     2
 76
     1
 98
        0
  0
ENDBLK
  5
129
330
126
100
AcDbEntity
  8
0
100
AcDbBlockEnd
  0
ENDSEC
  0
SECTION
  2
ENTITIES
  0
POLYLINE
  5
41
330
1F
100
AcDbEntity
  8
_U+30EC_U+30A4_U+30E4_U+30FC 1
 62
   179
420
  2234388
370
    25
100
AcDb2dPolyline
 66
     1
 10
0.0
 20
0.0
 30
0.0
  0
VERTEX
  5
42
330
41
100
AcDbEntity
  8
_U+30EC_U+30A4_U+30E4_U+30FC 1
 62
   179
420
  2234388
370
    25
100
AcDbVertex
100
AcDb2dVertex
 10
43.55496638882023
 20
-92.87735775455853
 30
0.0
  0
VERTEX
  5
43
330
41
100
AcDbEntity
  8
_U+30EC_U+30A4_U+30E4_U+30FC 1
 62
   179
420
  2234388
370
    25
100
AcDbVertex
100
AcDb2dVertex
 10
52.55492699254545
 20
-92.87735775455853
 30
0.0
  0
SEQEND
  5
44
330
41
100
AcDbEntity
  8
_U+30EC_U+30A4_U+30E4_U+30FC 1
 62
   179
420
  2234388
370
    25
  0
POLYLINE
  5
45
330
1F
100
AcDbEntity
  8
_U+30EC_U+30A4_U+30E4_U+30FC 1
 62
   179
420
  2234388
370
    25
100
AcDb2dPolyline
 66
     1
 10
0.0
 20
0.0
 30
0.0
  0
VERTEX
  5
46
330
45
100
AcDbEntity
  8
_U+30EC_U+30A4_U+30E4_U+30FC 1
 62
   179
420
  2234388
370
    25
100
AcDbVertex
100
AcDb2dVertex
 10
43.7770047164889
 20
-94.87725497628072
 30
0.0
  0
VERTEX
  5
47
330
45
100
AcDbEntity
  8
_U+30EC_U+30A4_U+30E4_U+30FC 1
 62
   179
420
  2234388
370
    25
100
AcDbVertex
100
AcDb2dVertex
 10
53.77709165322251
 20
-94.87725497628072
 30
0.0
  0
SEQEND
  5
48
330
45
100
AcDbEntity
  8
_U+30EC_U+30A4_U+30E4_U+30FC 1
 62
   179
420
  2234388
370
    25
  0
POLYLINE
  5
49
330
1F
100
AcDbEntity
  8
_U+30EC_U+30A4_U+30E4_U+30FC 1
 62
   179
420
  2234388
370
    25
100
AcDb2dPolyline
 66
     1
 10
0.0
 20
0.0
 30
0.0
  0
VERTEX
  5
4A
330
49
100
AcDbEntity
  8
_U+30EC_U+30A4_U+30E4_U+30FC 1
 62
   179
420
  2234388
370
    25
100
AcDbVertex
100
AcDb2dVertex
 10
53.77709165322251
 20
-91.87726803258639
 30
0.0
  0
VERTEX
  5
4B
330
49
100
AcDbEntity
  8
_U+30EC_U+30A4_U+30E4_U+30FC 1
 62
   179
420
  2234388
370
    25
100
AcDbVertex
100
AcDb2dVertex
 10
53.77709165322251
 20
-94.87725497628072
 30
0.0
  0
SEQEND
  5
4C
330
49
100
AcDbEntity
  8
_U+30EC_U+30A4_U+30E4_U+30FC 1
 62
   179
420
  2234388
370
    25
  0
POLYLINE
  5
4D
330
1F
100
AcDbEntity
  8
_U+30EC_U+30A4_U+30E4_U+30FC 1
 62
   179
420
  2234388
370
    25
100
AcDb2dPolyline
 66
     1
 10
0.0
 20
0.0
 30
0.0
  0
VERTEX
  5
4E
330
4D
100
AcDbEntity
  8
_U+30EC_U+30A4_U+30E4_U+30FC 1
 62
   179
420
  2234388
370
    25
100
AcDbVertex
100
AcDb2dVertex
 10
43.7770047164889
 20
-91.87726803258639
 30
0.0
  0
VERTEX
  5
4F
330
4D
100
AcDbEntity
  8
_U+30EC_U+30A4_U+30E4_U+30FC 1
 62
   179
420
  2234388
370
    25
100
AcDbVertex
100
AcDb2dVertex
 10
53.77709165322251
 20
-91.87726803258639
 30
0.0
  0
SEQEND
  5
50
330
4D
100
AcDbEntity
  8
_U+30EC_U+30A4_U+30E4_U+30FC 1
 62
   179
420
  2234388
370
    25
  0
POLYLINE
  5
51
330
1F
100
AcDbEntity
  8
_U+30EC_U+30A4_U+30E4_U+30FC 1
 62
   179
420
  2234388
370
    25
100
AcDb2dPolyline
 66
     1
 10
0.0
 20
0.0
 30
0.0
  0
VERTEX
  5
52
330
51
100
AcDbEntity
  8
_U+30EC_U+30A4_U+30E4_U+30FC 1
 62
   179
420
  2234388
370
    25
100
AcDbVertex
100
AcDb2dVertex
 10
43.7770047164889
 20
-91.87726803258639
 30
0.0
  0
VERTEX
  5
53
330
51
100
AcDbEntity
  8
_U+30EC_U+30A4_U+30E4_U+30FC 1
 62
   179
420
  2234388
370
    25
100
AcDbVertex
100
AcDb2dVertex
 10
43.7770047164889
 20
-92.87735775455853
 30
0.0
  0
SEQEND
  5
54
330
51
100
AcDbEntity
  8
_U+30EC_U+30A4_U+30E4_U+30FC 1
 62
   179
420
  2234388
370
    25
  0
POLYLINE
  5
55
330
1F
100
AcDbEntity
  8
_U+30EC_U+30A4_U+30E4_U+30FC 1
 62
   179
420
  2234388
370
    25
100
AcDb2dPolyline
 66
     1
 10
0.0
 20
0.0
 30
0.0
  0
VERTEX
  5
56
330
55
100
AcDbEntity
  8
_U+30EC_U+30A4_U+30E4_U+30FC 1
 62
   179
420
  2234388
370
    25
100
AcDbVertex
100
AcDb2dVertex
 10
43.7770047164889
 20
-93.87748275430819
 30
0.0
  0
VERTEX
  5
57
330
55
100
AcDbEntity
  8
_U+30EC_U+30A4_U+30E4_U+30FC 1
 62
   179
420
  2234388
370
    25
100
AcDbVertex
100
AcDb2dVertex
 10
52.77696665347252
 20
-93.87748275430819
 30
0.0
  0
SEQEND
  5
58
330
55
100
AcDbEntity
  8
_U+30EC_U+30A4_U+30E4_U+30FC 1
 62
   179
420
  2234388
370
    25
  0
POLYLINE
  5
59
330
1F
100
AcDbEntity
  8
_U+30EC_U+30A4_U+30E4_U+30FC 1
 62
   179
420
  2234388
370
    25
100
AcDb2dPolyline
 66
     1
 10
0.0
 20
0.0
 30
0.0
  0
VERTEX
  5
5A
330
59
100
AcDbEntity
  8
_U+30EC_U+30A4_U+30E4_U+30FC 1
 62
   179
420
  2234388
370
    25
100
AcDbVertex
100
AcDb2dVertex
 10
52.77696665347252
 20
-92.87735775455853
 30
0.0
  0
VERTEX
  5
5B
330
59
100
AcDbEntity
  8
_U+30EC_U+30A4_U+30E4_U+30FC 1
 62
   179
420
  2234388
370
    25
100
AcDbVertex
100
AcDb2dVertex
 10
52.77696665347252
 20
-93.87748275430819
 30
0.0
  0
SEQEND
  5
5C
330
59
100
AcDbEntity
  8
_U+30EC_U+30A4_U+30E4_U+30FC 1
 62
   179
420
  2234388
370
    25
  0
POLYLINE
  5
5D
330
1F
100
AcDbEntity
  8
_U+30EC_U+30A4_U+30E4_U+30FC 1
 62
   179
420
  2234388
370
    25
100
AcDb2dPolyline
 66
     1
 10
0.0
 20
0.0
 30
0.0
  0
VERTEX
  5
5E
330
5D
100
AcDbEntity
  8
_U+30EC_U+30A4_U+30E4_U+30FC 1
 62
   179
420
  2234388
370
    25
100
AcDbVertex
100
AcDb2dVertex
 10
43.7770047164889
 20
-93.87748275430819
 30
0.0
  0
VERTEX
  5
5F
330
5D
100
AcDbEntity
  8
_U+30EC_U+30A4_U+30E4_U+30FC 1
 62
   179
420
  2234388
370
    25
100
AcDbVertex
100
AcDb2dVertex
 10
43.7770047164889
 20
-94.87725497628072
 30
0.0
  0
SEQEND
  5
60
330
5D
100
AcDbEntity
  8
_U+30EC_U+30A4_U+30E4_U+30FC 1
 62
   179
420
  2234388
370
    25
  0
POLYLINE
  5
61
330
1F
100
AcDbEntity
  8
_U+30EC_U+30A4_U+30E4_U+30FC 1
 62
   179
420
  2234388
370
    25
100
AcDb2dPolyline
 66
     1
 10
0.0
 20
0.0
 30
0.0
  0
VERTEX
  5
62
330
61
100
AcDbEntity
  8
_U+30EC_U+30A4_U+30E4_U+30FC 1
 62
   179
420
  2234388
370
    25
100
AcDbVertex
100
AcDb2dVertex
 10
53.77709165322251
 20
-91.87726803258639
 30
0.0
  0
VERTEX
  5
63
330
61
100
AcDbEntity
  8
_U+30EC_U+30A4_U+30E4_U+30FC 1
 62
   179
420
  2234388
370
    25
100
AcDbVertex
100
AcDb2dVertex
 10
67.7774305386112
 20
-83.79368275682951
 30
0.0
  0
SEQEND
  5
64
330
61
100
AcDbEntity
  8
_U+30EC_U+30A4_U+30E4_U+30FC 1
 62
   179
420
  2234388
370
    25
  0
POLYLINE
  5
65
330
1F
100
AcDbEntity
  8
_U+30EC_U+30A4_U+30E4_U+30FC 1
 62
   179
420
  2234388
370
    25
100
AcDb2dPolyline
 66
     1
 10
0.0
 20
0.0
 30
0.0
  0
VERTEX
  5
66
330
65
100
AcDbEntity
  8
_U+30EC_U+30A4_U+30E4_U+30FC 1
 62
   179
420
  2234388
370
    25
100
AcDbVertex
100
AcDb2dVertex
 10
53.77709165322251
 20
-94.87725497628072
 30
0.0
  0
VERTEX
  5
67
330
65
100
AcDbEntity
  8
_U+30EC_U+30A4_U+30E4_U+30FC 1
 62
   179
420
  2234388
370
    25
100
AcDbVertex
100
AcDb2dVertex
 10
67.7774305386112
 20
-86.79402247830163
 30
0.0
  0
SEQEND
  5
68
330
65
100
AcDbEntity
  8
_U+30EC_U+30A4_U+30E4_U+30FC 1
 62
   179
420
  2234388
370
    25
  0
POLYLINE
  5
69
330
1F
100
AcDbEntity
  8
_U+30EC_U+30A4_U+30E4_U+30FC 1
 62
   179
420
  2234388
370
    25
100
AcDb2dPolyline
 66
     1
 10
0.0
 20
0.0
 30
0.0
  0
VERTEX
  5
6A
330
69
100
AcDbEntity
  8
_U+30EC_U+30A4_U+30E4_U+30FC 1
 62
   179
420
  2234388
370
    25
100
AcDbVertex
100
AcDb2dVertex
 10
43.7770047164889
 20
-93.87748275430819
 30
0.0
  0
VERTEX
  5
6B
330
69
100
AcDbEntity
  8
_U+30EC_U+30A4_U+30E4_U+30FC 1
 62
   179
420
  2234388
370
    25
100
AcDbVertex
100
AcDb2dVertex
 10
45.50917883896412
 20
-92.87735775455853
 30
0.0
  0
SEQEND
  5
6C
330
69
100
AcDbEntity
  8
_U+30EC_U+30A4_U+30E4_U+30FC 1
 62
   179
420
  2234388
370
    25
  0
POLYLINE
  5
6D
330
1F
100
AcDbEntity
  8
_U+30EC_U+30A4_U+30E4_U+30FC 1
 62
   179
420
  2234388
370
    25
100
AcDb2dPolyline
 66
     1
 10
0.0
 20
0.0
 30
0.0
  0
VERTEX
  5
6E
330
6D
100
AcDbEntity
  8
_U+30EC_U+30A4_U+30E4_U+30FC 1
 62
   179
420
  2234388
370
    25
100
AcDbVertex
100
AcDb2dVertex
 10
43.7770047164889
 20
-91.87726803258639
 30
0.0
  0
VERTEX
  5
6F
330
6D
100
AcDbEntity
  8
_U+30EC_U+30A4_U+30E4_U+30FC 1
 62
   179
420
  2234388
370
    25
100
AcDbVertex
100
AcDb2dVertex
 10
57.777166859315
 20
-83.79368275682951
 30
0.0
  0
SEQEND
  5
70
330
6D
100
AcDbEntity
  8
_U+30EC_U+30A4_U+30E4_U+30FC 1
 62
   179
420
  2234388
370
    25
  0
POLYLINE
  5
71
330
1F
100
AcDbEntity
  8
_U+30EC_U+30A4_U+30E4_U+30FC 1
370
     0
100
AcDb2dPolyline
 66
     1
 10
0.0
 20
0.0
 30
0.0
  0
VERTEX
  5
72
330
71
100
AcDbEntity
  8
_U+30EC_U+30A4_U+30E4_U+30FC 1
370
     0
100
AcDbVertex
100
AcDb2dVertex
 10
57.74961491557347
 20
-84.08546525675641
 30
0.0
  0
VERTEX
  5
73
330
71
100
AcDbEntity
  8
_U+30EC_U+30A4_U+30E4_U+30FC 1
370
     0
100
AcDbVertex
100
AcDb2dVertex
 10
45.06616051693312
 20
-91.40941414381463
 30
0.0
  0
VERTEX
  5
74
330
71
100
AcDbEntity
  8
_U+30EC_U+30A4_U+30E4_U+30FC 1
370
     0
100
AcDbVertex
100
AcDb2dVertex
 10
53.86595501465388
 20
-91.40941414381463
 30
0.0
  0
VERTEX
  5
75
330
71
100
AcDbEntity
  8
_U+30EC_U+30A4_U+30E4_U+30FC 1
370
     0
100
AcDbVertex
100
AcDb2dVertex
 10
66.54958580217863
 20
-84.08546525675641
 30
0.0
  0
VERTEX
  5
76
330
71
100
AcDbEntity
  8
_U+30EC_U+30A4_U+30E4_U+30FC 1
370
     0
100
AcDbVertex
100
AcDb2dVertex
 10
57.74961491557347
 20
-84.08546525675641
 30
0.0
  0
SEQEND
  5
78
330
71
100
AcDbEntity
  8
_U+30EC_U+30A4_U+30E4_U+30FC 1
370
     0
  0
HATCH
  5
77
330
1F
100
AcDbEntity
  8
_U+30EC_U+30A4_U+30E4_U+30FC 1
 62
   161
420
  9020372
100
AcDbHatch
 10
0.0
 20
0.0
 30
0.0
210
0.0
220
0.0
230
1.0
  2
SOLID
 70
     1
 71
     0
 91
        1
 92
        1
 93
        4
 72
     1
 10
57.74961491557347
 20
-84.08546525675641
 11
45.06616051693312
 21
-91.40941414381463
 72
     1
 10
45.06616051693312
 20
-91.40941414381463
 11
53.86595501465388
 21
-91.40941414381463
 72
     1
 10
53.86595501465388
 20
-91.40941414381463
 11
66.54958580217863
 21
-84.08546525675641
 72
     1
 10
66.54958580217863
 20
-84.08546525675641
 11
57.74961491557347
 21
-84.08546525675641
 97
        0
 75
     2
 76
     1
 98
        0
  0
SPLINE
  5
79
330
1F
100
AcDbEntity
  8
_U+30EC_U+30A4_U+30E4_U+30FC 1
 62
   179
420
  2234388
370
     9
100
AcDbSpline
210
0.0
220
0.0
230
1.0
 70
    11
 71
     3
 72
    17
 73
    13
 74
     0
 42
0.0000000001
 43
0.0000000001
 12
1.0
 22
0.0
 32
0.0
 13
1.0
 23
0.0
 33
0.0
 40
0.0
 40
0.0
 40
0.0
 40
0.0
 40
1.0
 40
1.0
 40
1.0
 40
2.0
 40
2.0
 40
2.0
 40
3.0
 40
3.0
 40
3.0
 40
4.0
 40
4.0
 40
4.0
 40
4.0
 10
39.87715231598242
 20
-91.87726803258639
 30
0.0
 10
39.87715231598242
 20
-91.82212886593331
 30
0.0
 10
39.83234953934766
 20
-91.77736136594474
 30
0.0
 10
39.77689287409581
 20
-91.77736136594474
 30
0.0
 10
39.72178898661274
 20
-91.77736136594474
 30
0.0
 10
39.67698620997798
 20
-91.82212886593331
 30
0.0
 10
39.67698620997798
 20
-91.87726803258639
 30
0.0
 10
39.67698620997798
 20
-91.9323719214613
 30
0.0
 10
39.72178898661274
 20
-91.97717469922803
 30
0.0
 10
39.77689287409581
 20
-91.97717469922803
 30
0.0
 10
39.83234953934766
 20
-91.97717469922803
 30
0.0
 10
39.87715231598242
 20
-91.9323719214613
 30
0.0
 10
39.87715231598242
 20
-91.87726803258639
 30
0.0
  0
SPLINE
  5
7A
330
1F
100
AcDbEntity
  8
_U+30EC_U+30A4_U+30E4_U+30FC 1
 62
   179
420
  2234388
370
     9
100
AcDbSpline
210
0.0
220
0.0
230
1.0
 70
    11
 71
     3
 72
    17
 73
    13
 74
     0
 42
0.0000000001
 43
0.0000000001
 12
1.0
 22
0.0
 32
0.0
 13
1.0
 23
0.0
 33
0.0
 40
0.0
 40
0.0
 40
0.0
 40
0.0
 40
1.0
 40
1.0
 40
1.0
 40
2.0
 40
2.0
 40
2.0
 40
3.0
 40
3.0
 40
3.0
 40
4.0
 40
4.0
 40
4.0
 40
4.0
 10
39.87715231598242
 20
-94.87725497628072
 30
0.0
 10
39.87715231598242
 20
-94.82211580962765
 30
0.0
 10
39.83234953934766
 20
-94.7773483096391
 30
0.0
 10
39.77689287409581
 20
-94.7773483096391
 30
0.0
 10
39.72178898661274
 20
-94.7773483096391
 30
0.0
 10
39.67698620997798
 20
-94.82211580962765
 30
0.0
 10
39.67698620997798
 20
-94.87725497628072
 30
0.0
 10
39.67698620997798
 20
-94.93271164293341
 30
0.0
 10
39.72178898661274
 20
-94.9774791429226
 30
0.0
 10
39.77689287409581
 20
-94.9774791429226
 30
0.0
 10
39.83234953934766
 20
-94.9774791429226
 30
0.0
 10
39.87715231598242
 20
-94.93271164293341
 30
0.0
 10
39.87715231598242
 20
-94.87725497628072
 30
0.0
  0
SPLINE
  5
7B
330
1F
100
AcDbEntity
  8
_U+30EC_U+30A4_U+30E4_U+30FC 1
 62
   179
420
  2234388
370
     9
100
AcDbSpline
210
0.0
220
0.0
230
1.0
 70
    11
 71
     3
 72
    17
 73
    13
 74
     0
 42
0.0000000001
 43
0.0000000001
 12
1.0
 22
0.0
 32
0.0
 13
1.0
 23
0.0
 33
0.0
 40
0.0
 40
0.0
 40
0.0
 40
0.0
 40
1.0
 40
1.0
 40
1.0
 40
2.0
 40
2.0
 40
2.0
 40
3.0
 40
3.0
 40
3.0
 40
4.0
 40
4.0
 40
4.0
 40
4.0
 10
43.87691138060674
 20
-98.87733164194721
 30
0.0
 10
43.87691138060674
 20
-98.8222277530723
 30
0.0
 10
43.83210860397197
 20
-98.77742497530558
 30
0.0
 10
43.7770047164889
 20
-98.77742497530558
 30
0.0
 10
43.72186665573609
 20
-98.77742497530558
 30
0.0
 10
43.67709805237106
 20
-98.8222277530723
 30
0.0
 10
43.67709805237106
 20
-98.87733164194721
 30
0.0
 10
43.67709805237106
 20
-98.93247080860029
 30
0.0
 10
43.72186665573609
 20
-98.97723830858885
 30
0.0
 10
43.7770047164889
 20
-98.97723830858885
 30
0.0
 10
43.83210860397197
 20
-98.97723830858885
 30
0.0
 10
43.87691138060674
 20
-98.93247080860029
 30
0.0
 10
43.87691138060674
 20
-98.87733164194721
 30
0.0
  0
SPLINE
  5
7C
330
1F
100
AcDbEntity
  8
_U+30EC_U+30A4_U+30E4_U+30FC 1
 62
   179
420
  2234388
370
     9
100
AcDbSpline
210
0.0
220
0.0
230
1.0
 70
    11
 71
     3
 72
    17
 73
    13
 74
     0
 42
0.0000000001
 43
0.0000000001
 12
1.0
 22
0.0
 32
0.0
 13
1.0
 23
0.0
 33
0.0
 40
0.0
 40
0.0
 40
0.0
 40
0.0
 40
1.0
 40
1.0
 40
1.0
 40
2.0
 40
2.0
 40
2.0
 40
3.0
 40
3.0
 40
3.0
 40
4.0
 40
4.0
 40
4.0
 40
4.0
 10
53.87731445880853
 20
-98.87733164194721
 30
0.0
 10
53.87731445880853
 20
-98.8222277530723
 30
0.0
 10
53.83254695995064
 20
-98.77742497530558
 30
0.0
 10
53.77709165322251
 20
-98.77742497530558
 30
0.0
 10
53.72195112943884
 20
-98.77742497530558
 30
0.0
 10
53.67718363058096
 20
-98.8222277530723
 30
0.0
 10
53.67718363058096
 20
-98.87733164194721
 30
0.0
 10
53.67718363058096
 20
-98.93247080860029
 30
0.0
 10
53.72195112943884
 20
-98.97723830858885
 30
0.0
 10
53.77709165322251
 20
-98.97723830858885
 30
0.0
 10
53.83254695995064
 20
-98.97723830858885
 30
0.0
 10
53.87731445880853
 20
-98.93247080860029
 30
0.0
 10
53.87731445880853
 20
-98.87733164194721
 30
0.0
  0
POLYLINE
  5
7D
330
1F
100
AcDbEntity
  8
_U+30EC_U+30A4_U+30E4_U+30FC 1
 62
   179
420
  2234388
370
     9
100
AcDb2dPolyline
 66
     1
 10
0.0
 20
0.0
 30
0.0
  0
VERTEX
  5
7E
330
7D
100
AcDbEntity
  8
_U+30EC_U+30A4_U+30E4_U+30FC 1
 62
   179
420
  2234388
370
     9
100
AcDbVertex
100
AcDb2dVertex
 10
39.77689287409581
 20
-94.87725497628072
 30
0.0
  0
VERTEX
  5
7F
330
7D
100
AcDbEntity
  8
_U+30EC_U+30A4_U+30E4_U+30FC 1
 62
   179
420
  2234388
370
     9
100
AcDbVertex
100
AcDb2dVertex
 10
39.77689287409581
 20
-91.87726803258639
 30
0.0
  0
SEQEND
  5
80
330
7D
100
AcDbEntity
  8
_U+30EC_U+30A4_U+30E4_U+30FC 1
 62
   179
420
  2234388
370
     9
  0
POLYLINE
  5
81
330
1F
100
AcDbEntity
  8
_U+30EC_U+30A4_U+30E4_U+30FC 1
 62
   179
420
  2234388
370
     9
100
AcDb2dPolyline
 66
     1
 10
0.0
 20
0.0
 30
0.0
  0
VERTEX
  5
82
330
81
100
AcDbEntity
  8
_U+30EC_U+30A4_U+30E4_U+30FC 1
 62
   179
420
  2234388
370
     9
100
AcDbVertex
100
AcDb2dVertex
 10
41.23728700350472
 20
-94.87725497628072
 30
0.0
  0
VERTEX
  5
83
330
81
100
AcDbEntity
  8
_U+30EC_U+30A4_U+30E4_U+30FC 1
 62
   179
420
  2234388
370
     9
100
AcDbVertex
100
AcDb2dVertex
 10
38.7771206773799
 20
-94.87725497628072
 30
0.0
  0
SEQEND
  5
84
330
81
100
AcDbEntity
  8
_U+30EC_U+30A4_U+30E4_U+30FC 1
 62
   179
420
  2234388
370
     9
  0
POLYLINE
  5
85
330
1F
100
AcDbEntity
  8
_U+30EC_U+30A4_U+30E4_U+30FC 1
 62
   179
420
  2234388
370
     9
100
AcDb2dPolyline
 66
     1
 10
0.0
 20
0.0
 30
0.0
  0
VERTEX
  5
86
330
85
100
AcDbEntity
  8
_U+30EC_U+30A4_U+30E4_U+30FC 1
 62
   179
420
  2234388
370
     9
100
AcDbVertex
100
AcDb2dVertex
 10
41.23728700350472
 20
-91.87726803258639
 30
0.0
  0
VERTEX
  5
87
330
85
100
AcDbEntity
  8
_U+30EC_U+30A4_U+30E4_U+30FC 1
 62
   179
420
  2234388
370
     9
100
AcDbVertex
100
AcDb2dVertex
 10
38.7771206773799
 20
-91.87726803258639
 30
0.0
  0
SEQEND
  5
88
330
85
100
AcDbEntity
  8
_U+30EC_U+30A4_U+30E4_U+30FC 1
 62
   179
420
  2234388
370
     9
  0
INSERT
  5
8A
330
1F
100
AcDbEntity
  8
_U+30EC_U+30A4_U+30E4_U+30FC 1
100
AcDbBlockReference
  2
block 2
 10
0.0
 20
0.0
 30
0.0
  0
POLYLINE
  5
8F
330
1F
100
AcDbEntity
  8
_U+30EC_U+30A4_U+30E4_U+30FC 1
 62
   179
420
  2234388
370
     9
100
AcDb2dPolyline
 66
     1
 10
0.0
 20
0.0
 30
0.0
  0
VERTEX
  5
90
330
8F
100
AcDbEntity
  8
_U+30EC_U+30A4_U+30E4_U+30FC 1
 62
   179
420
  2234388
370
     9
100
AcDbVertex
100
AcDb2dVertex
 10
43.7770047164889
 20
-98.87733164194721
 30
0.0
  0
VERTEX
  5
91
330
8F
100
AcDbEntity
  8
_U+30EC_U+30A4_U+30E4_U+30FC 1
 62
   179
420
  2234388
370
     9
100
AcDbVertex
100
AcDb2dVertex
 10
53.77709165322251
 20
-98.87733164194721
 30
0.0
  0
SEQEND
  5
92
330
8F
100
AcDbEntity
  8
_U+30EC_U+30A4_U+30E4_U+30FC 1
 62
   179
420
  2234388
370
     9
  0
POLYLINE
  5
93
330
1F
100
AcDbEntity
  8
_U+30EC_U+30A4_U+30E4_U+30FC 1
 62
   179
420
  2234388
370
     9
100
AcDb2dPolyline
 66
     1
 10
0.0
 20
0.0
 30
0.0
  0
VERTEX
  5
94
330
93
100
AcDbEntity
  8
_U+30EC_U+30A4_U+30E4_U+30FC 1
 62
   179
420
  2234388
370
     9
100
AcDbVertex
100
AcDb2dVertex
 10
43.7770047164889
 20
-97.41732553120103
 30
0.0
  0
VERTEX
  5
95
330
93
100
AcDbEntity
  8
_U+30EC_U+30A4_U+30E4_U+30FC 1
 62
   179
420
  2234388
370
     9
100
AcDbVertex
100
AcDb2dVertex
 10
43.7770047164889
 20
-99.87745664169752
 30
0.0
  0
SEQEND
  5
96
330
93
100
AcDbEntity
  8
_U+30EC_U+30A4_U+30E4_U+30FC 1
 62
   179
420
  2234388
370
     9
  0
POLYLINE
  5
97
330
1F
100
AcDbEntity
  8
_U+30EC_U+30A4_U+30E4_U+30FC 1
 62
   179
420
  2234388
370
     9
100
AcDb2dPolyline
 66
     1
 10
0.0
 20
0.0
 30
0.0
  0
VERTEX
  5
98
330
97
100
AcDbEntity
  8
_U+30EC_U+30A4_U+30E4_U+30FC 1
 62
   179
420
  2234388
370
     9
100
AcDbVertex
100
AcDb2dVertex
 10
53.77709165322251
 20
-97.41732553120103
 30
0.0
  0
VERTEX
  5
99
330
97
100
AcDbEntity
  8
_U+30EC_U+30A4_U+30E4_U+30FC 1
 62
   179
420
  2234388
370
     9
100
AcDbVertex
100
AcDb2dVertex
 10
53.77709165322251
 20
-99.87745664169752
 30
0.0
  0
SEQEND
  5
9A
330
97
100
AcDbEntity
  8
_U+30EC_U+30A4_U+30E4_U+30FC 1
 62
   179
420
  2234388
370
     9
  0
INSERT
  5
9C
330
1F
100
AcDbEntity
  8
_U+30EC_U+30A4_U+30E4_U+30FC 1
100
AcDbBlockReference
  2
block 3
 10
0.0
 20
0.0
 30
0.0
  0
POLYLINE
  5
A4
330
1F
100
AcDbEntity
  8
_U+30EC_U+30A4_U+30E4_U+30FC 1
 62
   179
420
  2234388
370
     9
100
AcDb2dPolyline
 66
     1
 10
0.0
 20
0.0
 30
0.0
  0
VERTEX
  5
A5
330
A4
100
AcDbEntity
  8
_U+30EC_U+30A4_U+30E4_U+30FC 1
 62
   179
420
  2234388
370
     9
100
AcDbVertex
100
AcDb2dVertex
 10
59.48249459358625
 20
-81.11511164638793
 30
0.0
  0
VERTEX
  5
A6
330
A4
100
AcDbEntity
  8
_U+30EC_U+30A4_U+30E4_U+30FC 1
 62
   179
420
  2234388
370
     9
100
AcDbVertex
100
AcDb2dVertex
 10
72.45173609299817
 20
-81.11511164638793
 30
0.0
  0
SEQEND
  5
A7
330
A4
100
AcDbEntity
  8
_U+30EC_U+30A4_U+30E4_U+30FC 1
 62
   179
420
  2234388
370
     9
  0
POLYLINE
  5
A8
330
1F
100
AcDbEntity
  8
_U+30EC_U+30A4_U+30E4_U+30FC 1
 62
   179
420
  2234388
370
     9
100
AcDb2dPolyline
 66
     1
 10
0.0
 20
0.0
 30
0.0
  0
VERTEX
  5
A9
330
A8
100
AcDbEntity
  8
_U+30EC_U+30A4_U+30E4_U+30FC 1
 62
   179
420
  2234388
370
     9
100
AcDbVertex
100
AcDb2dVertex
 10
59.48249459358625
 20
-81.11511164638793
 30
0.0
  0
VERTEX
  5
AA
330
A8
100
AcDbEntity
  8
_U+30EC_U+30A4_U+30E4_U+30FC 1
 62
   179
420
  2234388
370
     9
100
AcDbVertex
100
AcDb2dVertex
 10
57.14569465320298
 20
-87.27873914484704
 30
0.0
  0
SEQEND
  5
AB
330
A8
100
AcDbEntity
  8
_U+30EC_U+30A4_U+30E4_U+30FC 1
 62
   179
420
  2234388
370
     9
  0
POLYLINE
  5
AC
330
1F
100
AcDbEntity
  8
_U+30EC_U+30A4_U+30E4_U+30FC 1
 62
   179
420
  2234388
370
     9
100
AcDb2dPolyline
 66
     1
 10
0.0
 20
0.0
 30
0.0
  0
VERTEX
  5
AD
330
AC
100
AcDbEntity
  8
_U+30EC_U+30A4_U+30E4_U+30FC 1
 62
   179
420
  2234388
370
     9
100
AcDbVertex
100
AcDb2dVertex
 10
57.2462715950815
 20
-86.28309442287379
 30
0.0
  0
VERTEX
  5
AE
330
AC
100
AcDbEntity
  8
_U+30EC_U+30A4_U+30E4_U+30FC 1
 62
   179
420
  2234388
370
     9
100
AcDbVertex
100
AcDb2dVertex
 10
57.14569465320298
 20
-87.27873914484704
 30
0.0
  0
SEQEND
  5
AF
330
AC
100
AcDbEntity
  8
_U+30EC_U+30A4_U+30E4_U+30FC 1
 62
   179
420
  2234388
370
     9
  0
POLYLINE
  5
B0
330
1F
100
AcDbEntity
  8
_U+30EC_U+30A4_U+30E4_U+30FC 1
 62
   179
420
  2234388
370
     9
100
AcDb2dPolyline
 66
     1
 10
0.0
 20
0.0
 30
0.0
  0
VERTEX
  5
B1
330
B0
100
AcDbEntity
  8
_U+30EC_U+30A4_U+30E4_U+30FC 1
 62
   179
420
  2234388
370
     9
100
AcDbVertex
100
AcDb2dVertex
 10
57.73031943001202
 20
-86.4667152561611
 30
0.0
  0
VERTEX
  5
B2
330
B0
100
AcDbEntity
  8
_U+30EC_U+30A4_U+30E4_U+30FC 1
 62
   179
420
  2234388
370
     9
100
AcDbVertex
100
AcDb2dVertex
 10
57.14569465320298
 20
-87.27873914484704
 30
0.0
  0
SEQEND
  5
B3
330
B0
100
AcDbEntity
  8
_U+30EC_U+30A4_U+30E4_U+30FC 1
 62
   179
420
  2234388
370
     9
  0
INSERT
  5
B5
330
1F
100
AcDbEntity
  8
_U+30EC_U+30A4_U+30E4_U+30FC 1
100
AcDbBlockReference
  2
block 4
 10
0.0
 20
0.0
 30
0.0
  0
INSERT
  5
104
330
1F
100
AcDbEntity
  8
_U+30EC_U+30A4_U+30E4_U+30FC 1
100
AcDbBlockReference
  2
block 5
 10
0.0
 20
0.0
 30
0.0
  0
INSERT
  5
127
330
1F
100
AcDbEntity
  8
_U+30EC_U+30A4_U+30E4_U+30FC 1
100
AcDbBlockReference
  2
block 6
 10
0.0
 20
0.0
 30
0.0
  0
ENDSEC
  0
SECTION
  2
OBJECTS
  0
DICTIONARY
  5
C
330
0
100
AcDbDictionary
281
     1
  3
ACAD_GROUP
350
D
  3
ACAD_LAYOUT
350
1A
  3
ACAD_MATERIAL
350
3B
  3
ACAD_MLEADERSTYLE
350
145
  3
ACAD_MLINESTYLE
350
17
  3
ACAD_PLOTSETTINGS
350
19
  3
ACAD_PLOTSTYLENAME
350
E
  3
ACAD_TABLESTYLE
350
144
  3
ACAD_VISUALSTYLE
350
2A
  0
SUN
  5
3F
330
29
100
AcDbSun
 90
        1
290
     0
 63
     7
421
 16777215
 40
1.0
291
     1
 91
  2455826
 92
 54000000
292
     0
 70
     2
 71
   256
280
     1
  0
DICTIONARY
  5
D
102
{ACAD_REACTORS
330
C
102
}
330
C
100
AcDbDictionary
281
     1
  0
DICTIONARY
  5
1A
102
{ACAD_REACTORS
330
C
102
}
330
C
100
AcDbDictionary
281
     1
  3
Layout1
350
1E
  3
Layout2
350
26
  3
Model
350
22
  0
DICTIONARY
  5
3B
102
{ACAD_REACTORS
330
C
102
}
330
C
100
AcDbDictionary
281
     1
  3
ByBlock
350
3D
  3
ByLayer
350
3C
  3
Global
350
3E
  0
DICTIONARY
  5
145
102
{ACAD_REACTORS
330
C
102
}
330
C
100
AcDbDictionary
281
     1
  0
DICTIONARY
  5
17
102
{ACAD_REACTORS
330
C
102
}
330
C
100
AcDbDictionary
281
     1
  3
Standard
350
18
  0
DICTIONARY
  5
19
102
{ACAD_REACTORS
330
C
102
}
330
C
100
AcDbDictionary
281
     1
  0
ACDBDICTIONARYWDFLT
  5
E
102
{ACAD_REACTORS
330
C
102
}
330
C
100
AcDbDictionary
281
     1
  3
Normal
350
F
100
AcDbDictionaryWithDefault
340
F
  0
DICTIONARY
  5
144
102
{ACAD_REACTORS
330
C
102
}
330
C
100
AcDbDictionary
281
     1
  0
DICTIONARY
  5
2A
102
{ACAD_REACTORS
330
C
102
}
330
C
100
AcDbDictionary
281
     1
  3
2dWireframe
350
2F
  3
3D Hidden
350
31
  3
3dWireframe
350
30
  3
Basic
350
32
  3
Brighten
350
36
  3
ColorChange
350
3A
  3
Conceptual
350
34
  3
Dim
350
35
  3
Facepattern
350
39
  3
Flat
350
2B
  3
FlatWithEdges
350
2C
  3
Gouraud
350
2D
  3
GouraudWithEdges
350
2E
  3
Linepattern
350
38
  3
Realistic
350
33
  3
Thicken
350
37
  0
LAYOUT
  5
1E
102
{ACAD_REACTORS
330
1A
102
}
330
1A
100
AcDbPlotSettings
  1

  2
none_device
  4

  6

 40
0.0
 41
0.0
 42
0.0
 43
0.0
 44
0.0
 45
0.0
 46
0.0
 47
0.0
 48
0.0
 49
0.0
140
0.0
141
0.0
142
1.0
143
1.0
 70
   688
 72
     0
 73
     0
 74
     5
  7

 75
    16
 76
     0
 77
     2
 78
   300
147
1.0
148
0.0
149
0.0
100
AcDbLayout
  1
Layout1
 70
     1
 71
     1
 10
0.0
 20
0.0
 11
12.0
 21
9.0
 12
0.0
 22
0.0
 32
0.0
 14
1.000000000000000E+20
 24
1.000000000000000E+20
 34
1.000000000000000E+20
 15
-1.000000000000000E+20
 25
-1.000000000000000E+20
 35
-1.000000000000000E+20
146
0.0
 13
0.0
 23
0.0
 33
0.0
 16
1.0
 26
0.0
 36
0.0
 17
0.0
 27
1.0
 37
0.0
 76
     0
330
1B
  0
LAYOUT
  5
26
102
{ACAD_REACTORS
330
1A
102
}
330
1A
100
AcDbPlotSettings
  1

  2
none_device
  4

  6

 40
0.0
 41
0.0
 42
0.0
 43
0.0
 44
0.0
 45
0.0
 46
0.0
 47
0.0
 48
0.0
 49
0.0
140
0.0
141
0.0
142
1.0
143
1.0
 70
   688
 72
     0
 73
     0
 74
     5
  7

 75
    16
 76
     0
 77
     2
 78
   300
147
1.0
148
0.0
149
0.0
100
AcDbLayout
  1
Layout2
 70
     1
 71
     2
 10
0.0
 20
0.0
 11
0.0
 21
0.0
 12
0.0
 22
0.0
 32
0.0
 14
0.0
 24
0.0
 34
0.0
 15
0.0
 25
0.0
 35
0.0
146
0.0
 13
0.0
 23
0.0
 33
0.0
 16
1.0
 26
0.0
 36
0.0
 17
0.0
 27
1.0
 37
0.0
 76
     0
330
23
  0
LAYOUT
  5
22
102
{ACAD_REACTORS
330
1A
102
}
330
1A
100
AcDbPlotSettings
  1

  2
none_device
  4

  6

 40
0.0
 41
0.0
 42
0.0
 43
0.0
 44
0.0
 45
0.0
 46
0.0
 47
0.0
 48
0.0
 49
0.0
140
0.0
141
0.0
142
1.0
143
1.0
 70
  1712
 72
     0
 73
     0
 74
     0
  7

 75
     0
 76
     0
 77
     2
 78
   300
147
1.0
148
0.0
149
0.0
100
AcDbLayout
  1
Model
 70
     1
 71
     0
 10
0.0
 20
0.0
 11
12.0
 21
9.0
 12
0.0
 22
0.0
 32
0.0
 14
1.000000000000000E+20
 24
1.000000000000000E+20
 34
1.000000000000000E+20
 15
-1.000000000000000E+20
 25
-1.000000000000000E+20
 35
-1.000000000000000E+20
146
0.0
 13
0.0
 23
0.0
 33
0.0
 16
1.0
 26
0.0
 36
0.0
 17
0.0
 27
1.0
 37
0.0
 76
     0
330
1F
331
29
  0
MATERIAL
  5
3D
102
{ACAD_REACTORS
330
3B
102
}
330
3B
100
AcDbMaterial
  1
ByBlock
 72
     1
 94
      127
  0
MATERIAL
  5
3C
102
{ACAD_REACTORS
330
3B
102
}
330
3B
100
AcDbMaterial
  1
ByLayer
 72
     1
 94
      127
  0
MATERIAL
  5
3E
102
{ACAD_REACTORS
330
3B
102
}
330
3B
100
AcDbMaterial
  1
Global
 72
     1
 94
      127
  0
MLINESTYLE
  5
18
102
{ACAD_REACTORS
330
17
102
}
330
17
100
AcDbMlineStyle
  2
Standard
 70
     0
  3

 62
   256
 51
90.0
 52
90.0
 71
     2
 49
0.5
 62
   256
  6
BYLAYER
 49
-0.5
 62
   256
  6
BYLAYER
  0
ACDBPLACEHOLDER
  5
F
102
{ACAD_REACTORS
330
E
102
}
330
E
  0
VISUALSTYLE
  5
2F
102
{ACAD_REACTORS
330
2A
102
}
330
2A
100
AcDbVisualStyle
  2
2dWireframe
 70
     4
177
     2
291
     0
 71
     0
176
     1
 72
     2
176
     1
 73
     0
176
     1
 90
        0
176
     1
 40
-0.6
176
     1
 41
-30.0
176
     1
 62
     5
 63
     7
421
 16777215
176
     1
 74
     1
176
     1
 91
        4
176
     1
 64
     7
176
     1
 65
   257
176
     1
 75
     1
176
     1
175
     1
176
     1
 42
1.0
176
     1
 92
        0
176
     1
 66
   257
176
     1
 43
1.0
176
     1
 76
     1
176
     1
 77
     6
176
     1
 78
     2
176
     1
 67
     7
176
     1
 79
     5
176
     1
170
     0
176
     1
171
     0
176
     1
290
     0
176
     1
 93
        1
176
     1
 44
0.0
176
     1
173
     0
176
     1
  0
VISUALSTYLE
  5
31
102
{ACAD_REACTORS
330
2A
102
}
330
2A
100
AcDbVisualStyle
  2
3D Hidden
 70
     6
177
     2
291
     0
 71
     1
176
     1
 72
     2
176
     1
 73
     2
176
     1
 90
        0
176
     1
 40
-0.6
176
     1
 41
-30.0
176
     1
 62
     5
 63
     7
421
 16777215
176
     1
 74
     2
176
     1
 91
        2
176
     1
 64
     7
176
     1
 65
   257
176
     1
 75
     2
176
     1
175
     1
176
     1
 42
40.0
176
     1
 92
        0
176
     1
 66
   257
176
     1
 43
1.0
176
     1
 76
     1
176
     1
 77
     6
176
     1
 78
     2
176
     1
 67
     7
176
     1
 79
     3
176
     1
170
     0
176
     1
171
     0
176
     1
290
     0
176
     1
 93
        1
176
     1
 44
0.0
176
     1
173
     0
176
     1
  0
VISUALSTYLE
  5
30
102
{ACAD_REACTORS
330
2A
102
}
330
2A
100
AcDbVisualStyle
  2
3dWireframe
 70
     5
177
     2
291
     0
 71
     0
176
     1
 72
     2
176
     1
 73
     0
176
     1
 90
        0
176
     1
 40
-0.6
176
     1
 41
-30.0
176
     1
 62
     5
 63
     7
421
 16777215
176
     1
 74
     1
176
     1
 91
        4
176
     1
 64
     7
176
     1
 65
   257
176
     1
 75
     1
176
     1
175
     1
176
     1
 42
1.0
176
     1
 92
        0
176
     1
 66
   257
176
     1
 43
1.0
176
     1
 76
     1
176
     1
 77
     6
176
     1
 78
     2
176
     1
 67
     7
176
     1
 79
     5
176
     1
170
     0
176
     1
171
     0
176
     1
290
     0
176
     1
 93
        1
176
     1
 44
0.0
176
     1
173
     0
176
     1
  0
VISUALSTYLE
  5
32
102
{ACAD_REACTORS
330
2A
102
}
330
2A
100
AcDbVisualStyle
  2
Basic
 70
     7
177
     2
291
     1
 71
     1
176
     1
 72
     0
176
     1
 73
     1
176
     1
 90
        0
176
     1
 40
-0.6
176
     1
 41
-30.0
176
     1
 62
     5
 63
     7
421
 16777215
176
     1
 74
     0
176
     1
 91
        4
176
     1
 64
     7
176
     1
 65
   257
176
     1
 75
     1
176
     1
175
     1
176
     1
 42
1.0
176
     1
 92
        8
176
     1
 66
     7
176
     1
 43
1.0
176
     1
 76
     1
176
     1
 77
     6
176
     1
 78
     2
176
     1
 67
     7
176
     1
 79
     5
176
     1
170
     0
176
     1
171
     0
176
     1
290
     0
176
     1
 93
        1
176
     1
 44
0.0
176
     1
173
     0
176
     1
  0
VISUALSTYLE
  5
36
102
{ACAD_REACTORS
330
2A
102
}
330
2A
100
AcDbVisualStyle
  2
Brighten
 70
    12
177
     2
291
     1
 71
     2
176
     1
 72
     2
176
     1
 73
     0
176
     1
 90
        0
176
     1
 40
-0.6
176
     1
 41
-30.0
176
     1
 62
     5
 63
     7
421
 16777215
176
     1
 74
     1
176
     1
 91
        4
176
     1
 64
     7
176
     1
 65
   257
176
     1
 75
     1
176
     1
175
     1
176
     1
 42
1.0
176
     1
 92
        8
176
     1
 66
     7
176
     1
 43
1.0
176
     1
 76
     1
176
     1
 77
     6
176
     1
 78
     2
176
     1
 67
     7
176
     1
 79
     5
176
     1
170
     0
176
     1
171
     0
176
     1
290
     0
176
     1
 93
        1
176
     1
 44
50.0
176
     1
173
     0
176
     1
  0
VISUALSTYLE
  5
3A
102
{ACAD_REACTORS
330
2A
102
}
330
2A
100
AcDbVisualStyle
  2
ColorChange
 70
    16
177
     2
291
     1
 71
     2
176
     1
 72
     2
176
     1
 73
     3
176
     1
 90
        0
176
     1
 40
-0.6
176
     1
 41
-30.0
176
     1
 62
     5
 63
     8
421
  8421504
176
     1
 74
     1
176
     1
 91
        4
176
     1
 64
     7
176
     1
 65
   257
176
     1
 75
     1
176
     1
175
     1
176
     1
 42
1.0
176
     1
 92
        8
176
     1
 66
     8
424
  8421504
176
     1
 43
1.0
176
     1
 76
     1
176
     1
 77
     6
176
     1
 78
     2
176
     1
 67
     7
176
     1
 79
     5
176
     1
170
     0
176
     1
171
     0
176
     1
290
     0
176
     1
 93
        1
176
     1
 44
0.0
176
     1
173
     0
176
     1
  0
VISUALSTYLE
  5
34
102
{ACAD_REACTORS
330
2A
102
}
330
2A
100
AcDbVisualStyle
  2
Conceptual
 70
     9
177
     2
291
     0
 71
     3
176
     1
 72
     2
176
     1
 73
     0
176
     1
 90
        0
176
     1
 40
-0.6
176
     1
 41
-30.0
176
     1
 62
     5
 63
     7
421
 16777215
176
     1
 74
     2
176
     1
 91
        2
176
     1
 64
     7
176
     1
 65
   257
176
     1
 75
     1
176
     1
175
     1
176
     1
 42
40.0
176
     1
 92
        8
176
     1
 66
     7
176
     1
 43
1.0
176
     1
 76
     1
176
     1
 77
     6
176
     1
 78
     2
176
     1
 67
     7
176
     1
 79
     3
176
     1
170
     0
176
     1
171
     0
176
     1
290
     0
176
     1
 93
        1
176
     1
 44
0.0
176
     1
173
     0
176
     1
  0
VISUALSTYLE
  5
35
102
{ACAD_REACTORS
330
2A
102
}
330
2A
100
AcDbVisualStyle
  2
Dim
 70
    11
177
     2
291
     1
 71
     2
176
     1
 72
     2
176
     1
 73
     0
176
     1
 90
        0
176
     1
 40
-0.6
176
     1
 41
-30.0
176
     1
 62
     5
 63
     7
421
 16777215
176
     1
 74
     1
176
     1
 91
        4
176
     1
 64
     7
176
     1
 65
   257
176
     1
 75
     1
176
     1
175
     1
176
     1
 42
1.0
176
     1
 92
        8
176
     1
 66
     7
176
     1
 43
1.0
176
     1
 76
     1
176
     1
 77
     6
176
     1
 78
     2
176
     1
 67
     7
176
     1
 79
     5
176
     1
170
     0
176
     1
171
     0
176
     1
290
     0
176
     1
 93
        1
176
     1
 44
-50.0
176
     1
173
     0
176
     1
  0
VISUALSTYLE
  5
39
102
{ACAD_REACTORS
330
2A
102
}
330
2A
100
AcDbVisualStyle
  2
Facepattern
 70
    15
177
     2
291
     1
 71
     2
176
     1
 72
     2
176
     1
 73
     0
176
     1
 90
        0
176
     1
 40
-0.6
176
     1
 41
-30.0
176
     1
 62
     5
 63
     7
421
 16777215
176
     1
 74
     1
176
     1
 91
        4
176
     1
 64
     7
176
     1
 65
   257
176
     1
 75
     1
176
     1
175
     1
176
     1
 42
1.0
176
     1
 92
        8
176
     1
 66
     7
176
     1
 43
1.0
176
     1
 76
     1
176
     1
 77
     6
176
     1
 78
     2
176
     1
 67
     7
176
     1
 79
     5
176
     1
170
     0
176
     1
171
     0
176
     1
290
     0
176
     1
 93
        1
176
     1
 44
0.0
176
     1
173
     0
176
     1
  0
VISUALSTYLE
  5
2B
102
{ACAD_REACTORS
330
2A
102
}
330
2A
100
AcDbVisualStyle
  2
Flat
 70
     0
177
     2
291
     1
 71
     2
176
     1
 72
     1
176
     1
 73
     1
176
     1
 90
        2
176
     1
 40
-0.6
176
     1
 41
30.0
176
     1
 62
     5
 63
     7
421
 16777215
176
     1
 74
     0
176
     1
 91
        4
176
     1
 64
     7
176
     1
 65
   257
176
     1
 75
     1
176
     1
175
     1
176
     1
 42
1.0
176
     1
 92
        8
176
     1
 66
     7
176
     1
 43
1.0
176
     1
 76
     1
176
     1
 77
     6
176
     1
 78
     2
176
     1
 67
     7
176
     1
 79
     5
176
     1
170
     0
176
     1
171
     0
176
     1
290
     0
176
     1
 93
       13
176
     1
 44
0.0
176
     1
173
     0
176
     1
  0
VISUALSTYLE
  5
2C
102
{ACAD_REACTORS
330
2A
102
}
330
2A
100
AcDbVisualStyle
  2
FlatWithEdges
 70
     1
177
     2
291
     1
 71
     2
176
     1
 72
     1
176
     1
 73
     1
176
     1
 90
        2
176
     1
 40
-0.6
176
     1
 41
30.0
176
     1
 62
     5
 63
     7
421
 16777215
176
     1
 74
     1
176
     1
 91
        4
176
     1
 64
     7
176
     1
 65
   257
176
     1
 75
     1
176
     1
175
     1
176
     1
 42
1.0
176
     1
 92
        0
176
     1
 66
   257
176
     1
 43
1.0
176
     1
 76
     1
176
     1
 77
     6
176
     1
 78
     2
176
     1
 67
     7
176
     1
 79
     5
176
     1
170
     0
176
     1
171
     0
176
     1
290
     0
176
     1
 93
       13
176
     1
 44
0.0
176
     1
173
     0
176
     1
  0
VISUALSTYLE
  5
2D
102
{ACAD_REACTORS
330
2A
102
}
330
2A
100
AcDbVisualStyle
  2
Gouraud
 70
     2
177
     2
291
     1
 71
     2
176
     1
 72
     2
176
     1
 73
     1
176
     1
 90
        2
176
     1
 40
-0.6
176
     1
 41
30.0
176
     1
 62
     5
 63
     7
421
 16777215
176
     1
 74
     0
176
     1
 91
        4
176
     1
 64
     7
176
     1
 65
   257
176
     1
 75
     1
176
     1
175
     1
176
     1
 42
1.0
176
     1
 92
        0
176
     1
 66
     7
176
     1
 43
1.0
176
     1
 76
     1
176
     1
 77
     6
176
     1
 78
     2
176
     1
 67
     7
176
     1
 79
     5
176
     1
170
     0
176
     1
171
     0
176
     1
290
     0
176
     1
 93
       13
176
     1
 44
0.0
176
     1
173
     0
176
     1
  0
VISUALSTYLE
  5
2E
102
{ACAD_REACTORS
330
2A
102
}
330
2A
100
AcDbVisualStyle
  2
GouraudWithEdges
 70
     3
177
     2
291
     1
 71
     2
176
     1
 72
     2
176
     1
 73
     1
176
     1
 90
        2
176
     1
 40
-0.6
176
     1
 41
30.0
176
     1
 62
     5
 63
     7
421
 16777215
176
     1
 74
     1
176
     1
 91
        4
176
     1
 64
     7
176
     1
 65
   257
176
     1
 75
     1
176
     1
175
     1
176
     1
 42
1.0
176
     1
 92
        0
176
     1
 66
   257
176
     1
 43
1.0
176
     1
 76
     1
176
     1
 77
     6
176
     1
 78
     2
176
     1
 67
     7
176
     1
 79
     5
176
     1
170
     0
176
     1
171
     0
176
     1
290
     0
176
     1
 93
       13
176
     1
 44
0.0
176
     1
173
     0
176
     1
  0
VISUALSTYLE
  5
38
102
{ACAD_REACTORS
330
2A
102
}
330
2A
100
AcDbVisualStyle
  2
Linepattern
 70
    14
177
     2
291
     1
 71
     2
176
     1
 72
     2
176
     1
 73
     0
176
     1
 90
        0
176
     1
 40
-0.6
176
     1
 41
-30.0
176
     1
 62
     5
 63
     7
421
 16777215
176
     1
 74
     1
176
     1
 91
        4
176
     1
 64
     7
176
     1
 65
   257
176
     1
 75
     7
176
     1
175
     7
176
     1
 42
1.0
176
     1
 92
        8
176
     1
 66
     7
176
     1
 43
1.0
176
     1
 76
     1
176
     1
 77
     6
176
     1
 78
     2
176
     1
 67
     7
176
     1
 79
     5
176
     1
170
     0
176
     1
171
     0
176
     1
290
     0
176
     1
 93
        1
176
     1
 44
0.0
176
     1
173
     0
176
     1
  0
VISUALSTYLE
  5
33
102
{ACAD_REACTORS
330
2A
102
}
330
2A
100
AcDbVisualStyle
  2
Realistic
 70
     8
177
     2
291
     0
 71
     2
176
     1
 72
     2
176
     1
 73
     0
176
     1
 90
        0
176
     1
 40
-0.6
176
     1
 41
-30.0
176
     1
 62
     5
 63
     7
421
 16777215
176
     1
 74
     1
176
     1
 91
        0
176
     1
 64
     7
176
     1
 65
   257
176
     1
 75
     1
176
     1
175
     1
176
     1
 42
1.0
176
     1
 92
        8
176
     1
 66
     8
424
  7895160
176
     1
 43
1.0
176
     1
 76
     1
176
     1
 77
     6
176
     1
 78
     2
176
     1
 67
     7
176
     1
 79
     5
176
     1
170
     0
176
     1
171
     0
176
     1
290
     0
176
     1
 93
       13
176
     1
 44
0.0
176
     1
173
     0
176
     1
  0
VISUALSTYLE
  5
37
102
{ACAD_REACTORS
330
2A
102
}
330
2A
100
AcDbVisualStyle
  2
Thicken
 70
    13
177
     2
291
     1
 71
     2
176
     1
 72
     2
176
     1
 73
     0
176
     1
 90
        0
176
     1
 40
-0.6
176
     1
 41
-30.0
176
     1
 62
     5
 63
     7
421
 16777215
176
     1
 74
     1
176
     1
 91
        4
176
     1
 64
     7
176
     1
 65
   257
176
     1
 75
     1
176
     1
175
     1
176
     1
 42
1.0
176
     1
 92
       12
176
     1
 66
     7
176
     1
 43
1.0
176
     1
 76
     1
176
     1
 77
     6
176
     1
 78
     2
176
     1
 67
     7
176
     1
 79
     5
176
     1
170
     0
176
     1
171
     0
176
     1
290
     0
176
     1
 93
        1
176
     1
 44
0.0
176
     1
173
     0
176
     1
  0
ENDSEC
  0
EOF
