  0
SECTION
  2
HEADER
  9
$ACADVER
  1
AC1024
  9
$ACADMAINTVER
 70
     6
  9
$DWGCODEPAGE
  3
UNDEFINED
  9
$INSBASE
 10
0.0
 20
0.0
 30
0.0
  9
$EXTMIN
 10
1.000000000000000E+20
 20
1.000000000000000E+20
 30
1.000000000000000E+20
  9
$EXTMAX
 10
-1.000000000000000E+20
 20
-1.000000000000000E+20
 30
-1.000000000000000E+20
  9
$LIMMIN
 10
0.0
 20
0.0
  9
$LIMMAX
 10
12.0
 20
9.0
  9
$ORTHOMODE
 70
     0
  9
$REGENMODE
 70
     1
  9
$FILLMODE
 70
     1
  9
$QTEXTMODE
 70
     0
  9
$MIRRTEXT
 70
     1
  9
$LTSCALE
 40
1.0
  9
$ATTMODE
 70
     1
  9
$TEXTSIZE
 40
0.2
  9
$TRACEWID
 40
0.05
  9
$TEXTSTYLE
  7
Standard
  9
$CLAYER
  8
0
  9
$CELTYPE
  6
ByLayer
  9
$CECOLOR
 62
   256
  9
$CELTSCALE
 40
1.0
  9
$DISPSILH
 70
     0
  9
$DIMSCALE
 40
1.0
  9
$DIMASZ
 40
0.18
  9
$DIMEXO
 40
0.0625
  9
$DIMDLI
 40
0.38
  9
$DIMRND
 40
0.0
  9
$DIMDLE
 40
0.0
  9
$DIMEXE
 40
0.18
  9
$DIMTP
 40
0.0
  9
$DIMTM
 40
0.0
  9
$DIMTXT
 40
0.18
  9
$DIMCEN
 40
0.09
  9
$DIMTSZ
 40
0.0
  9
$DIMTOL
 70
     0
  9
$DIMLIM
 70
     0
  9
$DIMTIH
 70
     1
  9
$DIMTOH
 70
     1
  9
$DIMSE1
 70
     0
  9
$DIMSE2
 70
     0
  9
$DIMTAD
 70
     0
  9
$DIMZIN
 70
     0
  9
$DIMBLK
  1

  9
$DIMASO
 70
     1
  9
$DIMSHO
 70
     1
  9
$DIMPOST
  1

  9
$DIMAPOST
  1

  9
$DIMALT
 70
     0
  9
$DIMALTD
 70
     2
  9
$DIMALTF
 40
25.4
  9
$DIMLFAC
 40
1.0
  9
$DIMTOFL
 70
     0
  9
$DIMTVP
 40
0.0
  9
$DIMTIX
 70
     0
  9
$DIMSOXD
 70
     0
  9
$DIMSAH
 70
     0
  9
$DIMBLK1
  1

  9
$DIMBLK2
  1

  9
$DIMSTYLE
  2
Standard
  9
$DIMCLRD
 70
     0
  9
$DIMCLRE
 70
     0
  9
$DIMCLRT
 70
     0
  9
$DIMTFAC
 40
1.0
  9
$DIMGAP
 40
0.09
  9
$DIMJUST
 70
     0
  9
$DIMSD1
 70
     0
  9
$DIMSD2
 70
     0
  9
$DIMTOLJ
 70
     1
  9
$DIMTZIN
 70
     0
  9
$DIMALTZ
 70
     0
  9
$DIMALTTZ
 70
     0
  9
$DIMUPT
 70
     0
  9
$DIMDEC
 70
     4
  9
$DIMTDEC
 70
     4
  9
$DIMALTU
 70
     2
  9
$DIMALTTD
 70
     2
  9
$DIMTXSTY
  7
Standard
  9
$DIMAUNIT
 70
     0
  9
$DIMADEC
 70
     0
  9
$DIMALTRND
 40
0.0
  9
$DIMAZIN
 70
     0
  9
$DIMDSEP
 70
    46
  9
$DIMATFIT
 70
     3
  9
$DIMFRAC
 70
     0
  9
$DIMLDRBLK
  1

  9
$DIMLUNIT
 70
     2
  9
$DIMLWD
 70
    -2
  9
$DIMLWE
 70
    -2
  9
$DIMTMOVE
 70
     0
  9
$DIMFXL
 40
1.0
  9
$DIMFXLON
 70
     0
  9
$DIMJOGANG
 40
0.7853981633974483
  9
$DIMTFILL
 70
     0
  9
$DIMTFILLCLR
 70
     0
  9
$DIMARCSYM
 70
     0
  9
$DIMLTYPE
  6

  9
$DIMLTEX1
  6

  9
$DIMLTEX2
  6

  9
$DIMTXTDIRECTION
 70
     0
  9
$LUNITS
 70
     2
  9
$LUPREC
 70
     4
  9
$SKETCHINC
 40
0.1
  9
$FILLETRAD
 40
0.5
  9
$AUNITS
 70
     0
  9
$AUPREC
 70
     0
  9
$MENU
  1
.
  9
$ELEVATION
 40
0.0
  9
$PELEVATION
 40
0.0
  9
$THICKNESS
 40
0.0
  9
$LIMCHECK
 70
     0
  9
$CHAMFERA
 40
0.5
  9
$CHAMFERB
 40
0.5
  9
$CHAMFERC
 40
1.0
  9
$CHAMFERD
 40
0.0
  9
$SKPOLY
 70
     0
  9
$TDCREATE
 40
2458263.574826389
  9
$TDUCREATE
 40
2458263.199826389
  9
$TDUPDATE
 40
2458263.574826389
  9
$TDUUPDATE
 40
2458263.199826389
  9
$TDINDWG
 40
0.0000000116
  9
$TDUSRTIMER
 40
0.0000000116
  9
$USRTIMER
 70
     1
  9
$ANGBASE
 50
0.0
  9
$ANGDIR
 70
     0
  9
$PDMODE
 70
     0
  9
$PDSIZE
 40
0.0
  9
$PLINEWID
 40
0.0
  9
$SPLFRAME
 70
     0
  9
$SPLINETYPE
 70
     6
  9
$SPLINESEGS
 70
     8
  9
$HANDSEED
  5
A9
  9
$SURFTAB1
 70
     6
  9
$SURFTAB2
 70
     6
  9
$SURFTYPE
 70
     6
  9
$SURFU
 70
     6
  9
$SURFV
 70
     6
  9
$UCSBASE
  2

  9
$UCSNAME
  2

  9
$UCSORG
 10
0.0
 20
0.0
 30
0.0
  9
$UCSXDIR
 10
1.0
 20
0.0
 30
0.0
  9
$UCSYDIR
 10
0.0
 20
1.0
 30
0.0
  9
$UCSORTHOREF
  2

  9
$UCSORTHOVIEW
 70
     0
  9
$UCSORGTOP
 10
0.0
 20
0.0
 30
0.0
  9
$UCSORGBOTTOM
 10
0.0
 20
0.0
 30
0.0
  9
$UCSORGLEFT
 10
0.0
 20
0.0
 30
0.0
  9
$UCSORGRIGHT
 10
0.0
 20
0.0
 30
0.0
  9
$UCSORGFRONT
 10
0.0
 20
0.0
 30
0.0
  9
$UCSORGBACK
 10
0.0
 20
0.0
 30
0.0
  9
$PUCSBASE
  2

  9
$PUCSNAME
  2

  9
$PUCSORG
 10
0.0
 20
0.0
 30
0.0
  9
$PUCSXDIR
 10
1.0
 20
0.0
 30
0.0
  9
$PUCSYDIR
 10
0.0
 20
1.0
 30
0.0
  9
$PUCSORTHOREF
  2

  9
$PUCSORTHOVIEW
 70
     0
  9
$PUCSORGTOP
 10
0.0
 20
0.0
 30
0.0
  9
$PUCSORGBOTTOM
 10
0.0
 20
0.0
 30
0.0
  9
$PUCSORGLEFT
 10
0.0
 20
0.0
 30
0.0
  9
$PUCSORGRIGHT
 10
0.0
 20
0.0
 30
0.0
  9
$PUCSORGFRONT
 10
0.0
 20
0.0
 30
0.0
  9
$PUCSORGBACK
 10
0.0
 20
0.0
 30
0.0
  9
$USERI1
 70
     0
  9
$USERI2
 70
     0
  9
$USERI3
 70
     0
  9
$USERI4
 70
     0
  9
$USERI5
 70
     0
  9
$USERR1
 40
0.0
  9
$USERR2
 40
0.0
  9
$USERR3
 40
0.0
  9
$USERR4
 40
0.0
  9
$USERR5
 40
0.0
  9
$WORLDVIEW
 70
     1
  9
$SHADEDGE
 70
     3
  9
$SHADEDIF
 70
    70
  9
$TILEMODE
 70
     1
  9
$MAXACTVP
 70
    64
  9
$PINSBASE
 10
0.0
 20
0.0
 30
0.0
  9
$PLIMCHECK
 70
     0
  9
$PEXTMIN
 10
1.000000000000000E+20
 20
1.000000000000000E+20
 30
1.000000000000000E+20
  9
$PEXTMAX
 10
-1.000000000000000E+20
 20
-1.000000000000000E+20
 30
-1.000000000000000E+20
  9
$PLIMMIN
 10
0.0
 20
0.0
  9
$PLIMMAX
 10
12.0
 20
9.0
  9
$UNITMODE
 70
     0
  9
$VISRETAIN
 70
     1
  9
$PLINEGEN
 70
     0
  9
$PSLTSCALE
 70
     1
  9
$TREEDEPTH
 70
  3020
  9
$CMLSTYLE
  2
Standard
  9
$CMLJUST
 70
     0
  9
$CMLSCALE
 40
1.0
  9
$PROXYGRAPHICS
 70
     1
  9
$MEASUREMENT
 70
     0
  9
$CELWEIGHT
370
    -1
  9
$ENDCAPS
280
     0
  9
$JOINSTYLE
280
     0
  9
$LWDISPLAY
290
     1
  9
$INSUNITS
 70
     1
  9
$HYPERLINKBASE
  1

  9
$STYLESHEET
  1

  9
$XEDIT
290
     1
  9
$CEPSNTYPE
380
     0
  9
$PSTYLEMODE
290
     1
  9
$FINGERPRINTGUID
  2
{01C42AFB-2D97-E613-0903-BA25600F5748}
  9
$VERSIONGUID
  2
{FAEB1C32-E019-11D5-929B-00C0DF256EC4}
  9
$EXTNAMES
290
     1
  9
$PSVPSCALE
 40
0.0
  9
$OLESTARTUP
290
     0
  9
$SORTENTS
280
   127
  9
$INDEXCTL
280
     0
  9
$HIDETEXT
280
     1
  9
$XCLIPFRAME
280
     2
  9
$HALOGAP
280
     0
  9
$OBSCOLOR
 70
   257
  9
$OBSLTYPE
280
     0
  9
$INTERSECTIONDISPLAY
280
     0
  9
$INTERSECTIONCOLOR
 70
   257
  9
$DIMASSOC
280
     2
  9
$PROJECTNAME
  1

  9
$CAMERADISPLAY
290
     0
  9
$LENSLENGTH
 40
50.0
  9
$CAMERAHEIGHT
 40
0.0
  9
$STEPSPERSEC
 40
2.0
  9
$STEPSIZE
 40
6.0
  9
$3DDWFPREC
 40
2.0
  9
$PSOLWIDTH
 40
0.25
  9
$PSOLHEIGHT
 40
4.0
  9
$LOFTANG1
 40
1.570796326794897
  9
$LOFTANG2
 40
1.570796326794897
  9
$LOFTMAG1
 40
0.0
  9
$LOFTMAG2
 40
0.0
  9
$LOFTPARAM
 70
     7
  9
$LOFTNORMALS
280
     1
  9
$LATITUDE
 40
37.795
  9
$LONGITUDE
 40
-122.394
  9
$NORTHDIRECTION
 40
0.0
  9
$TIMEZONE
 70
 -8000
  9
$LIGHTGLYPHDISPLAY
280
     1
  9
$TILEMODELIGHTSYNCH
280
     1
  9
$CMATERIAL
347
3C
  9
$SOLIDHIST
280
     1
  9
$SHOWHIST
280
     1
  9
$DWFFRAME
280
     2
  9
$DGNFRAME
280
     2
  9
$REALWORLDSCALE
290
     1
  9
$INTERFERECOLOR
 62
   256
  9
$CSHADOW
280
     0
  9
$SHADOWPLANELOCATION
 40
0.0
  0
ENDSEC
  0
SECTION
  2
CLASSES
  0
CLASS
  1
ACDBDICTIONARYWDFLT
  2
AcDbDictionaryWithDefault
  3
ObjectDBX Classes
 90
        0
 91
        4
280
     0
281
     0
  0
CLASS
  1
VISUALSTYLE
  2
AcDbVisualStyle
  3
ObjectDBX Classes
 90
     4095
 91
        4
280
     0
281
     0
  0
CLASS
  1
MATERIAL
  2
AcDbMaterial
  3
ObjectDBX Classes
 90
     1153
 91
        4
280
     0
281
     0
  0
CLASS
  1
SUN
  2
AcDbSun
  3
SCENEOE
 90
     1024
 91
        4
280
     0
281
     0
  0
ENDSEC
  0
SECTION
  2
TABLES
  0
TABLE
  2
VPORT
  5
8
330
0
100
AcDbSymbolTable
 70
     1
  0
VPORT
  5
29
330
8
100
AcDbSymbolTableRecord
100
AcDbViewportTableRecord
  2
*Active
 70
     0
 10
0.0
 20
0.0
 11
1.0
 21
1.0
 12
0.0
 22
0.0
 13
0.0
 23
0.0
 14
0.5
 24
0.5
 15
0.5
 25
0.5
 16
0.0
 26
0.0
 36
1.0
 17
105.0007777515277
 27
-148.5000416295416
 37
0.0
 40
297.0000832590831
 41
0.7070757462376333
 42
50.0
 43
0.0
 44
0.0
 50
0.0
 51
0.0
 71
     0
 72
   100
 73
     1
 74
     3
 75
     0
 76
     0
 77
     0
 78
     0
281
     0
 65
     1
110
0.0
120
0.0
130
0.0
111
1.0
121
0.0
131
0.0
112
0.0
122
1.0
132
0.0
 79
     0
146
0.0
 60
     3
 61
     5
292
     1
282
     1
141
0.0
142
0.0
 63
   250
361
3F
  0
ENDTAB
  0
TABLE
  2
LTYPE
  5
5
330
0
100
AcDbSymbolTable
 70
     1
  0
LTYPE
  5
14
330
5
100
AcDbSymbolTableRecord
100
AcDbLinetypeTableRecord
  2
ByBlock
 70
     0
  3

 72
    65
 73
     0
 40
0.0
  0
LTYPE
  5
15
330
5
100
AcDbSymbolTableRecord
100
AcDbLinetypeTableRecord
  2
ByLayer
 70
     0
  3

 72
    65
 73
     0
 40
0.0
  0
LTYPE
  5
16
330
5
100
AcDbSymbolTableRecord
100
AcDbLinetypeTableRecord
  2
Continuous
 70
     0
  3
Solid line
 72
    65
 73
     0
 40
0.0
  0
ENDTAB
  0
TABLE
  2
LAYER
  5
2
330
0
100
AcDbSymbolTable
 70
     2
  0
LAYER
  5
10
330
2
100
AcDbSymbolTableRecord
100
AcDbLayerTableRecord
  2
0
 70
     0
 62
     7
  6
Continuous
370
    -3
390
F
347
3E
  0
LAYER
  5
40
330
2
100
AcDbSymbolTableRecord
100
AcDbLayerTableRecord
  2
_U+30EC_U+30A4_U+30E4_U+30FC 1
 70
     0
 62
     7
  6
Continuous
370
    -3
390
F
347
3E
  0
ENDTAB
  0
TABLE
  2
STYLE
  5
3
330
0
100
AcDbSymbolTable
 70
     1
  0
STYLE
  5
11
330
3
100
AcDbSymbolTableRecord
100
AcDbTextStyleTableRecord
  2
Standard
 70
     0
 40
0.0
 41
1.0
 50
0.0
 71
     0
 42
0.2
  3
txt
  4

  0
ENDTAB
  0
TABLE
  2
VIEW
  5
6
330
0
100
AcDbSymbolTable
 70
     0
  0
ENDTAB
  0
TABLE
  2
UCS
  5
7
330
0
100
AcDbSymbolTable
 70
     0
  0
ENDTAB
  0
TABLE
  2
APPID
  5
9
330
0
100
AcDbSymbolTable
 70
     1
  0
APPID
  5
12
330
9
100
AcDbSymbolTableRecord
100
AcDbRegAppTableRecord
  2
ACAD
 70
     0
  0
ENDTAB
  0
TABLE
  2
DIMSTYLE
  5
A
330
0
100
AcDbSymbolTable
 70
     1
100
AcDbDimStyleTable
  0
DIMSTYLE
105
27
330
A
100
AcDbSymbolTableRecord
100
AcDbDimStyleTableRecord
  2
Standard
 70
     0
178
     0
340
11
  0
ENDTAB
  0
TABLE
  2
BLOCK_RECORD
  5
1
330
0
100
AcDbSymbolTable
 70
     5
  0
BLOCK_RECORD
  5
1F
330
1
100
AcDbSymbolTableRecord
100
AcDbBlockTableRecord
  2
*Model_Space
340
22
 70
     0
280
     1
281
     0
  0
BLOCK_RECORD
  5
1B
330
1
100
AcDbSymbolTableRecord
100
AcDbBlockTableRecord
  2
*Paper_Space
340
1E
 70
     0
280
     1
281
     0
  0
BLOCK_RECORD
  5
23
330
1
100
AcDbSymbolTableRecord
100
AcDbBlockTableRecord
  2
*Paper_Space0
340
26
 70
     0
280
     1
281
     0
  0
BLOCK_RECORD
  5
51
330
1
100
AcDbSymbolTableRecord
100
AcDbBlockTableRecord
  2
block 2
340
0
102
{BLKREFS
331
52
102
}
 70
     0
280
     1
281
     0
  0
BLOCK_RECORD
  5
63
330
1
100
AcDbSymbolTableRecord
100
AcDbBlockTableRecord
  2
block 3
340
0
102
{BLKREFS
331
64
102
}
 70
     0
280
     1
281
     0
  0
BLOCK_RECORD
  5
7B
330
1
100
AcDbSymbolTableRecord
100
AcDbBlockTableRecord
  2
block 4
340
0
102
{BLKREFS
331
7C
102
}
 70
     0
280
     1
281
     0
  0
BLOCK_RECORD
  5
93
330
1
100
AcDbSymbolTableRecord
100
AcDbBlockTableRecord
  2
block 5
340
0
102
{BLKREFS
331
94
102
}
 70
     0
280
     1
281
     0
  0
ENDTAB
  0
ENDSEC
  0
SECTION
  2
BLOCKS
  0
BLOCK
  5
20
330
1F
100
AcDbEntity
  8
0
100
AcDbBlockBegin
  2
*Model_Space
 70
     0
 10
0.0
 20
0.0
 30
0.0
  3
*Model_Space
  1

  0
ENDBLK
  5
21
330
1F
100
AcDbEntity
  8
0
100
AcDbBlockEnd
  0
BLOCK
  5
1C
330
1B
100
AcDbEntity
 67
     1
  8
0
100
AcDbBlockBegin
  2
*Paper_Space
 70
     0
 10
0.0
 20
0.0
 30
0.0
  3
*Paper_Space
  1

  0
ENDBLK
  5
1D
330
1B
100
AcDbEntity
 67
     1
  8
0
100
AcDbBlockEnd
  0
BLOCK
  5
24
330
23
100
AcDbEntity
  8
0
100
AcDbBlockBegin
  2
*Paper_Space0
 70
     0
 10
0.0
 20
0.0
 30
0.0
  3
*Paper_Space0
  1

  0
ENDBLK
  5
25
330
23
100
AcDbEntity
  8
0
100
AcDbBlockEnd
  0
BLOCK
  5
53
330
51
100
AcDbEntity
  8
0
100
AcDbBlockBegin
  2
block 2
 70
     0
 10
0.0
 20
0.0
 30
0.0
  3
block 2
  1

  0
SPLINE
  5
55
330
51
100
AcDbEntity
  8
_U+30EC_U+30A4_U+30E4_U+30FC 1
370
     0
100
AcDbSpline
210
0.0
220
0.0
230
1.0
 70
    11
 71
     3
 72
    62
 73
    58
 74
     0
 42
0.0000000001
 43
0.0000000001
 12
1.0
 22
0.0
 32
0.0
 13
1.0
 23
0.0
 33
0.0
 40
0.0
 40
0.0
 40
0.0
 40
0.0
 40
1.0
 40
1.0
 40
1.0
 40
2.0
 40
2.0
 40
2.0
 40
3.0
 40
3.0
 40
3.0
 40
4.0
 40
4.0
 40
4.0
 40
5.0
 40
5.0
 40
5.0
 40
6.0
 40
6.0
 40
6.0
 40
7.0
 40
7.0
 40
7.0
 40
8.0
 40
8.0
 40
8.0
 40
9.0
 40
9.0
 40
9.0
 40
10.0
 40
10.0
 40
10.0
 40
11.0
 40
11.0
 40
11.0
 40
12.0
 40
12.0
 40
12.0
 40
13.0
 40
13.0
 40
13.0
 40
14.0
 40
14.0
 40
14.0
 40
15.0
 40
15.0
 40
15.0
 40
16.0
 40
16.0
 40
16.0
 40
17.0
 40
17.0
 40
17.0
 40
18.0
 40
18.0
 40
18.0
 40
19.0
 40
19.0
 40
19.0
 40
19.0
 10
115.4458387298191
 20
-161.0988660621558
 30
0.0
 10
115.4458387298191
 20
-161.2001518694222
 30
0.0
 10
115.4244791378106
 20
-161.4330403242251
 30
0.0
 10
115.2384439816071
 20
-161.5667100290528
 30
0.0
 10
115.1261338687879
 20
-161.6459472252135
 30
0.0
 10
115.0269151188127
 20
-161.6500813397958
 30
0.0
 10
114.9421657698756
 20
-161.6549044734752
 30
0.0
 10
114.9421657698756
 20
-161.6549044734752
 30
0.0
 10
114.9421657698756
 20
-161.4196044518326
 30
0.0
 10
114.9421657698756
 20
-161.4196044518326
 30
0.0
 10
115.016579832357
 20
-161.4171928849929
 30
0.0
 10
115.2511908349025
 20
-161.4061685794401
 30
0.0
 10
115.2511908349025
 20
-161.1030001767381
 30
0.0
 10
115.2511908349025
 20
-160.9562391090665
 30
0.0
 10
115.1812553965519
 20
-160.7936306021627
 30
0.0
 10
114.9528455658799
 20
-160.7936306021627
 30
0.0
 10
114.8367458480269
 20
-160.7936306021627
 30
0.0
 10
114.7878254921364
 20
-160.8342827288887
 30
0.0
 10
114.7561306136721
 20
-160.8680446646441
 30
0.0
 10
114.6820610607392
 20
-160.9472818608048
 30
0.0
 10
114.6693142074438
 20
-161.0713052982738
 30
0.0
 10
114.6693142074438
 20
-161.1302164310716
 30
0.0
 10
114.6693142074438
 20
-161.1505424944346
 30
0.0
 10
114.6713812647349
 20
-161.1891275638694
 30
0.0
 10
114.6755153793172
 20
-161.218410875494
 30
0.0
 10
114.6755153793172
 20
-161.218410875494
 30
0.0
 10
114.4812119939491
 20
-161.218410875494
 30
0.0
 10
114.4812119939491
 20
-161.218410875494
 30
0.0
 10
114.4874131658226
 20
-161.1777587487681
 30
0.0
 10
114.4894802231137
 20
-161.1326279979113
 30
0.0
 10
114.4894802231137
 20
-161.1257378069408
 30
0.0
 10
114.4894802231137
 20
-161.0554578590417
 30
0.0
 10
114.4684651406537
 20
-160.8432399771503
 30
0.0
 10
114.2314425712685
 20
-160.8432399771503
 30
0.0
 10
114.0540201537782
 20
-160.8432399771503
 30
0.0
 10
113.9988986260142
 20
-160.9831108538515
 30
0.0
 10
113.9988986260142
 20
-161.100933119447
 30
0.0
 10
113.9988986260142
 20
-161.3834309492375
 30
0.0
 10
114.2314425712685
 20
-161.3923881974991
 30
0.0
 10
114.3034450669103
 20
-161.3972113311785
 30
0.0
 10
114.3034450669103
 20
-161.3972113311785
 30
0.0
 10
114.3034450669103
 20
-161.6142523467492
 30
0.0
 10
114.3034450669103
 20
-161.6142523467492
 30
0.0
 10
114.1787326103442
 20
-161.6052950984876
 30
0.0
 10
113.8018391642579
 20
-161.5756672773144
 30
0.0
 10
113.8018391642579
 20
-161.087152737506
 30
0.0
 10
113.8018391642579
 20
-160.8477186012811
 30
0.0
 10
113.9289631876636
 20
-160.5900254589845
 30
0.0
 10
114.2248968898466
 20
-160.5900254589845
 30
0.0
 10
114.4112765555986
 20
-160.5900254589845
 30
0.0
 10
114.493614337696
 20
-160.6916557757993
 30
0.0
 10
114.5549370373335
 20
-160.797764716745
 30
0.0
 10
114.5824978012155
 20
-160.7323079025253
 30
0.0
 10
114.6631130355703
 20
-160.5380045171572
 30
0.0
 10
114.9400987125844
 20
-160.5380045171572
 30
0.0
 10
115.2787515987845
 20
-160.5380045171572
 30
0.0
 10
115.4458387298191
 20
-160.8025878504244
 30
0.0
 10
115.4458387298191
 20
-161.0988660621558
 30
0.0
  0
HATCH
  5
56
330
51
100
AcDbEntity
  8
_U+30EC_U+30A4_U+30E4_U+30FC 1
 62
   179
420
  2234388
100
AcDbHatch
 10
0.0
 20
0.0
 30
0.0
210
0.0
220
0.0
230
1.0
  2
SOLID
 70
     1
 71
     0
 91
        1
 92
        1
 93
        1
 72
     4
 94
        3
 73
     0
 74
     1
 95
       62
 96
       58
 40
0.0
 40
0.0
 40
0.0
 40
0.0
 40
1.0
 40
1.0
 40
1.0
 40
2.0
 40
2.0
 40
2.0
 40
3.0
 40
3.0
 40
3.0
 40
4.0
 40
4.0
 40
4.0
 40
5.0
 40
5.0
 40
5.0
 40
6.0
 40
6.0
 40
6.0
 40
7.0
 40
7.0
 40
7.0
 40
8.0
 40
8.0
 40
8.0
 40
9.0
 40
9.0
 40
9.0
 40
10.0
 40
10.0
 40
10.0
 40
11.0
 40
11.0
 40
11.0
 40
12.0
 40
12.0
 40
12.0
 40
13.0
 40
13.0
 40
13.0
 40
14.0
 40
14.0
 40
14.0
 40
15.0
 40
15.0
 40
15.0
 40
16.0
 40
16.0
 40
16.0
 40
17.0
 40
17.0
 40
17.0
 40
18.0
 40
18.0
 40
18.0
 40
19.0
 40
19.0
 40
19.0
 40
19.0
 10
115.4458387298191
 20
-161.0988660621558
 10
115.4458387298191
 20
-161.2001518694222
 10
115.4244791378106
 20
-161.4330403242251
 10
115.2384439816071
 20
-161.5667100290528
 10
115.1261338687879
 20
-161.6459472252135
 10
115.0269151188127
 20
-161.6500813397958
 10
114.9421657698756
 20
-161.6549044734752
 10
114.9421657698756
 20
-161.6549044734752
 10
114.9421657698756
 20
-161.4196044518326
 10
114.9421657698756
 20
-161.4196044518326
 10
115.016579832357
 20
-161.4171928849929
 10
115.2511908349025
 20
-161.4061685794401
 10
115.2511908349025
 20
-161.1030001767381
 10
115.2511908349025
 20
-160.9562391090665
 10
115.1812553965519
 20
-160.7936306021627
 10
114.9528455658799
 20
-160.7936306021627
 10
114.8367458480269
 20
-160.7936306021627
 10
114.7878254921364
 20
-160.8342827288887
 10
114.7561306136721
 20
-160.8680446646441
 10
114.6820610607392
 20
-160.9472818608048
 10
114.6693142074438
 20
-161.0713052982738
 10
114.6693142074438
 20
-161.1302164310716
 10
114.6693142074438
 20
-161.1505424944346
 10
114.6713812647349
 20
-161.1891275638694
 10
114.6755153793172
 20
-161.218410875494
 10
114.6755153793172
 20
-161.218410875494
 10
114.4812119939491
 20
-161.218410875494
 10
114.4812119939491
 20
-161.218410875494
 10
114.4874131658226
 20
-161.1777587487681
 10
114.4894802231137
 20
-161.1326279979113
 10
114.4894802231137
 20
-161.1257378069408
 10
114.4894802231137
 20
-161.0554578590417
 10
114.4684651406537
 20
-160.8432399771503
 10
114.2314425712685
 20
-160.8432399771503
 10
114.0540201537782
 20
-160.8432399771503
 10
113.9988986260142
 20
-160.9831108538515
 10
113.9988986260142
 20
-161.100933119447
 10
113.9988986260142
 20
-161.3834309492375
 10
114.2314425712685
 20
-161.3923881974991
 10
114.3034450669103
 20
-161.3972113311785
 10
114.3034450669103
 20
-161.3972113311785
 10
114.3034450669103
 20
-161.6142523467492
 10
114.3034450669103
 20
-161.6142523467492
 10
114.1787326103442
 20
-161.6052950984876
 10
113.8018391642579
 20
-161.5756672773144
 10
113.8018391642579
 20
-161.087152737506
 10
113.8018391642579
 20
-160.8477186012811
 10
113.9289631876636
 20
-160.5900254589845
 10
114.2248968898466
 20
-160.5900254589845
 10
114.4112765555986
 20
-160.5900254589845
 10
114.493614337696
 20
-160.6916557757993
 10
114.5549370373335
 20
-160.797764716745
 10
114.5824978012155
 20
-160.7323079025253
 10
114.6631130355703
 20
-160.5380045171572
 10
114.9400987125844
 20
-160.5380045171572
 10
115.2787515987845
 20
-160.5380045171572
 10
115.4458387298191
 20
-160.8025878504244
 10
115.4458387298191
 20
-161.0988660621558
 97
        0
 97
        0
 75
     2
 76
     1
 98
        0
  0
ENDBLK
  5
54
330
51
100
AcDbEntity
  8
0
100
AcDbBlockEnd
  0
BLOCK
  5
65
330
63
100
AcDbEntity
  8
0
100
AcDbBlockBegin
  2
block 3
 70
     0
 10
0.0
 20
0.0
 30
0.0
  3
block 3
  1

  0
SPLINE
  5
67
330
63
100
AcDbEntity
  8
_U+30EC_U+30A4_U+30E4_U+30FC 1
370
     0
100
AcDbSpline
210
0.0
220
0.0
230
1.0
 70
    11
 71
     3
 72
    44
 73
    40
 74
     0
 42
0.0000000001
 43
0.0000000001
 12
1.0
 22
0.0
 32
0.0
 13
1.0
 23
0.0
 33
0.0
 40
0.0
 40
0.0
 40
0.0
 40
0.0
 40
1.0
 40
1.0
 40
1.0
 40
2.0
 40
2.0
 40
2.0
 40
3.0
 40
3.0
 40
3.0
 40
4.0
 40
4.0
 40
4.0
 40
5.0
 40
5.0
 40
5.0
 40
6.0
 40
6.0
 40
6.0
 40
7.0
 40
7.0
 40
7.0
 40
8.0
 40
8.0
 40
8.0
 40
9.0
 40
9.0
 40
9.0
 40
10.0
 40
10.0
 40
10.0
 40
11.0
 40
11.0
 40
11.0
 40
12.0
 40
12.0
 40
12.0
 40
13.0
 40
13.0
 40
13.0
 40
13.0
 10
93.81339515883832
 20
-150.580300526591
 30
0.0
 10
93.97204180593408
 20
-150.8131889813939
 30
0.0
 10
94.04611135886695
 20
-150.9127522409177
 30
0.0
 10
94.18994409537613
 20
-150.9647731827449
 30
0.0
 10
94.18994409537613
 20
-150.9647731827449
 30
0.0
 10
94.18994409537613
 20
-150.1327826230571
 30
0.0
 10
94.18994409537613
 20
-150.1327826230571
 30
0.0
 10
94.18994409537613
 20
-150.1327826230571
 30
0.0
 10
94.39509953152276
 20
-150.1327826230571
 30
0.0
 10
94.39509953152276
 20
-150.1327826230571
 30
0.0
 10
94.39509953152276
 20
-150.1327826230571
 30
0.0
 10
94.39509953152276
 20
-151.2314235733033
 30
0.0
 10
94.39509953152276
 20
-151.2314235733033
 30
0.0
 10
94.03749862015383
 20
-151.1976616375478
 30
0.0
 10
93.95929495263866
 20
-151.1273816896487
 30
0.0
 10
93.66094968361601
 20
-150.7160372887099
 30
0.0
 10
93.4621676741171
 20
-150.442496707181
 30
0.0
 10
93.39447154783194
 20
-150.3722167592819
 30
0.0
 10
93.25701223797047
 20
-150.3722167592819
 30
0.0
 10
93.13850095327788
 20
-150.3722167592819
 30
0.0
 10
93.00741507006413
 20
-150.4493868981515
 30
0.0
 10
93.00741507006413
 20
-150.6595377227518
 30
0.0
 10
93.00741507006413
 20
-150.9375569284115
 30
0.0
 10
93.23789195802733
 20
-150.9468586862216
 30
0.0
 10
93.35433618542878
 20
-150.9509928008039
 30
0.0
 10
93.35433618542878
 20
-150.9509928008039
 30
0.0
 10
93.35433618542878
 20
-151.1907714465773
 30
0.0
 10
93.35433618542878
 20
-151.1907714465773
 30
0.0
 10
93.22738441679732
 20
-151.1818141983157
 30
0.0
 10
93.11524655875245
 20
-151.1704453832143
 30
0.0
 10
92.99673527405984
 20
-151.0846625056316
 30
0.0
 10
92.83602156967294
 20
-150.9668402400361
 30
0.0
 10
92.80208737914323
 20
-150.7680582305372
 30
0.0
 10
92.80208737914323
 20
-150.6436902835196
 30
0.0
 10
92.80208737914323
 20
-150.3474120717881
 30
0.0
 10
92.98622773282983
 20
-150.1262369416351
 30
0.0
 10
93.25907929526163
 20
-150.1262369416351
 30
0.0
 10
93.48748912593369
 20
-150.1262369416351
 30
0.0
 10
93.58705238545741
 20
-150.2502603791041
 30
0.0
 10
93.81339515883832
 20
-150.580300526591
 30
0.0
  0
HATCH
  5
68
330
63
100
AcDbEntity
  8
_U+30EC_U+30A4_U+30E4_U+30FC 1
 62
   179
420
  2234388
100
AcDbHatch
 10
0.0
 20
0.0
 30
0.0
210
0.0
220
0.0
230
1.0
  2
SOLID
 70
     1
 71
     0
 91
        1
 92
        1
 93
        1
 72
     4
 94
        3
 73
     0
 74
     1
 95
       44
 96
       40
 40
0.0
 40
0.0
 40
0.0
 40
0.0
 40
1.0
 40
1.0
 40
1.0
 40
2.0
 40
2.0
 40
2.0
 40
3.0
 40
3.0
 40
3.0
 40
4.0
 40
4.0
 40
4.0
 40
5.0
 40
5.0
 40
5.0
 40
6.0
 40
6.0
 40
6.0
 40
7.0
 40
7.0
 40
7.0
 40
8.0
 40
8.0
 40
8.0
 40
9.0
 40
9.0
 40
9.0
 40
10.0
 40
10.0
 40
10.0
 40
11.0
 40
11.0
 40
11.0
 40
12.0
 40
12.0
 40
12.0
 40
13.0
 40
13.0
 40
13.0
 40
13.0
 10
93.81339515883832
 20
-150.580300526591
 10
93.97204180593408
 20
-150.8131889813939
 10
94.04611135886695
 20
-150.9127522409177
 10
94.18994409537613
 20
-150.9647731827449
 10
94.18994409537613
 20
-150.9647731827449
 10
94.18994409537613
 20
-150.1327826230571
 10
94.18994409537613
 20
-150.1327826230571
 10
94.18994409537613
 20
-150.1327826230571
 10
94.39509953152276
 20
-150.1327826230571
 10
94.39509953152276
 20
-150.1327826230571
 10
94.39509953152276
 20
-150.1327826230571
 10
94.39509953152276
 20
-151.2314235733033
 10
94.39509953152276
 20
-151.2314235733033
 10
94.03749862015383
 20
-151.1976616375478
 10
93.95929495263866
 20
-151.1273816896487
 10
93.66094968361601
 20
-150.7160372887099
 10
93.4621676741171
 20
-150.442496707181
 10
93.39447154783194
 20
-150.3722167592819
 10
93.25701223797047
 20
-150.3722167592819
 10
93.13850095327788
 20
-150.3722167592819
 10
93.00741507006413
 20
-150.4493868981515
 10
93.00741507006413
 20
-150.6595377227518
 10
93.00741507006413
 20
-150.9375569284115
 10
93.23789195802733
 20
-150.9468586862216
 10
93.35433618542878
 20
-150.9509928008039
 10
93.35433618542878
 20
-150.9509928008039
 10
93.35433618542878
 20
-151.1907714465773
 10
93.35433618542878
 20
-151.1907714465773
 10
93.22738441679732
 20
-151.1818141983157
 10
93.11524655875245
 20
-151.1704453832143
 10
92.99673527405984
 20
-151.0846625056316
 10
92.83602156967294
 20
-150.9668402400361
 10
92.80208737914323
 20
-150.7680582305372
 10
92.80208737914323
 20
-150.6436902835196
 10
92.80208737914323
 20
-150.3474120717881
 10
92.98622773282983
 20
-150.1262369416351
 10
93.25907929526163
 20
-150.1262369416351
 10
93.48748912593369
 20
-150.1262369416351
 10
93.58705238545741
 20
-150.2502603791041
 10
93.81339515883832
 20
-150.580300526591
 97
        0
 97
        0
 75
     2
 76
     1
 98
        0
  0
SPLINE
  5
69
330
63
100
AcDbEntity
  8
_U+30EC_U+30A4_U+30E4_U+30FC 1
370
     0
100
AcDbSpline
210
0.0
220
0.0
230
1.0
 70
    11
 71
     3
 72
    53
 73
    49
 74
     0
 42
0.0000000001
 43
0.0000000001
 12
1.0
 22
0.0
 32
0.0
 13
1.0
 23
0.0
 33
0.0
 40
0.0
 40
0.0
 40
0.0
 40
0.0
 40
1.0
 40
1.0
 40
1.0
 40
2.0
 40
2.0
 40
2.0
 40
3.0
 40
3.0
 40
3.0
 40
4.0
 40
4.0
 40
4.0
 40
5.0
 40
5.0
 40
5.0
 40
6.0
 40
6.0
 40
6.0
 40
7.0
 40
7.0
 40
7.0
 40
8.0
 40
8.0
 40
8.0
 40
9.0
 40
9.0
 40
9.0
 40
10.0
 40
10.0
 40
10.0
 40
11.0
 40
11.0
 40
11.0
 40
12.0
 40
12.0
 40
12.0
 40
13.0
 40
13.0
 40
13.0
 40
14.0
 40
14.0
 40
14.0
 40
15.0
 40
15.0
 40
15.0
 40
16.0
 40
16.0
 40
16.0
 40
16.0
 10
94.44591468993019
 20
-149.442385487813
 30
0.0
 10
94.44591468993019
 20
-149.5261013081046
 30
0.0
 10
94.42886146727821
 20
-149.63462181589
 30
0.0
 10
94.36547171034961
 20
-149.7431423236753
 30
0.0
 10
94.25540090959588
 20
-149.9284884607818
 30
0.0
 10
94.12431502638212
 20
-149.9512260909844
 30
0.0
 10
94.0164835376938
 20
-149.9715521543474
 30
0.0
 10
94.0164835376938
 20
-149.9715521543474
 30
0.0
 10
94.0164835376938
 20
-149.7341850754137
 30
0.0
 10
94.0164835376938
 20
-149.7341850754137
 30
0.0
 10
94.21526554719271
 20
-149.6752739426159
 30
0.0
 10
94.24489336836587
 20
-149.5398816900456
 30
0.0
 10
94.24489336836587
 20
-149.4399739209734
 30
0.0
 10
94.24489336836587
 20
-149.2911457960106
 30
0.0
 10
94.1455023636164
 20
-149.1281927795582
 30
0.0
 10
93.91278616358778
 20
-149.1281927795582
 30
0.0
 10
93.65681556903371
 20
-149.1281927795582
 30
0.0
 10
93.58705238545741
 20
-149.3204291076352
 30
0.0
 10
93.58705238545741
 20
-149.4492756787835
 30
0.0
 10
93.58705238545741
 20
-149.4833821240875
 30
0.0
 10
93.58705238545741
 20
-149.63462181589
 30
0.0
 10
93.71607121138001
 20
-149.7293619417343
 30
0.0
 10
93.71607121138001
 20
-149.7293619417343
 30
0.0
 10
93.69695093143687
 20
-149.917464155229
 30
0.0
 10
93.69695093143687
 20
-149.917464155229
 30
0.0
 10
93.69695093143687
 20
-149.917464155229
 30
0.0
 10
92.85083548025952
 20
-149.7882730745321
 30
0.0
 10
92.85083548025952
 20
-149.7882730745321
 30
0.0
 10
92.85083548025952
 20
-149.7882730745321
 30
0.0
 10
92.85083548025952
 20
-148.9562825148443
 30
0.0
 10
92.85083548025952
 20
-148.9562825148443
 30
0.0
 10
92.85083548025952
 20
-148.9562825148443
 30
0.0
 10
93.04548337517613
 20
-148.9562825148443
 30
0.0
 10
93.04548337517613
 20
-148.9562825148443
 30
0.0
 10
93.04548337517613
 20
-148.9562825148443
 30
0.0
 10
93.04548337517613
 20
-149.614295752527
 30
0.0
 10
93.04548337517613
 20
-149.614295752527
 30
0.0
 10
93.04548337517613
 20
-149.614295752527
 30
0.0
 10
93.46854110076481
 20
-149.6845757004261
 30
0.0
 10
93.46854110076481
 20
-149.6845757004261
 30
0.0
 10
93.4346069102351
 20
-149.6187743766578
 30
0.0
 10
93.39447154783194
 20
-149.5305799322354
 30
0.0
 10
93.39447154783194
 20
-149.4041449279268
 30
0.0
 10
93.39447154783194
 20
-149.1326714036891
 30
0.0
 10
93.5806789588097
 20
-148.8794568855232
 30
0.0
 10
93.89366588364464
 20
-148.8794568855232
 30
0.0
 10
94.21113143261042
 20
-148.8794568855232
 30
0.0
 10
94.44591468993019
 20
-149.1192355312966
 30
0.0
 10
94.44591468993019
 20
-149.442385487813
 30
0.0
  0
HATCH
  5
6A
330
63
100
AcDbEntity
  8
_U+30EC_U+30A4_U+30E4_U+30FC 1
 62
   179
420
  2234388
100
AcDbHatch
 10
0.0
 20
0.0
 30
0.0
210
0.0
220
0.0
230
1.0
  2
SOLID
 70
     1
 71
     0
 91
        1
 92
        1
 93
        1
 72
     4
 94
        3
 73
     0
 74
     1
 95
       53
 96
       49
 40
0.0
 40
0.0
 40
0.0
 40
0.0
 40
1.0
 40
1.0
 40
1.0
 40
2.0
 40
2.0
 40
2.0
 40
3.0
 40
3.0
 40
3.0
 40
4.0
 40
4.0
 40
4.0
 40
5.0
 40
5.0
 40
5.0
 40
6.0
 40
6.0
 40
6.0
 40
7.0
 40
7.0
 40
7.0
 40
8.0
 40
8.0
 40
8.0
 40
9.0
 40
9.0
 40
9.0
 40
10.0
 40
10.0
 40
10.0
 40
11.0
 40
11.0
 40
11.0
 40
12.0
 40
12.0
 40
12.0
 40
13.0
 40
13.0
 40
13.0
 40
14.0
 40
14.0
 40
14.0
 40
15.0
 40
15.0
 40
15.0
 40
16.0
 40
16.0
 40
16.0
 40
16.0
 10
94.44591468993019
 20
-149.442385487813
 10
94.44591468993019
 20
-149.5261013081046
 10
94.42886146727821
 20
-149.63462181589
 10
94.36547171034961
 20
-149.7431423236753
 10
94.25540090959588
 20
-149.9284884607818
 10
94.12431502638212
 20
-149.9512260909844
 10
94.0164835376938
 20
-149.9715521543474
 10
94.0164835376938
 20
-149.9715521543474
 10
94.0164835376938
 20
-149.7341850754137
 10
94.0164835376938
 20
-149.7341850754137
 10
94.21526554719271
 20
-149.6752739426159
 10
94.24489336836587
 20
-149.5398816900456
 10
94.24489336836587
 20
-149.4399739209734
 10
94.24489336836587
 20
-149.2911457960106
 10
94.1455023636164
 20
-149.1281927795582
 10
93.91278616358778
 20
-149.1281927795582
 10
93.65681556903371
 20
-149.1281927795582
 10
93.58705238545741
 20
-149.3204291076352
 10
93.58705238545741
 20
-149.4492756787835
 10
93.58705238545741
 20
-149.4833821240875
 10
93.58705238545741
 20
-149.63462181589
 10
93.71607121138001
 20
-149.7293619417343
 10
93.71607121138001
 20
-149.7293619417343
 10
93.69695093143687
 20
-149.917464155229
 10
93.69695093143687
 20
-149.917464155229
 10
93.69695093143687
 20
-149.917464155229
 10
92.85083548025952
 20
-149.7882730745321
 10
92.85083548025952
 20
-149.7882730745321
 10
92.85083548025952
 20
-149.7882730745321
 10
92.85083548025952
 20
-148.9562825148443
 10
92.85083548025952
 20
-148.9562825148443
 10
92.85083548025952
 20
-148.9562825148443
 10
93.04548337517613
 20
-148.9562825148443
 10
93.04548337517613
 20
-148.9562825148443
 10
93.04548337517613
 20
-148.9562825148443
 10
93.04548337517613
 20
-149.614295752527
 10
93.04548337517613
 20
-149.614295752527
 10
93.04548337517613
 20
-149.614295752527
 10
93.46854110076481
 20
-149.6845757004261
 10
93.46854110076481
 20
-149.6845757004261
 10
93.4346069102351
 20
-149.6187743766578
 10
93.39447154783194
 20
-149.5305799322354
 10
93.39447154783194
 20
-149.4041449279268
 10
93.39447154783194
 20
-149.1326714036891
 10
93.5806789588097
 20
-148.8794568855232
 10
93.89366588364464
 20
-148.8794568855232
 10
94.21113143261042
 20
-148.8794568855232
 10
94.44591468993019
 20
-149.1192355312966
 10
94.44591468993019
 20
-149.442385487813
 97
        0
 97
        0
 75
     2
 76
     1
 98
        0
  0
ENDBLK
  5
66
330
63
100
AcDbEntity
  8
0
100
AcDbBlockEnd
  0
BLOCK
  5
7D
330
7B
100
AcDbEntity
  8
0
100
AcDbBlockBegin
  2
block 4
 70
     0
 10
0.0
 20
0.0
 30
0.0
  3
block 4
  1

  0
SPLINE
  5
7F
330
7B
100
AcDbEntity
  8
_U+30EC_U+30A4_U+30E4_U+30FC 1
370
     0
100
AcDbSpline
210
0.0
220
0.0
230
1.0
 70
    11
 71
     3
 72
    26
 73
    22
 74
     0
 42
0.0000000001
 43
0.0000000001
 12
1.0
 22
0.0
 32
0.0
 13
1.0
 23
0.0
 33
0.0
 40
0.0
 40
0.0
 40
0.0
 40
0.0
 40
1.0
 40
1.0
 40
1.0
 40
2.0
 40
2.0
 40
2.0
 40
3.0
 40
3.0
 40
3.0
 40
4.0
 40
4.0
 40
4.0
 40
5.0
 40
5.0
 40
5.0
 40
6.0
 40
6.0
 40
6.0
 40
7.0
 40
7.0
 40
7.0
 40
7.0
 10
105.9153265794239
 20
-165.2539957269157
 30
0.0
 10
105.9153265794239
 20
-165.2539957269157
 30
0.0
 10
105.9153265794239
 20
-164.1498426238931
 30
0.0
 10
105.9153265794239
 20
-164.1498426238931
 30
0.0
 10
105.9153265794239
 20
-164.1498426238931
 30
0.0
 10
105.5625488017344
 20
-164.1498426238931
 30
0.0
 10
105.5625488017344
 20
-164.1498426238931
 30
0.0
 10
105.5625488017344
 20
-164.1498426238931
 30
0.0
 10
105.5625488017344
 20
-164.0017035180274
 30
0.0
 10
105.5625488017344
 20
-164.0017035180274
 30
0.0
 10
105.9173936367151
 20
-163.9868896074408
 30
0.0
 10
105.9670030117027
 20
-163.8239365909885
 30
0.0
 10
105.998697890167
 20
-163.7099039304267
 30
0.0
 10
105.998697890167
 20
-163.7099039304267
 30
0.0
 10
106.1547607156488
 20
-163.7099039304267
 30
0.0
 10
106.1547607156488
 20
-163.7099039304267
 30
0.0
 10
106.1547607156488
 20
-163.7099039304267
 30
0.0
 10
106.1547607156488
 20
-165.2539957269157
 30
0.0
 10
106.1547607156488
 20
-165.2539957269157
 30
0.0
 10
106.1547607156488
 20
-165.2539957269157
 30
0.0
 10
105.9153265794239
 20
-165.2539957269157
 30
0.0
 10
105.9153265794239
 20
-165.2539957269157
 30
0.0
  0
HATCH
  5
80
330
7B
100
AcDbEntity
  8
_U+30EC_U+30A4_U+30E4_U+30FC 1
 62
   179
420
  2234388
100
AcDbHatch
 10
0.0
 20
0.0
 30
0.0
210
0.0
220
0.0
230
1.0
  2
SOLID
 70
     1
 71
     0
 91
        1
 92
        1
 93
        1
 72
     4
 94
        3
 73
     0
 74
     1
 95
       26
 96
       22
 40
0.0
 40
0.0
 40
0.0
 40
0.0
 40
1.0
 40
1.0
 40
1.0
 40
2.0
 40
2.0
 40
2.0
 40
3.0
 40
3.0
 40
3.0
 40
4.0
 40
4.0
 40
4.0
 40
5.0
 40
5.0
 40
5.0
 40
6.0
 40
6.0
 40
6.0
 40
7.0
 40
7.0
 40
7.0
 40
7.0
 10
105.9153265794239
 20
-165.2539957269157
 10
105.9153265794239
 20
-165.2539957269157
 10
105.9153265794239
 20
-164.1498426238931
 10
105.9153265794239
 20
-164.1498426238931
 10
105.9153265794239
 20
-164.1498426238931
 10
105.5625488017344
 20
-164.1498426238931
 10
105.5625488017344
 20
-164.1498426238931
 10
105.5625488017344
 20
-164.1498426238931
 10
105.5625488017344
 20
-164.0017035180274
 10
105.5625488017344
 20
-164.0017035180274
 10
105.9173936367151
 20
-163.9868896074408
 10
105.9670030117027
 20
-163.8239365909885
 10
105.998697890167
 20
-163.7099039304267
 10
105.998697890167
 20
-163.7099039304267
 10
106.1547607156488
 20
-163.7099039304267
 10
106.1547607156488
 20
-163.7099039304267
 10
106.1547607156488
 20
-163.7099039304267
 10
106.1547607156488
 20
-165.2539957269157
 10
106.1547607156488
 20
-165.2539957269157
 10
106.1547607156488
 20
-165.2539957269157
 10
105.9153265794239
 20
-165.2539957269157
 10
105.9153265794239
 20
-165.2539957269157
 97
        0
 97
        0
 75
     2
 76
     1
 98
        0
  0
SPLINE
  5
81
330
7B
100
AcDbEntity
  8
_U+30EC_U+30A4_U+30E4_U+30FC 1
370
     0
100
AcDbSpline
210
0.0
220
0.0
230
1.0
 70
    11
 71
     3
 72
    62
 73
    58
 74
     0
 42
0.0000000001
 43
0.0000000001
 12
1.0
 22
0.0
 32
0.0
 13
1.0
 23
0.0
 33
0.0
 40
0.0
 40
0.0
 40
0.0
 40
0.0
 40
1.0
 40
1.0
 40
1.0
 40
2.0
 40
2.0
 40
2.0
 40
3.0
 40
3.0
 40
3.0
 40
4.0
 40
4.0
 40
4.0
 40
5.0
 40
5.0
 40
5.0
 40
6.0
 40
6.0
 40
6.0
 40
7.0
 40
7.0
 40
7.0
 40
8.0
 40
8.0
 40
8.0
 40
9.0
 40
9.0
 40
9.0
 40
10.0
 40
10.0
 40
10.0
 40
11.0
 40
11.0
 40
11.0
 40
12.0
 40
12.0
 40
12.0
 40
13.0
 40
13.0
 40
13.0
 40
14.0
 40
14.0
 40
14.0
 40
15.0
 40
15.0
 40
15.0
 40
16.0
 40
16.0
 40
16.0
 40
17.0
 40
17.0
 40
17.0
 40
18.0
 40
18.0
 40
18.0
 40
19.0
 40
19.0
 40
19.0
 40
19.0
 10
107.2158501251058
 20
-165.3049831400974
 30
0.0
 10
107.1142198082909
 20
-165.3049831400974
 30
0.0
 10
106.881331353488
 20
-165.2836235480888
 30
0.0
 10
106.7476616486603
 20
-165.0975883918853
 30
0.0
 10
106.6687689620481
 20
-164.9852782790662
 30
0.0
 10
106.6642903379173
 20
-164.886059529091
 30
0.0
 10
106.6598117137864
 20
-164.8013101801538
 30
0.0
 10
106.6598117137864
 20
-164.8013101801538
 30
0.0
 10
106.8947672258805
 20
-164.8013101801538
 30
0.0
 10
106.8947672258805
 20
-164.8013101801538
 30
0.0
 10
106.8971787927202
 20
-164.8753797330867
 30
0.0
 10
106.9082030982729
 20
-165.1103352451807
 30
0.0
 10
107.2113715009749
 20
-165.1103352451807
 30
0.0
 10
107.3581325686466
 20
-165.1103352451807
 30
0.0
 10
107.5210855850989
 20
-165.0403998068302
 30
0.0
 10
107.5210855850989
 20
-164.8119899761581
 30
0.0
 10
107.5210855850989
 20
-164.6955457487567
 30
0.0
 10
107.480433458373
 20
-164.6469699024147
 30
0.0
 10
107.446327013069
 20
-164.6152750239503
 30
0.0
 10
107.3674343264568
 20
-164.5412054710175
 30
0.0
 10
107.2430663794392
 20
-164.5284586177221
 30
0.0
 10
107.1841552466415
 20
-164.5284586177221
 30
0.0
 10
107.1638291832785
 20
-164.5284586177221
 30
0.0
 10
107.1252441138437
 20
-164.5305256750132
 30
0.0
 10
107.0963053117676
 20
-164.5346597895955
 30
0.0
 10
107.0963053117676
 20
-164.5346597895955
 30
0.0
 10
107.0963053117676
 20
-164.3400118946789
 30
0.0
 10
107.0963053117676
 20
-164.3400118946789
 30
0.0
 10
107.1369574384935
 20
-164.3465575761009
 30
0.0
 10
107.1817436798018
 20
-164.348624633392
 30
0.0
 10
107.1886338707723
 20
-164.348624633392
 30
0.0
 10
107.2589138186714
 20
-164.348624633392
 30
0.0
 10
107.4711317005628
 20
-164.327609550932
 30
0.0
 10
107.4711317005628
 20
-164.0905869815468
 30
0.0
 10
107.4711317005628
 20
-163.9128200545079
 30
0.0
 10
107.3312608238616
 20
-163.8576985267439
 30
0.0
 10
107.2134385582661
 20
-163.8576985267439
 30
0.0
 10
106.9309407284756
 20
-163.8576985267439
 30
0.0
 10
106.921983480214
 20
-164.0905869815468
 30
0.0
 10
106.9175048560831
 20
-164.1625894771885
 30
0.0
 10
106.9175048560831
 20
-164.1625894771885
 30
0.0
 10
106.7004638405124
 20
-164.1625894771885
 30
0.0
 10
106.7004638405124
 20
-164.1625894771885
 30
0.0
 10
106.709421088774
 20
-164.0375325110739
 30
0.0
 10
106.7387044003987
 20
-163.6609835745361
 30
0.0
 10
107.2272189402071
 20
-163.6609835745361
 30
0.0
 10
107.4669975859805
 20
-163.6609835745361
 30
0.0
 10
107.7246907282772
 20
-163.7881075979419
 30
0.0
 10
107.7246907282772
 20
-164.0840413001248
 30
0.0
 10
107.7246907282772
 20
-164.2704209658768
 30
0.0
 10
107.6227159019138
 20
-164.3527587479743
 30
0.0
 10
107.5166069609681
 20
-164.4140814476118
 30
0.0
 10
107.5820637751878
 20
-164.4416422114938
 30
0.0
 10
107.7763671605559
 20
-164.5222574458486
 30
0.0
 10
107.7763671605559
 20
-164.7992431228627
 30
0.0
 10
107.7763671605559
 20
-165.1378960090628
 30
0.0
 10
107.5121283368373
 20
-165.3049831400974
 30
0.0
 10
107.2158501251058
 20
-165.3049831400974
 30
0.0
  0
HATCH
  5
82
330
7B
100
AcDbEntity
  8
_U+30EC_U+30A4_U+30E4_U+30FC 1
 62
   179
420
  2234388
100
AcDbHatch
 10
0.0
 20
0.0
 30
0.0
210
0.0
220
0.0
230
1.0
  2
SOLID
 70
     1
 71
     0
 91
        1
 92
        1
 93
        1
 72
     4
 94
        3
 73
     0
 74
     1
 95
       62
 96
       58
 40
0.0
 40
0.0
 40
0.0
 40
0.0
 40
1.0
 40
1.0
 40
1.0
 40
2.0
 40
2.0
 40
2.0
 40
3.0
 40
3.0
 40
3.0
 40
4.0
 40
4.0
 40
4.0
 40
5.0
 40
5.0
 40
5.0
 40
6.0
 40
6.0
 40
6.0
 40
7.0
 40
7.0
 40
7.0
 40
8.0
 40
8.0
 40
8.0
 40
9.0
 40
9.0
 40
9.0
 40
10.0
 40
10.0
 40
10.0
 40
11.0
 40
11.0
 40
11.0
 40
12.0
 40
12.0
 40
12.0
 40
13.0
 40
13.0
 40
13.0
 40
14.0
 40
14.0
 40
14.0
 40
15.0
 40
15.0
 40
15.0
 40
16.0
 40
16.0
 40
16.0
 40
17.0
 40
17.0
 40
17.0
 40
18.0
 40
18.0
 40
18.0
 40
19.0
 40
19.0
 40
19.0
 40
19.0
 10
107.2158501251058
 20
-165.3049831400974
 10
107.1142198082909
 20
-165.3049831400974
 10
106.881331353488
 20
-165.2836235480888
 10
106.7476616486603
 20
-165.0975883918853
 10
106.6687689620481
 20
-164.9852782790662
 10
106.6642903379173
 20
-164.886059529091
 10
106.6598117137864
 20
-164.8013101801538
 10
106.6598117137864
 20
-164.8013101801538
 10
106.8947672258805
 20
-164.8013101801538
 10
106.8947672258805
 20
-164.8013101801538
 10
106.8971787927202
 20
-164.8753797330867
 10
106.9082030982729
 20
-165.1103352451807
 10
107.2113715009749
 20
-165.1103352451807
 10
107.3581325686466
 20
-165.1103352451807
 10
107.5210855850989
 20
-165.0403998068302
 10
107.5210855850989
 20
-164.8119899761581
 10
107.5210855850989
 20
-164.6955457487567
 10
107.480433458373
 20
-164.6469699024147
 10
107.446327013069
 20
-164.6152750239503
 10
107.3674343264568
 20
-164.5412054710175
 10
107.2430663794392
 20
-164.5284586177221
 10
107.1841552466415
 20
-164.5284586177221
 10
107.1638291832785
 20
-164.5284586177221
 10
107.1252441138437
 20
-164.5305256750132
 10
107.0963053117676
 20
-164.5346597895955
 10
107.0963053117676
 20
-164.5346597895955
 10
107.0963053117676
 20
-164.3400118946789
 10
107.0963053117676
 20
-164.3400118946789
 10
107.1369574384935
 20
-164.3465575761009
 10
107.1817436798018
 20
-164.348624633392
 10
107.1886338707723
 20
-164.348624633392
 10
107.2589138186714
 20
-164.348624633392
 10
107.4711317005628
 20
-164.327609550932
 10
107.4711317005628
 20
-164.0905869815468
 10
107.4711317005628
 20
-163.9128200545079
 10
107.3312608238616
 20
-163.8576985267439
 10
107.2134385582661
 20
-163.8576985267439
 10
106.9309407284756
 20
-163.8576985267439
 10
106.921983480214
 20
-164.0905869815468
 10
106.9175048560831
 20
-164.1625894771885
 10
106.9175048560831
 20
-164.1625894771885
 10
106.7004638405124
 20
-164.1625894771885
 10
106.7004638405124
 20
-164.1625894771885
 10
106.709421088774
 20
-164.0375325110739
 10
106.7387044003987
 20
-163.6609835745361
 10
107.2272189402071
 20
-163.6609835745361
 10
107.4669975859805
 20
-163.6609835745361
 10
107.7246907282772
 20
-163.7881075979419
 10
107.7246907282772
 20
-164.0840413001248
 10
107.7246907282772
 20
-164.2704209658768
 10
107.6227159019138
 20
-164.3527587479743
 10
107.5166069609681
 20
-164.4140814476118
 10
107.5820637751878
 20
-164.4416422114938
 10
107.7763671605559
 20
-164.5222574458486
 10
107.7763671605559
 20
-164.7992431228627
 10
107.7763671605559
 20
-165.1378960090628
 10
107.5121283368373
 20
-165.3049831400974
 10
107.2158501251058
 20
-165.3049831400974
 97
        0
 97
        0
 75
     2
 76
     1
 98
        0
  0
ENDBLK
  5
7E
330
7B
100
AcDbEntity
  8
0
100
AcDbBlockEnd
  0
BLOCK
  5
95
330
93
100
AcDbEntity
  8
0
100
AcDbBlockBegin
  2
block 5
 70
     0
 10
0.0
 20
0.0
 30
0.0
  3
block 5
  1

  0
SPLINE
  5
97
330
93
100
AcDbEntity
  8
_U+30EC_U+30A4_U+30E4_U+30FC 1
370
     0
100
AcDbSpline
210
0.0
220
0.0
230
1.0
 70
    11
 71
     3
 72
    26
 73
    22
 74
     0
 42
0.0000000001
 43
0.0000000001
 12
1.0
 22
0.0
 32
0.0
 13
1.0
 23
0.0
 33
0.0
 40
0.0
 40
0.0
 40
0.0
 40
0.0
 40
1.0
 40
1.0
 40
1.0
 40
2.0
 40
2.0
 40
2.0
 40
3.0
 40
3.0
 40
3.0
 40
4.0
 40
4.0
 40
4.0
 40
5.0
 40
5.0
 40
5.0
 40
6.0
 40
6.0
 40
6.0
 40
7.0
 40
7.0
 40
7.0
 40
7.0
 10
103.6873833291129
 20
-132.1536905594095
 30
0.0
 10
103.6873833291129
 20
-132.1536905594095
 30
0.0
 10
103.6873833291129
 20
-131.0493652016127
 30
0.0
 10
103.6873833291129
 20
-131.0493652016127
 30
0.0
 10
103.6873833291129
 20
-131.0493652016127
 30
0.0
 10
103.3346055514233
 20
-131.0493652016127
 30
0.0
 10
103.3346055514233
 20
-131.0493652016127
 30
0.0
 10
103.3346055514233
 20
-131.0493652016127
 30
0.0
 10
103.3346055514233
 20
-130.9013983505212
 30
0.0
 10
103.3346055514233
 20
-130.9013983505212
 30
0.0
 10
103.6896226411783
 20
-130.8865844399346
 30
0.0
 10
103.7394042709402
 20
-130.7236314234823
 30
0.0
 10
103.7710991494044
 20
-130.6094265081463
 30
0.0
 10
103.7710991494044
 20
-130.6094265081463
 30
0.0
 10
103.926989720112
 20
-130.6094265081463
 30
0.0
 10
103.926989720112
 20
-130.6094265081463
 30
0.0
 10
103.926989720112
 20
-130.6094265081463
 30
0.0
 10
103.926989720112
 20
-132.1536905594095
 30
0.0
 10
103.926989720112
 20
-132.1536905594095
 30
0.0
 10
103.926989720112
 20
-132.1536905594095
 30
0.0
 10
103.6873833291129
 20
-132.1536905594095
 30
0.0
 10
103.6873833291129
 20
-132.1536905594095
 30
0.0
  0
HATCH
  5
98
330
93
100
AcDbEntity
  8
_U+30EC_U+30A4_U+30E4_U+30FC 1
 62
   179
420
  2234388
100
AcDbHatch
 10
0.0
 20
0.0
 30
0.0
210
0.0
220
0.0
230
1.0
  2
SOLID
 70
     1
 71
     0
 91
        1
 92
        1
 93
        1
 72
     4
 94
        3
 73
     0
 74
     1
 95
       26
 96
       22
 40
0.0
 40
0.0
 40
0.0
 40
0.0
 40
1.0
 40
1.0
 40
1.0
 40
2.0
 40
2.0
 40
2.0
 40
3.0
 40
3.0
 40
3.0
 40
4.0
 40
4.0
 40
4.0
 40
5.0
 40
5.0
 40
5.0
 40
6.0
 40
6.0
 40
6.0
 40
7.0
 40
7.0
 40
7.0
 40
7.0
 10
103.6873833291129
 20
-132.1536905594095
 10
103.6873833291129
 20
-132.1536905594095
 10
103.6873833291129
 20
-131.0493652016127
 10
103.6873833291129
 20
-131.0493652016127
 10
103.6873833291129
 20
-131.0493652016127
 10
103.3346055514233
 20
-131.0493652016127
 10
103.3346055514233
 20
-131.0493652016127
 10
103.3346055514233
 20
-131.0493652016127
 10
103.3346055514233
 20
-130.9013983505212
 10
103.3346055514233
 20
-130.9013983505212
 10
103.6896226411783
 20
-130.8865844399346
 10
103.7394042709402
 20
-130.7236314234823
 10
103.7710991494044
 20
-130.6094265081463
 10
103.7710991494044
 20
-130.6094265081463
 10
103.926989720112
 20
-130.6094265081463
 10
103.926989720112
 20
-130.6094265081463
 10
103.926989720112
 20
-130.6094265081463
 10
103.926989720112
 20
-132.1536905594095
 10
103.926989720112
 20
-132.1536905594095
 10
103.926989720112
 20
-132.1536905594095
 10
103.6873833291129
 20
-132.1536905594095
 10
103.6873833291129
 20
-132.1536905594095
 97
        0
 97
        0
 75
     2
 76
     1
 98
        0
  0
ENDBLK
  5
96
330
93
100
AcDbEntity
  8
0
100
AcDbBlockEnd
  0
ENDSEC
  0
SECTION
  2
ENTITIES
  0
SPLINE
  5
41
330
1F
100
AcDbEntity
  8
_U+30EC_U+30A4_U+30E4_U+30FC 1
 62
   179
420
  2234388
370
     9
100
AcDbSpline
210
0.0
220
0.0
230
1.0
 70
    11
 71
     3
 72
    17
 73
    13
 74
     0
 42
0.0000000001
 43
0.0000000001
 12
1.0
 22
0.0
 32
0.0
 13
1.0
 23
0.0
 33
0.0
 40
0.0
 40
0.0
 40
0.0
 40
0.0
 40
1.0
 40
1.0
 40
1.0
 40
2.0
 40
2.0
 40
2.0
 40
3.0
 40
3.0
 40
3.0
 40
4.0
 40
4.0
 40
4.0
 40
4.0
 10
95.79723186217265
 20
-162.5460645481222
 30
0.0
 10
95.79723186217265
 20
-162.6014659898943
 30
0.0
 10
95.75242408901795
 20
-162.6462737630494
 30
0.0
 10
95.69703341316884
 20
-162.6462737630494
 30
0.0
 10
95.64200877871569
 20
-162.6462737630494
 30
0.0
 10
95.59720100556034
 20
-162.6014659898943
 30
0.0
 10
95.59720100556034
 20
-162.5460645481222
 30
0.0
 10
95.59720100556034
 20
-162.4910506795921
 30
0.0
 10
95.64200877871569
 20
-162.446242906437
 30
0.0
 10
95.69703341316884
 20
-162.446242906437
 30
0.0
 10
95.75242408901795
 20
-162.446242906437
 30
0.0
 10
95.79723186217265
 20
-162.4910506795921
 30
0.0
 10
95.79723186217265
 20
-162.5460645481222
 30
0.0
  0
SPLINE
  5
42
330
1F
100
AcDbEntity
  8
_U+30EC_U+30A4_U+30E4_U+30FC 1
 62
   179
420
  2234388
370
     9
100
AcDbSpline
210
0.0
220
0.0
230
1.0
 70
    11
 71
     3
 72
    17
 73
    13
 74
     0
 42
0.0000000001
 43
0.0000000001
 12
1.0
 22
0.0
 32
0.0
 13
1.0
 23
0.0
 33
0.0
 40
0.0
 40
0.0
 40
0.0
 40
0.0
 40
1.0
 40
1.0
 40
1.0
 40
2.0
 40
2.0
 40
2.0
 40
3.0
 40
3.0
 40
3.0
 40
4.0
 40
4.0
 40
4.0
 40
4.0
 10
95.79723186217265
 20
-137.6233394702603
 30
0.0
 10
95.79723186217265
 20
-137.6783748706372
 30
0.0
 10
95.75242408901795
 20
-137.7231826437919
 30
0.0
 10
95.69703341316884
 20
-137.7231826437919
 30
0.0
 10
95.64200877871569
 20
-137.7231826437919
 30
0.0
 10
95.59720100556034
 20
-137.6783748706372
 30
0.0
 10
95.59720100556034
 20
-137.6233394702603
 30
0.0
 10
95.59720100556034
 20
-137.5683256017299
 30
0.0
 10
95.64200877871569
 20
-137.5235178285752
 30
0.0
 10
95.69703341316884
 20
-137.5235178285752
 30
0.0
 10
95.75242408901795
 20
-137.5235178285752
 30
0.0
 10
95.79723186217265
 20
-137.5683256017299
 30
0.0
 10
95.79723186217265
 20
-137.6233394702603
 30
0.0
  0
SPLINE
  5
43
330
1F
100
AcDbEntity
  8
_U+30EC_U+30A4_U+30E4_U+30FC 1
 62
   179
420
  2234388
370
     9
100
AcDbSpline
210
0.0
220
0.0
230
1.0
 70
    11
 71
     3
 72
    17
 73
    13
 74
     0
 42
0.0000000001
 43
0.0000000001
 12
1.0
 22
0.0
 32
0.0
 13
1.0
 23
0.0
 33
0.0
 40
0.0
 40
0.0
 40
0.0
 40
0.0
 40
1.0
 40
1.0
 40
1.0
 40
2.0
 40
2.0
 40
2.0
 40
3.0
 40
3.0
 40
3.0
 40
4.0
 40
4.0
 40
4.0
 40
4.0
 10
116.7967898606663
 20
-159.5460969314134
 30
0.0
 10
116.7967898606663
 20
-159.6014983731856
 30
0.0
 10
116.7519820875112
 20
-159.6459401049453
 30
0.0
 10
116.6969466871344
 20
-159.6459401049453
 30
0.0
 10
116.641566777209
 20
-159.6459401049453
 30
0.0
 10
116.5967590040539
 20
-159.6014983731856
 30
0.0
 10
116.5967590040539
 20
-159.5460969314134
 30
0.0
 10
116.5967590040539
 20
-159.4910830628833
 30
0.0
 10
116.641566777209
 20
-159.4462752897283
 30
0.0
 10
116.6969466871344
 20
-159.4462752897283
 30
0.0
 10
116.7519820875112
 20
-159.4462752897283
 30
0.0
 10
116.7967898606663
 20
-159.4910830628833
 30
0.0
 10
116.7967898606663
 20
-159.5460969314134
 30
0.0
  0
SPLINE
  5
44
330
1F
100
AcDbEntity
  8
_U+30EC_U+30A4_U+30E4_U+30FC 1
 62
   179
420
  2234388
370
     9
100
AcDbSpline
210
0.0
220
0.0
230
1.0
 70
    11
 71
     3
 72
    17
 73
    13
 74
     0
 42
0.0000000001
 43
0.0000000001
 12
1.0
 22
0.0
 32
0.0
 13
1.0
 23
0.0
 33
0.0
 40
0.0
 40
0.0
 40
0.0
 40
0.0
 40
1.0
 40
1.0
 40
1.0
 40
2.0
 40
2.0
 40
2.0
 40
3.0
 40
3.0
 40
3.0
 40
4.0
 40
4.0
 40
4.0
 40
4.0
 10
116.7967898606663
 20
-162.5460645481222
 30
0.0
 10
116.7967898606663
 20
-162.6014659898943
 30
0.0
 10
116.7519820875112
 20
-162.6462737630494
 30
0.0
 10
116.6969466871344
 20
-162.6462737630494
 30
0.0
 10
116.641566777209
 20
-162.6462737630494
 30
0.0
 10
116.5967590040539
 20
-162.6014659898943
 30
0.0
 10
116.5967590040539
 20
-162.5460645481222
 30
0.0
 10
116.5967590040539
 20
-162.4910506795921
 30
0.0
 10
116.641566777209
 20
-162.446242906437
 30
0.0
 10
116.6969466871344
 20
-162.446242906437
 30
0.0
 10
116.7519820875112
 20
-162.446242906437
 30
0.0
 10
116.7967898606663
 20
-162.4910506795921
 30
0.0
 10
116.7967898606663
 20
-162.5460645481222
 30
0.0
  0
POLYLINE
  5
45
330
1F
100
AcDbEntity
  8
_U+30EC_U+30A4_U+30E4_U+30FC 1
 62
   179
420
  2234388
370
     9
100
AcDb2dPolyline
 66
     1
 10
0.0
 20
0.0
 30
0.0
  0
VERTEX
  5
46
330
45
100
AcDbEntity
  8
_U+30EC_U+30A4_U+30E4_U+30FC 1
 62
   179
420
  2234388
370
     9
100
AcDbVertex
100
AcDb2dVertex
 10
116.696882091594
 20
-162.5460645481222
 30
0.0
  0
VERTEX
  5
47
330
45
100
AcDbEntity
  8
_U+30EC_U+30A4_U+30E4_U+30FC 1
 62
   179
420
  2234388
370
     9
100
AcDbVertex
100
AcDb2dVertex
 10
116.696882091594
 20
-159.5460538677198
 30
0.0
  0
SEQEND
  5
48
330
45
100
AcDbEntity
  8
_U+30EC_U+30A4_U+30E4_U+30FC 1
 62
   179
420
  2234388
370
     9
  0
POLYLINE
  5
49
330
1F
100
AcDbEntity
  8
_U+30EC_U+30A4_U+30E4_U+30FC 1
 62
   179
420
  2234388
370
     9
100
AcDb2dPolyline
 66
     1
 10
0.0
 20
0.0
 30
0.0
  0
VERTEX
  5
4A
330
49
100
AcDbEntity
  8
_U+30EC_U+30A4_U+30E4_U+30FC 1
 62
   179
420
  2234388
370
     9
100
AcDbVertex
100
AcDb2dVertex
 10
115.2368721567919
 20
-162.5460645481222
 30
0.0
  0
VERTEX
  5
4B
330
49
100
AcDbEntity
  8
_U+30EC_U+30A4_U+30E4_U+30FC 1
 62
   179
420
  2234388
370
     9
100
AcDbVertex
100
AcDb2dVertex
 10
117.6967887584176
 20
-162.5460645481222
 30
0.0
  0
SEQEND
  5
4C
330
49
100
AcDbEntity
  8
_U+30EC_U+30A4_U+30E4_U+30FC 1
 62
   179
420
  2234388
370
     9
  0
POLYLINE
  5
4D
330
1F
100
AcDbEntity
  8
_U+30EC_U+30A4_U+30E4_U+30FC 1
 62
   179
420
  2234388
370
     9
100
AcDb2dPolyline
 66
     1
 10
0.0
 20
0.0
 30
0.0
  0
VERTEX
  5
4E
330
4D
100
AcDbEntity
  8
_U+30EC_U+30A4_U+30E4_U+30FC 1
 62
   179
420
  2234388
370
     9
100
AcDbVertex
100
AcDb2dVertex
 10
115.2368721567919
 20
-159.5460969314134
 30
0.0
  0
VERTEX
  5
4F
330
4D
100
AcDbEntity
  8
_U+30EC_U+30A4_U+30E4_U+30FC 1
 62
   179
420
  2234388
370
     9
100
AcDbVertex
100
AcDb2dVertex
 10
117.6967887584176
 20
-159.5460969314134
 30
0.0
  0
SEQEND
  5
50
330
4D
100
AcDbEntity
  8
_U+30EC_U+30A4_U+30E4_U+30FC 1
 62
   179
420
  2234388
370
     9
  0
INSERT
  5
52
330
1F
100
AcDbEntity
  8
_U+30EC_U+30A4_U+30E4_U+30FC 1
100
AcDbBlockReference
  2
block 2
 10
0.0
 20
0.0
 30
0.0
  0
POLYLINE
  5
57
330
1F
100
AcDbEntity
  8
_U+30EC_U+30A4_U+30E4_U+30FC 1
 62
   179
420
  2234388
370
     9
100
AcDb2dPolyline
 66
     1
 10
0.0
 20
0.0
 30
0.0
  0
VERTEX
  5
58
330
57
100
AcDbEntity
  8
_U+30EC_U+30A4_U+30E4_U+30FC 1
 62
   179
420
  2234388
370
     9
100
AcDbVertex
100
AcDb2dVertex
 10
95.6969688176285
 20
-162.5460645481222
 30
0.0
  0
VERTEX
  5
59
330
57
100
AcDbEntity
  8
_U+30EC_U+30A4_U+30E4_U+30FC 1
 62
   179
420
  2234388
370
     9
100
AcDbVertex
100
AcDb2dVertex
 10
95.6969688176285
 20
-137.6233825339535
 30
0.0
  0
SEQEND
  5
5A
330
57
100
AcDbEntity
  8
_U+30EC_U+30A4_U+30E4_U+30FC 1
 62
   179
420
  2234388
370
     9
  0
POLYLINE
  5
5B
330
1F
100
AcDbEntity
  8
_U+30EC_U+30A4_U+30E4_U+30FC 1
 62
   179
420
  2234388
370
     9
100
AcDb2dPolyline
 66
     1
 10
0.0
 20
0.0
 30
0.0
  0
VERTEX
  5
5C
330
5B
100
AcDbEntity
  8
_U+30EC_U+30A4_U+30E4_U+30FC 1
 62
   179
420
  2234388
370
     9
100
AcDbVertex
100
AcDb2dVertex
 10
97.15701105020077
 20
-162.5460645481222
 30
0.0
  0
VERTEX
  5
5D
330
5B
100
AcDbEntity
  8
_U+30EC_U+30A4_U+30E4_U+30FC 1
 62
   179
420
  2234388
370
     9
100
AcDbVertex
100
AcDb2dVertex
 10
94.6970836826517
 20
-162.5460645481222
 30
0.0
  0
SEQEND
  5
5E
330
5B
100
AcDbEntity
  8
_U+30EC_U+30A4_U+30E4_U+30FC 1
 62
   179
420
  2234388
370
     9
  0
POLYLINE
  5
5F
330
1F
100
AcDbEntity
  8
_U+30EC_U+30A4_U+30E4_U+30FC 1
 62
   179
420
  2234388
370
     9
100
AcDb2dPolyline
 66
     1
 10
0.0
 20
0.0
 30
0.0
  0
VERTEX
  5
60
330
5F
100
AcDbEntity
  8
_U+30EC_U+30A4_U+30E4_U+30FC 1
 62
   179
420
  2234388
370
     9
100
AcDbVertex
100
AcDb2dVertex
 10
97.15701105020077
 20
-137.6233394702603
 30
0.0
  0
VERTEX
  5
61
330
5F
100
AcDbEntity
  8
_U+30EC_U+30A4_U+30E4_U+30FC 1
 62
   179
420
  2234388
370
     9
100
AcDbVertex
100
AcDb2dVertex
 10
94.6970836826517
 20
-137.6233394702603
 30
0.0
  0
SEQEND
  5
62
330
5F
100
AcDbEntity
  8
_U+30EC_U+30A4_U+30E4_U+30FC 1
 62
   179
420
  2234388
370
     9
  0
INSERT
  5
64
330
1F
100
AcDbEntity
  8
_U+30EC_U+30A4_U+30E4_U+30FC 1
100
AcDbBlockReference
  2
block 3
 10
0.0
 20
0.0
 30
0.0
  0
SPLINE
  5
6B
330
1F
100
AcDbEntity
  8
_U+30EC_U+30A4_U+30E4_U+30FC 1
 62
   179
420
  2234388
370
     9
100
AcDbSpline
210
0.0
220
0.0
230
1.0
 70
    11
 71
     3
 72
    17
 73
    13
 74
     0
 42
0.0000000001
 43
0.0000000001
 12
1.0
 22
0.0
 32
0.0
 13
1.0
 23
0.0
 33
0.0
 40
0.0
 40
0.0
 40
0.0
 40
0.0
 40
1.0
 40
1.0
 40
1.0
 40
2.0
 40
2.0
 40
2.0
 40
3.0
 40
3.0
 40
3.0
 40
4.0
 40
4.0
 40
4.0
 40
4.0
 10
99.79731069824979
 20
-133.2169331535447
 30
0.0
 10
99.79731069824979
 20
-133.2726791048654
 30
0.0
 10
99.75250292509443
 20
-133.3174868780208
 30
0.0
 10
99.69711224924565
 20
-133.3174868780208
 30
0.0
 10
99.64208761479217
 20
-133.3174868780208
 30
0.0
 10
99.59727984163715
 20
-133.2726791048654
 30
0.0
 10
99.59727984163715
 20
-133.2169331535447
 30
0.0
 10
99.59727984163715
 20
-133.1619192850146
 30
0.0
 10
99.64208761479217
 20
-133.1171115118596
 30
0.0
 10
99.69711224924565
 20
-133.1171115118596
 30
0.0
 10
99.75250292509443
 20
-133.1171115118596
 30
0.0
 10
99.79731069824979
 20
-133.1619192850146
 30
0.0
 10
99.79731069824979
 20
-133.2169331535447
 30
0.0
  0
SPLINE
  5
6C
330
1F
100
AcDbEntity
  8
_U+30EC_U+30A4_U+30E4_U+30FC 1
 62
   179
420
  2234388
370
     9
100
AcDbSpline
210
0.0
220
0.0
230
1.0
 70
    11
 71
     3
 72
    17
 73
    13
 74
     0
 42
0.0000000001
 43
0.0000000001
 12
1.0
 22
0.0
 32
0.0
 13
1.0
 23
0.0
 33
0.0
 40
0.0
 40
0.0
 40
0.0
 40
0.0
 40
1.0
 40
1.0
 40
1.0
 40
2.0
 40
2.0
 40
2.0
 40
3.0
 40
3.0
 40
3.0
 40
4.0
 40
4.0
 40
4.0
 40
4.0
 10
100.7970774080693
 20
-133.2169331535447
 30
0.0
 10
100.7970774080693
 20
-133.2726791048654
 30
0.0
 10
100.7522696349139
 20
-133.3174868780208
 30
0.0
 10
100.6972342345371
 20
-133.3174868780208
 30
0.0
 10
100.6421988341602
 20
-133.3174868780208
 30
0.0
 10
100.5974018269286
 20
-133.2726791048654
 30
0.0
 10
100.5974018269286
 20
-133.2169331535447
 30
0.0
 10
100.5974018269286
 20
-133.1619192850146
 30
0.0
 10
100.6421988341602
 20
-133.1171115118596
 30
0.0
 10
100.6972342345371
 20
-133.1171115118596
 30
0.0
 10
100.7522696349139
 20
-133.1171115118596
 30
0.0
 10
100.7970774080693
 20
-133.1619192850146
 30
0.0
 10
100.7970774080693
 20
-133.2169331535447
 30
0.0
  0
SPLINE
  5
6D
330
1F
100
AcDbEntity
  8
_U+30EC_U+30A4_U+30E4_U+30FC 1
 62
   179
420
  2234388
370
     9
100
AcDbSpline
210
0.0
220
0.0
230
1.0
 70
    11
 71
     3
 72
    17
 73
    13
 74
     0
 42
0.0000000001
 43
0.0000000001
 12
1.0
 22
0.0
 32
0.0
 13
1.0
 23
0.0
 33
0.0
 40
0.0
 40
0.0
 40
0.0
 40
0.0
 40
1.0
 40
1.0
 40
1.0
 40
2.0
 40
2.0
 40
2.0
 40
3.0
 40
3.0
 40
3.0
 40
4.0
 40
4.0
 40
4.0
 40
4.0
 10
112.7967110245895
 20
-166.3179273401479
 30
0.0
 10
112.7967110245895
 20
-166.3729627405248
 30
0.0
 10
112.7519032514344
 20
-166.4177705136798
 30
0.0
 10
112.6968678510576
 20
-166.4177705136798
 30
0.0
 10
112.6418324506807
 20
-166.4177705136798
 30
0.0
 10
112.5970354434491
 20
-166.3729627405248
 30
0.0
 10
112.5970354434491
 20
-166.3179273401479
 30
0.0
 10
112.5970354434491
 20
-166.2629134716179
 30
0.0
 10
112.6418324506807
 20
-166.2181056984628
 30
0.0
 10
112.6968678510576
 20
-166.2181056984628
 30
0.0
 10
112.7519032514344
 20
-166.2181056984628
 30
0.0
 10
112.7967110245895
 20
-166.2629134716179
 30
0.0
 10
112.7967110245895
 20
-166.3179273401479
 30
0.0
  0
POLYLINE
  5
6E
330
1F
100
AcDbEntity
  8
_U+30EC_U+30A4_U+30E4_U+30FC 1
 62
   179
420
  2234388
370
     9
100
AcDb2dPolyline
 66
     1
 10
0.0
 20
0.0
 30
0.0
  0
VERTEX
  5
6F
330
6E
100
AcDbEntity
  8
_U+30EC_U+30A4_U+30E4_U+30FC 1
 62
   179
420
  2234388
370
     9
100
AcDbVertex
100
AcDb2dVertex
 10
99.6965524212293
 20
-166.3179273401479
 30
0.0
  0
VERTEX
  5
70
330
6E
100
AcDbEntity
  8
_U+30EC_U+30A4_U+30E4_U+30FC 1
 62
   179
420
  2234388
370
     9
100
AcDbVertex
100
AcDb2dVertex
 10
112.6967601918236
 20
-166.3179273401479
 30
0.0
  0
SEQEND
  5
71
330
6E
100
AcDbEntity
  8
_U+30EC_U+30A4_U+30E4_U+30FC 1
 62
   179
420
  2234388
370
     9
  0
POLYLINE
  5
72
330
1F
100
AcDbEntity
  8
_U+30EC_U+30A4_U+30E4_U+30FC 1
 62
   179
420
  2234388
370
     9
100
AcDb2dPolyline
 66
     1
 10
0.0
 20
0.0
 30
0.0
  0
VERTEX
  5
73
330
72
100
AcDbEntity
  8
_U+30EC_U+30A4_U+30E4_U+30FC 1
 62
   179
420
  2234388
370
     9
100
AcDbVertex
100
AcDb2dVertex
 10
112.6968032555172
 20
-167.7779372749501
 30
0.0
  0
VERTEX
  5
74
330
72
100
AcDbEntity
  8
_U+30EC_U+30A4_U+30E4_U+30FC 1
 62
   179
420
  2234388
370
     9
100
AcDbVertex
100
AcDb2dVertex
 10
112.6968032555172
 20
-165.3173208883039
 30
0.0
  0
SEQEND
  5
75
330
72
100
AcDbEntity
  8
_U+30EC_U+30A4_U+30E4_U+30FC 1
 62
   179
420
  2234388
370
     9
  0
SPLINE
  5
76
330
1F
100
AcDbEntity
  8
_U+30EC_U+30A4_U+30E4_U+30FC 1
 62
   179
420
  2234388
370
     9
100
AcDbSpline
210
0.0
220
0.0
230
1.0
 70
    11
 71
     3
 72
    17
 73
    13
 74
     0
 42
0.0000000001
 43
0.0000000001
 12
1.0
 22
0.0
 32
0.0
 13
1.0
 23
0.0
 33
0.0
 40
0.0
 40
0.0
 40
0.0
 40
0.0
 40
1.0
 40
1.0
 40
1.0
 40
2.0
 40
2.0
 40
2.0
 40
3.0
 40
3.0
 40
3.0
 40
4.0
 40
4.0
 40
4.0
 40
4.0
 10
99.79646019030154
 20
-166.3179273401479
 30
0.0
 10
99.79646019030154
 20
-166.3729627405248
 30
0.0
 10
99.75165241714652
 20
-166.4177705136798
 30
0.0
 10
99.69661701676965
 20
-166.4177705136798
 30
0.0
 10
99.64158161639278
 20
-166.4177705136798
 30
0.0
 10
99.59678460916113
 20
-166.3729627405248
 30
0.0
 10
99.59678460916113
 20
-166.3179273401479
 30
0.0
 10
99.59678460916113
 20
-166.2629134716179
 30
0.0
 10
99.64158161639278
 20
-166.2181056984628
 30
0.0
 10
99.69661701676965
 20
-166.2181056984628
 30
0.0
 10
99.75165241714652
 20
-166.2181056984628
 30
0.0
 10
99.79646019030154
 20
-166.2629134716179
 30
0.0
 10
99.79646019030154
 20
-166.3179273401479
 30
0.0
  0
POLYLINE
  5
77
330
1F
100
AcDbEntity
  8
_U+30EC_U+30A4_U+30E4_U+30FC 1
 62
   179
420
  2234388
370
     9
100
AcDb2dPolyline
 66
     1
 10
0.0
 20
0.0
 30
0.0
  0
VERTEX
  5
78
330
77
100
AcDbEntity
  8
_U+30EC_U+30A4_U+30E4_U+30FC 1
 62
   179
420
  2234388
370
     9
100
AcDbVertex
100
AcDb2dVertex
 10
99.6965524212293
 20
-167.7779372749501
 30
0.0
  0
VERTEX
  5
79
330
77
100
AcDbEntity
  8
_U+30EC_U+30A4_U+30E4_U+30FC 1
 62
   179
420
  2234388
370
     9
100
AcDbVertex
100
AcDb2dVertex
 10
99.6965524212293
 20
-165.3173208883039
 30
0.0
  0
SEQEND
  5
7A
330
77
100
AcDbEntity
  8
_U+30EC_U+30A4_U+30E4_U+30FC 1
 62
   179
420
  2234388
370
     9
  0
INSERT
  5
7C
330
1F
100
AcDbEntity
  8
_U+30EC_U+30A4_U+30E4_U+30FC 1
100
AcDbBlockReference
  2
block 4
 10
0.0
 20
0.0
 30
0.0
  0
POLYLINE
  5
83
330
1F
100
AcDbEntity
  8
_U+30EC_U+30A4_U+30E4_U+30FC 1
 62
   179
420
  2234388
370
     9
100
AcDb2dPolyline
 66
     1
 10
0.0
 20
0.0
 30
0.0
  0
VERTEX
  5
84
330
83
100
AcDbEntity
  8
_U+30EC_U+30A4_U+30E4_U+30FC 1
 62
   179
420
  2234388
370
     9
100
AcDbVertex
100
AcDb2dVertex
 10
100.697169638997
 20
-133.2169331535447
 30
0.0
  0
VERTEX
  5
85
330
83
100
AcDbEntity
  8
_U+30EC_U+30A4_U+30E4_U+30FC 1
 62
   179
420
  2234388
370
     9
100
AcDbVertex
100
AcDb2dVertex
 10
104.4676543928287
 20
-133.2169331535447
 30
0.0
  0
SEQEND
  5
86
330
83
100
AcDbEntity
  8
_U+30EC_U+30A4_U+30E4_U+30FC 1
 62
   179
420
  2234388
370
     9
  0
POLYLINE
  5
87
330
1F
100
AcDbEntity
  8
_U+30EC_U+30A4_U+30E4_U+30FC 1
 62
   179
420
  2234388
370
     9
100
AcDb2dPolyline
 66
     1
 10
0.0
 20
0.0
 30
0.0
  0
VERTEX
  5
88
330
87
100
AcDbEntity
  8
_U+30EC_U+30A4_U+30E4_U+30FC 1
 62
   179
420
  2234388
370
     9
100
AcDbVertex
100
AcDb2dVertex
 10
100.697169638997
 20
-133.2169331535447
 30
0.0
  0
VERTEX
  5
89
330
87
100
AcDbEntity
  8
_U+30EC_U+30A4_U+30E4_U+30FC 1
 62
   179
420
  2234388
370
     9
100
AcDbVertex
100
AcDb2dVertex
 10
98.69691490249049
 20
-133.2169331535447
 30
0.0
  0
SEQEND
  5
8A
330
87
100
AcDbEntity
  8
_U+30EC_U+30A4_U+30E4_U+30FC 1
 62
   179
420
  2234388
370
     9
  0
POLYLINE
  5
8B
330
1F
100
AcDbEntity
  8
_U+30EC_U+30A4_U+30E4_U+30FC 1
 62
   179
420
  2234388
370
     9
100
AcDb2dPolyline
 66
     1
 10
0.0
 20
0.0
 30
0.0
  0
VERTEX
  5
8C
330
8B
100
AcDbEntity
  8
_U+30EC_U+30A4_U+30E4_U+30FC 1
 62
   179
420
  2234388
370
     9
100
AcDbVertex
100
AcDb2dVertex
 10
100.697169638997
 20
-134.6769861520404
 30
0.0
  0
VERTEX
  5
8D
330
8B
100
AcDbEntity
  8
_U+30EC_U+30A4_U+30E4_U+30FC 1
 62
   179
420
  2234388
370
     9
100
AcDbVertex
100
AcDb2dVertex
 10
100.697169638997
 20
-132.2170803163381
 30
0.0
  0
SEQEND
  5
8E
330
8B
100
AcDbEntity
  8
_U+30EC_U+30A4_U+30E4_U+30FC 1
 62
   179
420
  2234388
370
     9
  0
POLYLINE
  5
8F
330
1F
100
AcDbEntity
  8
_U+30EC_U+30A4_U+30E4_U+30FC 1
 62
   179
420
  2234388
370
     9
100
AcDb2dPolyline
 66
     1
 10
0.0
 20
0.0
 30
0.0
  0
VERTEX
  5
90
330
8F
100
AcDbEntity
  8
_U+30EC_U+30A4_U+30E4_U+30FC 1
 62
   179
420
  2234388
370
     9
100
AcDbVertex
100
AcDb2dVertex
 10
99.69707995147547
 20
-134.6769861520404
 30
0.0
  0
VERTEX
  5
91
330
8F
100
AcDbEntity
  8
_U+30EC_U+30A4_U+30E4_U+30FC 1
 62
   179
420
  2234388
370
     9
100
AcDbVertex
100
AcDb2dVertex
 10
99.69707995147547
 20
-132.2170803163381
 30
0.0
  0
SEQEND
  5
92
330
8F
100
AcDbEntity
  8
_U+30EC_U+30A4_U+30E4_U+30FC 1
 62
   179
420
  2234388
370
     9
  0
INSERT
  5
94
330
1F
100
AcDbEntity
  8
_U+30EC_U+30A4_U+30E4_U+30FC 1
100
AcDbBlockReference
  2
block 5
 10
0.0
 20
0.0
 30
0.0
  0
POLYLINE
  5
99
330
1F
100
AcDbEntity
  8
_U+30EC_U+30A4_U+30E4_U+30FC 1
 62
   179
420
  2234388
370
    25
100
AcDb2dPolyline
 66
     1
 10
0.0
 20
0.0
 30
0.0
  0
VERTEX
  5
9A
330
99
100
AcDbEntity
  8
_U+30EC_U+30A4_U+30E4_U+30FC 1
 62
   179
420
  2234388
370
    25
100
AcDbVertex
100
AcDb2dVertex
 10
99.69721990847957
 20
-137.5462339269307
 30
0.0
  0
VERTEX
  5
9B
330
99
100
AcDbEntity
  8
_U+30EC_U+30A4_U+30E4_U+30FC 1
 62
   179
420
  2234388
370
    25
100
AcDbVertex
100
AcDb2dVertex
 10
100.6973418937713
 20
-137.5462339269307
 30
0.0
  0
VERTEX
  5
9C
330
99
100
AcDbEntity
  8
_U+30EC_U+30A4_U+30E4_U+30FC 1
 62
   179
420
  2234388
370
    25
100
AcDbVertex
100
AcDb2dVertex
 10
100.6973418937713
 20
-161.5460609879881
 30
0.0
  0
VERTEX
  5
9D
330
99
100
AcDbEntity
  8
_U+30EC_U+30A4_U+30E4_U+30FC 1
 62
   179
420
  2234388
370
    25
100
AcDbVertex
100
AcDb2dVertex
 10
111.6965951428387
 20
-161.5460609879881
 30
0.0
  0
VERTEX
  5
9E
330
99
100
AcDbEntity
  8
_U+30EC_U+30A4_U+30E4_U+30FC 1
 62
   179
420
  2234388
370
    25
100
AcDbVertex
100
AcDb2dVertex
 10
111.6965951428387
 20
-160.54594976862
 30
0.0
  0
VERTEX
  5
9F
330
99
100
AcDbEntity
  8
_U+30EC_U+30A4_U+30E4_U+30FC 1
 62
   179
420
  2234388
370
    25
100
AcDbVertex
100
AcDb2dVertex
 10
107.6971514962419
 20
-160.54594976862
 30
0.0
  0
VERTEX
  5
A0
330
99
100
AcDbEntity
  8
_U+30EC_U+30A4_U+30E4_U+30FC 1
 62
   179
420
  2234388
370
    25
100
AcDbVertex
100
AcDb2dVertex
 10
107.6971514962419
 20
-159.5458170174052
 30
0.0
  0
VERTEX
  5
A1
330
99
100
AcDbEntity
  8
_U+30EC_U+30A4_U+30E4_U+30FC 1
 62
   179
420
  2234388
370
    25
100
AcDbVertex
100
AcDb2dVertex
 10
112.6967278940535
 20
-159.5458170174052
 30
0.0
  0
VERTEX
  5
A2
330
99
100
AcDbEntity
  8
_U+30EC_U+30A4_U+30E4_U+30FC 1
 62
   179
420
  2234388
370
    25
100
AcDbVertex
100
AcDb2dVertex
 10
112.6967278940535
 20
-162.5458492296544
 30
0.0
  0
VERTEX
  5
A3
330
99
100
AcDbEntity
  8
_U+30EC_U+30A4_U+30E4_U+30FC 1
 62
   179
420
  2234388
370
    25
100
AcDbVertex
100
AcDb2dVertex
 10
99.69721990847957
 20
-162.5458492296544
 30
0.0
  0
VERTEX
  5
A4
330
99
100
AcDbEntity
  8
_U+30EC_U+30A4_U+30E4_U+30FC 1
 62
   179
420
  2234388
370
    25
100
AcDbVertex
100
AcDb2dVertex
 10
99.69721990847957
 20
-137.5462339269307
 30
0.0
  0
SEQEND
  5
A5
330
99
100
AcDbEntity
  8
_U+30EC_U+30A4_U+30E4_U+30FC 1
 62
   179
420
  2234388
370
    25
  0
SPLINE
  5
A6
330
1F
100
AcDbEntity
  8
_U+30EC_U+30A4_U+30E4_U+30FC 1
 62
   179
420
  2234388
370
     9
100
AcDbSpline
210
0.0
220
0.0
230
1.0
 70
    11
 71
     3
 72
    17
 73
    13
 74
     0
 42
0.0000000001
 43
0.0000000001
 12
1.0
 22
0.0
 32
0.0
 13
1.0
 23
0.0
 33
0.0
 40
0.0
 40
0.0
 40
0.0
 40
0.0
 40
1.0
 40
1.0
 40
1.0
 40
2.0
 40
2.0
 40
2.0
 40
3.0
 40
3.0
 40
3.0
 40
4.0
 40
4.0
 40
4.0
 40
4.0
 10
100.7972496628435
 20
-144.5459358701678
 30
0.0
 10
100.7972496628435
 20
-144.4909220016377
 30
0.0
 10
100.7524418896882
 20
-144.4461142284827
 30
0.0
 10
100.6974064893113
 20
-144.4461142284827
 30
0.0
 10
100.6423710889345
 20
-144.4461142284827
 30
0.0
 10
100.5975740817028
 20
-144.4909220016377
 30
0.0
 10
100.5975740817028
 20
-144.5459358701678
 30
0.0
 10
100.5975740817028
 20
-144.6009712705446
 30
0.0
 10
100.6423710889345
 20
-144.6457790436997
 30
0.0
 10
100.6974064893113
 20
-144.6457790436997
 30
0.0
 10
100.7524418896882
 20
-144.6457790436997
 30
0.0
 10
100.7972496628435
 20
-144.6009712705446
 30
0.0
 10
100.7972496628435
 20
-144.5459358701678
 30
0.0
  0
ENDSEC
  0
SECTION
  2
OBJECTS
  0
DICTIONARY
  5
C
330
0
100
AcDbDictionary
281
     1
  3
ACAD_GROUP
350
D
  3
ACAD_LAYOUT
350
1A
  3
ACAD_MATERIAL
350
3B
  3
ACAD_MLEADERSTYLE
350
A8
  3
ACAD_MLINESTYLE
350
17
  3
ACAD_PLOTSETTINGS
350
19
  3
ACAD_PLOTSTYLENAME
350
E
  3
ACAD_TABLESTYLE
350
A7
  3
ACAD_VISUALSTYLE
350
2A
  0
SUN
  5
3F
330
29
100
AcDbSun
 90
        1
290
     0
 63
     7
421
 16777215
 40
1.0
291
     1
 91
  2455826
 92
 54000000
292
     0
 70
     2
 71
   256
280
     1
  0
DICTIONARY
  5
D
102
{ACAD_REACTORS
330
C
102
}
330
C
100
AcDbDictionary
281
     1
  0
DICTIONARY
  5
1A
102
{ACAD_REACTORS
330
C
102
}
330
C
100
AcDbDictionary
281
     1
  3
Layout1
350
1E
  3
Layout2
350
26
  3
Model
350
22
  0
DICTIONARY
  5
3B
102
{ACAD_REACTORS
330
C
102
}
330
C
100
AcDbDictionary
281
     1
  3
ByBlock
350
3D
  3
ByLayer
350
3C
  3
Global
350
3E
  0
DICTIONARY
  5
A8
102
{ACAD_REACTORS
330
C
102
}
330
C
100
AcDbDictionary
281
     1
  0
DICTIONARY
  5
17
102
{ACAD_REACTORS
330
C
102
}
330
C
100
AcDbDictionary
281
     1
  3
Standard
350
18
  0
DICTIONARY
  5
19
102
{ACAD_REACTORS
330
C
102
}
330
C
100
AcDbDictionary
281
     1
  0
ACDBDICTIONARYWDFLT
  5
E
102
{ACAD_REACTORS
330
C
102
}
330
C
100
AcDbDictionary
281
     1
  3
Normal
350
F
100
AcDbDictionaryWithDefault
340
F
  0
DICTIONARY
  5
A7
102
{ACAD_REACTORS
330
C
102
}
330
C
100
AcDbDictionary
281
     1
  0
DICTIONARY
  5
2A
102
{ACAD_REACTORS
330
C
102
}
330
C
100
AcDbDictionary
281
     1
  3
2dWireframe
350
2F
  3
3D Hidden
350
31
  3
3dWireframe
350
30
  3
Basic
350
32
  3
Brighten
350
36
  3
ColorChange
350
3A
  3
Conceptual
350
34
  3
Dim
350
35
  3
Facepattern
350
39
  3
Flat
350
2B
  3
FlatWithEdges
350
2C
  3
Gouraud
350
2D
  3
GouraudWithEdges
350
2E
  3
Linepattern
350
38
  3
Realistic
350
33
  3
Thicken
350
37
  0
LAYOUT
  5
1E
102
{ACAD_REACTORS
330
1A
102
}
330
1A
100
AcDbPlotSettings
  1

  2
none_device
  4

  6

 40
0.0
 41
0.0
 42
0.0
 43
0.0
 44
0.0
 45
0.0
 46
0.0
 47
0.0
 48
0.0
 49
0.0
140
0.0
141
0.0
142
1.0
143
1.0
 70
   688
 72
     0
 73
     0
 74
     5
  7

 75
    16
 76
     0
 77
     2
 78
   300
147
1.0
148
0.0
149
0.0
100
AcDbLayout
  1
Layout1
 70
     1
 71
     1
 10
0.0
 20
0.0
 11
12.0
 21
9.0
 12
0.0
 22
0.0
 32
0.0
 14
1.000000000000000E+20
 24
1.000000000000000E+20
 34
1.000000000000000E+20
 15
-1.000000000000000E+20
 25
-1.000000000000000E+20
 35
-1.000000000000000E+20
146
0.0
 13
0.0
 23
0.0
 33
0.0
 16
1.0
 26
0.0
 36
0.0
 17
0.0
 27
1.0
 37
0.0
 76
     0
330
1B
  0
LAYOUT
  5
26
102
{ACAD_REACTORS
330
1A
102
}
330
1A
100
AcDbPlotSettings
  1

  2
none_device
  4

  6

 40
0.0
 41
0.0
 42
0.0
 43
0.0
 44
0.0
 45
0.0
 46
0.0
 47
0.0
 48
0.0
 49
0.0
140
0.0
141
0.0
142
1.0
143
1.0
 70
   688
 72
     0
 73
     0
 74
     5
  7

 75
    16
 76
     0
 77
     2
 78
   300
147
1.0
148
0.0
149
0.0
100
AcDbLayout
  1
Layout2
 70
     1
 71
     2
 10
0.0
 20
0.0
 11
0.0
 21
0.0
 12
0.0
 22
0.0
 32
0.0
 14
0.0
 24
0.0
 34
0.0
 15
0.0
 25
0.0
 35
0.0
146
0.0
 13
0.0
 23
0.0
 33
0.0
 16
1.0
 26
0.0
 36
0.0
 17
0.0
 27
1.0
 37
0.0
 76
     0
330
23
  0
LAYOUT
  5
22
102
{ACAD_REACTORS
330
1A
102
}
330
1A
100
AcDbPlotSettings
  1

  2
none_device
  4

  6

 40
0.0
 41
0.0
 42
0.0
 43
0.0
 44
0.0
 45
0.0
 46
0.0
 47
0.0
 48
0.0
 49
0.0
140
0.0
141
0.0
142
1.0
143
1.0
 70
  1712
 72
     0
 73
     0
 74
     0
  7

 75
     0
 76
     0
 77
     2
 78
   300
147
1.0
148
0.0
149
0.0
100
AcDbLayout
  1
Model
 70
     1
 71
     0
 10
0.0
 20
0.0
 11
12.0
 21
9.0
 12
0.0
 22
0.0
 32
0.0
 14
1.000000000000000E+20
 24
1.000000000000000E+20
 34
1.000000000000000E+20
 15
-1.000000000000000E+20
 25
-1.000000000000000E+20
 35
-1.000000000000000E+20
146
0.0
 13
0.0
 23
0.0
 33
0.0
 16
1.0
 26
0.0
 36
0.0
 17
0.0
 27
1.0
 37
0.0
 76
     0
330
1F
331
29
  0
MATERIAL
  5
3D
102
{ACAD_REACTORS
330
3B
102
}
330
3B
100
AcDbMaterial
  1
ByBlock
 72
     1
 94
      127
  0
MATERIAL
  5
3C
102
{ACAD_REACTORS
330
3B
102
}
330
3B
100
AcDbMaterial
  1
ByLayer
 72
     1
 94
      127
  0
MATERIAL
  5
3E
102
{ACAD_REACTORS
330
3B
102
}
330
3B
100
AcDbMaterial
  1
Global
 72
     1
 94
      127
  0
MLINESTYLE
  5
18
102
{ACAD_REACTORS
330
17
102
}
330
17
100
AcDbMlineStyle
  2
Standard
 70
     0
  3

 62
   256
 51
90.0
 52
90.0
 71
     2
 49
0.5
 62
   256
  6
BYLAYER
 49
-0.5
 62
   256
  6
BYLAYER
  0
ACDBPLACEHOLDER
  5
F
102
{ACAD_REACTORS
330
E
102
}
330
E
  0
VISUALSTYLE
  5
2F
102
{ACAD_REACTORS
330
2A
102
}
330
2A
100
AcDbVisualStyle
  2
2dWireframe
 70
     4
177
     2
291
     0
 71
     0
176
     1
 72
     2
176
     1
 73
     0
176
     1
 90
        0
176
     1
 40
-0.6
176
     1
 41
-30.0
176
     1
 62
     5
 63
     7
421
 16777215
176
     1
 74
     1
176
     1
 91
        4
176
     1
 64
     7
176
     1
 65
   257
176
     1
 75
     1
176
     1
175
     1
176
     1
 42
1.0
176
     1
 92
        0
176
     1
 66
   257
176
     1
 43
1.0
176
     1
 76
     1
176
     1
 77
     6
176
     1
 78
     2
176
     1
 67
     7
176
     1
 79
     5
176
     1
170
     0
176
     1
171
     0
176
     1
290
     0
176
     1
 93
        1
176
     1
 44
0.0
176
     1
173
     0
176
     1
  0
VISUALSTYLE
  5
31
102
{ACAD_REACTORS
330
2A
102
}
330
2A
100
AcDbVisualStyle
  2
3D Hidden
 70
     6
177
     2
291
     0
 71
     1
176
     1
 72
     2
176
     1
 73
     2
176
     1
 90
        0
176
     1
 40
-0.6
176
     1
 41
-30.0
176
     1
 62
     5
 63
     7
421
 16777215
176
     1
 74
     2
176
     1
 91
        2
176
     1
 64
     7
176
     1
 65
   257
176
     1
 75
     2
176
     1
175
     1
176
     1
 42
40.0
176
     1
 92
        0
176
     1
 66
   257
176
     1
 43
1.0
176
     1
 76
     1
176
     1
 77
     6
176
     1
 78
     2
176
     1
 67
     7
176
     1
 79
     3
176
     1
170
     0
176
     1
171
     0
176
     1
290
     0
176
     1
 93
        1
176
     1
 44
0.0
176
     1
173
     0
176
     1
  0
VISUALSTYLE
  5
30
102
{ACAD_REACTORS
330
2A
102
}
330
2A
100
AcDbVisualStyle
  2
3dWireframe
 70
     5
177
     2
291
     0
 71
     0
176
     1
 72
     2
176
     1
 73
     0
176
     1
 90
        0
176
     1
 40
-0.6
176
     1
 41
-30.0
176
     1
 62
     5
 63
     7
421
 16777215
176
     1
 74
     1
176
     1
 91
        4
176
     1
 64
     7
176
     1
 65
   257
176
     1
 75
     1
176
     1
175
     1
176
     1
 42
1.0
176
     1
 92
        0
176
     1
 66
   257
176
     1
 43
1.0
176
     1
 76
     1
176
     1
 77
     6
176
     1
 78
     2
176
     1
 67
     7
176
     1
 79
     5
176
     1
170
     0
176
     1
171
     0
176
     1
290
     0
176
     1
 93
        1
176
     1
 44
0.0
176
     1
173
     0
176
     1
  0
VISUALSTYLE
  5
32
102
{ACAD_REACTORS
330
2A
102
}
330
2A
100
AcDbVisualStyle
  2
Basic
 70
     7
177
     2
291
     1
 71
     1
176
     1
 72
     0
176
     1
 73
     1
176
     1
 90
        0
176
     1
 40
-0.6
176
     1
 41
-30.0
176
     1
 62
     5
 63
     7
421
 16777215
176
     1
 74
     0
176
     1
 91
        4
176
     1
 64
     7
176
     1
 65
   257
176
     1
 75
     1
176
     1
175
     1
176
     1
 42
1.0
176
     1
 92
        8
176
     1
 66
     7
176
     1
 43
1.0
176
     1
 76
     1
176
     1
 77
     6
176
     1
 78
     2
176
     1
 67
     7
176
     1
 79
     5
176
     1
170
     0
176
     1
171
     0
176
     1
290
     0
176
     1
 93
        1
176
     1
 44
0.0
176
     1
173
     0
176
     1
  0
VISUALSTYLE
  5
36
102
{ACAD_REACTORS
330
2A
102
}
330
2A
100
AcDbVisualStyle
  2
Brighten
 70
    12
177
     2
291
     1
 71
     2
176
     1
 72
     2
176
     1
 73
     0
176
     1
 90
        0
176
     1
 40
-0.6
176
     1
 41
-30.0
176
     1
 62
     5
 63
     7
421
 16777215
176
     1
 74
     1
176
     1
 91
        4
176
     1
 64
     7
176
     1
 65
   257
176
     1
 75
     1
176
     1
175
     1
176
     1
 42
1.0
176
     1
 92
        8
176
     1
 66
     7
176
     1
 43
1.0
176
     1
 76
     1
176
     1
 77
     6
176
     1
 78
     2
176
     1
 67
     7
176
     1
 79
     5
176
     1
170
     0
176
     1
171
     0
176
     1
290
     0
176
     1
 93
        1
176
     1
 44
50.0
176
     1
173
     0
176
     1
  0
VISUALSTYLE
  5
3A
102
{ACAD_REACTORS
330
2A
102
}
330
2A
100
AcDbVisualStyle
  2
ColorChange
 70
    16
177
     2
291
     1
 71
     2
176
     1
 72
     2
176
     1
 73
     3
176
     1
 90
        0
176
     1
 40
-0.6
176
     1
 41
-30.0
176
     1
 62
     5
 63
     8
421
  8421504
176
     1
 74
     1
176
     1
 91
        4
176
     1
 64
     7
176
     1
 65
   257
176
     1
 75
     1
176
     1
175
     1
176
     1
 42
1.0
176
     1
 92
        8
176
     1
 66
     8
424
  8421504
176
     1
 43
1.0
176
     1
 76
     1
176
     1
 77
     6
176
     1
 78
     2
176
     1
 67
     7
176
     1
 79
     5
176
     1
170
     0
176
     1
171
     0
176
     1
290
     0
176
     1
 93
        1
176
     1
 44
0.0
176
     1
173
     0
176
     1
  0
VISUALSTYLE
  5
34
102
{ACAD_REACTORS
330
2A
102
}
330
2A
100
AcDbVisualStyle
  2
Conceptual
 70
     9
177
     2
291
     0
 71
     3
176
     1
 72
     2
176
     1
 73
     0
176
     1
 90
        0
176
     1
 40
-0.6
176
     1
 41
-30.0
176
     1
 62
     5
 63
     7
421
 16777215
176
     1
 74
     2
176
     1
 91
        2
176
     1
 64
     7
176
     1
 65
   257
176
     1
 75
     1
176
     1
175
     1
176
     1
 42
40.0
176
     1
 92
        8
176
     1
 66
     7
176
     1
 43
1.0
176
     1
 76
     1
176
     1
 77
     6
176
     1
 78
     2
176
     1
 67
     7
176
     1
 79
     3
176
     1
170
     0
176
     1
171
     0
176
     1
290
     0
176
     1
 93
        1
176
     1
 44
0.0
176
     1
173
     0
176
     1
  0
VISUALSTYLE
  5
35
102
{ACAD_REACTORS
330
2A
102
}
330
2A
100
AcDbVisualStyle
  2
Dim
 70
    11
177
     2
291
     1
 71
     2
176
     1
 72
     2
176
     1
 73
     0
176
     1
 90
        0
176
     1
 40
-0.6
176
     1
 41
-30.0
176
     1
 62
     5
 63
     7
421
 16777215
176
     1
 74
     1
176
     1
 91
        4
176
     1
 64
     7
176
     1
 65
   257
176
     1
 75
     1
176
     1
175
     1
176
     1
 42
1.0
176
     1
 92
        8
176
     1
 66
     7
176
     1
 43
1.0
176
     1
 76
     1
176
     1
 77
     6
176
     1
 78
     2
176
     1
 67
     7
176
     1
 79
     5
176
     1
170
     0
176
     1
171
     0
176
     1
290
     0
176
     1
 93
        1
176
     1
 44
-50.0
176
     1
173
     0
176
     1
  0
VISUALSTYLE
  5
39
102
{ACAD_REACTORS
330
2A
102
}
330
2A
100
AcDbVisualStyle
  2
Facepattern
 70
    15
177
     2
291
     1
 71
     2
176
     1
 72
     2
176
     1
 73
     0
176
     1
 90
        0
176
     1
 40
-0.6
176
     1
 41
-30.0
176
     1
 62
     5
 63
     7
421
 16777215
176
     1
 74
     1
176
     1
 91
        4
176
     1
 64
     7
176
     1
 65
   257
176
     1
 75
     1
176
     1
175
     1
176
     1
 42
1.0
176
     1
 92
        8
176
     1
 66
     7
176
     1
 43
1.0
176
     1
 76
     1
176
     1
 77
     6
176
     1
 78
     2
176
     1
 67
     7
176
     1
 79
     5
176
     1
170
     0
176
     1
171
     0
176
     1
290
     0
176
     1
 93
        1
176
     1
 44
0.0
176
     1
173
     0
176
     1
  0
VISUALSTYLE
  5
2B
102
{ACAD_REACTORS
330
2A
102
}
330
2A
100
AcDbVisualStyle
  2
Flat
 70
     0
177
     2
291
     1
 71
     2
176
     1
 72
     1
176
     1
 73
     1
176
     1
 90
        2
176
     1
 40
-0.6
176
     1
 41
30.0
176
     1
 62
     5
 63
     7
421
 16777215
176
     1
 74
     0
176
     1
 91
        4
176
     1
 64
     7
176
     1
 65
   257
176
     1
 75
     1
176
     1
175
     1
176
     1
 42
1.0
176
     1
 92
        8
176
     1
 66
     7
176
     1
 43
1.0
176
     1
 76
     1
176
     1
 77
     6
176
     1
 78
     2
176
     1
 67
     7
176
     1
 79
     5
176
     1
170
     0
176
     1
171
     0
176
     1
290
     0
176
     1
 93
       13
176
     1
 44
0.0
176
     1
173
     0
176
     1
  0
VISUALSTYLE
  5
2C
102
{ACAD_REACTORS
330
2A
102
}
330
2A
100
AcDbVisualStyle
  2
FlatWithEdges
 70
     1
177
     2
291
     1
 71
     2
176
     1
 72
     1
176
     1
 73
     1
176
     1
 90
        2
176
     1
 40
-0.6
176
     1
 41
30.0
176
     1
 62
     5
 63
     7
421
 16777215
176
     1
 74
     1
176
     1
 91
        4
176
     1
 64
     7
176
     1
 65
   257
176
     1
 75
     1
176
     1
175
     1
176
     1
 42
1.0
176
     1
 92
        0
176
     1
 66
   257
176
     1
 43
1.0
176
     1
 76
     1
176
     1
 77
     6
176
     1
 78
     2
176
     1
 67
     7
176
     1
 79
     5
176
     1
170
     0
176
     1
171
     0
176
     1
290
     0
176
     1
 93
       13
176
     1
 44
0.0
176
     1
173
     0
176
     1
  0
VISUALSTYLE
  5
2D
102
{ACAD_REACTORS
330
2A
102
}
330
2A
100
AcDbVisualStyle
  2
Gouraud
 70
     2
177
     2
291
     1
 71
     2
176
     1
 72
     2
176
     1
 73
     1
176
     1
 90
        2
176
     1
 40
-0.6
176
     1
 41
30.0
176
     1
 62
     5
 63
     7
421
 16777215
176
     1
 74
     0
176
     1
 91
        4
176
     1
 64
     7
176
     1
 65
   257
176
     1
 75
     1
176
     1
175
     1
176
     1
 42
1.0
176
     1
 92
        0
176
     1
 66
     7
176
     1
 43
1.0
176
     1
 76
     1
176
     1
 77
     6
176
     1
 78
     2
176
     1
 67
     7
176
     1
 79
     5
176
     1
170
     0
176
     1
171
     0
176
     1
290
     0
176
     1
 93
       13
176
     1
 44
0.0
176
     1
173
     0
176
     1
  0
VISUALSTYLE
  5
2E
102
{ACAD_REACTORS
330
2A
102
}
330
2A
100
AcDbVisualStyle
  2
GouraudWithEdges
 70
     3
177
     2
291
     1
 71
     2
176
     1
 72
     2
176
     1
 73
     1
176
     1
 90
        2
176
     1
 40
-0.6
176
     1
 41
30.0
176
     1
 62
     5
 63
     7
421
 16777215
176
     1
 74
     1
176
     1
 91
        4
176
     1
 64
     7
176
     1
 65
   257
176
     1
 75
     1
176
     1
175
     1
176
     1
 42
1.0
176
     1
 92
        0
176
     1
 66
   257
176
     1
 43
1.0
176
     1
 76
     1
176
     1
 77
     6
176
     1
 78
     2
176
     1
 67
     7
176
     1
 79
     5
176
     1
170
     0
176
     1
171
     0
176
     1
290
     0
176
     1
 93
       13
176
     1
 44
0.0
176
     1
173
     0
176
     1
  0
VISUALSTYLE
  5
38
102
{ACAD_REACTORS
330
2A
102
}
330
2A
100
AcDbVisualStyle
  2
Linepattern
 70
    14
177
     2
291
     1
 71
     2
176
     1
 72
     2
176
     1
 73
     0
176
     1
 90
        0
176
     1
 40
-0.6
176
     1
 41
-30.0
176
     1
 62
     5
 63
     7
421
 16777215
176
     1
 74
     1
176
     1
 91
        4
176
     1
 64
     7
176
     1
 65
   257
176
     1
 75
     7
176
     1
175
     7
176
     1
 42
1.0
176
     1
 92
        8
176
     1
 66
     7
176
     1
 43
1.0
176
     1
 76
     1
176
     1
 77
     6
176
     1
 78
     2
176
     1
 67
     7
176
     1
 79
     5
176
     1
170
     0
176
     1
171
     0
176
     1
290
     0
176
     1
 93
        1
176
     1
 44
0.0
176
     1
173
     0
176
     1
  0
VISUALSTYLE
  5
33
102
{ACAD_REACTORS
330
2A
102
}
330
2A
100
AcDbVisualStyle
  2
Realistic
 70
     8
177
     2
291
     0
 71
     2
176
     1
 72
     2
176
     1
 73
     0
176
     1
 90
        0
176
     1
 40
-0.6
176
     1
 41
-30.0
176
     1
 62
     5
 63
     7
421
 16777215
176
     1
 74
     1
176
     1
 91
        0
176
     1
 64
     7
176
     1
 65
   257
176
     1
 75
     1
176
     1
175
     1
176
     1
 42
1.0
176
     1
 92
        8
176
     1
 66
     8
424
  7895160
176
     1
 43
1.0
176
     1
 76
     1
176
     1
 77
     6
176
     1
 78
     2
176
     1
 67
     7
176
     1
 79
     5
176
     1
170
     0
176
     1
171
     0
176
     1
290
     0
176
     1
 93
       13
176
     1
 44
0.0
176
     1
173
     0
176
     1
  0
VISUALSTYLE
  5
37
102
{ACAD_REACTORS
330
2A
102
}
330
2A
100
AcDbVisualStyle
  2
Thicken
 70
    13
177
     2
291
     1
 71
     2
176
     1
 72
     2
176
     1
 73
     0
176
     1
 90
        0
176
     1
 40
-0.6
176
     1
 41
-30.0
176
     1
 62
     5
 63
     7
421
 16777215
176
     1
 74
     1
176
     1
 91
        4
176
     1
 64
     7
176
     1
 65
   257
176
     1
 75
     1
176
     1
175
     1
176
     1
 42
1.0
176
     1
 92
       12
176
     1
 66
     7
176
     1
 43
1.0
176
     1
 76
     1
176
     1
 77
     6
176
     1
 78
     2
176
     1
 67
     7
176
     1
 79
     5
176
     1
170
     0
176
     1
171
     0
176
     1
290
     0
176
     1
 93
        1
176
     1
 44
0.0
176
     1
173
     0
176
     1
  0
ENDSEC
  0
EOF
