  0
SECTION
  2
HEADER
  9
$ACADVER
  1
AC1024
  9
$ACADMAINTVER
 70
     6
  9
$DWGCODEPAGE
  3
UNDEFINED
  9
$INSBASE
 10
0.0
 20
0.0
 30
0.0
  9
$EXTMIN
 10
1.000000000000000E+20
 20
1.000000000000000E+20
 30
1.000000000000000E+20
  9
$EXTMAX
 10
-1.000000000000000E+20
 20
-1.000000000000000E+20
 30
-1.000000000000000E+20
  9
$LIMMIN
 10
0.0
 20
0.0
  9
$LIMMAX
 10
12.0
 20
9.0
  9
$ORTHOMODE
 70
     0
  9
$REGENMODE
 70
     1
  9
$FILLMODE
 70
     1
  9
$QTEXTMODE
 70
     0
  9
$MIRRTEXT
 70
     1
  9
$LTSCALE
 40
1.0
  9
$ATTMODE
 70
     1
  9
$TEXTSIZE
 40
0.2
  9
$TRACEWID
 40
0.05
  9
$TEXTSTYLE
  7
Standard
  9
$CLAYER
  8
0
  9
$CELTYPE
  6
ByLayer
  9
$CECOLOR
 62
   256
  9
$CELTSCALE
 40
1.0
  9
$DISPSILH
 70
     0
  9
$DIMSCALE
 40
1.0
  9
$DIMASZ
 40
0.18
  9
$DIMEXO
 40
0.0625
  9
$DIMDLI
 40
0.38
  9
$DIMRND
 40
0.0
  9
$DIMDLE
 40
0.0
  9
$DIMEXE
 40
0.18
  9
$DIMTP
 40
0.0
  9
$DIMTM
 40
0.0
  9
$DIMTXT
 40
0.18
  9
$DIMCEN
 40
0.09
  9
$DIMTSZ
 40
0.0
  9
$DIMTOL
 70
     0
  9
$DIMLIM
 70
     0
  9
$DIMTIH
 70
     1
  9
$DIMTOH
 70
     1
  9
$DIMSE1
 70
     0
  9
$DIMSE2
 70
     0
  9
$DIMTAD
 70
     0
  9
$DIMZIN
 70
     0
  9
$DIMBLK
  1

  9
$DIMASO
 70
     1
  9
$DIMSHO
 70
     1
  9
$DIMPOST
  1

  9
$DIMAPOST
  1

  9
$DIMALT
 70
     0
  9
$DIMALTD
 70
     2
  9
$DIMALTF
 40
25.4
  9
$DIMLFAC
 40
1.0
  9
$DIMTOFL
 70
     0
  9
$DIMTVP
 40
0.0
  9
$DIMTIX
 70
     0
  9
$DIMSOXD
 70
     0
  9
$DIMSAH
 70
     0
  9
$DIMBLK1
  1

  9
$DIMBLK2
  1

  9
$DIMSTYLE
  2
Standard
  9
$DIMCLRD
 70
     0
  9
$DIMCLRE
 70
     0
  9
$DIMCLRT
 70
     0
  9
$DIMTFAC
 40
1.0
  9
$DIMGAP
 40
0.09
  9
$DIMJUST
 70
     0
  9
$DIMSD1
 70
     0
  9
$DIMSD2
 70
     0
  9
$DIMTOLJ
 70
     1
  9
$DIMTZIN
 70
     0
  9
$DIMALTZ
 70
     0
  9
$DIMALTTZ
 70
     0
  9
$DIMUPT
 70
     0
  9
$DIMDEC
 70
     4
  9
$DIMTDEC
 70
     4
  9
$DIMALTU
 70
     2
  9
$DIMALTTD
 70
     2
  9
$DIMTXSTY
  7
Standard
  9
$DIMAUNIT
 70
     0
  9
$DIMADEC
 70
     0
  9
$DIMALTRND
 40
0.0
  9
$DIMAZIN
 70
     0
  9
$DIMDSEP
 70
    46
  9
$DIMATFIT
 70
     3
  9
$DIMFRAC
 70
     0
  9
$DIMLDRBLK
  1

  9
$DIMLUNIT
 70
     2
  9
$DIMLWD
 70
    -2
  9
$DIMLWE
 70
    -2
  9
$DIMTMOVE
 70
     0
  9
$DIMFXL
 40
1.0
  9
$DIMFXLON
 70
     0
  9
$DIMJOGANG
 40
0.7853981633974483
  9
$DIMTFILL
 70
     0
  9
$DIMTFILLCLR
 70
     0
  9
$DIMARCSYM
 70
     0
  9
$DIMLTYPE
  6

  9
$DIMLTEX1
  6

  9
$DIMLTEX2
  6

  9
$DIMTXTDIRECTION
 70
     0
  9
$LUNITS
 70
     2
  9
$LUPREC
 70
     4
  9
$SKETCHINC
 40
0.1
  9
$FILLETRAD
 40
0.5
  9
$AUNITS
 70
     0
  9
$AUPREC
 70
     0
  9
$MENU
  1
.
  9
$ELEVATION
 40
0.0
  9
$PELEVATION
 40
0.0
  9
$THICKNESS
 40
0.0
  9
$LIMCHECK
 70
     0
  9
$CHAMFERA
 40
0.5
  9
$CHAMFERB
 40
0.5
  9
$CHAMFERC
 40
1.0
  9
$CHAMFERD
 40
0.0
  9
$SKPOLY
 70
     0
  9
$TDCREATE
 40
2457917.588460637
  9
$TDUCREATE
 40
2457917.213460648
  9
$TDUPDATE
 40
2457917.588460637
  9
$TDUUPDATE
 40
2457917.213460648
  9
$TDINDWG
 40
0.0000000116
  9
$TDUSRTIMER
 40
0.0000000116
  9
$USRTIMER
 70
     1
  9
$ANGBASE
 50
0.0
  9
$ANGDIR
 70
     0
  9
$PDMODE
 70
     0
  9
$PDSIZE
 40
0.0
  9
$PLINEWID
 40
0.0
  9
$SPLFRAME
 70
     0
  9
$SPLINETYPE
 70
     6
  9
$SPLINESEGS
 70
     8
  9
$HANDSEED
  5
E4
  9
$SURFTAB1
 70
     6
  9
$SURFTAB2
 70
     6
  9
$SURFTYPE
 70
     6
  9
$SURFU
 70
     6
  9
$SURFV
 70
     6
  9
$UCSBASE
  2

  9
$UCSNAME
  2

  9
$UCSORG
 10
0.0
 20
0.0
 30
0.0
  9
$UCSXDIR
 10
1.0
 20
0.0
 30
0.0
  9
$UCSYDIR
 10
0.0
 20
1.0
 30
0.0
  9
$UCSORTHOREF
  2

  9
$UCSORTHOVIEW
 70
     0
  9
$UCSORGTOP
 10
0.0
 20
0.0
 30
0.0
  9
$UCSORGBOTTOM
 10
0.0
 20
0.0
 30
0.0
  9
$UCSORGLEFT
 10
0.0
 20
0.0
 30
0.0
  9
$UCSORGRIGHT
 10
0.0
 20
0.0
 30
0.0
  9
$UCSORGFRONT
 10
0.0
 20
0.0
 30
0.0
  9
$UCSORGBACK
 10
0.0
 20
0.0
 30
0.0
  9
$PUCSBASE
  2

  9
$PUCSNAME
  2

  9
$PUCSORG
 10
0.0
 20
0.0
 30
0.0
  9
$PUCSXDIR
 10
1.0
 20
0.0
 30
0.0
  9
$PUCSYDIR
 10
0.0
 20
1.0
 30
0.0
  9
$PUCSORTHOREF
  2

  9
$PUCSORTHOVIEW
 70
     0
  9
$PUCSORGTOP
 10
0.0
 20
0.0
 30
0.0
  9
$PUCSORGBOTTOM
 10
0.0
 20
0.0
 30
0.0
  9
$PUCSORGLEFT
 10
0.0
 20
0.0
 30
0.0
  9
$PUCSORGRIGHT
 10
0.0
 20
0.0
 30
0.0
  9
$PUCSORGFRONT
 10
0.0
 20
0.0
 30
0.0
  9
$PUCSORGBACK
 10
0.0
 20
0.0
 30
0.0
  9
$USERI1
 70
     0
  9
$USERI2
 70
     0
  9
$USERI3
 70
     0
  9
$USERI4
 70
     0
  9
$USERI5
 70
     0
  9
$USERR1
 40
0.0
  9
$USERR2
 40
0.0
  9
$USERR3
 40
0.0
  9
$USERR4
 40
0.0
  9
$USERR5
 40
0.0
  9
$WORLDVIEW
 70
     1
  9
$SHADEDGE
 70
     3
  9
$SHADEDIF
 70
    70
  9
$TILEMODE
 70
     1
  9
$MAXACTVP
 70
    64
  9
$PINSBASE
 10
0.0
 20
0.0
 30
0.0
  9
$PLIMCHECK
 70
     0
  9
$PEXTMIN
 10
1.000000000000000E+20
 20
1.000000000000000E+20
 30
1.000000000000000E+20
  9
$PEXTMAX
 10
-1.000000000000000E+20
 20
-1.000000000000000E+20
 30
-1.000000000000000E+20
  9
$PLIMMIN
 10
0.0
 20
0.0
  9
$PLIMMAX
 10
12.0
 20
9.0
  9
$UNITMODE
 70
     0
  9
$VISRETAIN
 70
     1
  9
$PLINEGEN
 70
     0
  9
$PSLTSCALE
 70
     1
  9
$TREEDEPTH
 70
  3020
  9
$CMLSTYLE
  2
Standard
  9
$CMLJUST
 70
     0
  9
$CMLSCALE
 40
1.0
  9
$PROXYGRAPHICS
 70
     1
  9
$MEASUREMENT
 70
     0
  9
$CELWEIGHT
370
    -1
  9
$ENDCAPS
280
     0
  9
$JOINSTYLE
280
     0
  9
$LWDISPLAY
290
     1
  9
$INSUNITS
 70
     1
  9
$HYPERLINKBASE
  1

  9
$STYLESHEET
  1

  9
$XEDIT
290
     1
  9
$CEPSNTYPE
380
     0
  9
$PSTYLEMODE
290
     1
  9
$FINGERPRINTGUID
  2
{C6BF18A0-DED6-3210-F869-B409C610617E}
  9
$VERSIONGUID
  2
{FAEB1C32-E019-11D5-929B-00C0DF256EC4}
  9
$EXTNAMES
290
     1
  9
$PSVPSCALE
 40
0.0
  9
$OLESTARTUP
290
     0
  9
$SORTENTS
280
   127
  9
$INDEXCTL
280
     0
  9
$HIDETEXT
280
     1
  9
$XCLIPFRAME
280
     2
  9
$HALOGAP
280
     0
  9
$OBSCOLOR
 70
   257
  9
$OBSLTYPE
280
     0
  9
$INTERSECTIONDISPLAY
280
     0
  9
$INTERSECTIONCOLOR
 70
   257
  9
$DIMASSOC
280
     2
  9
$PROJECTNAME
  1

  9
$CAMERADISPLAY
290
     0
  9
$LENSLENGTH
 40
50.0
  9
$CAMERAHEIGHT
 40
0.0
  9
$STEPSPERSEC
 40
2.0
  9
$STEPSIZE
 40
6.0
  9
$3DDWFPREC
 40
2.0
  9
$PSOLWIDTH
 40
0.25
  9
$PSOLHEIGHT
 40
4.0
  9
$LOFTANG1
 40
1.570796326794897
  9
$LOFTANG2
 40
1.570796326794897
  9
$LOFTMAG1
 40
0.0
  9
$LOFTMAG2
 40
0.0
  9
$LOFTPARAM
 70
     7
  9
$LOFTNORMALS
280
     1
  9
$LATITUDE
 40
37.795
  9
$LONGITUDE
 40
-122.394
  9
$NORTHDIRECTION
 40
0.0
  9
$TIMEZONE
 70
 -8000
  9
$LIGHTGLYPHDISPLAY
280
     1
  9
$TILEMODELIGHTSYNCH
280
     1
  9
$CMATERIAL
347
3C
  9
$SOLIDHIST
280
     1
  9
$SHOWHIST
280
     1
  9
$DWFFRAME
280
     2
  9
$DGNFRAME
280
     2
  9
$REALWORLDSCALE
290
     1
  9
$INTERFERECOLOR
 62
   256
  9
$CSHADOW
280
     0
  9
$SHADOWPLANELOCATION
 40
0.0
  0
ENDSEC
  0
SECTION
  2
CLASSES
  0
CLASS
  1
ACDBDICTIONARYWDFLT
  2
AcDbDictionaryWithDefault
  3
ObjectDBX Classes
 90
        0
 91
        4
280
     0
281
     0
  0
CLASS
  1
VISUALSTYLE
  2
AcDbVisualStyle
  3
ObjectDBX Classes
 90
     4095
 91
        4
280
     0
281
     0
  0
CLASS
  1
MATERIAL
  2
AcDbMaterial
  3
ObjectDBX Classes
 90
     1153
 91
        4
280
     0
281
     0
  0
CLASS
  1
SUN
  2
AcDbSun
  3
SCENEOE
 90
     1024
 91
        4
280
     0
281
     0
  0
ENDSEC
  0
SECTION
  2
TABLES
  0
TABLE
  2
VPORT
  5
8
330
0
100
AcDbSymbolTable
 70
     1
  0
VPORT
  5
29
330
8
100
AcDbSymbolTableRecord
100
AcDbViewportTableRecord
  2
*Active
 70
     0
 10
0.0
 20
0.0
 11
1.0
 21
1.0
 12
0.0
 22
0.0
 13
0.0
 23
0.0
 14
0.5
 24
0.5
 15
0.5
 25
0.5
 16
0.0
 26
0.0
 36
1.0
 17
63.499999984125
 27
-89.00059456108309
 37
0.0
 40
178.0011891221662
 41
0.7134783795241226
 42
50.0
 43
0.0
 44
0.0
 50
0.0
 51
0.0
 71
     0
 72
   100
 73
     1
 74
     3
 75
     0
 76
     0
 77
     0
 78
     0
281
     0
 65
     1
110
0.0
120
0.0
130
0.0
111
1.0
121
0.0
131
0.0
112
0.0
122
1.0
132
0.0
 79
     0
146
0.0
 60
     3
 61
     5
292
     1
282
     1
141
0.0
142
0.0
 63
   250
361
3F
  0
ENDTAB
  0
TABLE
  2
LTYPE
  5
5
330
0
100
AcDbSymbolTable
 70
     1
  0
LTYPE
  5
14
330
5
100
AcDbSymbolTableRecord
100
AcDbLinetypeTableRecord
  2
ByBlock
 70
     0
  3

 72
    65
 73
     0
 40
0.0
  0
LTYPE
  5
15
330
5
100
AcDbSymbolTableRecord
100
AcDbLinetypeTableRecord
  2
ByLayer
 70
     0
  3

 72
    65
 73
     0
 40
0.0
  0
LTYPE
  5
16
330
5
100
AcDbSymbolTableRecord
100
AcDbLinetypeTableRecord
  2
Continuous
 70
     0
  3
Solid line
 72
    65
 73
     0
 40
0.0
  0
ENDTAB
  0
TABLE
  2
LAYER
  5
2
330
0
100
AcDbSymbolTable
 70
     2
  0
LAYER
  5
10
330
2
100
AcDbSymbolTableRecord
100
AcDbLayerTableRecord
  2
0
 70
     0
 62
     7
  6
Continuous
370
    -3
390
F
347
3E
  0
LAYER
  5
40
330
2
100
AcDbSymbolTableRecord
100
AcDbLayerTableRecord
  2
_U+30EC_U+30A4_U+30E4_U+30FC 1
 70
     0
 62
     7
  6
Continuous
370
    -3
390
F
347
3E
  0
ENDTAB
  0
TABLE
  2
STYLE
  5
3
330
0
100
AcDbSymbolTable
 70
     1
  0
STYLE
  5
11
330
3
100
AcDbSymbolTableRecord
100
AcDbTextStyleTableRecord
  2
Standard
 70
     0
 40
0.0
 41
1.0
 50
0.0
 71
     0
 42
0.2
  3
txt
  4

  0
ENDTAB
  0
TABLE
  2
VIEW
  5
6
330
0
100
AcDbSymbolTable
 70
     0
  0
ENDTAB
  0
TABLE
  2
UCS
  5
7
330
0
100
AcDbSymbolTable
 70
     0
  0
ENDTAB
  0
TABLE
  2
APPID
  5
9
330
0
100
AcDbSymbolTable
 70
     1
  0
APPID
  5
12
330
9
100
AcDbSymbolTableRecord
100
AcDbRegAppTableRecord
  2
ACAD
 70
     0
  0
ENDTAB
  0
TABLE
  2
DIMSTYLE
  5
A
330
0
100
AcDbSymbolTable
 70
     1
100
AcDbDimStyleTable
  0
DIMSTYLE
105
27
330
A
100
AcDbSymbolTableRecord
100
AcDbDimStyleTableRecord
  2
Standard
 70
     0
178
     0
340
11
  0
ENDTAB
  0
TABLE
  2
BLOCK_RECORD
  5
1
330
0
100
AcDbSymbolTable
 70
     6
  0
BLOCK_RECORD
  5
1F
330
1
100
AcDbSymbolTableRecord
100
AcDbBlockTableRecord
  2
*Model_Space
340
22
 70
     0
280
     1
281
     0
  0
BLOCK_RECORD
  5
1B
330
1
100
AcDbSymbolTableRecord
100
AcDbBlockTableRecord
  2
*Paper_Space
340
1E
 70
     0
280
     1
281
     0
  0
BLOCK_RECORD
  5
23
330
1
100
AcDbSymbolTableRecord
100
AcDbBlockTableRecord
  2
*Paper_Space0
340
26
 70
     0
280
     1
281
     0
  0
BLOCK_RECORD
  5
8D
330
1
100
AcDbSymbolTableRecord
100
AcDbBlockTableRecord
  2
block 2
340
0
102
{BLKREFS
331
8E
102
}
 70
     0
280
     1
281
     0
  0
BLOCK_RECORD
  5
A2
330
1
100
AcDbSymbolTableRecord
100
AcDbBlockTableRecord
  2
block 3
340
0
102
{BLKREFS
331
A3
102
}
 70
     0
280
     1
281
     0
  0
BLOCK_RECORD
  5
BA
330
1
100
AcDbSymbolTableRecord
100
AcDbBlockTableRecord
  2
block 4
340
0
102
{BLKREFS
331
BB
102
}
 70
     0
280
     1
281
     0
  0
BLOCK_RECORD
  5
CC
330
1
100
AcDbSymbolTableRecord
100
AcDbBlockTableRecord
  2
block 5
340
0
102
{BLKREFS
331
CD
102
}
 70
     0
280
     1
281
     0
  0
BLOCK_RECORD
  5
DC
330
1
100
AcDbSymbolTableRecord
100
AcDbBlockTableRecord
  2
block 6
340
0
102
{BLKREFS
331
DD
102
}
 70
     0
280
     1
281
     0
  0
ENDTAB
  0
ENDSEC
  0
SECTION
  2
BLOCKS
  0
BLOCK
  5
20
330
1F
100
AcDbEntity
  8
0
100
AcDbBlockBegin
  2
*Model_Space
 70
     0
 10
0.0
 20
0.0
 30
0.0
  3
*Model_Space
  1

  0
ENDBLK
  5
21
330
1F
100
AcDbEntity
  8
0
100
AcDbBlockEnd
  0
BLOCK
  5
1C
330
1B
100
AcDbEntity
 67
     1
  8
0
100
AcDbBlockBegin
  2
*Paper_Space
 70
     0
 10
0.0
 20
0.0
 30
0.0
  3
*Paper_Space
  1

  0
ENDBLK
  5
1D
330
1B
100
AcDbEntity
 67
     1
  8
0
100
AcDbBlockEnd
  0
BLOCK
  5
24
330
23
100
AcDbEntity
  8
0
100
AcDbBlockBegin
  2
*Paper_Space0
 70
     0
 10
0.0
 20
0.0
 30
0.0
  3
*Paper_Space0
  1

  0
ENDBLK
  5
25
330
23
100
AcDbEntity
  8
0
100
AcDbBlockEnd
  0
BLOCK
  5
8F
330
8D
100
AcDbEntity
  8
0
100
AcDbBlockBegin
  2
block 2
 70
     0
 10
0.0
 20
0.0
 30
0.0
  3
block 2
  1

  0
SPLINE
  5
91
330
8D
100
AcDbEntity
  8
_U+30EC_U+30A4_U+30E4_U+30FC 1
370
     0
100
AcDbSpline
210
0.0
220
0.0
230
1.0
 70
    11
 71
     3
 72
    26
 73
    22
 74
     0
 42
0.0000000001
 43
0.0000000001
 12
1.0
 22
0.0
 32
0.0
 13
1.0
 23
0.0
 33
0.0
 40
0.0
 40
0.0
 40
0.0
 40
0.0
 40
1.0
 40
1.0
 40
1.0
 40
2.0
 40
2.0
 40
2.0
 40
3.0
 40
3.0
 40
3.0
 40
4.0
 40
4.0
 40
4.0
 40
5.0
 40
5.0
 40
5.0
 40
6.0
 40
6.0
 40
6.0
 40
7.0
 40
7.0
 40
7.0
 40
7.0
 10
51.36017251320163
 20
-98.30407712386149
 30
0.0
 10
51.36017251320163
 20
-98.30407712386149
 30
0.0
 10
51.36017251320163
 20
-97.1999240208389
 30
0.0
 10
51.36017251320163
 20
-97.1999240208389
 30
0.0
 10
51.36017251320163
 20
-97.1999240208389
 30
0.0
 10
51.030993639586
 20
-97.1999240208389
 30
0.0
 10
51.030993639586
 20
-97.1999240208389
 30
0.0
 10
51.030993639586
 20
-97.1999240208389
 30
0.0
 10
51.030993639586
 20
-97.05178491497317
 30
0.0
 10
51.030993639586
 20
-97.05178491497317
 30
0.0
 10
51.36223957049278
 20
-97.0369710043866
 30
0.0
 10
51.40857610476939
 20
-96.87401798793428
 30
0.0
 10
51.43820392594253
 20
-96.75964081782398
 30
0.0
 10
51.43820392594253
 20
-96.75964081782398
 30
0.0
 10
51.58375921019434
 20
-96.75964081782398
 30
0.0
 10
51.58375921019434
 20
-96.75964081782398
 30
0.0
 10
51.58375921019434
 20
-96.75964081782398
 30
0.0
 10
51.58375921019434
 20
-98.30407712386149
 30
0.0
 10
51.58375921019434
 20
-98.30407712386149
 30
0.0
 10
51.58375921019434
 20
-98.30407712386149
 30
0.0
 10
51.36017251320163
 20
-98.30407712386149
 30
0.0
 10
51.36017251320163
 20
-98.30407712386149
 30
0.0
  0
HATCH
  5
92
330
8D
100
AcDbEntity
  8
_U+30EC_U+30A4_U+30E4_U+30FC 1
 62
   179
420
  2234388
100
AcDbHatch
 10
0.0
 20
0.0
 30
0.0
210
0.0
220
0.0
230
1.0
  2
SOLID
 70
     1
 71
     0
 91
        1
 92
        1
 93
        1
 72
     4
 94
        3
 73
     0
 74
     1
 95
       26
 96
       22
 40
0.0
 40
0.0
 40
0.0
 40
0.0
 40
1.0
 40
1.0
 40
1.0
 40
2.0
 40
2.0
 40
2.0
 40
3.0
 40
3.0
 40
3.0
 40
4.0
 40
4.0
 40
4.0
 40
5.0
 40
5.0
 40
5.0
 40
6.0
 40
6.0
 40
6.0
 40
7.0
 40
7.0
 40
7.0
 40
7.0
 10
51.36017251320163
 20
-98.30407712386149
 10
51.36017251320163
 20
-98.30407712386149
 10
51.36017251320163
 20
-97.1999240208389
 10
51.36017251320163
 20
-97.1999240208389
 10
51.36017251320163
 20
-97.1999240208389
 10
51.030993639586
 20
-97.1999240208389
 10
51.030993639586
 20
-97.1999240208389
 10
51.030993639586
 20
-97.1999240208389
 10
51.030993639586
 20
-97.05178491497317
 10
51.030993639586
 20
-97.05178491497317
 10
51.36223957049278
 20
-97.0369710043866
 10
51.40857610476939
 20
-96.87401798793428
 10
51.43820392594253
 20
-96.75964081782398
 10
51.43820392594253
 20
-96.75964081782398
 10
51.58375921019434
 20
-96.75964081782398
 10
51.58375921019434
 20
-96.75964081782398
 10
51.58375921019434
 20
-96.75964081782398
 10
51.58375921019434
 20
-98.30407712386149
 10
51.58375921019434
 20
-98.30407712386149
 10
51.58375921019434
 20
-98.30407712386149
 10
51.36017251320163
 20
-98.30407712386149
 10
51.36017251320163
 20
-98.30407712386149
 97
        0
 97
        0
 75
     2
 76
     1
 98
        0
  0
SPLINE
  5
93
330
8D
100
AcDbEntity
  8
_U+30EC_U+30A4_U+30E4_U+30FC 1
370
     0
100
AcDbSpline
210
0.0
220
0.0
230
1.0
 70
    11
 71
     3
 72
    29
 73
    25
 74
     0
 42
0.0000000001
 43
0.0000000001
 12
1.0
 22
0.0
 32
0.0
 13
1.0
 23
0.0
 33
0.0
 40
0.0
 40
0.0
 40
0.0
 40
0.0
 40
1.0
 40
1.0
 40
1.0
 40
2.0
 40
2.0
 40
2.0
 40
3.0
 40
3.0
 40
3.0
 40
4.0
 40
4.0
 40
4.0
 40
5.0
 40
5.0
 40
5.0
 40
6.0
 40
6.0
 40
6.0
 40
7.0
 40
7.0
 40
7.0
 40
8.0
 40
8.0
 40
8.0
 40
8.0
 10
52.97747258875216
 20
-98.12631019682259
 30
0.0
 10
52.86998560961236
 20
-98.33577200232578
 30
0.0
 10
52.69686956147856
 20
-98.35472002749466
 30
0.0
 10
52.58094209839991
 20
-98.35472002749466
 30
0.0
 10
52.42040064878726
 20
-98.35472002749466
 30
0.0
 10
52.27915173389202
 20
-98.30821123844379
 30
0.0
 10
52.18406709849913
 20
-98.12631019682259
 30
0.0
 10
52.08071423394163
 20
-97.93166230190597
 30
0.0
 10
52.06176620877275
 20
-97.69463973252078
 30
0.0
 10
52.06176620877275
 20
-97.53203122561699
 30
0.0
 10
52.06176620877275
 20
-97.38802623433355
 30
0.0
 10
52.07864717665048
 20
-97.1361897543618
 30
0.0
 10
52.18406709849913
 20
-96.93740774486288
 30
0.0
 10
52.29172633241318
 20
-96.73449162078165
 30
0.0
 10
52.45209552725156
 20
-96.71106497148196
 30
0.0
 10
52.58094209839991
 20
-96.71106497148196
 30
0.0
 10
52.73907198117287
 20
-96.71106497148196
 30
0.0
 10
52.88256020813353
 20
-96.75550670324168
 30
0.0
 10
52.97747258875216
 20
-96.93740774486288
 30
0.0
 10
53.07669133872736
 20
-97.12998858248834
 30
0.0
 10
53.0999457332528
 20
-97.3583984131604
 30
0.0
 10
53.0999457332528
 20
-97.53203122561699
 30
0.0
 10
53.0999457332528
 20
-97.70325247123391
 30
0.0
 10
53.07875839601851
 20
-97.93372935919713
 30
0.0
 10
52.97747258875216
 20
-98.12631019682259
 30
0.0
  0
SPLINE
  5
94
330
8D
100
AcDbEntity
  8
_U+30EC_U+30A4_U+30E4_U+30FC 1
370
     0
100
AcDbSpline
210
0.0
220
0.0
230
1.0
 70
    11
 71
     3
 72
    17
 73
    13
 74
     0
 42
0.0000000001
 43
0.0000000001
 12
1.0
 22
0.0
 32
0.0
 13
1.0
 23
0.0
 33
0.0
 40
0.0
 40
0.0
 40
0.0
 40
0.0
 40
1.0
 40
1.0
 40
1.0
 40
2.0
 40
2.0
 40
2.0
 40
3.0
 40
3.0
 40
3.0
 40
4.0
 40
4.0
 40
4.0
 40
4.0
 10
52.58094209839991
 20
-96.90364580910743
 30
0.0
 10
52.33186169481634
 20
-96.90364580910743
 30
0.0
 10
52.28535290576547
 20
-97.18717716754348
 30
0.0
 10
52.28535290576547
 20
-97.53203122561699
 30
0.0
 10
52.28535290576547
 20
-97.85139157709966
 30
0.0
 10
52.32135415358633
 20
-98.16007213257804
 30
0.0
 10
52.58094209839991
 20
-98.16007213257804
 30
0.0
 10
52.82778318991806
 20
-98.16007213257804
 30
0.0
 10
52.87618678148581
 20
-97.87895234098166
 30
0.0
 10
52.87618678148581
 20
-97.53203122561699
 30
0.0
 10
52.87618678148581
 20
-97.2123263645858
 30
0.0
 10
52.83829073114807
 20
-96.90364580910743
 30
0.0
 10
52.58094209839991
 20
-96.90364580910743
 30
0.0
  0
HATCH
  5
95
330
8D
100
AcDbEntity
  8
_U+30EC_U+30A4_U+30E4_U+30FC 1
 62
   179
420
  2234388
100
AcDbHatch
 10
0.0
 20
0.0
 30
0.0
210
0.0
220
0.0
230
1.0
  2
SOLID
 70
     1
 71
     0
 91
        2
 92
        1
 93
        1
 72
     4
 94
        3
 73
     0
 74
     1
 95
       29
 96
       25
 40
0.0
 40
0.0
 40
0.0
 40
0.0
 40
1.0
 40
1.0
 40
1.0
 40
2.0
 40
2.0
 40
2.0
 40
3.0
 40
3.0
 40
3.0
 40
4.0
 40
4.0
 40
4.0
 40
5.0
 40
5.0
 40
5.0
 40
6.0
 40
6.0
 40
6.0
 40
7.0
 40
7.0
 40
7.0
 40
8.0
 40
8.0
 40
8.0
 40
8.0
 10
52.97747258875216
 20
-98.12631019682259
 10
52.86998560961236
 20
-98.33577200232578
 10
52.69686956147856
 20
-98.35472002749466
 10
52.58094209839991
 20
-98.35472002749466
 10
52.42040064878726
 20
-98.35472002749466
 10
52.27915173389202
 20
-98.30821123844379
 10
52.18406709849913
 20
-98.12631019682259
 10
52.08071423394163
 20
-97.93166230190597
 10
52.06176620877275
 20
-97.69463973252078
 10
52.06176620877275
 20
-97.53203122561699
 10
52.06176620877275
 20
-97.38802623433355
 10
52.07864717665048
 20
-97.1361897543618
 10
52.18406709849913
 20
-96.93740774486288
 10
52.29172633241318
 20
-96.73449162078165
 10
52.45209552725156
 20
-96.71106497148196
 10
52.58094209839991
 20
-96.71106497148196
 10
52.73907198117287
 20
-96.71106497148196
 10
52.88256020813353
 20
-96.75550670324168
 10
52.97747258875216
 20
-96.93740774486288
 10
53.07669133872736
 20
-97.12998858248834
 10
53.0999457332528
 20
-97.3583984131604
 10
53.0999457332528
 20
-97.53203122561699
 10
53.0999457332528
 20
-97.70325247123391
 10
53.07875839601851
 20
-97.93372935919713
 10
52.97747258875216
 20
-98.12631019682259
 97
        0
 97
        0
 92
        1
 93
        1
 72
     4
 94
        3
 73
     0
 74
     1
 95
       17
 96
       13
 40
0.0
 40
0.0
 40
0.0
 40
0.0
 40
1.0
 40
1.0
 40
1.0
 40
2.0
 40
2.0
 40
2.0
 40
3.0
 40
3.0
 40
3.0
 40
4.0
 40
4.0
 40
4.0
 40
4.0
 10
52.58094209839991
 20
-96.90364580910743
 10
52.33186169481634
 20
-96.90364580910743
 10
52.28535290576547
 20
-97.18717716754348
 10
52.28535290576547
 20
-97.53203122561699
 10
52.28535290576547
 20
-97.85139157709966
 10
52.32135415358633
 20
-98.16007213257804
 10
52.58094209839991
 20
-98.16007213257804
 10
52.82778318991806
 20
-98.16007213257804
 10
52.87618678148581
 20
-97.87895234098166
 10
52.87618678148581
 20
-97.53203122561699
 10
52.87618678148581
 20
-97.2123263645858
 10
52.83829073114807
 20
-96.90364580910743
 10
52.58094209839991
 20
-96.90364580910743
 97
        0
 97
        0
 75
     2
 76
     1
 98
        0
  0
ENDBLK
  5
90
330
8D
100
AcDbEntity
  8
0
100
AcDbBlockEnd
  0
BLOCK
  5
A4
330
A2
100
AcDbEntity
  8
0
100
AcDbBlockBegin
  2
block 3
 70
     0
 10
0.0
 20
0.0
 30
0.0
  3
block 3
  1

  0
SPLINE
  5
A6
330
A2
100
AcDbEntity
  8
_U+30EC_U+30A4_U+30E4_U+30FC 1
370
     0
100
AcDbSpline
210
0.0
220
0.0
230
1.0
 70
    11
 71
     3
 72
    62
 73
    58
 74
     0
 42
0.0000000001
 43
0.0000000001
 12
1.0
 22
0.0
 32
0.0
 13
1.0
 23
0.0
 33
0.0
 40
0.0
 40
0.0
 40
0.0
 40
0.0
 40
1.0
 40
1.0
 40
1.0
 40
2.0
 40
2.0
 40
2.0
 40
3.0
 40
3.0
 40
3.0
 40
4.0
 40
4.0
 40
4.0
 40
5.0
 40
5.0
 40
5.0
 40
6.0
 40
6.0
 40
6.0
 40
7.0
 40
7.0
 40
7.0
 40
8.0
 40
8.0
 40
8.0
 40
9.0
 40
9.0
 40
9.0
 40
10.0
 40
10.0
 40
10.0
 40
11.0
 40
11.0
 40
11.0
 40
12.0
 40
12.0
 40
12.0
 40
13.0
 40
13.0
 40
13.0
 40
14.0
 40
14.0
 40
14.0
 40
15.0
 40
15.0
 40
15.0
 40
16.0
 40
16.0
 40
16.0
 40
17.0
 40
17.0
 40
17.0
 40
18.0
 40
18.0
 40
18.0
 40
19.0
 40
19.0
 40
19.0
 40
19.0
 10
77.39923771936547
 20
-94.16927352246464
 30
0.0
 10
77.39923771936547
 20
-94.264013648309
 30
0.0
 10
77.37822263690545
 20
-94.48139917342827
 30
0.0
 10
77.19218748070196
 20
-94.60611162999432
 30
0.0
 10
77.07987736788282
 20
-94.67983667337866
 30
0.0
 10
76.98065861790762
 20
-94.68397078796096
 30
0.0
 10
76.89590926897047
 20
-94.68844941209179
 30
0.0
 10
76.89590926897047
 20
-94.68844941209179
 30
0.0
 10
76.89590926897047
 20
-94.46865232013285
 30
0.0
 10
76.89590926897047
 20
-94.46865232013285
 30
0.0
 10
76.96997882190334
 20
-94.46658526284169
 30
0.0
 10
77.20458982444886
 20
-94.45624997638595
 30
0.0
 10
77.20458982444886
 20
-94.17340763704694
 30
0.0
 10
77.20458982444886
 20
-94.03629283673399
 30
0.0
 10
77.1349988956468
 20
-93.88436412583447
 30
0.0
 10
76.90658906497474
 20
-93.88436412583447
 30
0.0
 10
76.7901448375733
 20
-93.88436412583447
 30
0.0
 10
76.74156899123128
 20
-93.92226017617222
 30
0.0
 10
76.70987411276698
 20
-93.95395505463651
 30
0.0
 10
76.63580455983411
 20
-94.02768009802087
 30
0.0
 10
76.62305770653869
 20
-94.14377981587378
 30
0.0
 10
76.62305770653869
 20
-94.19855683408926
 30
0.0
 10
76.62305770653869
 20
-94.21784936880665
 30
0.0
 10
76.62512476382983
 20
-94.25367836185325
 30
0.0
 10
76.62925887841213
 20
-94.28089461618673
 30
0.0
 10
76.62925887841213
 20
-94.28089461618673
 30
0.0
 10
76.43461098349552
 20
-94.28089461618673
 30
0.0
 10
76.43461098349552
 20
-94.28089461618673
 30
0.0
 10
76.44115666491749
 20
-94.24299856584898
 30
0.0
 10
76.44322372220864
 20
-94.20096840092893
 30
0.0
 10
76.44322372220864
 20
-94.19442271950696
 30
0.0
 10
76.44322372220864
 20
-94.1289659052872
 30
0.0
 10
76.42186413020009
 20
-93.93087291488534
 30
0.0
 10
76.18518607036343
 20
-93.93087291488534
 30
0.0
 10
76.00741914332454
 20
-93.93087291488534
 30
0.0
 10
75.95229761556054
 20
-94.06144203377632
 30
0.0
 10
75.95229761556054
 20
-94.17134057975578
 30
0.0
 10
75.95229761556054
 20
-94.4348903843774
 30
0.0
 10
76.18518607036343
 20
-94.44350312309052
 30
0.0
 10
76.25684405645663
 20
-94.44763723767282
 30
0.0
 10
76.25684405645663
 20
-94.44763723767282
 30
0.0
 10
76.25684405645663
 20
-94.65020885220551
 30
0.0
 10
76.25684405645663
 20
-94.65020885220551
 30
0.0
 10
76.13213159989058
 20
-94.64194062304091
 30
0.0
 10
75.75558266335277
 20
-94.61437985915892
 30
0.0
 10
75.75558266335277
 20
-94.15859372646035
 30
0.0
 10
75.75558266335277
 20
-93.93500702946764
 30
0.0
 10
75.8827066867585
 20
-93.6945393645972
 30
0.0
 10
76.17864038894146
 20
-93.6945393645972
 30
0.0
 10
76.36502005469347
 20
-93.6945393645972
 30
0.0
 10
76.44735783679094
 20
-93.78927949044157
 30
0.0
 10
76.50868053642839
 20
-93.88849824041677
 30
0.0
 10
76.5362413003104
 20
-93.82717554077932
 30
0.0
 10
76.6165120251167
 20
-93.64596351825519
 30
0.0
 10
76.89384221167933
 20
-93.64596351825519
 30
0.0
 10
77.23215058833085
 20
-93.64596351825519
 30
0.0
 10
77.39923771936547
 20
-93.89263235499907
 30
0.0
 10
77.39923771936547
 20
-94.16927352246464
 30
0.0
  0
HATCH
  5
A7
330
A2
100
AcDbEntity
  8
_U+30EC_U+30A4_U+30E4_U+30FC 1
 62
   179
420
  2234388
100
AcDbHatch
 10
0.0
 20
0.0
 30
0.0
210
0.0
220
0.0
230
1.0
  2
SOLID
 70
     1
 71
     0
 91
        1
 92
        1
 93
        1
 72
     4
 94
        3
 73
     0
 74
     1
 95
       62
 96
       58
 40
0.0
 40
0.0
 40
0.0
 40
0.0
 40
1.0
 40
1.0
 40
1.0
 40
2.0
 40
2.0
 40
2.0
 40
3.0
 40
3.0
 40
3.0
 40
4.0
 40
4.0
 40
4.0
 40
5.0
 40
5.0
 40
5.0
 40
6.0
 40
6.0
 40
6.0
 40
7.0
 40
7.0
 40
7.0
 40
8.0
 40
8.0
 40
8.0
 40
9.0
 40
9.0
 40
9.0
 40
10.0
 40
10.0
 40
10.0
 40
11.0
 40
11.0
 40
11.0
 40
12.0
 40
12.0
 40
12.0
 40
13.0
 40
13.0
 40
13.0
 40
14.0
 40
14.0
 40
14.0
 40
15.0
 40
15.0
 40
15.0
 40
16.0
 40
16.0
 40
16.0
 40
17.0
 40
17.0
 40
17.0
 40
18.0
 40
18.0
 40
18.0
 40
19.0
 40
19.0
 40
19.0
 40
19.0
 10
77.39923771936547
 20
-94.16927352246464
 10
77.39923771936547
 20
-94.264013648309
 10
77.37822263690545
 20
-94.48139917342827
 10
77.19218748070196
 20
-94.60611162999432
 10
77.07987736788282
 20
-94.67983667337866
 10
76.98065861790762
 20
-94.68397078796096
 10
76.89590926897047
 20
-94.68844941209179
 10
76.89590926897047
 20
-94.68844941209179
 10
76.89590926897047
 20
-94.46865232013285
 10
76.89590926897047
 20
-94.46865232013285
 10
76.96997882190334
 20
-94.46658526284169
 10
77.20458982444886
 20
-94.45624997638595
 10
77.20458982444886
 20
-94.17340763704694
 10
77.20458982444886
 20
-94.03629283673399
 10
77.1349988956468
 20
-93.88436412583447
 10
76.90658906497474
 20
-93.88436412583447
 10
76.7901448375733
 20
-93.88436412583447
 10
76.74156899123128
 20
-93.92226017617222
 10
76.70987411276698
 20
-93.95395505463651
 10
76.63580455983411
 20
-94.02768009802087
 10
76.62305770653869
 20
-94.14377981587378
 10
76.62305770653869
 20
-94.19855683408926
 10
76.62305770653869
 20
-94.21784936880665
 10
76.62512476382983
 20
-94.25367836185325
 10
76.62925887841213
 20
-94.28089461618673
 10
76.62925887841213
 20
-94.28089461618673
 10
76.43461098349552
 20
-94.28089461618673
 10
76.43461098349552
 20
-94.28089461618673
 10
76.44115666491749
 20
-94.24299856584898
 10
76.44322372220864
 20
-94.20096840092893
 10
76.44322372220864
 20
-94.19442271950696
 10
76.44322372220864
 20
-94.1289659052872
 10
76.42186413020009
 20
-93.93087291488534
 10
76.18518607036343
 20
-93.93087291488534
 10
76.00741914332454
 20
-93.93087291488534
 10
75.95229761556054
 20
-94.06144203377632
 10
75.95229761556054
 20
-94.17134057975578
 10
75.95229761556054
 20
-94.4348903843774
 10
76.18518607036343
 20
-94.44350312309052
 10
76.25684405645663
 20
-94.44763723767282
 10
76.25684405645663
 20
-94.44763723767282
 10
76.25684405645663
 20
-94.65020885220551
 10
76.25684405645663
 20
-94.65020885220551
 10
76.13213159989058
 20
-94.64194062304091
 10
75.75558266335277
 20
-94.61437985915892
 10
75.75558266335277
 20
-94.15859372646035
 10
75.75558266335277
 20
-93.93500702946764
 10
75.8827066867585
 20
-93.6945393645972
 10
76.17864038894146
 20
-93.6945393645972
 10
76.36502005469347
 20
-93.6945393645972
 10
76.44735783679094
 20
-93.78927949044157
 10
76.50868053642839
 20
-93.88849824041677
 10
76.5362413003104
 20
-93.82717554077932
 10
76.6165120251167
 20
-93.64596351825519
 10
76.89384221167933
 20
-93.64596351825519
 10
77.23215058833085
 20
-93.64596351825519
 10
77.39923771936547
 20
-93.89263235499907
 10
77.39923771936547
 20
-94.16927352246464
 97
        0
 97
        0
 75
     2
 76
     1
 98
        0
  0
POLYLINE
  5
A8
330
A2
100
AcDbEntity
  8
_U+30EC_U+30A4_U+30E4_U+30FC 1
370
     0
100
AcDb2dPolyline
 66
     1
 10
0.0
 20
0.0
 30
0.0
  0
VERTEX
  5
A9
330
A8
100
AcDbEntity
  8
_U+30EC_U+30A4_U+30E4_U+30FC 1
370
     0
100
AcDbVertex
100
AcDb2dVertex
 10
77.3485948157323
 20
-93.42719995494181
 30
0.0
  0
VERTEX
  5
AA
330
A8
100
AcDbEntity
  8
_U+30EC_U+30A4_U+30E4_U+30FC 1
370
     0
100
AcDbVertex
100
AcDb2dVertex
 10
77.09675833576054
 20
-93.42719995494181
 30
0.0
  0
VERTEX
  5
AB
330
A8
100
AcDbEntity
  8
_U+30EC_U+30A4_U+30E4_U+30FC 1
370
     0
100
AcDbVertex
100
AcDb2dVertex
 10
77.09675833576054
 20
-93.17605249406711
 30
0.0
  0
VERTEX
  5
AC
330
A8
100
AcDbEntity
  8
_U+30EC_U+30A4_U+30E4_U+30FC 1
370
     0
100
AcDbVertex
100
AcDb2dVertex
 10
77.3485948157323
 20
-93.17605249406711
 30
0.0
  0
VERTEX
  5
AD
330
A8
100
AcDbEntity
  8
_U+30EC_U+30A4_U+30E4_U+30FC 1
370
     0
100
AcDbVertex
100
AcDb2dVertex
 10
77.3485948157323
 20
-93.42719995494181
 30
0.0
  0
SEQEND
  5
AE
330
A8
100
AcDbEntity
  8
_U+30EC_U+30A4_U+30E4_U+30FC 1
370
     0
  0
HATCH
  5
AF
330
A2
100
AcDbEntity
  8
_U+30EC_U+30A4_U+30E4_U+30FC 1
 62
   179
420
  2234388
100
AcDbHatch
 10
0.0
 20
0.0
 30
0.0
210
0.0
220
0.0
230
1.0
  2
SOLID
 70
     1
 71
     0
 91
        1
 92
        1
 93
        4
 72
     1
 10
77.3485948157323
 20
-93.42719995494181
 11
77.09675833576054
 21
-93.42719995494181
 72
     1
 10
77.09675833576054
 20
-93.42719995494181
 11
77.09675833576054
 21
-93.17605249406711
 72
     1
 10
77.09675833576054
 20
-93.17605249406711
 11
77.3485948157323
 21
-93.17605249406711
 72
     1
 10
77.3485948157323
 20
-93.17605249406711
 11
77.3485948157323
 21
-93.42719995494181
 97
        0
 75
     2
 76
     1
 98
        0
  0
SPLINE
  5
B0
330
A2
100
AcDbEntity
  8
_U+30EC_U+30A4_U+30E4_U+30FC 1
370
     0
100
AcDbSpline
210
0.0
220
0.0
230
1.0
 70
    11
 71
     3
 72
    44
 73
    40
 74
     0
 42
0.0000000001
 43
0.0000000001
 12
1.0
 22
0.0
 32
0.0
 13
1.0
 23
0.0
 33
0.0
 40
0.0
 40
0.0
 40
0.0
 40
0.0
 40
1.0
 40
1.0
 40
1.0
 40
2.0
 40
2.0
 40
2.0
 40
3.0
 40
3.0
 40
3.0
 40
4.0
 40
4.0
 40
4.0
 40
5.0
 40
5.0
 40
5.0
 40
6.0
 40
6.0
 40
6.0
 40
7.0
 40
7.0
 40
7.0
 40
8.0
 40
8.0
 40
8.0
 40
9.0
 40
9.0
 40
9.0
 40
10.0
 40
10.0
 40
10.0
 40
11.0
 40
11.0
 40
11.0
 40
12.0
 40
12.0
 40
12.0
 40
13.0
 40
13.0
 40
13.0
 40
13.0
 10
76.7667181882736
 20
-92.34957408715566
 30
0.0
 10
76.92553709014362
 20
-92.56695961227493
 30
0.0
 10
76.99960664307649
 20
-92.65963268082815
 30
0.0
 10
77.1432671248114
 20
-92.70820852717017
 30
0.0
 10
77.1432671248114
 20
-92.70820852717017
 30
0.0
 10
77.1432671248114
 20
-91.93168400479486
 30
0.0
 10
77.1432671248114
 20
-91.93168400479486
 30
0.0
 10
77.1432671248114
 20
-91.93168400479486
 30
0.0
 10
77.3485948157323
 20
-91.93168400479486
 30
0.0
 10
77.3485948157323
 20
-91.93168400479486
 30
0.0
 10
77.3485948157323
 20
-91.93168400479486
 30
0.0
 10
77.3485948157323
 20
-92.95728893075373
 30
0.0
 10
77.3485948157323
 20
-92.95728893075373
 30
0.0
 10
76.99099390436336
 20
-92.92559405228944
 30
0.0
 10
76.9127902368482
 20
-92.8601372380697
 30
0.0
 10
76.61444496782556
 20
-92.47600909146433
 30
0.0
 10
76.41566295832665
 20
-92.22072751600733
 30
0.0
 10
76.34779457726722
 20
-92.15527070178757
 30
0.0
 10
76.21033526740575
 20
-92.15527070178757
 30
0.0
 10
76.09182398271315
 20
-92.15527070178757
 30
0.0
 10
75.96091035427366
 20
-92.2272731974293
 30
0.0
 10
75.96091035427366
 20
-92.42329913054002
 30
0.0
 10
75.96091035427366
 20
-92.68271482057932
 30
0.0
 10
76.19138724223689
 20
-92.69132755929245
 30
0.0
 10
76.30783146963833
 20
-92.69546167387475
 30
0.0
 10
76.30783146963833
 20
-92.69546167387475
 30
0.0
 10
76.30783146963833
 20
-92.91904837086746
 30
0.0
 10
76.30783146963833
 20
-92.91904837086746
 30
0.0
 10
76.1807074462326
 20
-92.91078014170286
 30
0.0
 10
76.06874184296198
 20
-92.90010034569859
 30
0.0
 10
75.9502305582694
 20
-92.82017413044079
 30
0.0
 10
75.78934459910822
 20
-92.71027558446133
 30
0.0
 10
75.75558266335277
 20
-92.52458493780635
 30
0.0
 10
75.75558266335277
 20
-92.40848521995343
 30
0.0
 10
75.75558266335277
 20
-92.1321885620364
 30
0.0
 10
75.93955076226511
 20
-91.92548283292142
 30
0.0
 10
76.2124023246969
 20
-91.92548283292142
 30
0.0
 10
76.44115666491749
 20
-91.92548283292142
 30
0.0
 10
76.5403754148927
 20
-92.04123804122581
 30
0.0
 10
76.7667181882736
 20
-92.34957408715566
 30
0.0
  0
HATCH
  5
B1
330
A2
100
AcDbEntity
  8
_U+30EC_U+30A4_U+30E4_U+30FC 1
 62
   179
420
  2234388
100
AcDbHatch
 10
0.0
 20
0.0
 30
0.0
210
0.0
220
0.0
230
1.0
  2
SOLID
 70
     1
 71
     0
 91
        1
 92
        1
 93
        1
 72
     4
 94
        3
 73
     0
 74
     1
 95
       44
 96
       40
 40
0.0
 40
0.0
 40
0.0
 40
0.0
 40
1.0
 40
1.0
 40
1.0
 40
2.0
 40
2.0
 40
2.0
 40
3.0
 40
3.0
 40
3.0
 40
4.0
 40
4.0
 40
4.0
 40
5.0
 40
5.0
 40
5.0
 40
6.0
 40
6.0
 40
6.0
 40
7.0
 40
7.0
 40
7.0
 40
8.0
 40
8.0
 40
8.0
 40
9.0
 40
9.0
 40
9.0
 40
10.0
 40
10.0
 40
10.0
 40
11.0
 40
11.0
 40
11.0
 40
12.0
 40
12.0
 40
12.0
 40
13.0
 40
13.0
 40
13.0
 40
13.0
 10
76.7667181882736
 20
-92.34957408715566
 10
76.92553709014362
 20
-92.56695961227493
 10
76.99960664307649
 20
-92.65963268082815
 10
77.1432671248114
 20
-92.70820852717017
 10
77.1432671248114
 20
-92.70820852717017
 10
77.1432671248114
 20
-91.93168400479486
 10
77.1432671248114
 20
-91.93168400479486
 10
77.1432671248114
 20
-91.93168400479486
 10
77.3485948157323
 20
-91.93168400479486
 10
77.3485948157323
 20
-91.93168400479486
 10
77.3485948157323
 20
-91.93168400479486
 10
77.3485948157323
 20
-92.95728893075373
 10
77.3485948157323
 20
-92.95728893075373
 10
76.99099390436336
 20
-92.92559405228944
 10
76.9127902368482
 20
-92.8601372380697
 10
76.61444496782556
 20
-92.47600909146433
 10
76.41566295832665
 20
-92.22072751600733
 10
76.34779457726722
 20
-92.15527070178757
 10
76.21033526740575
 20
-92.15527070178757
 10
76.09182398271315
 20
-92.15527070178757
 10
75.96091035427366
 20
-92.2272731974293
 10
75.96091035427366
 20
-92.42329913054002
 10
75.96091035427366
 20
-92.68271482057932
 10
76.19138724223689
 20
-92.69132755929245
 10
76.30783146963833
 20
-92.69546167387475
 10
76.30783146963833
 20
-92.69546167387475
 10
76.30783146963833
 20
-92.91904837086746
 10
76.30783146963833
 20
-92.91904837086746
 10
76.1807074462326
 20
-92.91078014170286
 10
76.06874184296198
 20
-92.90010034569859
 10
75.9502305582694
 20
-92.82017413044079
 10
75.78934459910822
 20
-92.71027558446133
 10
75.75558266335277
 20
-92.52458493780635
 10
75.75558266335277
 20
-92.40848521995343
 10
75.75558266335277
 20
-92.1321885620364
 10
75.93955076226511
 20
-91.92548283292142
 10
76.2124023246969
 20
-91.92548283292142
 10
76.44115666491749
 20
-91.92548283292142
 10
76.5403754148927
 20
-92.04123804122581
 10
76.7667181882736
 20
-92.34957408715566
 97
        0
 97
        0
 75
     2
 76
     1
 98
        0
  0
ENDBLK
  5
A5
330
A2
100
AcDbEntity
  8
0
100
AcDbBlockEnd
  0
BLOCK
  5
BC
330
BA
100
AcDbEntity
  8
0
100
AcDbBlockBegin
  2
block 4
 70
     0
 10
0.0
 20
0.0
 30
0.0
  3
block 4
  1

  0
SPLINE
  5
BE
330
BA
100
AcDbEntity
  8
_U+30EC_U+30A4_U+30E4_U+30FC 1
370
     0
100
AcDbSpline
210
0.0
220
0.0
230
1.0
 70
    11
 71
     3
 72
    26
 73
    22
 74
     0
 42
0.0000000001
 43
0.0000000001
 12
1.0
 22
0.0
 32
0.0
 13
1.0
 23
0.0
 33
0.0
 40
0.0
 40
0.0
 40
0.0
 40
0.0
 40
1.0
 40
1.0
 40
1.0
 40
2.0
 40
2.0
 40
2.0
 40
3.0
 40
3.0
 40
3.0
 40
4.0
 40
4.0
 40
4.0
 40
5.0
 40
5.0
 40
5.0
 40
6.0
 40
6.0
 40
6.0
 40
7.0
 40
7.0
 40
7.0
 40
7.0
 10
77.3485948157323
 20
-86.32651365029338
 30
0.0
 10
77.3485948157323
 20
-86.32651365029338
 30
0.0
 10
76.24444171270973
 20
-86.32651365029338
 30
0.0
 10
76.24444171270973
 20
-86.32651365029338
 30
0.0
 10
76.24444171270973
 20
-86.32651365029338
 30
0.0
 10
76.24444171270973
 20
-86.65586477868327
 30
0.0
 10
76.24444171270973
 20
-86.65586477868327
 30
0.0
 10
76.24444171270973
 20
-86.65586477868327
 30
0.0
 10
76.09630260684398
 20
-86.65586477868327
 30
0.0
 10
76.09630260684398
 20
-86.65586477868327
 30
0.0
 10
76.08148869625741
 20
-86.32444659300222
 30
0.0
 10
75.91853567980509
 20
-86.27793780395135
 30
0.0
 10
75.8041585096948
 20
-86.24865449232674
 30
0.0
 10
75.8041585096948
 20
-86.24865449232674
 30
0.0
 10
75.8041585096948
 20
-86.10292695330067
 30
0.0
 10
75.8041585096948
 20
-86.10292695330067
 30
0.0
 10
75.8041585096948
 20
-86.10292695330067
 30
0.0
 10
77.3485948157323
 20
-86.10292695330067
 30
0.0
 10
77.3485948157323
 20
-86.10292695330067
 30
0.0
 10
77.3485948157323
 20
-86.10292695330067
 30
0.0
 10
77.3485948157323
 20
-86.32651365029338
 30
0.0
 10
77.3485948157323
 20
-86.32651365029338
 30
0.0
  0
HATCH
  5
BF
330
BA
100
AcDbEntity
  8
_U+30EC_U+30A4_U+30E4_U+30FC 1
 62
   179
420
  2234388
100
AcDbHatch
 10
0.0
 20
0.0
 30
0.0
210
0.0
220
0.0
230
1.0
  2
SOLID
 70
     1
 71
     0
 91
        1
 92
        1
 93
        1
 72
     4
 94
        3
 73
     0
 74
     1
 95
       26
 96
       22
 40
0.0
 40
0.0
 40
0.0
 40
0.0
 40
1.0
 40
1.0
 40
1.0
 40
2.0
 40
2.0
 40
2.0
 40
3.0
 40
3.0
 40
3.0
 40
4.0
 40
4.0
 40
4.0
 40
5.0
 40
5.0
 40
5.0
 40
6.0
 40
6.0
 40
6.0
 40
7.0
 40
7.0
 40
7.0
 40
7.0
 10
77.3485948157323
 20
-86.32651365029338
 10
77.3485948157323
 20
-86.32651365029338
 10
76.24444171270973
 20
-86.32651365029338
 10
76.24444171270973
 20
-86.32651365029338
 10
76.24444171270973
 20
-86.32651365029338
 10
76.24444171270973
 20
-86.65586477868327
 10
76.24444171270973
 20
-86.65586477868327
 10
76.24444171270973
 20
-86.65586477868327
 10
76.09630260684398
 20
-86.65586477868327
 10
76.09630260684398
 20
-86.65586477868327
 10
76.08148869625741
 20
-86.32444659300222
 10
75.91853567980509
 20
-86.27793780395135
 10
75.8041585096948
 20
-86.24865449232674
 10
75.8041585096948
 20
-86.24865449232674
 10
75.8041585096948
 20
-86.10292695330067
 10
75.8041585096948
 20
-86.10292695330067
 10
75.8041585096948
 20
-86.10292695330067
 10
77.3485948157323
 20
-86.10292695330067
 10
77.3485948157323
 20
-86.10292695330067
 10
77.3485948157323
 20
-86.10292695330067
 10
77.3485948157323
 20
-86.32651365029338
 10
77.3485948157323
 20
-86.32651365029338
 97
        0
 97
        0
 75
     2
 76
     1
 98
        0
  0
ENDBLK
  5
BD
330
BA
100
AcDbEntity
  8
0
100
AcDbBlockEnd
  0
BLOCK
  5
CE
330
CC
100
AcDbEntity
  8
0
100
AcDbBlockBegin
  2
block 5
 70
     0
 10
0.0
 20
0.0
 30
0.0
  3
block 5
  1

  0
SPLINE
  5
D0
330
CC
100
AcDbEntity
  8
_U+30EC_U+30A4_U+30E4_U+30FC 1
370
     0
100
AcDbSpline
210
0.0
220
0.0
230
1.0
 70
    11
 71
     3
 72
    44
 73
    40
 74
     0
 42
0.0000000001
 43
0.0000000001
 12
1.0
 22
0.0
 32
0.0
 13
1.0
 23
0.0
 33
0.0
 40
0.0
 40
0.0
 40
0.0
 40
0.0
 40
1.0
 40
1.0
 40
1.0
 40
2.0
 40
2.0
 40
2.0
 40
3.0
 40
3.0
 40
3.0
 40
4.0
 40
4.0
 40
4.0
 40
5.0
 40
5.0
 40
5.0
 40
6.0
 40
6.0
 40
6.0
 40
7.0
 40
7.0
 40
7.0
 40
8.0
 40
8.0
 40
8.0
 40
9.0
 40
9.0
 40
9.0
 40
10.0
 40
10.0
 40
10.0
 40
11.0
 40
11.0
 40
11.0
 40
12.0
 40
12.0
 40
12.0
 40
13.0
 40
13.0
 40
13.0
 40
13.0
 10
61.00144448344756
 20
-80.52238903151871
 30
0.0
 10
60.78405895832829
 20
-80.68103567861446
 30
0.0
 10
60.69121363500081
 20
-80.75510523154733
 30
0.0
 10
60.64263778865879
 20
-80.89893796805652
 30
0.0
 10
60.64263778865879
 20
-80.89893796805652
 30
0.0
 10
61.41899005625984
 20
-80.89893796805652
 30
0.0
 10
61.41899005625984
 20
-80.89893796805652
 30
0.0
 10
61.41899005625984
 20
-80.89893796805652
 30
0.0
 10
61.41899005625984
 20
-81.10409340420314
 30
0.0
 10
61.41899005625984
 20
-81.10409340420314
 30
0.0
 10
61.41899005625984
 20
-81.10409340420314
 30
0.0
 10
60.39372963984949
 20
-81.10409340420314
 30
0.0
 10
60.39372963984949
 20
-81.10409340420314
 30
0.0
 10
60.42525226353952
 20
-80.74649249283421
 30
0.0
 10
60.49070907775927
 20
-80.66828882531904
 30
0.0
 10
60.87466496959036
 20
-80.3699435562964
 30
0.0
 10
61.12994654504737
 20
-80.17116154679749
 30
0.0
 10
61.19540335926713
 20
-80.10346542051234
 30
0.0
 10
61.19540335926713
 20
-79.96600611065087
 30
0.0
 10
61.19540335926713
 20
-79.84749482595826
 30
0.0
 10
61.12374537317393
 20
-79.71640894274451
 30
0.0
 10
60.92754718528895
 20
-79.71640894274451
 30
0.0
 10
60.66795924047538
 20
-79.71640894274451
 30
0.0
 10
60.65951875653651
 20
-79.94688583070773
 30
0.0
 10
60.65521238717995
 20
-80.06333005810917
 30
0.0
 10
60.65521238717995
 20
-80.06333005810917
 30
0.0
 10
60.43162569018723
 20
-80.06333005810917
 30
0.0
 10
60.43162569018723
 20
-80.06333005810917
 30
0.0
 10
60.44006617412609
 20
-79.93637828947772
 30
0.0
 10
60.45057371535611
 20
-79.82424043143283
 30
0.0
 10
60.53084444016243
 20
-79.70572914674024
 30
0.0
 10
60.64057073136764
 20
-79.54501544235333
 30
0.0
 10
60.82626137802261
 20
-79.51108125182363
 30
0.0
 10
60.94218884110126
 20
-79.51108125182363
 30
0.0
 10
61.21883000856683
 20
-79.51108125182363
 30
0.0
 10
61.42553573768181
 20
-79.69522160551023
 30
0.0
 10
61.42553573768181
 20
-79.96807316794201
 30
0.0
 10
61.42553573768181
 20
-80.19648299861407
 30
0.0
 10
61.30943601982889
 20
-80.29604625813779
 30
0.0
 10
61.00144448344756
 20
-80.52238903151871
 30
0.0
  0
HATCH
  5
D1
330
CC
100
AcDbEntity
  8
_U+30EC_U+30A4_U+30E4_U+30FC 1
 62
   179
420
  2234388
100
AcDbHatch
 10
0.0
 20
0.0
 30
0.0
210
0.0
220
0.0
230
1.0
  2
SOLID
 70
     1
 71
     0
 91
        1
 92
        1
 93
        1
 72
     4
 94
        3
 73
     0
 74
     1
 95
       44
 96
       40
 40
0.0
 40
0.0
 40
0.0
 40
0.0
 40
1.0
 40
1.0
 40
1.0
 40
2.0
 40
2.0
 40
2.0
 40
3.0
 40
3.0
 40
3.0
 40
4.0
 40
4.0
 40
4.0
 40
5.0
 40
5.0
 40
5.0
 40
6.0
 40
6.0
 40
6.0
 40
7.0
 40
7.0
 40
7.0
 40
8.0
 40
8.0
 40
8.0
 40
9.0
 40
9.0
 40
9.0
 40
10.0
 40
10.0
 40
10.0
 40
11.0
 40
11.0
 40
11.0
 40
12.0
 40
12.0
 40
12.0
 40
13.0
 40
13.0
 40
13.0
 40
13.0
 10
61.00144448344756
 20
-80.52238903151871
 10
60.78405895832829
 20
-80.68103567861446
 10
60.69121363500081
 20
-80.75510523154733
 10
60.64263778865879
 20
-80.89893796805652
 10
60.64263778865879
 20
-80.89893796805652
 10
61.41899005625984
 20
-80.89893796805652
 10
61.41899005625984
 20
-80.89893796805652
 10
61.41899005625984
 20
-80.89893796805652
 10
61.41899005625984
 20
-81.10409340420314
 10
61.41899005625984
 20
-81.10409340420314
 10
61.41899005625984
 20
-81.10409340420314
 10
60.39372963984949
 20
-81.10409340420314
 10
60.39372963984949
 20
-81.10409340420314
 10
60.42525226353952
 20
-80.74649249283421
 10
60.49070907775927
 20
-80.66828882531904
 10
60.87466496959036
 20
-80.3699435562964
 10
61.12994654504737
 20
-80.17116154679749
 10
61.19540335926713
 20
-80.10346542051234
 10
61.19540335926713
 20
-79.96600611065087
 10
61.19540335926713
 20
-79.84749482595826
 10
61.12374537317393
 20
-79.71640894274451
 10
60.92754718528895
 20
-79.71640894274451
 10
60.66795924047538
 20
-79.71640894274451
 10
60.65951875653651
 20
-79.94688583070773
 10
60.65521238717995
 20
-80.06333005810917
 10
60.65521238717995
 20
-80.06333005810917
 10
60.43162569018723
 20
-80.06333005810917
 10
60.43162569018723
 20
-80.06333005810917
 10
60.44006617412609
 20
-79.93637828947772
 10
60.45057371535611
 20
-79.82424043143283
 10
60.53084444016243
 20
-79.70572914674024
 10
60.64057073136764
 20
-79.54501544235333
 10
60.82626137802261
 20
-79.51108125182363
 10
60.94218884110126
 20
-79.51108125182363
 10
61.21883000856683
 20
-79.51108125182363
 10
61.42553573768181
 20
-79.69522160551023
 10
61.42553573768181
 20
-79.96807316794201
 10
61.42553573768181
 20
-80.19648299861407
 10
61.30943601982889
 20
-80.29604625813779
 10
61.00144448344756
 20
-80.52238903151871
 97
        0
 97
        0
 75
     2
 76
     1
 98
        0
  0
SPLINE
  5
D2
330
CC
100
AcDbEntity
  8
_U+30EC_U+30A4_U+30E4_U+30FC 1
370
     0
100
AcDbSpline
210
0.0
220
0.0
230
1.0
 70
    11
 71
     3
 72
    53
 73
    49
 74
     0
 42
0.0000000001
 43
0.0000000001
 12
1.0
 22
0.0
 32
0.0
 13
1.0
 23
0.0
 33
0.0
 40
0.0
 40
0.0
 40
0.0
 40
0.0
 40
1.0
 40
1.0
 40
1.0
 40
2.0
 40
2.0
 40
2.0
 40
3.0
 40
3.0
 40
3.0
 40
4.0
 40
4.0
 40
4.0
 40
5.0
 40
5.0
 40
5.0
 40
6.0
 40
6.0
 40
6.0
 40
7.0
 40
7.0
 40
7.0
 40
8.0
 40
8.0
 40
8.0
 40
9.0
 40
9.0
 40
9.0
 40
10.0
 40
10.0
 40
10.0
 40
11.0
 40
11.0
 40
11.0
 40
12.0
 40
12.0
 40
12.0
 40
13.0
 40
13.0
 40
13.0
 40
14.0
 40
14.0
 40
14.0
 40
15.0
 40
15.0
 40
15.0
 40
16.0
 40
16.0
 40
16.0
 40
16.0
 10
62.06184487380746
 20
-81.15490856261059
 30
0.0
 10
61.98364120629229
 20
-81.15490856261059
 30
0.0
 10
61.88235539902594
 20
-81.13785533995859
 30
0.0
 10
61.7810695917596
 20
-81.07446558303
 30
0.0
 10
61.60812579840005
 20
-80.96439478227627
 30
0.0
 10
61.58711071594003
 20
-80.83330889906252
 30
0.0
 10
61.56781818122263
 20
-80.7254774103742
 30
0.0
 10
61.56781818122263
 20
-80.7254774103742
 30
0.0
 10
61.78968233047272
 20
-80.7254774103742
 30
0.0
 10
61.78968233047272
 20
-80.7254774103742
 30
0.0
 10
61.8444593486882
 20
-80.92425941987311
 30
0.0
 10
61.97089435299686
 20
-80.95388724104626
 30
0.0
 10
62.06391193109861
 20
-80.95388724104626
 30
0.0
 10
62.2030937887027
 20
-80.95388724104626
 30
0.0
 10
62.35502249960222
 20
-80.8544962362968
 30
0.0
 10
62.35502249960222
 20
-80.62178003626816
 30
0.0
 10
62.35502249960222
 20
-80.3658094417141
 30
0.0
 10
62.1755330248207
 20
-80.29604625813779
 30
0.0
 10
62.05529919238548
 20
-80.29604625813779
 30
0.0
 10
62.02360431392118
 20
-80.29604625813779
 30
0.0
 10
61.88235539902594
 20
-80.29604625813779
 30
0.0
 10
61.79381644505502
 20
-80.4250650840604
 30
0.0
 10
61.79381644505502
 20
-80.4250650840604
 30
0.0
 10
61.6184610848558
 20
-80.40594480411727
 30
0.0
 10
61.6184610848558
 20
-80.40594480411727
 30
0.0
 10
61.6184610848558
 20
-80.40594480411727
 30
0.0
 10
61.73869491729102
 20
-79.55982935293991
 30
0.0
 10
61.73869491729102
 20
-79.55982935293991
 30
0.0
 10
61.73869491729102
 20
-79.55982935293991
 30
0.0
 10
62.51521943966634
 20
-79.55982935293991
 30
0.0
 10
62.51521943966634
 20
-79.55982935293991
 30
0.0
 10
62.51521943966634
 20
-79.55982935293991
 30
0.0
 10
62.51521943966634
 20
-79.75447724785653
 30
0.0
 10
62.51521943966634
 20
-79.75447724785653
 30
0.0
 10
62.51521943966634
 20
-79.75447724785653
 30
0.0
 10
61.90130342419481
 20
-79.75447724785653
 30
0.0
 10
61.90130342419481
 20
-79.75447724785653
 30
0.0
 10
61.90130342419481
 20
-79.75447724785653
 30
0.0
 10
61.83584660997507
 20
-80.1775349734452
 30
0.0
 10
61.83584660997507
 20
-80.1775349734452
 30
0.0
 10
61.89716930961252
 20
-80.1436007829155
 30
0.0
 10
61.97950709170999
 20
-80.10346542051234
 30
0.0
 10
62.09767386685406
 20
-80.10346542051234
 30
0.0
 10
62.35088838501992
 20
-80.10346542051234
 30
0.0
 10
62.58722193530806
 20
-80.28967283149008
 30
0.0
 10
62.58722193530806
 20
-80.60265975632504
 30
0.0
 10
62.58722193530806
 20
-80.92012530529081
 30
0.0
 10
62.36363523831535
 20
-81.15490856261059
 30
0.0
 10
62.06184487380746
 20
-81.15490856261059
 30
0.0
  0
HATCH
  5
D3
330
CC
100
AcDbEntity
  8
_U+30EC_U+30A4_U+30E4_U+30FC 1
 62
   179
420
  2234388
100
AcDbHatch
 10
0.0
 20
0.0
 30
0.0
210
0.0
220
0.0
230
1.0
  2
SOLID
 70
     1
 71
     0
 91
        1
 92
        1
 93
        1
 72
     4
 94
        3
 73
     0
 74
     1
 95
       53
 96
       49
 40
0.0
 40
0.0
 40
0.0
 40
0.0
 40
1.0
 40
1.0
 40
1.0
 40
2.0
 40
2.0
 40
2.0
 40
3.0
 40
3.0
 40
3.0
 40
4.0
 40
4.0
 40
4.0
 40
5.0
 40
5.0
 40
5.0
 40
6.0
 40
6.0
 40
6.0
 40
7.0
 40
7.0
 40
7.0
 40
8.0
 40
8.0
 40
8.0
 40
9.0
 40
9.0
 40
9.0
 40
10.0
 40
10.0
 40
10.0
 40
11.0
 40
11.0
 40
11.0
 40
12.0
 40
12.0
 40
12.0
 40
13.0
 40
13.0
 40
13.0
 40
14.0
 40
14.0
 40
14.0
 40
15.0
 40
15.0
 40
15.0
 40
16.0
 40
16.0
 40
16.0
 40
16.0
 10
62.06184487380746
 20
-81.15490856261059
 10
61.98364120629229
 20
-81.15490856261059
 10
61.88235539902594
 20
-81.13785533995859
 10
61.7810695917596
 20
-81.07446558303
 10
61.60812579840005
 20
-80.96439478227627
 10
61.58711071594003
 20
-80.83330889906252
 10
61.56781818122263
 20
-80.7254774103742
 10
61.56781818122263
 20
-80.7254774103742
 10
61.78968233047272
 20
-80.7254774103742
 10
61.78968233047272
 20
-80.7254774103742
 10
61.8444593486882
 20
-80.92425941987311
 10
61.97089435299686
 20
-80.95388724104626
 10
62.06391193109861
 20
-80.95388724104626
 10
62.2030937887027
 20
-80.95388724104626
 10
62.35502249960222
 20
-80.8544962362968
 10
62.35502249960222
 20
-80.62178003626816
 10
62.35502249960222
 20
-80.3658094417141
 10
62.1755330248207
 20
-80.29604625813779
 10
62.05529919238548
 20
-80.29604625813779
 10
62.02360431392118
 20
-80.29604625813779
 10
61.88235539902594
 20
-80.29604625813779
 10
61.79381644505502
 20
-80.4250650840604
 10
61.79381644505502
 20
-80.4250650840604
 10
61.6184610848558
 20
-80.40594480411727
 10
61.6184610848558
 20
-80.40594480411727
 10
61.6184610848558
 20
-80.40594480411727
 10
61.73869491729102
 20
-79.55982935293991
 10
61.73869491729102
 20
-79.55982935293991
 10
61.73869491729102
 20
-79.55982935293991
 10
62.51521943966634
 20
-79.55982935293991
 10
62.51521943966634
 20
-79.55982935293991
 10
62.51521943966634
 20
-79.55982935293991
 10
62.51521943966634
 20
-79.75447724785653
 10
62.51521943966634
 20
-79.75447724785653
 10
62.51521943966634
 20
-79.75447724785653
 10
61.90130342419481
 20
-79.75447724785653
 10
61.90130342419481
 20
-79.75447724785653
 10
61.90130342419481
 20
-79.75447724785653
 10
61.83584660997507
 20
-80.1775349734452
 10
61.83584660997507
 20
-80.1775349734452
 10
61.89716930961252
 20
-80.1436007829155
 10
61.97950709170999
 20
-80.10346542051234
 10
62.09767386685406
 20
-80.10346542051234
 10
62.35088838501992
 20
-80.10346542051234
 10
62.58722193530806
 20
-80.28967283149008
 10
62.58722193530806
 20
-80.60265975632504
 10
62.58722193530806
 20
-80.92012530529081
 10
62.36363523831535
 20
-81.15490856261059
 10
62.06184487380746
 20
-81.15490856261059
 97
        0
 97
        0
 75
     2
 76
     1
 98
        0
  0
ENDBLK
  5
CF
330
CC
100
AcDbEntity
  8
0
100
AcDbBlockEnd
  0
BLOCK
  5
DE
330
DC
100
AcDbEntity
  8
0
100
AcDbBlockBegin
  2
block 6
 70
     0
 10
0.0
 20
0.0
 30
0.0
  3
block 6
  1

  0
SPLINE
  5
E0
330
DC
100
AcDbEntity
  8
_U+30EC_U+30A4_U+30E4_U+30FC 1
370
     0
100
AcDbSpline
210
0.0
220
0.0
230
1.0
 70
    11
 71
     3
 72
    53
 73
    49
 74
     0
 42
0.0000000001
 43
0.0000000001
 12
1.0
 22
0.0
 32
0.0
 13
1.0
 23
0.0
 33
0.0
 40
0.0
 40
0.0
 40
0.0
 40
0.0
 40
1.0
 40
1.0
 40
1.0
 40
2.0
 40
2.0
 40
2.0
 40
3.0
 40
3.0
 40
3.0
 40
4.0
 40
4.0
 40
4.0
 40
5.0
 40
5.0
 40
5.0
 40
6.0
 40
6.0
 40
6.0
 40
7.0
 40
7.0
 40
7.0
 40
8.0
 40
8.0
 40
8.0
 40
9.0
 40
9.0
 40
9.0
 40
10.0
 40
10.0
 40
10.0
 40
11.0
 40
11.0
 40
11.0
 40
12.0
 40
12.0
 40
12.0
 40
13.0
 40
13.0
 40
13.0
 40
14.0
 40
14.0
 40
14.0
 40
15.0
 40
15.0
 40
15.0
 40
16.0
 40
16.0
 40
16.0
 40
16.0
 10
77.39923771936547
 20
-89.26931421379379
 30
0.0
 10
77.39923771936547
 20
-89.34751788130896
 30
0.0
 10
77.38235675148775
 20
-89.4488036885753
 30
0.0
 10
77.31896699455915
 20
-89.55008949584165
 30
0.0
 10
77.20906844857969
 20
-89.7230332892012
 30
0.0
 10
77.07781031059166
 20
-89.74404837166121
 30
0.0
 10
76.96997882190334
 20
-89.76334090637862
 30
0.0
 10
76.96997882190334
 20
-89.76334090637862
 30
0.0
 10
76.96997882190334
 20
-89.54147675712852
 30
0.0
 10
76.96997882190334
 20
-89.54147675712852
 30
0.0
 10
77.16876083140225
 20
-89.48669973891305
 30
0.0
 10
77.1983886525754
 20
-89.36026473460439
 30
0.0
 10
77.1983886525754
 20
-89.26724715650263
 30
0.0
 10
77.1983886525754
 20
-89.12806529889855
 30
0.0
 10
77.09882539305168
 20
-88.97613658799902
 30
0.0
 10
76.86628144779732
 20
-88.97613658799902
 30
0.0
 10
76.61031085324326
 20
-88.97613658799902
 30
0.0
 10
76.5403754148927
 20
-89.15562606278054
 30
0.0
 10
76.5403754148927
 20
-89.27585989521576
 30
0.0
 10
76.5403754148927
 20
-89.30755477368005
 30
0.0
 10
76.5403754148927
 20
-89.4488036885753
 30
0.0
 10
76.66956649558955
 20
-89.53734264254622
 30
0.0
 10
76.66956649558955
 20
-89.53734264254622
 30
0.0
 10
76.65061847042068
 20
-89.71269800274544
 30
0.0
 10
76.65061847042068
 20
-89.71269800274544
 30
0.0
 10
76.65061847042068
 20
-89.71269800274544
 30
0.0
 10
75.8041585096948
 20
-89.59246417031022
 30
0.0
 10
75.8041585096948
 20
-89.59246417031022
 30
0.0
 10
75.8041585096948
 20
-89.59246417031022
 30
0.0
 10
75.8041585096948
 20
-88.81593964793491
 30
0.0
 10
75.8041585096948
 20
-88.81593964793491
 30
0.0
 10
75.8041585096948
 20
-88.81593964793491
 30
0.0
 10
75.99880640461141
 20
-88.81593964793491
 30
0.0
 10
75.99880640461141
 20
-88.81593964793491
 30
0.0
 10
75.99880640461141
 20
-88.81593964793491
 30
0.0
 10
75.99880640461141
 20
-89.42985566340643
 30
0.0
 10
75.99880640461141
 20
-89.42985566340643
 30
0.0
 10
75.99880640461141
 20
-89.42985566340643
 30
0.0
 10
76.42186413020009
 20
-89.49531247762617
 30
0.0
 10
76.42186413020009
 20
-89.49531247762617
 30
0.0
 10
76.38810219444464
 20
-89.43398977798873
 30
0.0
 10
76.34779457726722
 20
-89.35165199589126
 30
0.0
 10
76.34779457726722
 20
-89.23348522074718
 30
0.0
 10
76.34779457726722
 20
-88.98027070258132
 30
0.0
 10
76.53417424301924
 20
-88.74393715229319
 30
0.0
 10
76.84733342262845
 20
-88.74393715229319
 30
0.0
 10
77.16462671681995
 20
-88.74393715229319
 30
0.0
 10
77.39923771936547
 20
-88.9675238492859
 30
0.0
 10
77.39923771936547
 20
-89.26931421379379
 30
0.0
  0
HATCH
  5
E1
330
DC
100
AcDbEntity
  8
_U+30EC_U+30A4_U+30E4_U+30FC 1
 62
   179
420
  2234388
100
AcDbHatch
 10
0.0
 20
0.0
 30
0.0
210
0.0
220
0.0
230
1.0
  2
SOLID
 70
     1
 71
     0
 91
        1
 92
        1
 93
        1
 72
     4
 94
        3
 73
     0
 74
     1
 95
       53
 96
       49
 40
0.0
 40
0.0
 40
0.0
 40
0.0
 40
1.0
 40
1.0
 40
1.0
 40
2.0
 40
2.0
 40
2.0
 40
3.0
 40
3.0
 40
3.0
 40
4.0
 40
4.0
 40
4.0
 40
5.0
 40
5.0
 40
5.0
 40
6.0
 40
6.0
 40
6.0
 40
7.0
 40
7.0
 40
7.0
 40
8.0
 40
8.0
 40
8.0
 40
9.0
 40
9.0
 40
9.0
 40
10.0
 40
10.0
 40
10.0
 40
11.0
 40
11.0
 40
11.0
 40
12.0
 40
12.0
 40
12.0
 40
13.0
 40
13.0
 40
13.0
 40
14.0
 40
14.0
 40
14.0
 40
15.0
 40
15.0
 40
15.0
 40
16.0
 40
16.0
 40
16.0
 40
16.0
 10
77.39923771936547
 20
-89.26931421379379
 10
77.39923771936547
 20
-89.34751788130896
 10
77.38235675148775
 20
-89.4488036885753
 10
77.31896699455915
 20
-89.55008949584165
 10
77.20906844857969
 20
-89.7230332892012
 10
77.07781031059166
 20
-89.74404837166121
 10
76.96997882190334
 20
-89.76334090637862
 10
76.96997882190334
 20
-89.76334090637862
 10
76.96997882190334
 20
-89.54147675712852
 10
76.96997882190334
 20
-89.54147675712852
 10
77.16876083140225
 20
-89.48669973891305
 10
77.1983886525754
 20
-89.36026473460439
 10
77.1983886525754
 20
-89.26724715650263
 10
77.1983886525754
 20
-89.12806529889855
 10
77.09882539305168
 20
-88.97613658799902
 10
76.86628144779732
 20
-88.97613658799902
 10
76.61031085324326
 20
-88.97613658799902
 10
76.5403754148927
 20
-89.15562606278054
 10
76.5403754148927
 20
-89.27585989521576
 10
76.5403754148927
 20
-89.30755477368005
 10
76.5403754148927
 20
-89.4488036885753
 10
76.66956649558955
 20
-89.53734264254622
 10
76.66956649558955
 20
-89.53734264254622
 10
76.65061847042068
 20
-89.71269800274544
 10
76.65061847042068
 20
-89.71269800274544
 10
76.65061847042068
 20
-89.71269800274544
 10
75.8041585096948
 20
-89.59246417031022
 10
75.8041585096948
 20
-89.59246417031022
 10
75.8041585096948
 20
-89.59246417031022
 10
75.8041585096948
 20
-88.81593964793491
 10
75.8041585096948
 20
-88.81593964793491
 10
75.8041585096948
 20
-88.81593964793491
 10
75.99880640461141
 20
-88.81593964793491
 10
75.99880640461141
 20
-88.81593964793491
 10
75.99880640461141
 20
-88.81593964793491
 10
75.99880640461141
 20
-89.42985566340643
 10
75.99880640461141
 20
-89.42985566340643
 10
75.99880640461141
 20
-89.42985566340643
 10
76.42186413020009
 20
-89.49531247762617
 10
76.42186413020009
 20
-89.49531247762617
 10
76.38810219444464
 20
-89.43398977798873
 10
76.34779457726722
 20
-89.35165199589126
 10
76.34779457726722
 20
-89.23348522074718
 10
76.34779457726722
 20
-88.98027070258132
 10
76.53417424301924
 20
-88.74393715229319
 10
76.84733342262845
 20
-88.74393715229319
 10
77.16462671681995
 20
-88.74393715229319
 10
77.39923771936547
 20
-88.9675238492859
 10
77.39923771936547
 20
-89.26931421379379
 97
        0
 97
        0
 75
     2
 76
     1
 98
        0
  0
ENDBLK
  5
DF
330
DC
100
AcDbEntity
  8
0
100
AcDbBlockEnd
  0
ENDSEC
  0
SECTION
  2
ENTITIES
  0
POLYLINE
  5
41
330
1F
100
AcDbEntity
  8
_U+30EC_U+30A4_U+30E4_U+30FC 1
 62
   179
420
  2234388
370
    25
100
AcDb2dPolyline
 66
     1
 10
0.0
 20
0.0
 30
0.0
  0
VERTEX
  5
42
330
41
100
AcDbEntity
  8
_U+30EC_U+30A4_U+30E4_U+30FC 1
 62
   179
420
  2234388
370
    25
100
AcDbVertex
100
AcDb2dVertex
 10
53.99411917805082
 20
-91.75047969928433
 30
0.0
  0
VERTEX
  5
43
330
41
100
AcDbEntity
  8
_U+30EC_U+30A4_U+30E4_U+30FC 1
 62
   179
420
  2234388
370
    25
100
AcDbVertex
100
AcDb2dVertex
 10
56.99410604595922
 20
-91.75047969928433
 30
0.0
  0
SEQEND
  5
44
330
41
100
AcDbEntity
  8
_U+30EC_U+30A4_U+30E4_U+30FC 1
 62
   179
420
  2234388
370
    25
  0
POLYLINE
  5
45
330
1F
100
AcDbEntity
  8
_U+30EC_U+30A4_U+30E4_U+30FC 1
 62
   179
420
  2234388
370
    25
100
AcDb2dPolyline
 66
     1
 10
0.0
 20
0.0
 30
0.0
  0
VERTEX
  5
46
330
45
100
AcDbEntity
  8
_U+30EC_U+30A4_U+30E4_U+30FC 1
 62
   179
420
  2234388
370
    25
100
AcDbVertex
100
AcDb2dVertex
 10
46.99419685663371
 20
-94.95027997626259
 30
0.0
  0
VERTEX
  5
47
330
45
100
AcDbEntity
  8
_U+30EC_U+30A4_U+30E4_U+30FC 1
 62
   179
420
  2234388
370
    25
100
AcDbVertex
100
AcDb2dVertex
 10
56.99410604595922
 20
-94.95027997626259
 30
0.0
  0
SEQEND
  5
48
330
45
100
AcDbEntity
  8
_U+30EC_U+30A4_U+30E4_U+30FC 1
 62
   179
420
  2234388
370
    25
  0
POLYLINE
  5
49
330
1F
100
AcDbEntity
  8
_U+30EC_U+30A4_U+30E4_U+30FC 1
 62
   179
420
  2234388
370
    25
100
AcDb2dPolyline
 66
     1
 10
0.0
 20
0.0
 30
0.0
  0
VERTEX
  5
4A
330
49
100
AcDbEntity
  8
_U+30EC_U+30A4_U+30E4_U+30FC 1
 62
   179
420
  2234388
370
    25
100
AcDbVertex
100
AcDb2dVertex
 10
56.99410604595922
 20
-91.75047969928433
 30
0.0
  0
VERTEX
  5
4B
330
49
100
AcDbEntity
  8
_U+30EC_U+30A4_U+30E4_U+30FC 1
 62
   179
420
  2234388
370
    25
100
AcDbVertex
100
AcDb2dVertex
 10
56.99410604595922
 20
-94.95027997626259
 30
0.0
  0
SEQEND
  5
4C
330
49
100
AcDbEntity
  8
_U+30EC_U+30A4_U+30E4_U+30FC 1
 62
   179
420
  2234388
370
    25
  0
POLYLINE
  5
4D
330
1F
100
AcDbEntity
  8
_U+30EC_U+30A4_U+30E4_U+30FC 1
 62
   179
420
  2234388
370
    25
100
AcDb2dPolyline
 66
     1
 10
0.0
 20
0.0
 30
0.0
  0
VERTEX
  5
4E
330
4D
100
AcDbEntity
  8
_U+30EC_U+30A4_U+30E4_U+30FC 1
 62
   179
420
  2234388
370
    25
100
AcDbVertex
100
AcDb2dVertex
 10
53.99411917805082
 20
-92.75056942125711
 30
0.0
  0
VERTEX
  5
4F
330
4D
100
AcDbEntity
  8
_U+30EC_U+30A4_U+30E4_U+30FC 1
 62
   179
420
  2234388
370
    25
100
AcDbVertex
100
AcDb2dVertex
 10
55.99433384924331
 20
-92.75056942125711
 30
0.0
  0
SEQEND
  5
50
330
4D
100
AcDbEntity
  8
_U+30EC_U+30A4_U+30E4_U+30FC 1
 62
   179
420
  2234388
370
    25
  0
POLYLINE
  5
51
330
1F
100
AcDbEntity
  8
_U+30EC_U+30A4_U+30E4_U+30FC 1
 62
   179
420
  2234388
370
    25
100
AcDb2dPolyline
 66
     1
 10
0.0
 20
0.0
 30
0.0
  0
VERTEX
  5
52
330
51
100
AcDbEntity
  8
_U+30EC_U+30A4_U+30E4_U+30FC 1
 62
   179
420
  2234388
370
    25
100
AcDbVertex
100
AcDb2dVertex
 10
53.99411917805082
 20
-91.75047969928433
 30
0.0
  0
VERTEX
  5
53
330
51
100
AcDbEntity
  8
_U+30EC_U+30A4_U+30E4_U+30FC 1
 62
   179
420
  2234388
370
    25
100
AcDbVertex
100
AcDb2dVertex
 10
53.99411917805082
 20
-92.75056942125711
 30
0.0
  0
SEQEND
  5
54
330
51
100
AcDbEntity
  8
_U+30EC_U+30A4_U+30E4_U+30FC 1
 62
   179
420
  2234388
370
    25
  0
POLYLINE
  5
55
330
1F
100
AcDbEntity
  8
_U+30EC_U+30A4_U+30E4_U+30FC 1
 62
   179
420
  2234388
370
    25
100
AcDb2dPolyline
 66
     1
 10
0.0
 20
0.0
 30
0.0
  0
VERTEX
  5
56
330
55
100
AcDbEntity
  8
_U+30EC_U+30A4_U+30E4_U+30FC 1
 62
   179
420
  2234388
370
    25
100
AcDbVertex
100
AcDb2dVertex
 10
46.99419685663371
 20
-93.95050775429004
 30
0.0
  0
VERTEX
  5
57
330
55
100
AcDbEntity
  8
_U+30EC_U+30A4_U+30E4_U+30FC 1
 62
   179
420
  2234388
370
    25
100
AcDbVertex
100
AcDb2dVertex
 10
46.99419685663371
 20
-94.95027997626259
 30
0.0
  0
SEQEND
  5
58
330
55
100
AcDbEntity
  8
_U+30EC_U+30A4_U+30E4_U+30FC 1
 62
   179
420
  2234388
370
    25
  0
POLYLINE
  5
59
330
1F
100
AcDbEntity
  8
_U+30EC_U+30A4_U+30E4_U+30FC 1
 62
   179
420
  2234388
370
    25
100
AcDb2dPolyline
 66
     1
 10
0.0
 20
0.0
 30
0.0
  0
VERTEX
  5
5A
330
59
100
AcDbEntity
  8
_U+30EC_U+30A4_U+30E4_U+30FC 1
 62
   179
420
  2234388
370
    25
100
AcDbVertex
100
AcDb2dVertex
 10
46.99419685663371
 20
-93.95050775429004
 30
0.0
  0
VERTEX
  5
5B
330
59
100
AcDbEntity
  8
_U+30EC_U+30A4_U+30E4_U+30FC 1
 62
   179
420
  2234388
370
    25
100
AcDbVertex
100
AcDb2dVertex
 10
47.49425934387605
 20
-93.95050775429004
 30
0.0
  0
SEQEND
  5
5C
330
59
100
AcDbEntity
  8
_U+30EC_U+30A4_U+30E4_U+30FC 1
 62
   179
420
  2234388
370
    25
  0
POLYLINE
  5
5D
330
1F
100
AcDbEntity
  8
_U+30EC_U+30A4_U+30E4_U+30FC 1
 62
   179
420
  2234388
370
    25
100
AcDb2dPolyline
 66
     1
 10
0.0
 20
0.0
 30
0.0
  0
VERTEX
  5
5E
330
5D
100
AcDbEntity
  8
_U+30EC_U+30A4_U+30E4_U+30FC 1
 62
   179
420
  2234388
370
    25
100
AcDbVertex
100
AcDb2dVertex
 10
48.51089431793954
 20
-93.95050775429004
 30
0.0
  0
VERTEX
  5
5F
330
5D
100
AcDbEntity
  8
_U+30EC_U+30A4_U+30E4_U+30FC 1
 62
   179
420
  2234388
370
    25
100
AcDbVertex
100
AcDb2dVertex
 10
55.99433384924331
 20
-93.95050775429004
 30
0.0
  0
SEQEND
  5
60
330
5D
100
AcDbEntity
  8
_U+30EC_U+30A4_U+30E4_U+30FC 1
 62
   179
420
  2234388
370
    25
  0
POLYLINE
  5
61
330
1F
100
AcDbEntity
  8
_U+30EC_U+30A4_U+30E4_U+30FC 1
 62
   179
420
  2234388
370
    25
100
AcDb2dPolyline
 66
     1
 10
0.0
 20
0.0
 30
0.0
  0
VERTEX
  5
62
330
61
100
AcDbEntity
  8
_U+30EC_U+30A4_U+30E4_U+30FC 1
 62
   179
420
  2234388
370
    25
100
AcDbVertex
100
AcDb2dVertex
 10
55.99433384924331
 20
-92.75056942125711
 30
0.0
  0
VERTEX
  5
63
330
61
100
AcDbEntity
  8
_U+30EC_U+30A4_U+30E4_U+30FC 1
 62
   179
420
  2234388
370
    25
100
AcDbVertex
100
AcDb2dVertex
 10
55.99433384924331
 20
-93.95050775429004
 30
0.0
  0
SEQEND
  5
64
330
61
100
AcDbEntity
  8
_U+30EC_U+30A4_U+30E4_U+30FC 1
 62
   179
420
  2234388
370
    25
  0
POLYLINE
  5
65
330
1F
100
AcDbEntity
  8
_U+30EC_U+30A4_U+30E4_U+30FC 1
 62
   179
420
  2234388
370
    25
100
AcDb2dPolyline
 66
     1
 10
0.0
 20
0.0
 30
0.0
  0
VERTEX
  5
66
330
65
100
AcDbEntity
  8
_U+30EC_U+30A4_U+30E4_U+30FC 1
 62
   179
420
  2234388
370
    25
100
AcDbVertex
100
AcDb2dVertex
 10
49.82795483989408
 20
-86.75027803386787
 30
0.0
  0
VERTEX
  5
67
330
65
100
AcDbEntity
  8
_U+30EC_U+30A4_U+30E4_U+30FC 1
 62
   179
420
  2234388
370
    25
100
AcDbVertex
100
AcDb2dVertex
 10
73.99443331483458
 20
-86.75027803386787
 30
0.0
  0
SEQEND
  5
68
330
65
100
AcDbEntity
  8
_U+30EC_U+30A4_U+30E4_U+30FC 1
 62
   179
420
  2234388
370
    25
  0
POLYLINE
  5
69
330
1F
100
AcDbEntity
  8
_U+30EC_U+30A4_U+30E4_U+30FC 1
 62
   179
420
  2234388
370
    25
100
AcDb2dPolyline
 66
     1
 10
0.0
 20
0.0
 30
0.0
  0
VERTEX
  5
6A
330
69
100
AcDbEntity
  8
_U+30EC_U+30A4_U+30E4_U+30FC 1
 62
   179
420
  2234388
370
    25
100
AcDbVertex
100
AcDb2dVertex
 10
73.99443331483458
 20
-85.75050581189565
 30
0.0
  0
VERTEX
  5
6B
330
69
100
AcDbEntity
  8
_U+30EC_U+30A4_U+30E4_U+30FC 1
 62
   179
420
  2234388
370
    25
100
AcDbVertex
100
AcDb2dVertex
 10
73.99443331483458
 20
-86.75027803386787
 30
0.0
  0
SEQEND
  5
6C
330
69
100
AcDbEntity
  8
_U+30EC_U+30A4_U+30E4_U+30FC 1
 62
   179
420
  2234388
370
    25
  0
POLYLINE
  5
6D
330
1F
100
AcDbEntity
  8
_U+30EC_U+30A4_U+30E4_U+30FC 1
 62
   179
420
  2234388
370
    25
100
AcDb2dPolyline
 66
     1
 10
0.0
 20
0.0
 30
0.0
  0
VERTEX
  5
6E
330
6D
100
AcDbEntity
  8
_U+30EC_U+30A4_U+30E4_U+30FC 1
 62
   179
420
  2234388
370
    25
100
AcDbVertex
100
AcDb2dVertex
 10
48.99423513894182
 20
-85.75050581189565
 30
0.0
  0
VERTEX
  5
6F
330
6D
100
AcDbEntity
  8
_U+30EC_U+30A4_U+30E4_U+30FC 1
 62
   179
420
  2234388
370
    25
100
AcDbVertex
100
AcDb2dVertex
 10
73.99443331483458
 20
-85.75050581189565
 30
0.0
  0
SEQEND
  5
70
330
6D
100
AcDbEntity
  8
_U+30EC_U+30A4_U+30E4_U+30FC 1
 62
   179
420
  2234388
370
    25
  0
POLYLINE
  5
71
330
1F
100
AcDbEntity
  8
_U+30EC_U+30A4_U+30E4_U+30FC 1
 62
   179
420
  2234388
370
    25
100
AcDb2dPolyline
 66
     1
 10
0.0
 20
0.0
 30
0.0
  0
VERTEX
  5
72
330
71
100
AcDbEntity
  8
_U+30EC_U+30A4_U+30E4_U+30FC 1
 62
   179
420
  2234388
370
    25
100
AcDbVertex
100
AcDb2dVertex
 10
48.99423513894182
 20
-85.75050581189565
 30
0.0
  0
VERTEX
  5
73
330
71
100
AcDbEntity
  8
_U+30EC_U+30A4_U+30E4_U+30FC 1
 62
   179
420
  2234388
370
    25
100
AcDbVertex
100
AcDb2dVertex
 10
47.49425934387605
 20
-93.95050775429004
 30
0.0
  0
SEQEND
  5
74
330
71
100
AcDbEntity
  8
_U+30EC_U+30A4_U+30E4_U+30FC 1
 62
   179
420
  2234388
370
    25
  0
POLYLINE
  5
75
330
1F
100
AcDbEntity
  8
_U+30EC_U+30A4_U+30E4_U+30FC 1
 62
   179
420
  2234388
370
    25
100
AcDb2dPolyline
 66
     1
 10
0.0
 20
0.0
 30
0.0
  0
VERTEX
  5
76
330
75
100
AcDbEntity
  8
_U+30EC_U+30A4_U+30E4_U+30FC 1
 62
   179
420
  2234388
370
    25
100
AcDbVertex
100
AcDb2dVertex
 10
49.82795483989408
 20
-86.75027803386787
 30
0.0
  0
VERTEX
  5
77
330
75
100
AcDbEntity
  8
_U+30EC_U+30A4_U+30E4_U+30FC 1
 62
   179
420
  2234388
370
    25
100
AcDbVertex
100
AcDb2dVertex
 10
48.51089431793954
 20
-93.95050775429004
 30
0.0
  0
SEQEND
  5
78
330
75
100
AcDbEntity
  8
_U+30EC_U+30A4_U+30E4_U+30FC 1
 62
   179
420
  2234388
370
    25
  0
SPLINE
  5
79
330
1F
100
AcDbEntity
  8
_U+30EC_U+30A4_U+30E4_U+30FC 1
 62
   179
420
  2234388
370
     9
100
AcDbSpline
210
0.0
220
0.0
230
1.0
 70
    11
 71
     3
 72
    17
 73
    13
 74
     0
 42
0.0000000001
 43
0.0000000001
 12
1.0
 22
0.0
 32
0.0
 13
1.0
 23
0.0
 33
0.0
 40
0.0
 40
0.0
 40
0.0
 40
0.0
 40
1.0
 40
1.0
 40
1.0
 40
2.0
 40
2.0
 40
2.0
 40
3.0
 40
3.0
 40
3.0
 40
4.0
 40
4.0
 40
4.0
 40
4.0
 10
57.09401271007705
 20
-98.95039191970659
 30
0.0
 10
57.09401271007705
 20
-98.89525275305417
 30
0.0
 10
57.04924521121917
 20
-98.85048525306496
 30
0.0
 10
56.99410604595922
 20
-98.85048525306496
 30
0.0
 10
56.93900215847614
 20
-98.85048525306496
 30
0.0
 10
56.89419938184138
 20
-98.89525275305417
 30
0.0
 10
56.89419938184138
 20
-98.95039191970659
 30
0.0
 10
56.89419938184138
 20
-99.00549580858215
 30
0.0
 10
56.93900215847614
 20
-99.05029858634823
 30
0.0
 10
56.99410604595922
 20
-99.05029858634823
 30
0.0
 10
57.04924521121917
 20
-99.05029858634823
 30
0.0
 10
57.09401271007705
 20
-99.00549580858215
 30
0.0
 10
57.09401271007705
 20
-98.95039191970659
 30
0.0
  0
SPLINE
  5
7A
330
1F
100
AcDbEntity
  8
_U+30EC_U+30A4_U+30E4_U+30FC 1
 62
   179
420
  2234388
370
     9
100
AcDbSpline
210
0.0
220
0.0
230
1.0
 70
    11
 71
     3
 72
    17
 73
    13
 74
     0
 42
0.0000000001
 43
0.0000000001
 12
1.0
 22
0.0
 32
0.0
 13
1.0
 23
0.0
 33
0.0
 40
0.0
 40
0.0
 40
0.0
 40
0.0
 40
1.0
 40
1.0
 40
1.0
 40
2.0
 40
2.0
 40
2.0
 40
3.0
 40
3.0
 40
3.0
 40
4.0
 40
4.0
 40
4.0
 40
4.0
 10
47.09427990963594
 20
-98.95039191970659
 30
0.0
 10
47.09427990963594
 20
-98.89525275305417
 30
0.0
 10
47.04951241077805
 20
-98.85048525306496
 30
0.0
 10
46.99419685663371
 20
-98.85048525306496
 30
0.0
 10
46.93909296915064
 20
-98.85048525306496
 30
0.0
 10
46.89429019251588
 20
-98.89525275305417
 30
0.0
 10
46.89429019251588
 20
-98.95039191970659
 30
0.0
 10
46.89429019251588
 20
-99.00549580858215
 30
0.0
 10
46.93909296915064
 20
-99.05029858634823
 30
0.0
 10
46.99419685663371
 20
-99.05029858634823
 30
0.0
 10
47.04951241077805
 20
-99.05029858634823
 30
0.0
 10
47.09427990963594
 20
-99.00549580858215
 30
0.0
 10
47.09427990963594
 20
-98.95039191970659
 30
0.0
  0
SPLINE
  5
7B
330
1F
100
AcDbEntity
  8
_U+30EC_U+30A4_U+30E4_U+30FC 1
 62
   179
420
  2234388
370
     9
100
AcDbSpline
210
0.0
220
0.0
230
1.0
 70
    11
 71
     3
 72
    17
 73
    13
 74
     0
 42
0.0000000001
 43
0.0000000001
 12
1.0
 22
0.0
 32
0.0
 13
1.0
 23
0.0
 33
0.0
 40
0.0
 40
0.0
 40
0.0
 40
0.0
 40
1.0
 40
1.0
 40
1.0
 40
2.0
 40
2.0
 40
2.0
 40
3.0
 40
3.0
 40
3.0
 40
4.0
 40
4.0
 40
4.0
 40
4.0
 10
78.09409717432027
 20
-85.75050581189565
 30
0.0
 10
78.09409717432027
 20
-85.69536664524288
 30
0.0
 10
78.04932967546237
 20
-85.650599145254
 30
0.0
 10
77.99419051020243
 20
-85.650599145254
 30
0.0
 10
77.93908662271936
 20
-85.650599145254
 30
0.0
 10
77.89428384608459
 20
-85.69536664524288
 30
0.0
 10
77.89428384608459
 20
-85.75050581189565
 30
0.0
 10
77.89428384608459
 20
-85.80560970077089
 30
0.0
 10
77.93908662271936
 20
-85.85041247853728
 30
0.0
 10
77.99419051020243
 20
-85.85041247853728
 30
0.0
 10
78.04932967546237
 20
-85.85041247853728
 30
0.0
 10
78.09409717432027
 20
-85.80560970077089
 30
0.0
 10
78.09409717432027
 20
-85.75050581189565
 30
0.0
  0
SPLINE
  5
7C
330
1F
100
AcDbEntity
  8
_U+30EC_U+30A4_U+30E4_U+30FC 1
 62
   179
420
  2234388
370
     9
100
AcDbSpline
210
0.0
220
0.0
230
1.0
 70
    11
 71
     3
 72
    17
 73
    13
 74
     0
 42
0.0000000001
 43
0.0000000001
 12
1.0
 22
0.0
 32
0.0
 13
1.0
 23
0.0
 33
0.0
 40
0.0
 40
0.0
 40
0.0
 40
0.0
 40
1.0
 40
1.0
 40
1.0
 40
2.0
 40
2.0
 40
2.0
 40
3.0
 40
3.0
 40
3.0
 40
4.0
 40
4.0
 40
4.0
 40
4.0
 10
78.09409717432027
 20
-86.75027803386787
 30
0.0
 10
78.09409717432027
 20
-86.6951388672151
 30
0.0
 10
78.04932967546237
 20
-86.65033608944839
 30
0.0
 10
77.99419051020243
 20
-86.65033608944839
 30
0.0
 10
77.93908662271936
 20
-86.65033608944839
 30
0.0
 10
77.89428384608459
 20
-86.6951388672151
 30
0.0
 10
77.89428384608459
 20
-86.75027803386787
 30
0.0
 10
77.89428384608459
 20
-86.80573470052086
 30
0.0
 10
77.93908662271936
 20
-86.85050220050975
 30
0.0
 10
77.99419051020243
 20
-86.85050220050975
 30
0.0
 10
78.04932967546237
 20
-86.85050220050975
 30
0.0
 10
78.09409717432027
 20
-86.80573470052086
 30
0.0
 10
78.09409717432027
 20
-86.75027803386787
 30
0.0
  0
SPLINE
  5
7D
330
1F
100
AcDbEntity
  8
_U+30EC_U+30A4_U+30E4_U+30FC 1
 62
   179
420
  2234388
370
     9
100
AcDbSpline
210
0.0
220
0.0
230
1.0
 70
    11
 71
     3
 72
    17
 73
    13
 74
     0
 42
0.0000000001
 43
0.0000000001
 12
1.0
 22
0.0
 32
0.0
 13
1.0
 23
0.0
 33
0.0
 40
0.0
 40
0.0
 40
0.0
 40
0.0
 40
1.0
 40
1.0
 40
1.0
 40
2.0
 40
2.0
 40
2.0
 40
3.0
 40
3.0
 40
3.0
 40
4.0
 40
4.0
 40
4.0
 40
4.0
 10
78.09409717432027
 20
-91.75047969928433
 30
0.0
 10
78.09409717432027
 20
-91.69534053263189
 30
0.0
 10
78.04932967546237
 20
-91.6505730326427
 30
0.0
 10
77.99419051020243
 20
-91.6505730326427
 30
0.0
 10
77.93908662271936
 20
-91.6505730326427
 30
0.0
 10
77.89428384608459
 20
-91.69534053263189
 30
0.0
 10
77.89428384608459
 20
-91.75047969928433
 30
0.0
 10
77.89428384608459
 20
-91.80558358815989
 30
0.0
 10
77.93908662271936
 20
-91.85038636592661
 30
0.0
 10
77.99419051020243
 20
-91.85038636592661
 30
0.0
 10
78.04932967546237
 20
-91.85038636592661
 30
0.0
 10
78.09409717432027
 20
-91.80558358815989
 30
0.0
 10
78.09409717432027
 20
-91.75047969928433
 30
0.0
  0
SPLINE
  5
7E
330
1F
100
AcDbEntity
  8
_U+30EC_U+30A4_U+30E4_U+30FC 1
 62
   179
420
  2234388
370
     9
100
AcDbSpline
210
0.0
220
0.0
230
1.0
 70
    11
 71
     3
 72
    17
 73
    13
 74
     0
 42
0.0000000001
 43
0.0000000001
 12
1.0
 22
0.0
 32
0.0
 13
1.0
 23
0.0
 33
0.0
 40
0.0
 40
0.0
 40
0.0
 40
0.0
 40
1.0
 40
1.0
 40
1.0
 40
2.0
 40
2.0
 40
2.0
 40
3.0
 40
3.0
 40
3.0
 40
4.0
 40
4.0
 40
4.0
 40
4.0
 10
78.09409717432027
 20
-94.95027997626259
 30
0.0
 10
78.09409717432027
 20
-94.89514080960952
 30
0.0
 10
78.04932967546237
 20
-94.85037330962095
 30
0.0
 10
77.99419051020243
 20
-94.85037330962095
 30
0.0
 10
77.93908662271936
 20
-94.85037330962095
 30
0.0
 10
77.89428384608459
 20
-94.89514080960952
 30
0.0
 10
77.89428384608459
 20
-94.95027997626259
 30
0.0
 10
77.89428384608459
 20
-95.00573664291527
 30
0.0
 10
77.93908662271936
 20
-95.05053942068199
 30
0.0
 10
77.99419051020243
 20
-95.05053942068199
 30
0.0
 10
78.04932967546237
 20
-95.05053942068199
 30
0.0
 10
78.09409717432027
 20
-95.00573664291527
 30
0.0
 10
78.09409717432027
 20
-94.95027997626259
 30
0.0
  0
SPLINE
  5
7F
330
1F
100
AcDbEntity
  8
_U+30EC_U+30A4_U+30E4_U+30FC 1
 62
   179
420
  2234388
370
     9
100
AcDbSpline
210
0.0
220
0.0
230
1.0
 70
    11
 71
     3
 72
    17
 73
    13
 74
     0
 42
0.0000000001
 43
0.0000000001
 12
1.0
 22
0.0
 32
0.0
 13
1.0
 23
0.0
 33
0.0
 40
0.0
 40
0.0
 40
0.0
 40
0.0
 40
1.0
 40
1.0
 40
1.0
 40
2.0
 40
2.0
 40
2.0
 40
3.0
 40
3.0
 40
3.0
 40
4.0
 40
4.0
 40
4.0
 40
4.0
 10
74.09437338747283
 20
-81.75039386845133
 30
0.0
 10
74.09437338747283
 20
-81.69525470179856
 30
0.0
 10
74.04957061083806
 20
-81.65048720180968
 30
0.0
 10
73.99443331483458
 20
-81.65048720180968
 30
0.0
 10
73.93932755809504
 20
-81.65048720180968
 30
0.0
 10
73.89452478146028
 20
-81.69525470179856
 30
0.0
 10
73.89452478146028
 20
-81.75039386845133
 30
0.0
 10
73.89452478146028
 20
-81.805850535104
 30
0.0
 10
73.93932755809504
 20
-81.85065331287072
 30
0.0
 10
73.99443331483458
 20
-81.85065331287072
 30
0.0
 10
74.04957061083806
 20
-81.85065331287072
 30
0.0
 10
74.09437338747283
 20
-81.805850535104
 30
0.0
 10
74.09437338747283
 20
-81.75039386845133
 30
0.0
  0
SPLINE
  5
80
330
1F
100
AcDbEntity
  8
_U+30EC_U+30A4_U+30E4_U+30FC 1
 62
   179
420
  2234388
370
     9
100
AcDbSpline
210
0.0
220
0.0
230
1.0
 70
    11
 71
     3
 72
    17
 73
    13
 74
     0
 42
0.0000000001
 43
0.0000000001
 12
1.0
 22
0.0
 32
0.0
 13
1.0
 23
0.0
 33
0.0
 40
0.0
 40
0.0
 40
0.0
 40
0.0
 40
1.0
 40
1.0
 40
1.0
 40
2.0
 40
2.0
 40
2.0
 40
3.0
 40
3.0
 40
3.0
 40
4.0
 40
4.0
 40
4.0
 40
4.0
 10
49.09417708083653
 20
-81.75039386845133
 30
0.0
 10
49.09417708083653
 20
-81.69525470179856
 30
0.0
 10
49.04955069308615
 20
-81.65048720180968
 30
0.0
 10
48.99423513894182
 20
-81.65048720180968
 30
0.0
 10
48.93895486257436
 20
-81.65048720180968
 30
0.0
 10
48.89418736371647
 20
-81.69525470179856
 30
0.0
 10
48.89418736371647
 20
-81.75039386845133
 30
0.0
 10
48.89418736371647
 20
-81.805850535104
 30
0.0
 10
48.93895486257436
 20
-81.85065331287072
 30
0.0
 10
48.99423513894182
 20
-81.85065331287072
 30
0.0
 10
49.04955069308615
 20
-81.85065331287072
 30
0.0
 10
49.09417708083653
 20
-81.805850535104
 30
0.0
 10
49.09417708083653
 20
-81.75039386845133
 30
0.0
  0
POLYLINE
  5
81
330
1F
100
AcDbEntity
  8
_U+30EC_U+30A4_U+30E4_U+30FC 1
 62
   179
420
  2234388
370
     9
100
AcDb2dPolyline
 66
     1
 10
0.0
 20
0.0
 30
0.0
  0
VERTEX
  5
82
330
81
100
AcDbEntity
  8
_U+30EC_U+30A4_U+30E4_U+30FC 1
 62
   179
420
  2234388
370
     9
100
AcDbVertex
100
AcDb2dVertex
 10
46.99419685663371
 20
-98.95039191970659
 30
0.0
  0
VERTEX
  5
83
330
81
100
AcDbEntity
  8
_U+30EC_U+30A4_U+30E4_U+30FC 1
 62
   179
420
  2234388
370
     9
100
AcDbVertex
100
AcDb2dVertex
 10
56.99410604595922
 20
-98.95039191970659
 30
0.0
  0
SEQEND
  5
84
330
81
100
AcDbEntity
  8
_U+30EC_U+30A4_U+30E4_U+30FC 1
 62
   179
420
  2234388
370
     9
  0
POLYLINE
  5
85
330
1F
100
AcDbEntity
  8
_U+30EC_U+30A4_U+30E4_U+30FC 1
 62
   179
420
  2234388
370
     9
100
AcDb2dPolyline
 66
     1
 10
0.0
 20
0.0
 30
0.0
  0
VERTEX
  5
86
330
85
100
AcDbEntity
  8
_U+30EC_U+30A4_U+30E4_U+30FC 1
 62
   179
420
  2234388
370
     9
100
AcDbVertex
100
AcDb2dVertex
 10
46.99419685663371
 20
-97.49035053118288
 30
0.0
  0
VERTEX
  5
87
330
85
100
AcDbEntity
  8
_U+30EC_U+30A4_U+30E4_U+30FC 1
 62
   179
420
  2234388
370
     9
100
AcDbVertex
100
AcDb2dVertex
 10
46.99419685663371
 20
-99.95048164167873
 30
0.0
  0
SEQEND
  5
88
330
85
100
AcDbEntity
  8
_U+30EC_U+30A4_U+30E4_U+30FC 1
 62
   179
420
  2234388
370
     9
  0
POLYLINE
  5
89
330
1F
100
AcDbEntity
  8
_U+30EC_U+30A4_U+30E4_U+30FC 1
 62
   179
420
  2234388
370
     9
100
AcDb2dPolyline
 66
     1
 10
0.0
 20
0.0
 30
0.0
  0
VERTEX
  5
8A
330
89
100
AcDbEntity
  8
_U+30EC_U+30A4_U+30E4_U+30FC 1
 62
   179
420
  2234388
370
     9
100
AcDbVertex
100
AcDb2dVertex
 10
56.99410604595922
 20
-97.49035053118288
 30
0.0
  0
VERTEX
  5
8B
330
89
100
AcDbEntity
  8
_U+30EC_U+30A4_U+30E4_U+30FC 1
 62
   179
420
  2234388
370
     9
100
AcDbVertex
100
AcDb2dVertex
 10
56.99410604595922
 20
-99.95048164167873
 30
0.0
  0
SEQEND
  5
8C
330
89
100
AcDbEntity
  8
_U+30EC_U+30A4_U+30E4_U+30FC 1
 62
   179
420
  2234388
370
     9
  0
INSERT
  5
8E
330
1F
100
AcDbEntity
  8
_U+30EC_U+30A4_U+30E4_U+30FC 1
100
AcDbBlockReference
  2
block 2
 10
0.0
 20
0.0
 30
0.0
  0
POLYLINE
  5
96
330
1F
100
AcDbEntity
  8
_U+30EC_U+30A4_U+30E4_U+30FC 1
 62
   179
420
  2234388
370
     9
100
AcDb2dPolyline
 66
     1
 10
0.0
 20
0.0
 30
0.0
  0
VERTEX
  5
97
330
96
100
AcDbEntity
  8
_U+30EC_U+30A4_U+30E4_U+30FC 1
 62
   179
420
  2234388
370
     9
100
AcDbVertex
100
AcDb2dVertex
 10
77.99419051020243
 20
-91.75047969928433
 30
0.0
  0
VERTEX
  5
98
330
96
100
AcDbEntity
  8
_U+30EC_U+30A4_U+30E4_U+30FC 1
 62
   179
420
  2234388
370
     9
100
AcDbVertex
100
AcDb2dVertex
 10
77.99419051020243
 20
-94.95027997626259
 30
0.0
  0
SEQEND
  5
99
330
96
100
AcDbEntity
  8
_U+30EC_U+30A4_U+30E4_U+30FC 1
 62
   179
420
  2234388
370
     9
  0
POLYLINE
  5
9A
330
1F
100
AcDbEntity
  8
_U+30EC_U+30A4_U+30E4_U+30FC 1
 62
   179
420
  2234388
370
     9
100
AcDb2dPolyline
 66
     1
 10
0.0
 20
0.0
 30
0.0
  0
VERTEX
  5
9B
330
9A
100
AcDbEntity
  8
_U+30EC_U+30A4_U+30E4_U+30FC 1
 62
   179
420
  2234388
370
     9
100
AcDbVertex
100
AcDb2dVertex
 10
59.53417653671217
 20
-91.75047969928433
 30
0.0
  0
VERTEX
  5
9C
330
9A
100
AcDbEntity
  8
_U+30EC_U+30A4_U+30E4_U+30FC 1
 62
   179
420
  2234388
370
     9
100
AcDbVertex
100
AcDb2dVertex
 10
78.99396270691834
 20
-91.75047969928433
 30
0.0
  0
SEQEND
  5
9D
330
9A
100
AcDbEntity
  8
_U+30EC_U+30A4_U+30E4_U+30FC 1
 62
   179
420
  2234388
370
     9
  0
POLYLINE
  5
9E
330
1F
100
AcDbEntity
  8
_U+30EC_U+30A4_U+30E4_U+30FC 1
 62
   179
420
  2234388
370
     9
100
AcDb2dPolyline
 66
     1
 10
0.0
 20
0.0
 30
0.0
  0
VERTEX
  5
9F
330
9E
100
AcDbEntity
  8
_U+30EC_U+30A4_U+30E4_U+30FC 1
 62
   179
420
  2234388
370
     9
100
AcDbVertex
100
AcDb2dVertex
 10
59.53417653671217
 20
-94.95027997626259
 30
0.0
  0
VERTEX
  5
A0
330
9E
100
AcDbEntity
  8
_U+30EC_U+30A4_U+30E4_U+30FC 1
 62
   179
420
  2234388
370
     9
100
AcDbVertex
100
AcDb2dVertex
 10
78.99396270691834
 20
-94.95027997626259
 30
0.0
  0
SEQEND
  5
A1
330
9E
100
AcDbEntity
  8
_U+30EC_U+30A4_U+30E4_U+30FC 1
 62
   179
420
  2234388
370
     9
  0
INSERT
  5
A3
330
1F
100
AcDbEntity
  8
_U+30EC_U+30A4_U+30E4_U+30FC 1
100
AcDbBlockReference
  2
block 3
 10
0.0
 20
0.0
 30
0.0
  0
POLYLINE
  5
B2
330
1F
100
AcDbEntity
  8
_U+30EC_U+30A4_U+30E4_U+30FC 1
 62
   179
420
  2234388
370
     9
100
AcDb2dPolyline
 66
     1
 10
0.0
 20
0.0
 30
0.0
  0
VERTEX
  5
B3
330
B2
100
AcDbEntity
  8
_U+30EC_U+30A4_U+30E4_U+30FC 1
 62
   179
420
  2234388
370
     9
100
AcDbVertex
100
AcDb2dVertex
 10
77.99419051020243
 20
-86.75027803386787
 30
0.0
  0
VERTEX
  5
B4
330
B2
100
AcDbEntity
  8
_U+30EC_U+30A4_U+30E4_U+30FC 1
 62
   179
420
  2234388
370
     9
100
AcDbVertex
100
AcDb2dVertex
 10
77.99419051020243
 20
-85.75050581189565
 30
0.0
  0
SEQEND
  5
B5
330
B2
100
AcDbEntity
  8
_U+30EC_U+30A4_U+30E4_U+30FC 1
 62
   179
420
  2234388
370
     9
  0
POLYLINE
  5
B6
330
1F
100
AcDbEntity
  8
_U+30EC_U+30A4_U+30E4_U+30FC 1
 62
   179
420
  2234388
370
     9
100
AcDb2dPolyline
 66
     1
 10
0.0
 20
0.0
 30
0.0
  0
VERTEX
  5
B7
330
B6
100
AcDbEntity
  8
_U+30EC_U+30A4_U+30E4_U+30FC 1
 62
   179
420
  2234388
370
     9
100
AcDbVertex
100
AcDb2dVertex
 10
76.53418443633917
 20
-85.75050581189565
 30
0.0
  0
VERTEX
  5
B8
330
B6
100
AcDbEntity
  8
_U+30EC_U+30A4_U+30E4_U+30FC 1
 62
   179
420
  2234388
370
     9
100
AcDbVertex
100
AcDb2dVertex
 10
78.99396270691834
 20
-85.75050581189565
 30
0.0
  0
SEQEND
  5
B9
330
B6
100
AcDbEntity
  8
_U+30EC_U+30A4_U+30E4_U+30FC 1
 62
   179
420
  2234388
370
     9
  0
INSERT
  5
BB
330
1F
100
AcDbEntity
  8
_U+30EC_U+30A4_U+30E4_U+30FC 1
100
AcDbBlockReference
  2
block 4
 10
0.0
 20
0.0
 30
0.0
  0
POLYLINE
  5
C0
330
1F
100
AcDbEntity
  8
_U+30EC_U+30A4_U+30E4_U+30FC 1
 62
   179
420
  2234388
370
     9
100
AcDb2dPolyline
 66
     1
 10
0.0
 20
0.0
 30
0.0
  0
VERTEX
  5
C1
330
C0
100
AcDbEntity
  8
_U+30EC_U+30A4_U+30E4_U+30FC 1
 62
   179
420
  2234388
370
     9
100
AcDbVertex
100
AcDb2dVertex
 10
48.99423513894182
 20
-81.75039386845133
 30
0.0
  0
VERTEX
  5
C2
330
C0
100
AcDbEntity
  8
_U+30EC_U+30A4_U+30E4_U+30FC 1
 62
   179
420
  2234388
370
     9
100
AcDbVertex
100
AcDb2dVertex
 10
73.99443331483458
 20
-81.75039386845133
 30
0.0
  0
SEQEND
  5
C3
330
C0
100
AcDbEntity
  8
_U+30EC_U+30A4_U+30E4_U+30FC 1
 62
   179
420
  2234388
370
     9
  0
POLYLINE
  5
C4
330
1F
100
AcDbEntity
  8
_U+30EC_U+30A4_U+30E4_U+30FC 1
 62
   179
420
  2234388
370
     9
100
AcDb2dPolyline
 66
     1
 10
0.0
 20
0.0
 30
0.0
  0
VERTEX
  5
C5
330
C4
100
AcDbEntity
  8
_U+30EC_U+30A4_U+30E4_U+30FC 1
 62
   179
420
  2234388
370
     9
100
AcDbVertex
100
AcDb2dVertex
 10
48.99423513894182
 20
-83.21043525697503
 30
0.0
  0
VERTEX
  5
C6
330
C4
100
AcDbEntity
  8
_U+30EC_U+30A4_U+30E4_U+30FC 1
 62
   179
420
  2234388
370
     9
100
AcDbVertex
100
AcDb2dVertex
 10
48.99423513894182
 20
-80.75026886870134
 30
0.0
  0
SEQEND
  5
C7
330
C4
100
AcDbEntity
  8
_U+30EC_U+30A4_U+30E4_U+30FC 1
 62
   179
420
  2234388
370
     9
  0
POLYLINE
  5
C8
330
1F
100
AcDbEntity
  8
_U+30EC_U+30A4_U+30E4_U+30FC 1
 62
   179
420
  2234388
370
     9
100
AcDb2dPolyline
 66
     1
 10
0.0
 20
0.0
 30
0.0
  0
VERTEX
  5
C9
330
C8
100
AcDbEntity
  8
_U+30EC_U+30A4_U+30E4_U+30FC 1
 62
   179
420
  2234388
370
     9
100
AcDbVertex
100
AcDb2dVertex
 10
73.99443331483458
 20
-83.21043525697503
 30
0.0
  0
VERTEX
  5
CA
330
C8
100
AcDbEntity
  8
_U+30EC_U+30A4_U+30E4_U+30FC 1
 62
   179
420
  2234388
370
     9
100
AcDbVertex
100
AcDb2dVertex
 10
73.99443331483458
 20
-80.75026886870134
 30
0.0
  0
SEQEND
  5
CB
330
C8
100
AcDbEntity
  8
_U+30EC_U+30A4_U+30E4_U+30FC 1
 62
   179
420
  2234388
370
     9
  0
INSERT
  5
CD
330
1F
100
AcDbEntity
  8
_U+30EC_U+30A4_U+30E4_U+30FC 1
100
AcDbBlockReference
  2
block 5
 10
0.0
 20
0.0
 30
0.0
  0
POLYLINE
  5
D4
330
1F
100
AcDbEntity
  8
_U+30EC_U+30A4_U+30E4_U+30FC 1
 62
   179
420
  2234388
370
     9
100
AcDb2dPolyline
 66
     1
 10
0.0
 20
0.0
 30
0.0
  0
VERTEX
  5
D5
330
D4
100
AcDbEntity
  8
_U+30EC_U+30A4_U+30E4_U+30FC 1
 62
   179
420
  2234388
370
     9
100
AcDbVertex
100
AcDb2dVertex
 10
77.99419051020243
 20
-86.75027803386787
 30
0.0
  0
VERTEX
  5
D6
330
D4
100
AcDbEntity
  8
_U+30EC_U+30A4_U+30E4_U+30FC 1
 62
   179
420
  2234388
370
     9
100
AcDbVertex
100
AcDb2dVertex
 10
77.99419051020243
 20
-91.75047969928433
 30
0.0
  0
SEQEND
  5
D7
330
D4
100
AcDbEntity
  8
_U+30EC_U+30A4_U+30E4_U+30FC 1
 62
   179
420
  2234388
370
     9
  0
POLYLINE
  5
D8
330
1F
100
AcDbEntity
  8
_U+30EC_U+30A4_U+30E4_U+30FC 1
 62
   179
420
  2234388
370
     9
100
AcDb2dPolyline
 66
     1
 10
0.0
 20
0.0
 30
0.0
  0
VERTEX
  5
D9
330
D8
100
AcDbEntity
  8
_U+30EC_U+30A4_U+30E4_U+30FC 1
 62
   179
420
  2234388
370
     9
100
AcDbVertex
100
AcDb2dVertex
 10
76.53418443633917
 20
-86.75027803386787
 30
0.0
  0
VERTEX
  5
DA
330
D8
100
AcDbEntity
  8
_U+30EC_U+30A4_U+30E4_U+30FC 1
 62
   179
420
  2234388
370
     9
100
AcDbVertex
100
AcDb2dVertex
 10
78.99396270691834
 20
-86.75027803386787
 30
0.0
  0
SEQEND
  5
DB
330
D8
100
AcDbEntity
  8
_U+30EC_U+30A4_U+30E4_U+30FC 1
 62
   179
420
  2234388
370
     9
  0
INSERT
  5
DD
330
1F
100
AcDbEntity
  8
_U+30EC_U+30A4_U+30E4_U+30FC 1
100
AcDbBlockReference
  2
block 6
 10
0.0
 20
0.0
 30
0.0
  0
ENDSEC
  0
SECTION
  2
OBJECTS
  0
DICTIONARY
  5
C
330
0
100
AcDbDictionary
281
     1
  3
ACAD_GROUP
350
D
  3
ACAD_LAYOUT
350
1A
  3
ACAD_MATERIAL
350
3B
  3
ACAD_MLEADERSTYLE
350
E3
  3
ACAD_MLINESTYLE
350
17
  3
ACAD_PLOTSETTINGS
350
19
  3
ACAD_PLOTSTYLENAME
350
E
  3
ACAD_TABLESTYLE
350
E2
  3
ACAD_VISUALSTYLE
350
2A
  0
SUN
  5
3F
330
29
100
AcDbSun
 90
        1
290
     0
 63
     7
421
 16777215
 40
1.0
291
     1
 91
  2455826
 92
 54000000
292
     0
 70
     2
 71
   256
280
     1
  0
DICTIONARY
  5
D
102
{ACAD_REACTORS
330
C
102
}
330
C
100
AcDbDictionary
281
     1
  0
DICTIONARY
  5
1A
102
{ACAD_REACTORS
330
C
102
}
330
C
100
AcDbDictionary
281
     1
  3
Layout1
350
1E
  3
Layout2
350
26
  3
Model
350
22
  0
DICTIONARY
  5
3B
102
{ACAD_REACTORS
330
C
102
}
330
C
100
AcDbDictionary
281
     1
  3
ByBlock
350
3D
  3
ByLayer
350
3C
  3
Global
350
3E
  0
DICTIONARY
  5
E3
102
{ACAD_REACTORS
330
C
102
}
330
C
100
AcDbDictionary
281
     1
  0
DICTIONARY
  5
17
102
{ACAD_REACTORS
330
C
102
}
330
C
100
AcDbDictionary
281
     1
  3
Standard
350
18
  0
DICTIONARY
  5
19
102
{ACAD_REACTORS
330
C
102
}
330
C
100
AcDbDictionary
281
     1
  0
ACDBDICTIONARYWDFLT
  5
E
102
{ACAD_REACTORS
330
C
102
}
330
C
100
AcDbDictionary
281
     1
  3
Normal
350
F
100
AcDbDictionaryWithDefault
340
F
  0
DICTIONARY
  5
E2
102
{ACAD_REACTORS
330
C
102
}
330
C
100
AcDbDictionary
281
     1
  0
DICTIONARY
  5
2A
102
{ACAD_REACTORS
330
C
102
}
330
C
100
AcDbDictionary
281
     1
  3
2dWireframe
350
2F
  3
3D Hidden
350
31
  3
3dWireframe
350
30
  3
Basic
350
32
  3
Brighten
350
36
  3
ColorChange
350
3A
  3
Conceptual
350
34
  3
Dim
350
35
  3
Facepattern
350
39
  3
Flat
350
2B
  3
FlatWithEdges
350
2C
  3
Gouraud
350
2D
  3
GouraudWithEdges
350
2E
  3
Linepattern
350
38
  3
Realistic
350
33
  3
Thicken
350
37
  0
LAYOUT
  5
1E
102
{ACAD_REACTORS
330
1A
102
}
330
1A
100
AcDbPlotSettings
  1

  2
none_device
  4

  6

 40
0.0
 41
0.0
 42
0.0
 43
0.0
 44
0.0
 45
0.0
 46
0.0
 47
0.0
 48
0.0
 49
0.0
140
0.0
141
0.0
142
1.0
143
1.0
 70
   688
 72
     0
 73
     0
 74
     5
  7

 75
    16
 76
     0
 77
     2
 78
   300
147
1.0
148
0.0
149
0.0
100
AcDbLayout
  1
Layout1
 70
     1
 71
     1
 10
0.0
 20
0.0
 11
12.0
 21
9.0
 12
0.0
 22
0.0
 32
0.0
 14
1.000000000000000E+20
 24
1.000000000000000E+20
 34
1.000000000000000E+20
 15
-1.000000000000000E+20
 25
-1.000000000000000E+20
 35
-1.000000000000000E+20
146
0.0
 13
0.0
 23
0.0
 33
0.0
 16
1.0
 26
0.0
 36
0.0
 17
0.0
 27
1.0
 37
0.0
 76
     0
330
1B
  0
LAYOUT
  5
26
102
{ACAD_REACTORS
330
1A
102
}
330
1A
100
AcDbPlotSettings
  1

  2
none_device
  4

  6

 40
0.0
 41
0.0
 42
0.0
 43
0.0
 44
0.0
 45
0.0
 46
0.0
 47
0.0
 48
0.0
 49
0.0
140
0.0
141
0.0
142
1.0
143
1.0
 70
   688
 72
     0
 73
     0
 74
     5
  7

 75
    16
 76
     0
 77
     2
 78
   300
147
1.0
148
0.0
149
0.0
100
AcDbLayout
  1
Layout2
 70
     1
 71
     2
 10
0.0
 20
0.0
 11
0.0
 21
0.0
 12
0.0
 22
0.0
 32
0.0
 14
0.0
 24
0.0
 34
0.0
 15
0.0
 25
0.0
 35
0.0
146
0.0
 13
0.0
 23
0.0
 33
0.0
 16
1.0
 26
0.0
 36
0.0
 17
0.0
 27
1.0
 37
0.0
 76
     0
330
23
  0
LAYOUT
  5
22
102
{ACAD_REACTORS
330
1A
102
}
330
1A
100
AcDbPlotSettings
  1

  2
none_device
  4

  6

 40
0.0
 41
0.0
 42
0.0
 43
0.0
 44
0.0
 45
0.0
 46
0.0
 47
0.0
 48
0.0
 49
0.0
140
0.0
141
0.0
142
1.0
143
1.0
 70
  1712
 72
     0
 73
     0
 74
     0
  7

 75
     0
 76
     0
 77
     2
 78
   300
147
1.0
148
0.0
149
0.0
100
AcDbLayout
  1
Model
 70
     1
 71
     0
 10
0.0
 20
0.0
 11
12.0
 21
9.0
 12
0.0
 22
0.0
 32
0.0
 14
1.000000000000000E+20
 24
1.000000000000000E+20
 34
1.000000000000000E+20
 15
-1.000000000000000E+20
 25
-1.000000000000000E+20
 35
-1.000000000000000E+20
146
0.0
 13
0.0
 23
0.0
 33
0.0
 16
1.0
 26
0.0
 36
0.0
 17
0.0
 27
1.0
 37
0.0
 76
     0
330
1F
331
29
  0
MATERIAL
  5
3D
102
{ACAD_REACTORS
330
3B
102
}
330
3B
100
AcDbMaterial
  1
ByBlock
 72
     1
 94
      127
  0
MATERIAL
  5
3C
102
{ACAD_REACTORS
330
3B
102
}
330
3B
100
AcDbMaterial
  1
ByLayer
 72
     1
 94
      127
  0
MATERIAL
  5
3E
102
{ACAD_REACTORS
330
3B
102
}
330
3B
100
AcDbMaterial
  1
Global
 72
     1
 94
      127
  0
MLINESTYLE
  5
18
102
{ACAD_REACTORS
330
17
102
}
330
17
100
AcDbMlineStyle
  2
Standard
 70
     0
  3

 62
   256
 51
90.0
 52
90.0
 71
     2
 49
0.5
 62
   256
  6
BYLAYER
 49
-0.5
 62
   256
  6
BYLAYER
  0
ACDBPLACEHOLDER
  5
F
102
{ACAD_REACTORS
330
E
102
}
330
E
  0
VISUALSTYLE
  5
2F
102
{ACAD_REACTORS
330
2A
102
}
330
2A
100
AcDbVisualStyle
  2
2dWireframe
 70
     4
177
     2
291
     0
 71
     0
176
     1
 72
     2
176
     1
 73
     0
176
     1
 90
        0
176
     1
 40
-0.6
176
     1
 41
-30.0
176
     1
 62
     5
 63
     7
421
 16777215
176
     1
 74
     1
176
     1
 91
        4
176
     1
 64
     7
176
     1
 65
   257
176
     1
 75
     1
176
     1
175
     1
176
     1
 42
1.0
176
     1
 92
        0
176
     1
 66
   257
176
     1
 43
1.0
176
     1
 76
     1
176
     1
 77
     6
176
     1
 78
     2
176
     1
 67
     7
176
     1
 79
     5
176
     1
170
     0
176
     1
171
     0
176
     1
290
     0
176
     1
 93
        1
176
     1
 44
0.0
176
     1
173
     0
176
     1
  0
VISUALSTYLE
  5
31
102
{ACAD_REACTORS
330
2A
102
}
330
2A
100
AcDbVisualStyle
  2
3D Hidden
 70
     6
177
     2
291
     0
 71
     1
176
     1
 72
     2
176
     1
 73
     2
176
     1
 90
        0
176
     1
 40
-0.6
176
     1
 41
-30.0
176
     1
 62
     5
 63
     7
421
 16777215
176
     1
 74
     2
176
     1
 91
        2
176
     1
 64
     7
176
     1
 65
   257
176
     1
 75
     2
176
     1
175
     1
176
     1
 42
40.0
176
     1
 92
        0
176
     1
 66
   257
176
     1
 43
1.0
176
     1
 76
     1
176
     1
 77
     6
176
     1
 78
     2
176
     1
 67
     7
176
     1
 79
     3
176
     1
170
     0
176
     1
171
     0
176
     1
290
     0
176
     1
 93
        1
176
     1
 44
0.0
176
     1
173
     0
176
     1
  0
VISUALSTYLE
  5
30
102
{ACAD_REACTORS
330
2A
102
}
330
2A
100
AcDbVisualStyle
  2
3dWireframe
 70
     5
177
     2
291
     0
 71
     0
176
     1
 72
     2
176
     1
 73
     0
176
     1
 90
        0
176
     1
 40
-0.6
176
     1
 41
-30.0
176
     1
 62
     5
 63
     7
421
 16777215
176
     1
 74
     1
176
     1
 91
        4
176
     1
 64
     7
176
     1
 65
   257
176
     1
 75
     1
176
     1
175
     1
176
     1
 42
1.0
176
     1
 92
        0
176
     1
 66
   257
176
     1
 43
1.0
176
     1
 76
     1
176
     1
 77
     6
176
     1
 78
     2
176
     1
 67
     7
176
     1
 79
     5
176
     1
170
     0
176
     1
171
     0
176
     1
290
     0
176
     1
 93
        1
176
     1
 44
0.0
176
     1
173
     0
176
     1
  0
VISUALSTYLE
  5
32
102
{ACAD_REACTORS
330
2A
102
}
330
2A
100
AcDbVisualStyle
  2
Basic
 70
     7
177
     2
291
     1
 71
     1
176
     1
 72
     0
176
     1
 73
     1
176
     1
 90
        0
176
     1
 40
-0.6
176
     1
 41
-30.0
176
     1
 62
     5
 63
     7
421
 16777215
176
     1
 74
     0
176
     1
 91
        4
176
     1
 64
     7
176
     1
 65
   257
176
     1
 75
     1
176
     1
175
     1
176
     1
 42
1.0
176
     1
 92
        8
176
     1
 66
     7
176
     1
 43
1.0
176
     1
 76
     1
176
     1
 77
     6
176
     1
 78
     2
176
     1
 67
     7
176
     1
 79
     5
176
     1
170
     0
176
     1
171
     0
176
     1
290
     0
176
     1
 93
        1
176
     1
 44
0.0
176
     1
173
     0
176
     1
  0
VISUALSTYLE
  5
36
102
{ACAD_REACTORS
330
2A
102
}
330
2A
100
AcDbVisualStyle
  2
Brighten
 70
    12
177
     2
291
     1
 71
     2
176
     1
 72
     2
176
     1
 73
     0
176
     1
 90
        0
176
     1
 40
-0.6
176
     1
 41
-30.0
176
     1
 62
     5
 63
     7
421
 16777215
176
     1
 74
     1
176
     1
 91
        4
176
     1
 64
     7
176
     1
 65
   257
176
     1
 75
     1
176
     1
175
     1
176
     1
 42
1.0
176
     1
 92
        8
176
     1
 66
     7
176
     1
 43
1.0
176
     1
 76
     1
176
     1
 77
     6
176
     1
 78
     2
176
     1
 67
     7
176
     1
 79
     5
176
     1
170
     0
176
     1
171
     0
176
     1
290
     0
176
     1
 93
        1
176
     1
 44
50.0
176
     1
173
     0
176
     1
  0
VISUALSTYLE
  5
3A
102
{ACAD_REACTORS
330
2A
102
}
330
2A
100
AcDbVisualStyle
  2
ColorChange
 70
    16
177
     2
291
     1
 71
     2
176
     1
 72
     2
176
     1
 73
     3
176
     1
 90
        0
176
     1
 40
-0.6
176
     1
 41
-30.0
176
     1
 62
     5
 63
     8
421
  8421504
176
     1
 74
     1
176
     1
 91
        4
176
     1
 64
     7
176
     1
 65
   257
176
     1
 75
     1
176
     1
175
     1
176
     1
 42
1.0
176
     1
 92
        8
176
     1
 66
     8
424
  8421504
176
     1
 43
1.0
176
     1
 76
     1
176
     1
 77
     6
176
     1
 78
     2
176
     1
 67
     7
176
     1
 79
     5
176
     1
170
     0
176
     1
171
     0
176
     1
290
     0
176
     1
 93
        1
176
     1
 44
0.0
176
     1
173
     0
176
     1
  0
VISUALSTYLE
  5
34
102
{ACAD_REACTORS
330
2A
102
}
330
2A
100
AcDbVisualStyle
  2
Conceptual
 70
     9
177
     2
291
     0
 71
     3
176
     1
 72
     2
176
     1
 73
     0
176
     1
 90
        0
176
     1
 40
-0.6
176
     1
 41
-30.0
176
     1
 62
     5
 63
     7
421
 16777215
176
     1
 74
     2
176
     1
 91
        2
176
     1
 64
     7
176
     1
 65
   257
176
     1
 75
     1
176
     1
175
     1
176
     1
 42
40.0
176
     1
 92
        8
176
     1
 66
     7
176
     1
 43
1.0
176
     1
 76
     1
176
     1
 77
     6
176
     1
 78
     2
176
     1
 67
     7
176
     1
 79
     3
176
     1
170
     0
176
     1
171
     0
176
     1
290
     0
176
     1
 93
        1
176
     1
 44
0.0
176
     1
173
     0
176
     1
  0
VISUALSTYLE
  5
35
102
{ACAD_REACTORS
330
2A
102
}
330
2A
100
AcDbVisualStyle
  2
Dim
 70
    11
177
     2
291
     1
 71
     2
176
     1
 72
     2
176
     1
 73
     0
176
     1
 90
        0
176
     1
 40
-0.6
176
     1
 41
-30.0
176
     1
 62
     5
 63
     7
421
 16777215
176
     1
 74
     1
176
     1
 91
        4
176
     1
 64
     7
176
     1
 65
   257
176
     1
 75
     1
176
     1
175
     1
176
     1
 42
1.0
176
     1
 92
        8
176
     1
 66
     7
176
     1
 43
1.0
176
     1
 76
     1
176
     1
 77
     6
176
     1
 78
     2
176
     1
 67
     7
176
     1
 79
     5
176
     1
170
     0
176
     1
171
     0
176
     1
290
     0
176
     1
 93
        1
176
     1
 44
-50.0
176
     1
173
     0
176
     1
  0
VISUALSTYLE
  5
39
102
{ACAD_REACTORS
330
2A
102
}
330
2A
100
AcDbVisualStyle
  2
Facepattern
 70
    15
177
     2
291
     1
 71
     2
176
     1
 72
     2
176
     1
 73
     0
176
     1
 90
        0
176
     1
 40
-0.6
176
     1
 41
-30.0
176
     1
 62
     5
 63
     7
421
 16777215
176
     1
 74
     1
176
     1
 91
        4
176
     1
 64
     7
176
     1
 65
   257
176
     1
 75
     1
176
     1
175
     1
176
     1
 42
1.0
176
     1
 92
        8
176
     1
 66
     7
176
     1
 43
1.0
176
     1
 76
     1
176
     1
 77
     6
176
     1
 78
     2
176
     1
 67
     7
176
     1
 79
     5
176
     1
170
     0
176
     1
171
     0
176
     1
290
     0
176
     1
 93
        1
176
     1
 44
0.0
176
     1
173
     0
176
     1
  0
VISUALSTYLE
  5
2B
102
{ACAD_REACTORS
330
2A
102
}
330
2A
100
AcDbVisualStyle
  2
Flat
 70
     0
177
     2
291
     1
 71
     2
176
     1
 72
     1
176
     1
 73
     1
176
     1
 90
        2
176
     1
 40
-0.6
176
     1
 41
30.0
176
     1
 62
     5
 63
     7
421
 16777215
176
     1
 74
     0
176
     1
 91
        4
176
     1
 64
     7
176
     1
 65
   257
176
     1
 75
     1
176
     1
175
     1
176
     1
 42
1.0
176
     1
 92
        8
176
     1
 66
     7
176
     1
 43
1.0
176
     1
 76
     1
176
     1
 77
     6
176
     1
 78
     2
176
     1
 67
     7
176
     1
 79
     5
176
     1
170
     0
176
     1
171
     0
176
     1
290
     0
176
     1
 93
       13
176
     1
 44
0.0
176
     1
173
     0
176
     1
  0
VISUALSTYLE
  5
2C
102
{ACAD_REACTORS
330
2A
102
}
330
2A
100
AcDbVisualStyle
  2
FlatWithEdges
 70
     1
177
     2
291
     1
 71
     2
176
     1
 72
     1
176
     1
 73
     1
176
     1
 90
        2
176
     1
 40
-0.6
176
     1
 41
30.0
176
     1
 62
     5
 63
     7
421
 16777215
176
     1
 74
     1
176
     1
 91
        4
176
     1
 64
     7
176
     1
 65
   257
176
     1
 75
     1
176
     1
175
     1
176
     1
 42
1.0
176
     1
 92
        0
176
     1
 66
   257
176
     1
 43
1.0
176
     1
 76
     1
176
     1
 77
     6
176
     1
 78
     2
176
     1
 67
     7
176
     1
 79
     5
176
     1
170
     0
176
     1
171
     0
176
     1
290
     0
176
     1
 93
       13
176
     1
 44
0.0
176
     1
173
     0
176
     1
  0
VISUALSTYLE
  5
2D
102
{ACAD_REACTORS
330
2A
102
}
330
2A
100
AcDbVisualStyle
  2
Gouraud
 70
     2
177
     2
291
     1
 71
     2
176
     1
 72
     2
176
     1
 73
     1
176
     1
 90
        2
176
     1
 40
-0.6
176
     1
 41
30.0
176
     1
 62
     5
 63
     7
421
 16777215
176
     1
 74
     0
176
     1
 91
        4
176
     1
 64
     7
176
     1
 65
   257
176
     1
 75
     1
176
     1
175
     1
176
     1
 42
1.0
176
     1
 92
        0
176
     1
 66
     7
176
     1
 43
1.0
176
     1
 76
     1
176
     1
 77
     6
176
     1
 78
     2
176
     1
 67
     7
176
     1
 79
     5
176
     1
170
     0
176
     1
171
     0
176
     1
290
     0
176
     1
 93
       13
176
     1
 44
0.0
176
     1
173
     0
176
     1
  0
VISUALSTYLE
  5
2E
102
{ACAD_REACTORS
330
2A
102
}
330
2A
100
AcDbVisualStyle
  2
GouraudWithEdges
 70
     3
177
     2
291
     1
 71
     2
176
     1
 72
     2
176
     1
 73
     1
176
     1
 90
        2
176
     1
 40
-0.6
176
     1
 41
30.0
176
     1
 62
     5
 63
     7
421
 16777215
176
     1
 74
     1
176
     1
 91
        4
176
     1
 64
     7
176
     1
 65
   257
176
     1
 75
     1
176
     1
175
     1
176
     1
 42
1.0
176
     1
 92
        0
176
     1
 66
   257
176
     1
 43
1.0
176
     1
 76
     1
176
     1
 77
     6
176
     1
 78
     2
176
     1
 67
     7
176
     1
 79
     5
176
     1
170
     0
176
     1
171
     0
176
     1
290
     0
176
     1
 93
       13
176
     1
 44
0.0
176
     1
173
     0
176
     1
  0
VISUALSTYLE
  5
38
102
{ACAD_REACTORS
330
2A
102
}
330
2A
100
AcDbVisualStyle
  2
Linepattern
 70
    14
177
     2
291
     1
 71
     2
176
     1
 72
     2
176
     1
 73
     0
176
     1
 90
        0
176
     1
 40
-0.6
176
     1
 41
-30.0
176
     1
 62
     5
 63
     7
421
 16777215
176
     1
 74
     1
176
     1
 91
        4
176
     1
 64
     7
176
     1
 65
   257
176
     1
 75
     7
176
     1
175
     7
176
     1
 42
1.0
176
     1
 92
        8
176
     1
 66
     7
176
     1
 43
1.0
176
     1
 76
     1
176
     1
 77
     6
176
     1
 78
     2
176
     1
 67
     7
176
     1
 79
     5
176
     1
170
     0
176
     1
171
     0
176
     1
290
     0
176
     1
 93
        1
176
     1
 44
0.0
176
     1
173
     0
176
     1
  0
VISUALSTYLE
  5
33
102
{ACAD_REACTORS
330
2A
102
}
330
2A
100
AcDbVisualStyle
  2
Realistic
 70
     8
177
     2
291
     0
 71
     2
176
     1
 72
     2
176
     1
 73
     0
176
     1
 90
        0
176
     1
 40
-0.6
176
     1
 41
-30.0
176
     1
 62
     5
 63
     7
421
 16777215
176
     1
 74
     1
176
     1
 91
        0
176
     1
 64
     7
176
     1
 65
   257
176
     1
 75
     1
176
     1
175
     1
176
     1
 42
1.0
176
     1
 92
        8
176
     1
 66
     8
424
  7895160
176
     1
 43
1.0
176
     1
 76
     1
176
     1
 77
     6
176
     1
 78
     2
176
     1
 67
     7
176
     1
 79
     5
176
     1
170
     0
176
     1
171
     0
176
     1
290
     0
176
     1
 93
       13
176
     1
 44
0.0
176
     1
173
     0
176
     1
  0
VISUALSTYLE
  5
37
102
{ACAD_REACTORS
330
2A
102
}
330
2A
100
AcDbVisualStyle
  2
Thicken
 70
    13
177
     2
291
     1
 71
     2
176
     1
 72
     2
176
     1
 73
     0
176
     1
 90
        0
176
     1
 40
-0.6
176
     1
 41
-30.0
176
     1
 62
     5
 63
     7
421
 16777215
176
     1
 74
     1
176
     1
 91
        4
176
     1
 64
     7
176
     1
 65
   257
176
     1
 75
     1
176
     1
175
     1
176
     1
 42
1.0
176
     1
 92
       12
176
     1
 66
     7
176
     1
 43
1.0
176
     1
 76
     1
176
     1
 77
     6
176
     1
 78
     2
176
     1
 67
     7
176
     1
 79
     5
176
     1
170
     0
176
     1
171
     0
176
     1
290
     0
176
     1
 93
        1
176
     1
 44
0.0
176
     1
173
     0
176
     1
  0
ENDSEC
  0
EOF
