  0
SECTION
  2
HEADER
  9
$ACADVER
  1
AC1024
  9
$ACADMAINTVER
 70
     6
  9
$DWGCODEPAGE
  3
UNDEFINED
  9
$INSBASE
 10
0.0
 20
0.0
 30
0.0
  9
$EXTMIN
 10
1.000000000000000E+20
 20
1.000000000000000E+20
 30
1.000000000000000E+20
  9
$EXTMAX
 10
-1.000000000000000E+20
 20
-1.000000000000000E+20
 30
-1.000000000000000E+20
  9
$LIMMIN
 10
0.0
 20
0.0
  9
$LIMMAX
 10
12.0
 20
9.0
  9
$ORTHOMODE
 70
     0
  9
$REGENMODE
 70
     1
  9
$FILLMODE
 70
     1
  9
$QTEXTMODE
 70
     0
  9
$MIRRTEXT
 70
     1
  9
$LTSCALE
 40
1.0
  9
$ATTMODE
 70
     1
  9
$TEXTSIZE
 40
0.2
  9
$TRACEWID
 40
0.05
  9
$TEXTSTYLE
  7
Standard
  9
$CLAYER
  8
0
  9
$CELTYPE
  6
ByLayer
  9
$CECOLOR
 62
   256
  9
$CELTSCALE
 40
1.0
  9
$DISPSILH
 70
     0
  9
$DIMSCALE
 40
1.0
  9
$DIMASZ
 40
0.18
  9
$DIMEXO
 40
0.0625
  9
$DIMDLI
 40
0.38
  9
$DIMRND
 40
0.0
  9
$DIMDLE
 40
0.0
  9
$DIMEXE
 40
0.18
  9
$DIMTP
 40
0.0
  9
$DIMTM
 40
0.0
  9
$DIMTXT
 40
0.18
  9
$DIMCEN
 40
0.09
  9
$DIMTSZ
 40
0.0
  9
$DIMTOL
 70
     0
  9
$DIMLIM
 70
     0
  9
$DIMTIH
 70
     1
  9
$DIMTOH
 70
     1
  9
$DIMSE1
 70
     0
  9
$DIMSE2
 70
     0
  9
$DIMTAD
 70
     0
  9
$DIMZIN
 70
     0
  9
$DIMBLK
  1

  9
$DIMASO
 70
     1
  9
$DIMSHO
 70
     1
  9
$DIMPOST
  1

  9
$DIMAPOST
  1

  9
$DIMALT
 70
     0
  9
$DIMALTD
 70
     2
  9
$DIMALTF
 40
25.4
  9
$DIMLFAC
 40
1.0
  9
$DIMTOFL
 70
     0
  9
$DIMTVP
 40
0.0
  9
$DIMTIX
 70
     0
  9
$DIMSOXD
 70
     0
  9
$DIMSAH
 70
     0
  9
$DIMBLK1
  1

  9
$DIMBLK2
  1

  9
$DIMSTYLE
  2
Standard
  9
$DIMCLRD
 70
     0
  9
$DIMCLRE
 70
     0
  9
$DIMCLRT
 70
     0
  9
$DIMTFAC
 40
1.0
  9
$DIMGAP
 40
0.09
  9
$DIMJUST
 70
     0
  9
$DIMSD1
 70
     0
  9
$DIMSD2
 70
     0
  9
$DIMTOLJ
 70
     1
  9
$DIMTZIN
 70
     0
  9
$DIMALTZ
 70
     0
  9
$DIMALTTZ
 70
     0
  9
$DIMUPT
 70
     0
  9
$DIMDEC
 70
     4
  9
$DIMTDEC
 70
     4
  9
$DIMALTU
 70
     2
  9
$DIMALTTD
 70
     2
  9
$DIMTXSTY
  7
Standard
  9
$DIMAUNIT
 70
     0
  9
$DIMADEC
 70
     0
  9
$DIMALTRND
 40
0.0
  9
$DIMAZIN
 70
     0
  9
$DIMDSEP
 70
    46
  9
$DIMATFIT
 70
     3
  9
$DIMFRAC
 70
     0
  9
$DIMLDRBLK
  1

  9
$DIMLUNIT
 70
     2
  9
$DIMLWD
 70
    -2
  9
$DIMLWE
 70
    -2
  9
$DIMTMOVE
 70
     0
  9
$DIMFXL
 40
1.0
  9
$DIMFXLON
 70
     0
  9
$DIMJOGANG
 40
0.7853981633974483
  9
$DIMTFILL
 70
     0
  9
$DIMTFILLCLR
 70
     0
  9
$DIMARCSYM
 70
     0
  9
$DIMLTYPE
  6

  9
$DIMLTEX1
  6

  9
$DIMLTEX2
  6

  9
$DIMTXTDIRECTION
 70
     0
  9
$LUNITS
 70
     2
  9
$LUPREC
 70
     4
  9
$SKETCHINC
 40
0.1
  9
$FILLETRAD
 40
0.5
  9
$AUNITS
 70
     0
  9
$AUPREC
 70
     0
  9
$MENU
  1
.
  9
$ELEVATION
 40
0.0
  9
$PELEVATION
 40
0.0
  9
$THICKNESS
 40
0.0
  9
$LIMCHECK
 70
     0
  9
$CHAMFERA
 40
0.5
  9
$CHAMFERB
 40
0.5
  9
$CHAMFERC
 40
1.0
  9
$CHAMFERD
 40
0.0
  9
$SKPOLY
 70
     0
  9
$TDCREATE
 40
2457917.588425926
  9
$TDUCREATE
 40
2457917.213425926
  9
$TDUPDATE
 40
2457917.588425926
  9
$TDUUPDATE
 40
2457917.213425926
  9
$TDINDWG
 40
0.0000000116
  9
$TDUSRTIMER
 40
0.0000000116
  9
$USRTIMER
 70
     1
  9
$ANGBASE
 50
0.0
  9
$ANGDIR
 70
     0
  9
$PDMODE
 70
     0
  9
$PDSIZE
 40
0.0
  9
$PLINEWID
 40
0.0
  9
$SPLFRAME
 70
     0
  9
$SPLINETYPE
 70
     6
  9
$SPLINESEGS
 70
     8
  9
$HANDSEED
  5
F4
  9
$SURFTAB1
 70
     6
  9
$SURFTAB2
 70
     6
  9
$SURFTYPE
 70
     6
  9
$SURFU
 70
     6
  9
$SURFV
 70
     6
  9
$UCSBASE
  2

  9
$UCSNAME
  2

  9
$UCSORG
 10
0.0
 20
0.0
 30
0.0
  9
$UCSXDIR
 10
1.0
 20
0.0
 30
0.0
  9
$UCSYDIR
 10
0.0
 20
1.0
 30
0.0
  9
$UCSORTHOREF
  2

  9
$UCSORTHOVIEW
 70
     0
  9
$UCSORGTOP
 10
0.0
 20
0.0
 30
0.0
  9
$UCSORGBOTTOM
 10
0.0
 20
0.0
 30
0.0
  9
$UCSORGLEFT
 10
0.0
 20
0.0
 30
0.0
  9
$UCSORGRIGHT
 10
0.0
 20
0.0
 30
0.0
  9
$UCSORGFRONT
 10
0.0
 20
0.0
 30
0.0
  9
$UCSORGBACK
 10
0.0
 20
0.0
 30
0.0
  9
$PUCSBASE
  2

  9
$PUCSNAME
  2

  9
$PUCSORG
 10
0.0
 20
0.0
 30
0.0
  9
$PUCSXDIR
 10
1.0
 20
0.0
 30
0.0
  9
$PUCSYDIR
 10
0.0
 20
1.0
 30
0.0
  9
$PUCSORTHOREF
  2

  9
$PUCSORTHOVIEW
 70
     0
  9
$PUCSORGTOP
 10
0.0
 20
0.0
 30
0.0
  9
$PUCSORGBOTTOM
 10
0.0
 20
0.0
 30
0.0
  9
$PUCSORGLEFT
 10
0.0
 20
0.0
 30
0.0
  9
$PUCSORGRIGHT
 10
0.0
 20
0.0
 30
0.0
  9
$PUCSORGFRONT
 10
0.0
 20
0.0
 30
0.0
  9
$PUCSORGBACK
 10
0.0
 20
0.0
 30
0.0
  9
$USERI1
 70
     0
  9
$USERI2
 70
     0
  9
$USERI3
 70
     0
  9
$USERI4
 70
     0
  9
$USERI5
 70
     0
  9
$USERR1
 40
0.0
  9
$USERR2
 40
0.0
  9
$USERR3
 40
0.0
  9
$USERR4
 40
0.0
  9
$USERR5
 40
0.0
  9
$WORLDVIEW
 70
     1
  9
$SHADEDGE
 70
     3
  9
$SHADEDIF
 70
    70
  9
$TILEMODE
 70
     1
  9
$MAXACTVP
 70
    64
  9
$PINSBASE
 10
0.0
 20
0.0
 30
0.0
  9
$PLIMCHECK
 70
     0
  9
$PEXTMIN
 10
1.000000000000000E+20
 20
1.000000000000000E+20
 30
1.000000000000000E+20
  9
$PEXTMAX
 10
-1.000000000000000E+20
 20
-1.000000000000000E+20
 30
-1.000000000000000E+20
  9
$PLIMMIN
 10
0.0
 20
0.0
  9
$PLIMMAX
 10
12.0
 20
9.0
  9
$UNITMODE
 70
     0
  9
$VISRETAIN
 70
     1
  9
$PLINEGEN
 70
     0
  9
$PSLTSCALE
 70
     1
  9
$TREEDEPTH
 70
  3020
  9
$CMLSTYLE
  2
Standard
  9
$CMLJUST
 70
     0
  9
$CMLSCALE
 40
1.0
  9
$PROXYGRAPHICS
 70
     1
  9
$MEASUREMENT
 70
     0
  9
$CELWEIGHT
370
    -1
  9
$ENDCAPS
280
     0
  9
$JOINSTYLE
280
     0
  9
$LWDISPLAY
290
     1
  9
$INSUNITS
 70
     1
  9
$HYPERLINKBASE
  1

  9
$STYLESHEET
  1

  9
$XEDIT
290
     1
  9
$CEPSNTYPE
380
     0
  9
$PSTYLEMODE
290
     1
  9
$FINGERPRINTGUID
  2
{B103D4F2-AB79-736F-8EB9-EC14C6777DB7}
  9
$VERSIONGUID
  2
{FAEB1C32-E019-11D5-929B-00C0DF256EC4}
  9
$EXTNAMES
290
     1
  9
$PSVPSCALE
 40
0.0
  9
$OLESTARTUP
290
     0
  9
$SORTENTS
280
   127
  9
$INDEXCTL
280
     0
  9
$HIDETEXT
280
     1
  9
$XCLIPFRAME
280
     2
  9
$HALOGAP
280
     0
  9
$OBSCOLOR
 70
   257
  9
$OBSLTYPE
280
     0
  9
$INTERSECTIONDISPLAY
280
     0
  9
$INTERSECTIONCOLOR
 70
   257
  9
$DIMASSOC
280
     2
  9
$PROJECTNAME
  1

  9
$CAMERADISPLAY
290
     0
  9
$LENSLENGTH
 40
50.0
  9
$CAMERAHEIGHT
 40
0.0
  9
$STEPSPERSEC
 40
2.0
  9
$STEPSIZE
 40
6.0
  9
$3DDWFPREC
 40
2.0
  9
$PSOLWIDTH
 40
0.25
  9
$PSOLHEIGHT
 40
4.0
  9
$LOFTANG1
 40
1.570796326794897
  9
$LOFTANG2
 40
1.570796326794897
  9
$LOFTMAG1
 40
0.0
  9
$LOFTMAG2
 40
0.0
  9
$LOFTPARAM
 70
     7
  9
$LOFTNORMALS
280
     1
  9
$LATITUDE
 40
37.795
  9
$LONGITUDE
 40
-122.394
  9
$NORTHDIRECTION
 40
0.0
  9
$TIMEZONE
 70
 -8000
  9
$LIGHTGLYPHDISPLAY
280
     1
  9
$TILEMODELIGHTSYNCH
280
     1
  9
$CMATERIAL
347
3C
  9
$SOLIDHIST
280
     1
  9
$SHOWHIST
280
     1
  9
$DWFFRAME
280
     2
  9
$DGNFRAME
280
     2
  9
$REALWORLDSCALE
290
     1
  9
$INTERFERECOLOR
 62
   256
  9
$CSHADOW
280
     0
  9
$SHADOWPLANELOCATION
 40
0.0
  0
ENDSEC
  0
SECTION
  2
CLASSES
  0
CLASS
  1
ACDBDICTIONARYWDFLT
  2
AcDbDictionaryWithDefault
  3
ObjectDBX Classes
 90
        0
 91
        4
280
     0
281
     0
  0
CLASS
  1
VISUALSTYLE
  2
AcDbVisualStyle
  3
ObjectDBX Classes
 90
     4095
 91
        4
280
     0
281
     0
  0
CLASS
  1
MATERIAL
  2
AcDbMaterial
  3
ObjectDBX Classes
 90
     1153
 91
        4
280
     0
281
     0
  0
CLASS
  1
SUN
  2
AcDbSun
  3
SCENEOE
 90
     1024
 91
        4
280
     0
281
     0
  0
ENDSEC
  0
SECTION
  2
TABLES
  0
TABLE
  2
VPORT
  5
8
330
0
100
AcDbSymbolTable
 70
     1
  0
VPORT
  5
29
330
8
100
AcDbSymbolTableRecord
100
AcDbViewportTableRecord
  2
*Active
 70
     0
 10
0.0
 20
0.0
 11
1.0
 21
1.0
 12
0.0
 22
0.0
 13
0.0
 23
0.0
 14
0.5
 24
0.5
 15
0.5
 25
0.5
 16
0.0
 26
0.0
 36
1.0
 17
63.499999984125
 27
-89.00059456108309
 37
0.0
 40
178.0011891221662
 41
0.7134783795241226
 42
50.0
 43
0.0
 44
0.0
 50
0.0
 51
0.0
 71
     0
 72
   100
 73
     1
 74
     3
 75
     0
 76
     0
 77
     0
 78
     0
281
     0
 65
     1
110
0.0
120
0.0
130
0.0
111
1.0
121
0.0
131
0.0
112
0.0
122
1.0
132
0.0
 79
     0
146
0.0
 60
     3
 61
     5
292
     1
282
     1
141
0.0
142
0.0
 63
   250
361
3F
  0
ENDTAB
  0
TABLE
  2
LTYPE
  5
5
330
0
100
AcDbSymbolTable
 70
     1
  0
LTYPE
  5
14
330
5
100
AcDbSymbolTableRecord
100
AcDbLinetypeTableRecord
  2
ByBlock
 70
     0
  3

 72
    65
 73
     0
 40
0.0
  0
LTYPE
  5
15
330
5
100
AcDbSymbolTableRecord
100
AcDbLinetypeTableRecord
  2
ByLayer
 70
     0
  3

 72
    65
 73
     0
 40
0.0
  0
LTYPE
  5
16
330
5
100
AcDbSymbolTableRecord
100
AcDbLinetypeTableRecord
  2
Continuous
 70
     0
  3
Solid line
 72
    65
 73
     0
 40
0.0
  0
ENDTAB
  0
TABLE
  2
LAYER
  5
2
330
0
100
AcDbSymbolTable
 70
     2
  0
LAYER
  5
10
330
2
100
AcDbSymbolTableRecord
100
AcDbLayerTableRecord
  2
0
 70
     0
 62
     7
  6
Continuous
370
    -3
390
F
347
3E
  0
LAYER
  5
40
330
2
100
AcDbSymbolTableRecord
100
AcDbLayerTableRecord
  2
_U+30EC_U+30A4_U+30E4_U+30FC 1
 70
     0
 62
     7
  6
Continuous
370
    -3
390
F
347
3E
  0
ENDTAB
  0
TABLE
  2
STYLE
  5
3
330
0
100
AcDbSymbolTable
 70
     1
  0
STYLE
  5
11
330
3
100
AcDbSymbolTableRecord
100
AcDbTextStyleTableRecord
  2
Standard
 70
     0
 40
0.0
 41
1.0
 50
0.0
 71
     0
 42
0.2
  3
txt
  4

  0
ENDTAB
  0
TABLE
  2
VIEW
  5
6
330
0
100
AcDbSymbolTable
 70
     0
  0
ENDTAB
  0
TABLE
  2
UCS
  5
7
330
0
100
AcDbSymbolTable
 70
     0
  0
ENDTAB
  0
TABLE
  2
APPID
  5
9
330
0
100
AcDbSymbolTable
 70
     1
  0
APPID
  5
12
330
9
100
AcDbSymbolTableRecord
100
AcDbRegAppTableRecord
  2
ACAD
 70
     0
  0
ENDTAB
  0
TABLE
  2
DIMSTYLE
  5
A
330
0
100
AcDbSymbolTable
 70
     1
100
AcDbDimStyleTable
  0
DIMSTYLE
105
27
330
A
100
AcDbSymbolTableRecord
100
AcDbDimStyleTableRecord
  2
Standard
 70
     0
178
     0
340
11
  0
ENDTAB
  0
TABLE
  2
BLOCK_RECORD
  5
1
330
0
100
AcDbSymbolTable
 70
     6
  0
BLOCK_RECORD
  5
1F
330
1
100
AcDbSymbolTableRecord
100
AcDbBlockTableRecord
  2
*Model_Space
340
22
 70
     0
280
     1
281
     0
  0
BLOCK_RECORD
  5
1B
330
1
100
AcDbSymbolTableRecord
100
AcDbBlockTableRecord
  2
*Paper_Space
340
1E
 70
     0
280
     1
281
     0
  0
BLOCK_RECORD
  5
23
330
1
100
AcDbSymbolTableRecord
100
AcDbBlockTableRecord
  2
*Paper_Space0
340
26
 70
     0
280
     1
281
     0
  0
BLOCK_RECORD
  5
41
330
1
100
AcDbSymbolTableRecord
100
AcDbBlockTableRecord
  2
block 2
340
0
102
{BLKREFS
331
42
102
}
 70
     0
280
     1
281
     0
  0
BLOCK_RECORD
  5
4A
330
1
100
AcDbSymbolTableRecord
100
AcDbBlockTableRecord
  2
block 3
340
0
102
{BLKREFS
331
4B
102
}
 70
     0
280
     1
281
     0
  0
BLOCK_RECORD
  5
5A
330
1
100
AcDbSymbolTableRecord
100
AcDbBlockTableRecord
  2
block 4
340
0
102
{BLKREFS
331
5B
102
}
 70
     0
280
     1
281
     0
  0
BLOCK_RECORD
  5
60
330
1
100
AcDbSymbolTableRecord
100
AcDbBlockTableRecord
  2
block 5
340
0
102
{BLKREFS
331
61
102
}
 70
     0
280
     1
281
     0
  0
BLOCK_RECORD
  5
E0
330
1
100
AcDbSymbolTableRecord
100
AcDbBlockTableRecord
  2
block 6
340
0
102
{BLKREFS
331
E1
102
}
 70
     0
280
     1
281
     0
  0
ENDTAB
  0
ENDSEC
  0
SECTION
  2
BLOCKS
  0
BLOCK
  5
20
330
1F
100
AcDbEntity
  8
0
100
AcDbBlockBegin
  2
*Model_Space
 70
     0
 10
0.0
 20
0.0
 30
0.0
  3
*Model_Space
  1

  0
ENDBLK
  5
21
330
1F
100
AcDbEntity
  8
0
100
AcDbBlockEnd
  0
BLOCK
  5
1C
330
1B
100
AcDbEntity
 67
     1
  8
0
100
AcDbBlockBegin
  2
*Paper_Space
 70
     0
 10
0.0
 20
0.0
 30
0.0
  3
*Paper_Space
  1

  0
ENDBLK
  5
1D
330
1B
100
AcDbEntity
 67
     1
  8
0
100
AcDbBlockEnd
  0
BLOCK
  5
24
330
23
100
AcDbEntity
  8
0
100
AcDbBlockBegin
  2
*Paper_Space0
 70
     0
 10
0.0
 20
0.0
 30
0.0
  3
*Paper_Space0
  1

  0
ENDBLK
  5
25
330
23
100
AcDbEntity
  8
0
100
AcDbBlockEnd
  0
BLOCK
  5
43
330
41
100
AcDbEntity
  8
0
100
AcDbBlockBegin
  2
block 2
 70
     0
 10
0.0
 20
0.0
 30
0.0
  3
block 2
  1

  0
SPLINE
  5
45
330
41
100
AcDbEntity
  8
_U+30EC_U+30A4_U+30E4_U+30FC 1
370
     0
100
AcDbSpline
210
0.0
220
0.0
230
1.0
 70
    11
 71
     3
 72
    26
 73
    22
 74
     0
 42
0.0000000001
 43
0.0000000001
 12
1.0
 22
0.0
 32
0.0
 13
1.0
 23
0.0
 33
0.0
 40
0.0
 40
0.0
 40
0.0
 40
0.0
 40
1.0
 40
1.0
 40
1.0
 40
2.0
 40
2.0
 40
2.0
 40
3.0
 40
3.0
 40
3.0
 40
4.0
 40
4.0
 40
4.0
 40
5.0
 40
5.0
 40
5.0
 40
6.0
 40
6.0
 40
6.0
 40
7.0
 40
7.0
 40
7.0
 40
7.0
 10
51.71691215069924
 20
-99.90432397676004
 30
0.0
 10
51.71691215069924
 20
-99.90432397676004
 30
0.0
 10
51.71691215069924
 20
-98.80017087373746
 30
0.0
 10
51.71691215069924
 20
-98.80017087373746
 30
0.0
 10
51.71691215069924
 20
-98.80017087373746
 30
0.0
 10
51.38773327708363
 20
-98.80017087373746
 30
0.0
 10
51.38773327708363
 20
-98.80017087373746
 30
0.0
 10
51.38773327708363
 20
-98.80017087373746
 30
0.0
 10
51.38773327708363
 20
-98.65203176787172
 30
0.0
 10
51.38773327708363
 20
-98.65203176787172
 30
0.0
 10
51.71897920799039
 20
-98.63721785728515
 30
0.0
 10
51.76531574226701
 20
-98.47426484083283
 30
0.0
 10
51.79494356344016
 20
-98.35988767072253
 30
0.0
 10
51.79494356344016
 20
-98.35988767072253
 30
0.0
 10
51.94049884769196
 20
-98.35988767072253
 30
0.0
 10
51.94049884769196
 20
-98.35988767072253
 30
0.0
 10
51.94049884769196
 20
-98.35988767072253
 30
0.0
 10
51.94049884769196
 20
-99.90432397676004
 30
0.0
 10
51.94049884769196
 20
-99.90432397676004
 30
0.0
 10
51.94049884769196
 20
-99.90432397676004
 30
0.0
 10
51.71691215069924
 20
-99.90432397676004
 30
0.0
 10
51.71691215069924
 20
-99.90432397676004
 30
0.0
  0
HATCH
  5
46
330
41
100
AcDbEntity
  8
_U+30EC_U+30A4_U+30E4_U+30FC 1
 62
   179
420
  2234388
100
AcDbHatch
 10
0.0
 20
0.0
 30
0.0
210
0.0
220
0.0
230
1.0
  2
SOLID
 70
     1
 71
     0
 91
        1
 92
        1
 93
        1
 72
     4
 94
        3
 73
     0
 74
     1
 95
       26
 96
       22
 40
0.0
 40
0.0
 40
0.0
 40
0.0
 40
1.0
 40
1.0
 40
1.0
 40
2.0
 40
2.0
 40
2.0
 40
3.0
 40
3.0
 40
3.0
 40
4.0
 40
4.0
 40
4.0
 40
5.0
 40
5.0
 40
5.0
 40
6.0
 40
6.0
 40
6.0
 40
7.0
 40
7.0
 40
7.0
 40
7.0
 10
51.71691215069924
 20
-99.90432397676004
 10
51.71691215069924
 20
-99.90432397676004
 10
51.71691215069924
 20
-98.80017087373746
 10
51.71691215069924
 20
-98.80017087373746
 10
51.71691215069924
 20
-98.80017087373746
 10
51.38773327708363
 20
-98.80017087373746
 10
51.38773327708363
 20
-98.80017087373746
 10
51.38773327708363
 20
-98.80017087373746
 10
51.38773327708363
 20
-98.65203176787172
 10
51.38773327708363
 20
-98.65203176787172
 10
51.71897920799039
 20
-98.63721785728515
 10
51.76531574226701
 20
-98.47426484083283
 10
51.79494356344016
 20
-98.35988767072253
 10
51.79494356344016
 20
-98.35988767072253
 10
51.94049884769196
 20
-98.35988767072253
 10
51.94049884769196
 20
-98.35988767072253
 10
51.94049884769196
 20
-98.35988767072253
 10
51.94049884769196
 20
-99.90432397676004
 10
51.94049884769196
 20
-99.90432397676004
 10
51.94049884769196
 20
-99.90432397676004
 10
51.71691215069924
 20
-99.90432397676004
 10
51.71691215069924
 20
-99.90432397676004
 97
        0
 97
        0
 75
     2
 76
     1
 98
        0
  0
SPLINE
  5
47
330
41
100
AcDbEntity
  8
_U+30EC_U+30A4_U+30E4_U+30FC 1
370
     0
100
AcDbSpline
210
0.0
220
0.0
230
1.0
 70
    11
 71
     3
 72
    29
 73
    25
 74
     0
 42
0.0000000001
 43
0.0000000001
 12
1.0
 22
0.0
 32
0.0
 13
1.0
 23
0.0
 33
0.0
 40
0.0
 40
0.0
 40
0.0
 40
0.0
 40
1.0
 40
1.0
 40
1.0
 40
2.0
 40
2.0
 40
2.0
 40
3.0
 40
3.0
 40
3.0
 40
4.0
 40
4.0
 40
4.0
 40
5.0
 40
5.0
 40
5.0
 40
6.0
 40
6.0
 40
6.0
 40
7.0
 40
7.0
 40
7.0
 40
8.0
 40
8.0
 40
8.0
 40
8.0
 10
53.33421222624978
 20
-99.72655704972114
 30
0.0
 10
53.22672524710999
 20
-99.93601885522433
 30
0.0
 10
53.05360919897618
 20
-99.9549668803932
 30
0.0
 10
52.93768173589753
 20
-99.9549668803932
 30
0.0
 10
52.77714028628488
 20
-99.9549668803932
 30
0.0
 10
52.63589137138964
 20
-99.90845809134234
 30
0.0
 10
52.54080673599675
 20
-99.72655704972114
 30
0.0
 10
52.43745387143925
 20
-99.53190915480452
 30
0.0
 10
52.41850584627038
 20
-99.29523109496786
 30
0.0
 10
52.41850584627038
 20
-99.13227807851554
 30
0.0
 10
52.41850584627038
 20
-98.9882730872321
 30
0.0
 10
52.4353868141481
 20
-98.73643660726034
 30
0.0
 10
52.54080673599675
 20
-98.53765459776142
 30
0.0
 10
52.6484659699108
 20
-98.3347384736802
 30
0.0
 10
52.80883516474918
 20
-98.31131182438051
 30
0.0
 10
52.93768173589753
 20
-98.31131182438051
 30
0.0
 10
53.0958116186705
 20
-98.31131182438051
 30
0.0
 10
53.23929984563115
 20
-98.35575355614023
 30
0.0
 10
53.33421222624978
 20
-98.53765459776142
 30
0.0
 10
53.43343097622498
 20
-98.73023543538689
 30
0.0
 10
53.45668537075041
 20
-98.95864526605895
 30
0.0
 10
53.45668537075041
 20
-99.13227807851554
 30
0.0
 10
53.45668537075041
 20
-99.30349932413246
 30
0.0
 10
53.43549803351613
 20
-99.53397621209568
 30
0.0
 10
53.33421222624978
 20
-99.72655704972114
 30
0.0
  0
SPLINE
  5
48
330
41
100
AcDbEntity
  8
_U+30EC_U+30A4_U+30E4_U+30FC 1
370
     0
100
AcDbSpline
210
0.0
220
0.0
230
1.0
 70
    11
 71
     3
 72
    17
 73
    13
 74
     0
 42
0.0000000001
 43
0.0000000001
 12
1.0
 22
0.0
 32
0.0
 13
1.0
 23
0.0
 33
0.0
 40
0.0
 40
0.0
 40
0.0
 40
0.0
 40
1.0
 40
1.0
 40
1.0
 40
2.0
 40
2.0
 40
2.0
 40
3.0
 40
3.0
 40
3.0
 40
4.0
 40
4.0
 40
4.0
 40
4.0
 10
52.93768173589753
 20
-98.50389266200598
 30
0.0
 10
52.68860133231397
 20
-98.50389266200598
 30
0.0
 10
52.64209254326309
 20
-98.78742402044203
 30
0.0
 10
52.64209254326309
 20
-99.13227807851554
 30
0.0
 10
52.64209254326309
 20
-99.45163842999821
 30
0.0
 10
52.67809379108395
 20
-99.76031898547659
 30
0.0
 10
52.93768173589753
 20
-99.76031898547659
 30
0.0
 10
53.18452282741568
 20
-99.76031898547659
 30
0.0
 10
53.23292641898344
 20
-99.4791991938802
 30
0.0
 10
53.23292641898344
 20
-99.13227807851554
 30
0.0
 10
53.23292641898344
 20
-98.81257321748436
 30
0.0
 10
53.19503036864569
 20
-98.50389266200598
 30
0.0
 10
52.93768173589753
 20
-98.50389266200598
 30
0.0
  0
HATCH
  5
49
330
41
100
AcDbEntity
  8
_U+30EC_U+30A4_U+30E4_U+30FC 1
 62
   179
420
  2234388
100
AcDbHatch
 10
0.0
 20
0.0
 30
0.0
210
0.0
220
0.0
230
1.0
  2
SOLID
 70
     1
 71
     0
 91
        2
 92
        1
 93
        1
 72
     4
 94
        3
 73
     0
 74
     1
 95
       29
 96
       25
 40
0.0
 40
0.0
 40
0.0
 40
0.0
 40
1.0
 40
1.0
 40
1.0
 40
2.0
 40
2.0
 40
2.0
 40
3.0
 40
3.0
 40
3.0
 40
4.0
 40
4.0
 40
4.0
 40
5.0
 40
5.0
 40
5.0
 40
6.0
 40
6.0
 40
6.0
 40
7.0
 40
7.0
 40
7.0
 40
8.0
 40
8.0
 40
8.0
 40
8.0
 10
53.33421222624978
 20
-99.72655704972114
 10
53.22672524710999
 20
-99.93601885522433
 10
53.05360919897618
 20
-99.9549668803932
 10
52.93768173589753
 20
-99.9549668803932
 10
52.77714028628488
 20
-99.9549668803932
 10
52.63589137138964
 20
-99.90845809134234
 10
52.54080673599675
 20
-99.72655704972114
 10
52.43745387143925
 20
-99.53190915480452
 10
52.41850584627038
 20
-99.29523109496786
 10
52.41850584627038
 20
-99.13227807851554
 10
52.41850584627038
 20
-98.9882730872321
 10
52.4353868141481
 20
-98.73643660726034
 10
52.54080673599675
 20
-98.53765459776142
 10
52.6484659699108
 20
-98.3347384736802
 10
52.80883516474918
 20
-98.31131182438051
 10
52.93768173589753
 20
-98.31131182438051
 10
53.0958116186705
 20
-98.31131182438051
 10
53.23929984563115
 20
-98.35575355614023
 10
53.33421222624978
 20
-98.53765459776142
 10
53.43343097622498
 20
-98.73023543538689
 10
53.45668537075041
 20
-98.95864526605895
 10
53.45668537075041
 20
-99.13227807851554
 10
53.45668537075041
 20
-99.30349932413246
 10
53.43549803351613
 20
-99.53397621209568
 10
53.33421222624978
 20
-99.72655704972114
 97
        0
 97
        0
 92
        1
 93
        1
 72
     4
 94
        3
 73
     0
 74
     1
 95
       17
 96
       13
 40
0.0
 40
0.0
 40
0.0
 40
0.0
 40
1.0
 40
1.0
 40
1.0
 40
2.0
 40
2.0
 40
2.0
 40
3.0
 40
3.0
 40
3.0
 40
4.0
 40
4.0
 40
4.0
 40
4.0
 10
52.93768173589753
 20
-98.50389266200598
 10
52.68860133231397
 20
-98.50389266200598
 10
52.64209254326309
 20
-98.78742402044203
 10
52.64209254326309
 20
-99.13227807851554
 10
52.64209254326309
 20
-99.45163842999821
 10
52.67809379108395
 20
-99.76031898547659
 10
52.93768173589753
 20
-99.76031898547659
 10
53.18452282741568
 20
-99.76031898547659
 10
53.23292641898344
 20
-99.4791991938802
 10
53.23292641898344
 20
-99.13227807851554
 10
53.23292641898344
 20
-98.81257321748436
 10
53.19503036864569
 20
-98.50389266200598
 10
52.93768173589753
 20
-98.50389266200598
 97
        0
 97
        0
 75
     2
 76
     1
 98
        0
  0
ENDBLK
  5
44
330
41
100
AcDbEntity
  8
0
100
AcDbBlockEnd
  0
BLOCK
  5
4C
330
4A
100
AcDbEntity
  8
0
100
AcDbBlockBegin
  2
block 3
 70
     0
 10
0.0
 20
0.0
 30
0.0
  3
block 3
  1

  0
SPLINE
  5
4E
330
4A
100
AcDbEntity
  8
_U+30EC_U+30A4_U+30E4_U+30FC 1
370
     0
100
AcDbSpline
210
0.0
220
0.0
230
1.0
 70
    11
 71
     3
 72
    62
 73
    58
 74
     0
 42
0.0000000001
 43
0.0000000001
 12
1.0
 22
0.0
 32
0.0
 13
1.0
 23
0.0
 33
0.0
 40
0.0
 40
0.0
 40
0.0
 40
0.0
 40
1.0
 40
1.0
 40
1.0
 40
2.0
 40
2.0
 40
2.0
 40
3.0
 40
3.0
 40
3.0
 40
4.0
 40
4.0
 40
4.0
 40
5.0
 40
5.0
 40
5.0
 40
6.0
 40
6.0
 40
6.0
 40
7.0
 40
7.0
 40
7.0
 40
8.0
 40
8.0
 40
8.0
 40
9.0
 40
9.0
 40
9.0
 40
10.0
 40
10.0
 40
10.0
 40
11.0
 40
11.0
 40
11.0
 40
12.0
 40
12.0
 40
12.0
 40
13.0
 40
13.0
 40
13.0
 40
14.0
 40
14.0
 40
14.0
 40
15.0
 40
15.0
 40
15.0
 40
16.0
 40
16.0
 40
16.0
 40
17.0
 40
17.0
 40
17.0
 40
18.0
 40
18.0
 40
18.0
 40
19.0
 40
19.0
 40
19.0
 40
19.0
 10
77.40268281485072
 20
-95.76883135626613
 30
0.0
 10
77.40268281485072
 20
-95.8635714821105
 30
0.0
 10
77.3816677323907
 20
-96.08095700722977
 30
0.0
 10
77.19563257618721
 20
-96.20566946379581
 30
0.0
 10
77.08332246336806
 20
-96.27939450718016
 30
0.0
 10
76.98410371339287
 20
-96.28352862176246
 30
0.0
 10
76.89935436445572
 20
-96.28766273634476
 30
0.0
 10
76.89935436445572
 20
-96.28766273634476
 30
0.0
 10
76.89935436445572
 20
-96.06855466348287
 30
0.0
 10
76.89935436445572
 20
-96.06855466348287
 30
0.0
 10
76.97342391738859
 20
-96.06614309664319
 30
0.0
 10
77.20803491993411
 20
-96.05580781018745
 30
0.0
 10
77.20803491993411
 20
-95.77296547084843
 30
0.0
 10
77.20803491993411
 20
-95.63585067053549
 30
0.0
 10
77.13844399113206
 20
-95.48392195963596
 30
0.0
 10
76.91003416046
 20
-95.48392195963596
 30
0.0
 10
76.79358993305856
 20
-95.48392195963596
 30
0.0
 10
76.74501408671652
 20
-95.52181800997371
 30
0.0
 10
76.71331920825223
 20
-95.55351288843802
 30
0.0
 10
76.63924965531936
 20
-95.62723793182236
 30
0.0
 10
76.62650280202394
 20
-95.74333764967528
 30
0.0
 10
76.62650280202394
 20
-95.79845917743928
 30
0.0
 10
76.62650280202394
 20
-95.81740720260815
 30
0.0
 10
76.62856985931508
 20
-95.85323619565474
 30
0.0
 10
76.63270397389738
 20
-95.88045244998823
 30
0.0
 10
76.63270397389738
 20
-95.88045244998823
 30
0.0
 10
76.43805607898076
 20
-95.88045244998823
 30
0.0
 10
76.43805607898076
 20
-95.88045244998823
 30
0.0
 10
76.44460176040275
 20
-95.84255639965048
 30
0.0
 10
76.44666881769389
 20
-95.80052623473043
 30
0.0
 10
76.44666881769389
 20
-95.79398055330846
 30
0.0
 10
76.44666881769389
 20
-95.7285237390887
 30
0.0
 10
76.42530922568534
 20
-95.53043074868684
 30
0.0
 10
76.18863116584868
 20
-95.53043074868684
 30
0.0
 10
76.01086423880979
 20
-95.53043074868684
 30
0.0
 10
75.95574271104579
 20
-95.66099986757781
 30
0.0
 10
75.95574271104579
 20
-95.77089841355728
 30
0.0
 10
75.95574271104579
 20
-96.03479272772742
 30
0.0
 10
76.18863116584868
 20
-96.04306095689202
 30
0.0
 10
76.26028915194188
 20
-96.04719507147432
 30
0.0
 10
76.26028915194188
 20
-96.04719507147432
 30
0.0
 10
76.26028915194188
 20
-96.249766686007
 30
0.0
 10
76.26028915194188
 20
-96.249766686007
 30
0.0
 10
76.13557669537583
 20
-96.24149845684241
 30
0.0
 10
75.75902775883803
 20
-96.21393769296041
 30
0.0
 10
75.75902775883803
 20
-95.75815156026185
 30
0.0
 10
75.75902775883803
 20
-95.53456486326914
 30
0.0
 10
75.88615178224374
 20
-95.2940971983987
 30
0.0
 10
76.18208548442671
 20
-95.2940971983987
 30
0.0
 10
76.36846515017872
 20
-95.2940971983987
 30
0.0
 10
76.45080293227619
 20
-95.38883732424307
 30
0.0
 10
76.51212563191363
 20
-95.48805607421826
 30
0.0
 10
76.53968639579564
 20
-95.42707788412935
 30
0.0
 10
76.61995712060195
 20
-95.24552135205668
 30
0.0
 10
76.89728730716458
 20
-95.24552135205668
 30
0.0
 10
77.2355956838161
 20
-95.24552135205668
 30
0.0
 10
77.40268281485072
 20
-95.49219018880056
 30
0.0
 10
77.40268281485072
 20
-95.76883135626613
 30
0.0
  0
HATCH
  5
4F
330
4A
100
AcDbEntity
  8
_U+30EC_U+30A4_U+30E4_U+30FC 1
 62
   179
420
  2234388
100
AcDbHatch
 10
0.0
 20
0.0
 30
0.0
210
0.0
220
0.0
230
1.0
  2
SOLID
 70
     1
 71
     0
 91
        1
 92
        1
 93
        1
 72
     4
 94
        3
 73
     0
 74
     1
 95
       62
 96
       58
 40
0.0
 40
0.0
 40
0.0
 40
0.0
 40
1.0
 40
1.0
 40
1.0
 40
2.0
 40
2.0
 40
2.0
 40
3.0
 40
3.0
 40
3.0
 40
4.0
 40
4.0
 40
4.0
 40
5.0
 40
5.0
 40
5.0
 40
6.0
 40
6.0
 40
6.0
 40
7.0
 40
7.0
 40
7.0
 40
8.0
 40
8.0
 40
8.0
 40
9.0
 40
9.0
 40
9.0
 40
10.0
 40
10.0
 40
10.0
 40
11.0
 40
11.0
 40
11.0
 40
12.0
 40
12.0
 40
12.0
 40
13.0
 40
13.0
 40
13.0
 40
14.0
 40
14.0
 40
14.0
 40
15.0
 40
15.0
 40
15.0
 40
16.0
 40
16.0
 40
16.0
 40
17.0
 40
17.0
 40
17.0
 40
18.0
 40
18.0
 40
18.0
 40
19.0
 40
19.0
 40
19.0
 40
19.0
 10
77.40268281485072
 20
-95.76883135626613
 10
77.40268281485072
 20
-95.8635714821105
 10
77.3816677323907
 20
-96.08095700722977
 10
77.19563257618721
 20
-96.20566946379581
 10
77.08332246336806
 20
-96.27939450718016
 10
76.98410371339287
 20
-96.28352862176246
 10
76.89935436445572
 20
-96.28766273634476
 10
76.89935436445572
 20
-96.28766273634476
 10
76.89935436445572
 20
-96.06855466348287
 10
76.89935436445572
 20
-96.06855466348287
 10
76.97342391738859
 20
-96.06614309664319
 10
77.20803491993411
 20
-96.05580781018745
 10
77.20803491993411
 20
-95.77296547084843
 10
77.20803491993411
 20
-95.63585067053549
 10
77.13844399113206
 20
-95.48392195963596
 10
76.91003416046
 20
-95.48392195963596
 10
76.79358993305856
 20
-95.48392195963596
 10
76.74501408671652
 20
-95.52181800997371
 10
76.71331920825223
 20
-95.55351288843802
 10
76.63924965531936
 20
-95.62723793182236
 10
76.62650280202394
 20
-95.74333764967528
 10
76.62650280202394
 20
-95.79845917743928
 10
76.62650280202394
 20
-95.81740720260815
 10
76.62856985931508
 20
-95.85323619565474
 10
76.63270397389738
 20
-95.88045244998823
 10
76.63270397389738
 20
-95.88045244998823
 10
76.43805607898076
 20
-95.88045244998823
 10
76.43805607898076
 20
-95.88045244998823
 10
76.44460176040275
 20
-95.84255639965048
 10
76.44666881769389
 20
-95.80052623473043
 10
76.44666881769389
 20
-95.79398055330846
 10
76.44666881769389
 20
-95.7285237390887
 10
76.42530922568534
 20
-95.53043074868684
 10
76.18863116584868
 20
-95.53043074868684
 10
76.01086423880979
 20
-95.53043074868684
 10
75.95574271104579
 20
-95.66099986757781
 10
75.95574271104579
 20
-95.77089841355728
 10
75.95574271104579
 20
-96.03479272772742
 10
76.18863116584868
 20
-96.04306095689202
 10
76.26028915194188
 20
-96.04719507147432
 10
76.26028915194188
 20
-96.04719507147432
 10
76.26028915194188
 20
-96.249766686007
 10
76.26028915194188
 20
-96.249766686007
 10
76.13557669537583
 20
-96.24149845684241
 10
75.75902775883803
 20
-96.21393769296041
 10
75.75902775883803
 20
-95.75815156026185
 10
75.75902775883803
 20
-95.53456486326914
 10
75.88615178224374
 20
-95.2940971983987
 10
76.18208548442671
 20
-95.2940971983987
 10
76.36846515017872
 20
-95.2940971983987
 10
76.45080293227619
 20
-95.38883732424307
 10
76.51212563191363
 20
-95.48805607421826
 10
76.53968639579564
 20
-95.42707788412935
 10
76.61995712060195
 20
-95.24552135205668
 10
76.89728730716458
 20
-95.24552135205668
 10
77.2355956838161
 20
-95.24552135205668
 10
77.40268281485072
 20
-95.49219018880056
 10
77.40268281485072
 20
-95.76883135626613
 97
        0
 97
        0
 75
     2
 76
     1
 98
        0
  0
POLYLINE
  5
50
330
4A
100
AcDbEntity
  8
_U+30EC_U+30A4_U+30E4_U+30FC 1
370
     0
100
AcDb2dPolyline
 66
     1
 10
0.0
 20
0.0
 30
0.0
  0
VERTEX
  5
51
330
50
100
AcDbEntity
  8
_U+30EC_U+30A4_U+30E4_U+30FC 1
370
     0
100
AcDbVertex
100
AcDb2dVertex
 10
77.35203991121755
 20
-95.02675778874331
 30
0.0
  0
VERTEX
  5
52
330
50
100
AcDbEntity
  8
_U+30EC_U+30A4_U+30E4_U+30FC 1
370
     0
100
AcDbVertex
100
AcDb2dVertex
 10
77.10020343124579
 20
-95.02675778874331
 30
0.0
  0
VERTEX
  5
53
330
50
100
AcDbEntity
  8
_U+30EC_U+30A4_U+30E4_U+30FC 1
370
     0
100
AcDbVertex
100
AcDb2dVertex
 10
77.10020343124579
 20
-94.7756103278686
 30
0.0
  0
VERTEX
  5
54
330
50
100
AcDbEntity
  8
_U+30EC_U+30A4_U+30E4_U+30FC 1
370
     0
100
AcDbVertex
100
AcDb2dVertex
 10
77.35203991121755
 20
-94.7756103278686
 30
0.0
  0
VERTEX
  5
55
330
50
100
AcDbEntity
  8
_U+30EC_U+30A4_U+30E4_U+30FC 1
370
     0
100
AcDbVertex
100
AcDb2dVertex
 10
77.35203991121755
 20
-95.02675778874331
 30
0.0
  0
SEQEND
  5
56
330
50
100
AcDbEntity
  8
_U+30EC_U+30A4_U+30E4_U+30FC 1
370
     0
  0
HATCH
  5
57
330
4A
100
AcDbEntity
  8
_U+30EC_U+30A4_U+30E4_U+30FC 1
 62
   179
420
  2234388
100
AcDbHatch
 10
0.0
 20
0.0
 30
0.0
210
0.0
220
0.0
230
1.0
  2
SOLID
 70
     1
 71
     0
 91
        1
 92
        1
 93
        4
 72
     1
 10
77.35203991121755
 20
-95.02675778874331
 11
77.10020343124579
 21
-95.02675778874331
 72
     1
 10
77.10020343124579
 20
-95.02675778874331
 11
77.10020343124579
 21
-94.7756103278686
 72
     1
 10
77.10020343124579
 20
-94.7756103278686
 11
77.35203991121755
 21
-94.7756103278686
 72
     1
 10
77.35203991121755
 20
-94.7756103278686
 11
77.35203991121755
 21
-95.02675778874331
 97
        0
 75
     2
 76
     1
 98
        0
  0
SPLINE
  5
58
330
4A
100
AcDbEntity
  8
_U+30EC_U+30A4_U+30E4_U+30FC 1
370
     0
100
AcDbSpline
210
0.0
220
0.0
230
1.0
 70
    11
 71
     3
 72
    44
 73
    40
 74
     0
 42
0.0000000001
 43
0.0000000001
 12
1.0
 22
0.0
 32
0.0
 13
1.0
 23
0.0
 33
0.0
 40
0.0
 40
0.0
 40
0.0
 40
0.0
 40
1.0
 40
1.0
 40
1.0
 40
2.0
 40
2.0
 40
2.0
 40
3.0
 40
3.0
 40
3.0
 40
4.0
 40
4.0
 40
4.0
 40
5.0
 40
5.0
 40
5.0
 40
6.0
 40
6.0
 40
6.0
 40
7.0
 40
7.0
 40
7.0
 40
8.0
 40
8.0
 40
8.0
 40
9.0
 40
9.0
 40
9.0
 40
10.0
 40
10.0
 40
10.0
 40
11.0
 40
11.0
 40
11.0
 40
12.0
 40
12.0
 40
12.0
 40
13.0
 40
13.0
 40
13.0
 40
13.0
 10
76.77016328375885
 20
-93.94913192095717
 30
0.0
 10
76.92898218562887
 20
-94.16651744607643
 30
0.0
 10
77.00305173856174
 20
-94.25919051462965
 30
0.0
 10
77.14671222029666
 20
-94.30776636097167
 30
0.0
 10
77.14671222029666
 20
-94.30776636097167
 30
0.0
 10
77.14671222029666
 20
-93.53124183859636
 30
0.0
 10
77.14671222029666
 20
-93.53124183859636
 30
0.0
 10
77.14671222029666
 20
-93.53124183859636
 30
0.0
 10
77.35203991121755
 20
-93.53124183859636
 30
0.0
 10
77.35203991121755
 20
-93.53124183859636
 30
0.0
 10
77.35203991121755
 20
-93.53124183859636
 30
0.0
 10
77.35203991121755
 20
-94.55684676455523
 30
0.0
 10
77.35203991121755
 20
-94.55684676455523
 30
0.0
 10
76.99443899984861
 20
-94.52515188609094
 30
0.0
 10
76.91623533233344
 20
-94.4596950718712
 30
0.0
 10
76.61789006331081
 20
-94.07556692526583
 30
0.0
 10
76.4191080538119
 20
-93.82028534980883
 30
0.0
 10
76.35123967275247
 20
-93.75482853558907
 30
0.0
 10
76.213780362891
 20
-93.75482853558907
 30
0.0
 10
76.09526907819841
 20
-93.75482853558907
 30
0.0
 10
75.96435544975891
 20
-93.82648652168227
 30
0.0
 10
75.96435544975891
 20
-94.02285696434151
 30
0.0
 10
75.96435544975891
 20
-94.28261716392934
 30
0.0
 10
76.19483233772213
 20
-94.29088539309394
 30
0.0
 10
76.31127656512358
 20
-94.29501950767624
 30
0.0
 10
76.31127656512358
 20
-94.29501950767624
 30
0.0
 10
76.31127656512358
 20
-94.51895071421748
 30
0.0
 10
76.31127656512358
 20
-94.51895071421748
 30
0.0
 10
76.18415254171785
 20
-94.51033797550437
 30
0.0
 10
76.07218693844723
 20
-94.49965817950009
 30
0.0
 10
75.95367565375464
 20
-94.41973196424229
 30
0.0
 10
75.79278969459347
 20
-94.30983341826283
 30
0.0
 10
75.75902775883803
 20
-94.12414277160785
 30
0.0
 10
75.75902775883803
 20
-94.00804305375493
 30
0.0
 10
75.75902775883803
 20
-93.7317463958379
 30
0.0
 10
75.94299585775036
 20
-93.52504066672292
 30
0.0
 10
76.21584742018216
 20
-93.52504066672292
 30
0.0
 10
76.44460176040275
 20
-93.52504066672292
 30
0.0
 10
76.54382051037794
 20
-93.64114038457583
 30
0.0
 10
76.77016328375885
 20
-93.94913192095717
 30
0.0
  0
HATCH
  5
59
330
4A
100
AcDbEntity
  8
_U+30EC_U+30A4_U+30E4_U+30FC 1
 62
   179
420
  2234388
100
AcDbHatch
 10
0.0
 20
0.0
 30
0.0
210
0.0
220
0.0
230
1.0
  2
SOLID
 70
     1
 71
     0
 91
        1
 92
        1
 93
        1
 72
     4
 94
        3
 73
     0
 74
     1
 95
       44
 96
       40
 40
0.0
 40
0.0
 40
0.0
 40
0.0
 40
1.0
 40
1.0
 40
1.0
 40
2.0
 40
2.0
 40
2.0
 40
3.0
 40
3.0
 40
3.0
 40
4.0
 40
4.0
 40
4.0
 40
5.0
 40
5.0
 40
5.0
 40
6.0
 40
6.0
 40
6.0
 40
7.0
 40
7.0
 40
7.0
 40
8.0
 40
8.0
 40
8.0
 40
9.0
 40
9.0
 40
9.0
 40
10.0
 40
10.0
 40
10.0
 40
11.0
 40
11.0
 40
11.0
 40
12.0
 40
12.0
 40
12.0
 40
13.0
 40
13.0
 40
13.0
 40
13.0
 10
76.77016328375885
 20
-93.94913192095717
 10
76.92898218562887
 20
-94.16651744607643
 10
77.00305173856174
 20
-94.25919051462965
 10
77.14671222029666
 20
-94.30776636097167
 10
77.14671222029666
 20
-94.30776636097167
 10
77.14671222029666
 20
-93.53124183859636
 10
77.14671222029666
 20
-93.53124183859636
 10
77.14671222029666
 20
-93.53124183859636
 10
77.35203991121755
 20
-93.53124183859636
 10
77.35203991121755
 20
-93.53124183859636
 10
77.35203991121755
 20
-93.53124183859636
 10
77.35203991121755
 20
-94.55684676455523
 10
77.35203991121755
 20
-94.55684676455523
 10
76.99443899984861
 20
-94.52515188609094
 10
76.91623533233344
 20
-94.4596950718712
 10
76.61789006331081
 20
-94.07556692526583
 10
76.4191080538119
 20
-93.82028534980883
 10
76.35123967275247
 20
-93.75482853558907
 10
76.213780362891
 20
-93.75482853558907
 10
76.09526907819841
 20
-93.75482853558907
 10
75.96435544975891
 20
-93.82648652168227
 10
75.96435544975891
 20
-94.02285696434151
 10
75.96435544975891
 20
-94.28261716392934
 10
76.19483233772213
 20
-94.29088539309394
 10
76.31127656512358
 20
-94.29501950767624
 10
76.31127656512358
 20
-94.29501950767624
 10
76.31127656512358
 20
-94.51895071421748
 10
76.31127656512358
 20
-94.51895071421748
 10
76.18415254171785
 20
-94.51033797550437
 10
76.07218693844723
 20
-94.49965817950009
 10
75.95367565375464
 20
-94.41973196424229
 10
75.79278969459347
 20
-94.30983341826283
 10
75.75902775883803
 20
-94.12414277160785
 10
75.75902775883803
 20
-94.00804305375493
 10
75.75902775883803
 20
-93.7317463958379
 10
75.94299585775036
 20
-93.52504066672292
 10
76.21584742018216
 20
-93.52504066672292
 10
76.44460176040275
 20
-93.52504066672292
 10
76.54382051037794
 20
-93.64114038457583
 10
76.77016328375885
 20
-93.94913192095717
 97
        0
 97
        0
 75
     2
 76
     1
 98
        0
  0
ENDBLK
  5
4D
330
4A
100
AcDbEntity
  8
0
100
AcDbBlockEnd
  0
BLOCK
  5
5C
330
5A
100
AcDbEntity
  8
0
100
AcDbBlockBegin
  2
block 4
 70
     0
 10
0.0
 20
0.0
 30
0.0
  3
block 4
  1

  0
SPLINE
  5
5E
330
5A
100
AcDbEntity
  8
_U+30EC_U+30A4_U+30E4_U+30FC 1
370
     0
100
AcDbSpline
210
0.0
220
0.0
230
1.0
 70
    11
 71
     3
 72
    26
 73
    22
 74
     0
 42
0.0000000001
 43
0.0000000001
 12
1.0
 22
0.0
 32
0.0
 13
1.0
 23
0.0
 33
0.0
 40
0.0
 40
0.0
 40
0.0
 40
0.0
 40
1.0
 40
1.0
 40
1.0
 40
2.0
 40
2.0
 40
2.0
 40
3.0
 40
3.0
 40
3.0
 40
4.0
 40
4.0
 40
4.0
 40
5.0
 40
5.0
 40
5.0
 40
6.0
 40
6.0
 40
6.0
 40
7.0
 40
7.0
 40
7.0
 40
7.0
 10
76.52866209024283
 20
-84.42585447108104
 30
0.0
 10
76.52866209024283
 20
-84.42585447108104
 30
0.0
 10
75.42450898722026
 20
-84.42585447108104
 30
0.0
 10
75.42450898722026
 20
-84.42585447108104
 30
0.0
 10
75.42450898722026
 20
-84.42585447108104
 30
0.0
 10
75.42450898722026
 20
-84.75520559947093
 30
0.0
 10
75.42450898722026
 20
-84.75520559947093
 30
0.0
 10
75.42450898722026
 20
-84.75520559947093
 30
0.0
 10
75.27636988135453
 20
-84.75520559947093
 30
0.0
 10
75.27636988135453
 20
-84.75520559947093
 30
0.0
 10
75.26155597076794
 20
-84.4237874137899
 30
0.0
 10
75.09860295431562
 20
-84.37727862473902
 30
0.0
 10
74.98422578420534
 20
-84.34765080356587
 30
0.0
 10
74.98422578420534
 20
-84.34765080356587
 30
0.0
 10
74.98422578420534
 20
-84.20226777408833
 30
0.0
 10
74.98422578420534
 20
-84.20226777408833
 30
0.0
 10
74.98422578420534
 20
-84.20226777408833
 30
0.0
 10
76.52866209024283
 20
-84.20226777408833
 30
0.0
 10
76.52866209024283
 20
-84.20226777408833
 30
0.0
 10
76.52866209024283
 20
-84.20226777408833
 30
0.0
 10
76.52866209024283
 20
-84.42585447108104
 30
0.0
 10
76.52866209024283
 20
-84.42585447108104
 30
0.0
  0
HATCH
  5
5F
330
5A
100
AcDbEntity
  8
_U+30EC_U+30A4_U+30E4_U+30FC 1
 62
   179
420
  2234388
100
AcDbHatch
 10
0.0
 20
0.0
 30
0.0
210
0.0
220
0.0
230
1.0
  2
SOLID
 70
     1
 71
     0
 91
        1
 92
        1
 93
        1
 72
     4
 94
        3
 73
     0
 74
     1
 95
       26
 96
       22
 40
0.0
 40
0.0
 40
0.0
 40
0.0
 40
1.0
 40
1.0
 40
1.0
 40
2.0
 40
2.0
 40
2.0
 40
3.0
 40
3.0
 40
3.0
 40
4.0
 40
4.0
 40
4.0
 40
5.0
 40
5.0
 40
5.0
 40
6.0
 40
6.0
 40
6.0
 40
7.0
 40
7.0
 40
7.0
 40
7.0
 10
76.52866209024283
 20
-84.42585447108104
 10
76.52866209024283
 20
-84.42585447108104
 10
75.42450898722026
 20
-84.42585447108104
 10
75.42450898722026
 20
-84.42585447108104
 10
75.42450898722026
 20
-84.42585447108104
 10
75.42450898722026
 20
-84.75520559947093
 10
75.42450898722026
 20
-84.75520559947093
 10
75.42450898722026
 20
-84.75520559947093
 10
75.27636988135453
 20
-84.75520559947093
 10
75.27636988135453
 20
-84.75520559947093
 10
75.26155597076794
 20
-84.4237874137899
 10
75.09860295431562
 20
-84.37727862473902
 10
74.98422578420534
 20
-84.34765080356587
 10
74.98422578420534
 20
-84.34765080356587
 10
74.98422578420534
 20
-84.20226777408833
 10
74.98422578420534
 20
-84.20226777408833
 10
74.98422578420534
 20
-84.20226777408833
 10
76.52866209024283
 20
-84.20226777408833
 10
76.52866209024283
 20
-84.20226777408833
 10
76.52866209024283
 20
-84.20226777408833
 10
76.52866209024283
 20
-84.42585447108104
 10
76.52866209024283
 20
-84.42585447108104
 97
        0
 97
        0
 75
     2
 76
     1
 98
        0
  0
ENDBLK
  5
5D
330
5A
100
AcDbEntity
  8
0
100
AcDbBlockEnd
  0
BLOCK
  5
62
330
60
100
AcDbEntity
  8
0
100
AcDbBlockBegin
  2
block 5
 70
     0
 10
0.0
 20
0.0
 30
0.0
  3
block 5
  1

  0
SPLINE
  5
64
330
60
100
AcDbEntity
  8
_U+30EC_U+30A4_U+30E4_U+30FC 1
370
     0
100
AcDbSpline
210
0.0
220
0.0
230
1.0
 70
    11
 71
     3
 72
    44
 73
    40
 74
     0
 42
0.0000000001
 43
0.0000000001
 12
1.0
 22
0.0
 32
0.0
 13
1.0
 23
0.0
 33
0.0
 40
0.0
 40
0.0
 40
0.0
 40
0.0
 40
1.0
 40
1.0
 40
1.0
 40
2.0
 40
2.0
 40
2.0
 40
3.0
 40
3.0
 40
3.0
 40
4.0
 40
4.0
 40
4.0
 40
5.0
 40
5.0
 40
5.0
 40
6.0
 40
6.0
 40
6.0
 40
7.0
 40
7.0
 40
7.0
 40
8.0
 40
8.0
 40
8.0
 40
9.0
 40
9.0
 40
9.0
 40
10.0
 40
10.0
 40
10.0
 40
11.0
 40
11.0
 40
11.0
 40
12.0
 40
12.0
 40
12.0
 40
13.0
 40
13.0
 40
13.0
 40
13.0
 10
61.35801186617092
 20
-78.62276338095195
 30
0.0
 10
61.14079859582591
 20
-78.7814100280477
 30
0.0
 10
61.04795327249843
 20
-78.85547958098057
 30
0.0
 10
60.99937742615641
 20
-78.99931231748975
 30
0.0
 10
60.99937742615641
 20
-78.99931231748975
 30
0.0
 10
61.77590194853172
 20
-78.99931231748975
 30
0.0
 10
61.77590194853172
 20
-78.99931231748975
 30
0.0
 10
61.77590194853172
 20
-78.99931231748975
 30
0.0
 10
61.77590194853172
 20
-79.2044677536364
 30
0.0
 10
61.77590194853172
 20
-79.2044677536364
 30
0.0
 10
61.77590194853172
 20
-79.2044677536364
 30
0.0
 10
60.75029702257284
 20
-79.2044677536364
 30
0.0
 10
60.75029702257284
 20
-79.2044677536364
 30
0.0
 10
60.78199190103714
 20
-78.84686684226746
 30
0.0
 10
60.84744871525689
 20
-78.76866317475228
 30
0.0
 10
61.23157686186224
 20
-78.47031790572964
 30
0.0
 10
61.48685843731926
 20
-78.27153589623073
 30
0.0
 10
61.55231525153901
 20
-78.20383976994557
 30
0.0
 10
61.55231525153901
 20
-78.0663804600841
 30
0.0
 10
61.55231525153901
 20
-77.9478691753915
 30
0.0
 10
61.48065726544581
 20
-77.81678329217775
 30
0.0
 10
61.28428682278657
 20
-77.81678329217775
 30
0.0
 10
61.02469887797299
 20
-77.81678329217775
 30
0.0
 10
61.01625839403413
 20
-78.04726018014097
 30
0.0
 10
61.01212427945183
 20
-78.16370440754241
 30
0.0
 10
61.01212427945183
 20
-78.16370440754241
 30
0.0
 10
60.78836532768486
 20
-78.16370440754241
 30
0.0
 10
60.78836532768486
 20
-78.16370440754241
 30
0.0
 10
60.79680581162372
 20
-78.03675263891095
 30
0.0
 10
60.80731335285373
 20
-77.92461478086607
 30
0.0
 10
60.88758407766005
 20
-77.80610349617348
 30
0.0
 10
60.99731036886526
 20
-77.64538979178657
 30
0.0
 10
61.18300101552023
 20
-77.61145560125686
 30
0.0
 10
61.29910073337314
 20
-77.61145560125686
 30
0.0
 10
61.57539739129018
 20
-77.61145560125686
 30
0.0
 10
61.78210312040517
 20
-77.79559595494347
 30
0.0
 10
61.78210312040517
 20
-78.06844751737525
 30
0.0
 10
61.78210312040517
 20
-78.29685734804731
 30
0.0
 10
61.66600340255225
 20
-78.39642060757103
 30
0.0
 10
61.35801186617092
 20
-78.62276338095195
 30
0.0
  0
HATCH
  5
65
330
60
100
AcDbEntity
  8
_U+30EC_U+30A4_U+30E4_U+30FC 1
 62
   179
420
  2234388
100
AcDbHatch
 10
0.0
 20
0.0
 30
0.0
210
0.0
220
0.0
230
1.0
  2
SOLID
 70
     1
 71
     0
 91
        1
 92
        1
 93
        1
 72
     4
 94
        3
 73
     0
 74
     1
 95
       44
 96
       40
 40
0.0
 40
0.0
 40
0.0
 40
0.0
 40
1.0
 40
1.0
 40
1.0
 40
2.0
 40
2.0
 40
2.0
 40
3.0
 40
3.0
 40
3.0
 40
4.0
 40
4.0
 40
4.0
 40
5.0
 40
5.0
 40
5.0
 40
6.0
 40
6.0
 40
6.0
 40
7.0
 40
7.0
 40
7.0
 40
8.0
 40
8.0
 40
8.0
 40
9.0
 40
9.0
 40
9.0
 40
10.0
 40
10.0
 40
10.0
 40
11.0
 40
11.0
 40
11.0
 40
12.0
 40
12.0
 40
12.0
 40
13.0
 40
13.0
 40
13.0
 40
13.0
 10
61.35801186617092
 20
-78.62276338095195
 10
61.14079859582591
 20
-78.7814100280477
 10
61.04795327249843
 20
-78.85547958098057
 10
60.99937742615641
 20
-78.99931231748975
 10
60.99937742615641
 20
-78.99931231748975
 10
61.77590194853172
 20
-78.99931231748975
 10
61.77590194853172
 20
-78.99931231748975
 10
61.77590194853172
 20
-78.99931231748975
 10
61.77590194853172
 20
-79.2044677536364
 10
61.77590194853172
 20
-79.2044677536364
 10
61.77590194853172
 20
-79.2044677536364
 10
60.75029702257284
 20
-79.2044677536364
 10
60.75029702257284
 20
-79.2044677536364
 10
60.78199190103714
 20
-78.84686684226746
 10
60.84744871525689
 20
-78.76866317475228
 10
61.23157686186224
 20
-78.47031790572964
 10
61.48685843731926
 20
-78.27153589623073
 10
61.55231525153901
 20
-78.20383976994557
 10
61.55231525153901
 20
-78.0663804600841
 10
61.55231525153901
 20
-77.9478691753915
 10
61.48065726544581
 20
-77.81678329217775
 10
61.28428682278657
 20
-77.81678329217775
 10
61.02469887797299
 20
-77.81678329217775
 10
61.01625839403413
 20
-78.04726018014097
 10
61.01212427945183
 20
-78.16370440754241
 10
61.01212427945183
 20
-78.16370440754241
 10
60.78836532768486
 20
-78.16370440754241
 10
60.78836532768486
 20
-78.16370440754241
 10
60.79680581162372
 20
-78.03675263891095
 10
60.80731335285373
 20
-77.92461478086607
 10
60.88758407766005
 20
-77.80610349617348
 10
60.99731036886526
 20
-77.64538979178657
 10
61.18300101552023
 20
-77.61145560125686
 10
61.29910073337314
 20
-77.61145560125686
 10
61.57539739129018
 20
-77.61145560125686
 10
61.78210312040517
 20
-77.79559595494347
 10
61.78210312040517
 20
-78.06844751737525
 10
61.78210312040517
 20
-78.29685734804731
 10
61.66600340255225
 20
-78.39642060757103
 10
61.35801186617092
 20
-78.62276338095195
 97
        0
 97
        0
 75
     2
 76
     1
 98
        0
  0
SPLINE
  5
66
330
60
100
AcDbEntity
  8
_U+30EC_U+30A4_U+30E4_U+30FC 1
370
     0
100
AcDbSpline
210
0.0
220
0.0
230
1.0
 70
    11
 71
     3
 72
    53
 73
    49
 74
     0
 42
0.0000000001
 43
0.0000000001
 12
1.0
 22
0.0
 32
0.0
 13
1.0
 23
0.0
 33
0.0
 40
0.0
 40
0.0
 40
0.0
 40
0.0
 40
1.0
 40
1.0
 40
1.0
 40
2.0
 40
2.0
 40
2.0
 40
3.0
 40
3.0
 40
3.0
 40
4.0
 40
4.0
 40
4.0
 40
5.0
 40
5.0
 40
5.0
 40
6.0
 40
6.0
 40
6.0
 40
7.0
 40
7.0
 40
7.0
 40
8.0
 40
8.0
 40
8.0
 40
9.0
 40
9.0
 40
9.0
 40
10.0
 40
10.0
 40
10.0
 40
11.0
 40
11.0
 40
11.0
 40
12.0
 40
12.0
 40
12.0
 40
13.0
 40
13.0
 40
13.0
 40
14.0
 40
14.0
 40
14.0
 40
15.0
 40
15.0
 40
15.0
 40
16.0
 40
16.0
 40
16.0
 40
16.0
 10
62.41875676607934
 20
-79.25528291204382
 30
0.0
 10
62.34055309856417
 20
-79.25528291204382
 30
0.0
 10
62.23926729129783
 20
-79.23822968939183
 30
0.0
 10
62.13798148403148
 20
-79.17483993246324
 30
0.0
 10
61.96503769067193
 20
-79.06476913170951
 30
0.0
 10
61.94367809866339
 20
-78.93368324849575
 30
0.0
 10
61.92473007349452
 20
-78.82585175980743
 30
0.0
 10
61.92473007349452
 20
-78.82585175980743
 30
0.0
 10
62.14624971319608
 20
-78.82585175980743
 30
0.0
 10
62.14624971319608
 20
-78.82585175980743
 30
0.0
 10
62.20137124096008
 20
-79.02463376930635
 30
0.0
 10
62.32780624526875
 20
-79.0542615904795
 30
0.0
 10
62.42082382337049
 20
-79.0542615904795
 30
0.0
 10
62.56000568097458
 20
-79.0542615904795
 30
0.0
 10
62.7119343918741
 20
-78.95487058573003
 30
0.0
 10
62.7119343918741
 20
-78.72215438570142
 30
0.0
 10
62.7119343918741
 20
-78.46618379114734
 30
0.0
 10
62.53244491709258
 20
-78.39642060757103
 30
0.0
 10
62.41221108465736
 20
-78.39642060757103
 30
0.0
 10
62.38051620619307
 20
-78.39642060757103
 30
0.0
 10
62.23926729129783
 20
-78.39642060757103
 30
0.0
 10
62.1507283373269
 20
-78.52543943349364
 30
0.0
 10
62.1507283373269
 20
-78.52543943349364
 30
0.0
 10
61.97537297712769
 20
-78.5063191535505
 30
0.0
 10
61.97537297712769
 20
-78.5063191535505
 30
0.0
 10
61.97537297712769
 20
-78.5063191535505
 30
0.0
 10
62.09595131911143
 20
-77.66020370237315
 30
0.0
 10
62.09595131911143
 20
-77.66020370237315
 30
0.0
 10
62.09595131911143
 20
-77.66020370237315
 30
0.0
 10
62.87247584148675
 20
-77.66020370237315
 30
0.0
 10
62.87247584148675
 20
-77.66020370237315
 30
0.0
 10
62.87247584148675
 20
-77.66020370237315
 30
0.0
 10
62.87247584148675
 20
-77.85485159728977
 30
0.0
 10
62.87247584148675
 20
-77.85485159728977
 30
0.0
 10
62.87247584148675
 20
-77.85485159728977
 30
0.0
 10
62.2582153164667
 20
-77.85485159728977
 30
0.0
 10
62.2582153164667
 20
-77.85485159728977
 30
0.0
 10
62.2582153164667
 20
-77.85485159728977
 30
0.0
 10
62.19275850224695
 20
-78.27790932287844
 30
0.0
 10
62.19275850224695
 20
-78.27790932287844
 30
0.0
 10
62.2540812018844
 20
-78.24397513234874
 30
0.0
 10
62.33641898398187
 20
-78.20383976994557
 30
0.0
 10
62.45458575912594
 20
-78.20383976994557
 30
0.0
 10
62.7078002772918
 20
-78.20383976994557
 30
0.0
 10
62.94413382757994
 20
-78.39004718092332
 30
0.0
 10
62.94413382757994
 20
-78.70303410575828
 30
0.0
 10
62.94413382757994
 20
-79.02049965472405
 30
0.0
 10
62.7202026210387
 20
-79.25528291204382
 30
0.0
 10
62.41875676607934
 20
-79.25528291204382
 30
0.0
  0
HATCH
  5
67
330
60
100
AcDbEntity
  8
_U+30EC_U+30A4_U+30E4_U+30FC 1
 62
   179
420
  2234388
100
AcDbHatch
 10
0.0
 20
0.0
 30
0.0
210
0.0
220
0.0
230
1.0
  2
SOLID
 70
     1
 71
     0
 91
        1
 92
        1
 93
        1
 72
     4
 94
        3
 73
     0
 74
     1
 95
       53
 96
       49
 40
0.0
 40
0.0
 40
0.0
 40
0.0
 40
1.0
 40
1.0
 40
1.0
 40
2.0
 40
2.0
 40
2.0
 40
3.0
 40
3.0
 40
3.0
 40
4.0
 40
4.0
 40
4.0
 40
5.0
 40
5.0
 40
5.0
 40
6.0
 40
6.0
 40
6.0
 40
7.0
 40
7.0
 40
7.0
 40
8.0
 40
8.0
 40
8.0
 40
9.0
 40
9.0
 40
9.0
 40
10.0
 40
10.0
 40
10.0
 40
11.0
 40
11.0
 40
11.0
 40
12.0
 40
12.0
 40
12.0
 40
13.0
 40
13.0
 40
13.0
 40
14.0
 40
14.0
 40
14.0
 40
15.0
 40
15.0
 40
15.0
 40
16.0
 40
16.0
 40
16.0
 40
16.0
 10
62.41875676607934
 20
-79.25528291204382
 10
62.34055309856417
 20
-79.25528291204382
 10
62.23926729129783
 20
-79.23822968939183
 10
62.13798148403148
 20
-79.17483993246324
 10
61.96503769067193
 20
-79.06476913170951
 10
61.94367809866339
 20
-78.93368324849575
 10
61.92473007349452
 20
-78.82585175980743
 10
61.92473007349452
 20
-78.82585175980743
 10
62.14624971319608
 20
-78.82585175980743
 10
62.14624971319608
 20
-78.82585175980743
 10
62.20137124096008
 20
-79.02463376930635
 10
62.32780624526875
 20
-79.0542615904795
 10
62.42082382337049
 20
-79.0542615904795
 10
62.56000568097458
 20
-79.0542615904795
 10
62.7119343918741
 20
-78.95487058573003
 10
62.7119343918741
 20
-78.72215438570142
 10
62.7119343918741
 20
-78.46618379114734
 10
62.53244491709258
 20
-78.39642060757103
 10
62.41221108465736
 20
-78.39642060757103
 10
62.38051620619307
 20
-78.39642060757103
 10
62.23926729129783
 20
-78.39642060757103
 10
62.1507283373269
 20
-78.52543943349364
 10
62.1507283373269
 20
-78.52543943349364
 10
61.97537297712769
 20
-78.5063191535505
 10
61.97537297712769
 20
-78.5063191535505
 10
61.97537297712769
 20
-78.5063191535505
 10
62.09595131911143
 20
-77.66020370237315
 10
62.09595131911143
 20
-77.66020370237315
 10
62.09595131911143
 20
-77.66020370237315
 10
62.87247584148675
 20
-77.66020370237315
 10
62.87247584148675
 20
-77.66020370237315
 10
62.87247584148675
 20
-77.66020370237315
 10
62.87247584148675
 20
-77.85485159728977
 10
62.87247584148675
 20
-77.85485159728977
 10
62.87247584148675
 20
-77.85485159728977
 10
62.2582153164667
 20
-77.85485159728977
 10
62.2582153164667
 20
-77.85485159728977
 10
62.2582153164667
 20
-77.85485159728977
 10
62.19275850224695
 20
-78.27790932287844
 10
62.19275850224695
 20
-78.27790932287844
 10
62.2540812018844
 20
-78.24397513234874
 10
62.33641898398187
 20
-78.20383976994557
 10
62.45458575912594
 20
-78.20383976994557
 10
62.7078002772918
 20
-78.20383976994557
 10
62.94413382757994
 20
-78.39004718092332
 10
62.94413382757994
 20
-78.70303410575828
 10
62.94413382757994
 20
-79.02049965472405
 10
62.7202026210387
 20
-79.25528291204382
 10
62.41875676607934
 20
-79.25528291204382
 97
        0
 97
        0
 75
     2
 76
     1
 98
        0
  0
ENDBLK
  5
63
330
60
100
AcDbEntity
  8
0
100
AcDbBlockEnd
  0
BLOCK
  5
E2
330
E0
100
AcDbEntity
  8
0
100
AcDbBlockBegin
  2
block 6
 70
     0
 10
0.0
 20
0.0
 30
0.0
  3
block 6
  1

  0
SPLINE
  5
E4
330
E0
100
AcDbEntity
  8
_U+30EC_U+30A4_U+30E4_U+30FC 1
370
     0
100
AcDbSpline
210
0.0
220
0.0
230
1.0
 70
    11
 71
     3
 72
    29
 73
    25
 74
     0
 42
0.0000000001
 43
0.0000000001
 12
1.0
 22
0.0
 32
0.0
 13
1.0
 23
0.0
 33
0.0
 40
0.0
 40
0.0
 40
0.0
 40
0.0
 40
1.0
 40
1.0
 40
1.0
 40
2.0
 40
2.0
 40
2.0
 40
3.0
 40
3.0
 40
3.0
 40
4.0
 40
4.0
 40
4.0
 40
5.0
 40
5.0
 40
5.0
 40
6.0
 40
6.0
 40
6.0
 40
7.0
 40
7.0
 40
7.0
 40
8.0
 40
8.0
 40
8.0
 40
8.0
 10
77.537386048324
 20
-89.95867782039228
 30
0.0
 10
77.537386048324
 20
-90.22463919185357
 30
0.0
 10
77.39992673846253
 20
-90.47785371001943
 30
0.0
 10
77.05093856580672
 20
-90.47785371001943
 30
0.0
 10
76.79496797125265
 20
-90.47785371001943
 30
0.0
 10
76.69988333585975
 20
-90.33660479512419
 30
0.0
 10
76.63856063622231
 20
-90.23084036372701
 30
0.0
 10
76.57930499387601
 20
-90.35555282029306
 30
0.0
 10
76.46492782376572
 20
-90.43134492096856
 30
0.0
 10
76.30404186460454
 20
-90.43134492096856
 30
0.0
 10
76.02912324488162
 20
-90.43134492096856
 30
0.0
 10
75.89373099231129
 20
-90.2332519305667
 30
0.0
 10
75.89373099231129
 20
-89.95867782039228
 30
0.0
 10
75.89373099231129
 20
-89.67583548105327
 30
0.0
 10
76.03773598359474
 20
-89.48601071981601
 30
0.0
 10
76.30404186460454
 20
-89.48601071981601
 30
0.0
 10
76.46492782376572
 20
-89.48601071981601
 30
0.0
 10
76.57930499387601
 20
-89.56421438733118
 30
0.0
 10
76.63856063622231
 20
-89.6885823343487
 30
0.0
 10
76.68920353985548
 20
-89.60004338037777
 30
0.0
 10
76.78428817524838
 20
-89.4419134976048
 30
0.0
 10
77.04680445122442
 20
-89.4419134976048
 30
0.0
 10
77.42128633047108
 20
-89.4419134976048
 30
0.0
 10
77.537386048324
 20
-89.72027721281299
 30
0.0
 10
77.537386048324
 20
-89.95867782039228
 30
0.0
  0
SPLINE
  5
E5
330
E0
100
AcDbEntity
  8
_U+30EC_U+30A4_U+30E4_U+30FC 1
370
     0
100
AcDbSpline
210
0.0
220
0.0
230
1.0
 70
    11
 71
     3
 72
    17
 73
    13
 74
     0
 42
0.0000000001
 43
0.0000000001
 12
1.0
 22
0.0
 32
0.0
 13
1.0
 23
0.0
 33
0.0
 40
0.0
 40
0.0
 40
0.0
 40
0.0
 40
1.0
 40
1.0
 40
1.0
 40
2.0
 40
2.0
 40
2.0
 40
3.0
 40
3.0
 40
3.0
 40
4.0
 40
4.0
 40
4.0
 40
4.0
 10
76.08631182993676
 20
-89.95867782039228
 30
0.0
 10
76.08631182993676
 20
-90.12335338458722
 30
0.0
 10
76.18139646532966
 20
-90.20775822397584
 30
0.0
 10
76.31678871789997
 20
-90.20775822397584
 30
0.0
 10
76.43943411717487
 20
-90.20775822397584
 30
0.0
 10
76.55794540186746
 20
-90.13610023788264
 30
0.0
 10
76.55794540186746
 20
-89.95867782039228
 30
0.0
 10
76.55794540186746
 20
-89.78159991245043
 30
0.0
 10
76.43943411717487
 20
-89.70959741680872
 30
0.0
 10
76.31678871789997
 20
-89.70959741680872
 30
0.0
 10
76.18139646532966
 20
-89.70959741680872
 30
0.0
 10
76.08631182993676
 20
-89.79641382303701
 30
0.0
 10
76.08631182993676
 20
-89.95867782039228
 30
0.0
  0
SPLINE
  5
E6
330
E0
100
AcDbEntity
  8
_U+30EC_U+30A4_U+30E4_U+30FC 1
370
     0
100
AcDbSpline
210
0.0
220
0.0
230
1.0
 70
    11
 71
     3
 72
    17
 73
    13
 74
     0
 42
0.0000000001
 43
0.0000000001
 12
1.0
 22
0.0
 32
0.0
 13
1.0
 23
0.0
 33
0.0
 40
0.0
 40
0.0
 40
0.0
 40
0.0
 40
1.0
 40
1.0
 40
1.0
 40
2.0
 40
2.0
 40
2.0
 40
3.0
 40
3.0
 40
3.0
 40
4.0
 40
4.0
 40
4.0
 40
4.0
 10
76.74639212491063
 20
-89.95867782039228
 30
0.0
 10
76.74639212491063
 20
-90.1023383021272
 30
0.0
 10
76.83320853113892
 20
-90.25426701302672
 30
0.0
 10
77.03612465522014
 20
-90.25426701302672
 30
0.0
 10
77.24145234614103
 20
-90.25426701302672
 30
0.0
 10
77.34273815340737
 20
-90.12748749916952
 30
0.0
 10
77.34273815340737
 20
-89.95867782039228
 30
0.0
 10
77.34273815340737
 20
-89.7729871737373
 30
0.0
 10
77.22009275413248
 20
-89.66343313730637
 30
0.0
 10
77.04232582709359
 20
-89.66343313730637
 30
0.0
 10
76.8204616778435
 20
-89.66343313730637
 30
0.0
 10
76.74639212491063
 20
-89.82569713466164
 30
0.0
 10
76.74639212491063
 20
-89.95867782039228
 30
0.0
  0
HATCH
  5
E7
330
E0
100
AcDbEntity
  8
_U+30EC_U+30A4_U+30E4_U+30FC 1
 62
   179
420
  2234388
100
AcDbHatch
 10
0.0
 20
0.0
 30
0.0
210
0.0
220
0.0
230
1.0
  2
SOLID
 70
     1
 71
     0
 91
        3
 92
        1
 93
        1
 72
     4
 94
        3
 73
     0
 74
     1
 95
       29
 96
       25
 40
0.0
 40
0.0
 40
0.0
 40
0.0
 40
1.0
 40
1.0
 40
1.0
 40
2.0
 40
2.0
 40
2.0
 40
3.0
 40
3.0
 40
3.0
 40
4.0
 40
4.0
 40
4.0
 40
5.0
 40
5.0
 40
5.0
 40
6.0
 40
6.0
 40
6.0
 40
7.0
 40
7.0
 40
7.0
 40
8.0
 40
8.0
 40
8.0
 40
8.0
 10
77.537386048324
 20
-89.95867782039228
 10
77.537386048324
 20
-90.22463919185357
 10
77.39992673846253
 20
-90.47785371001943
 10
77.05093856580672
 20
-90.47785371001943
 10
76.79496797125265
 20
-90.47785371001943
 10
76.69988333585975
 20
-90.33660479512419
 10
76.63856063622231
 20
-90.23084036372701
 10
76.57930499387601
 20
-90.35555282029306
 10
76.46492782376572
 20
-90.43134492096856
 10
76.30404186460454
 20
-90.43134492096856
 10
76.02912324488162
 20
-90.43134492096856
 10
75.89373099231129
 20
-90.2332519305667
 10
75.89373099231129
 20
-89.95867782039228
 10
75.89373099231129
 20
-89.67583548105327
 10
76.03773598359474
 20
-89.48601071981601
 10
76.30404186460454
 20
-89.48601071981601
 10
76.46492782376572
 20
-89.48601071981601
 10
76.57930499387601
 20
-89.56421438733118
 10
76.63856063622231
 20
-89.6885823343487
 10
76.68920353985548
 20
-89.60004338037777
 10
76.78428817524838
 20
-89.4419134976048
 10
77.04680445122442
 20
-89.4419134976048
 10
77.42128633047108
 20
-89.4419134976048
 10
77.537386048324
 20
-89.72027721281299
 10
77.537386048324
 20
-89.95867782039228
 97
        0
 97
        0
 92
        1
 93
        1
 72
     4
 94
        3
 73
     0
 74
     1
 95
       17
 96
       13
 40
0.0
 40
0.0
 40
0.0
 40
0.0
 40
1.0
 40
1.0
 40
1.0
 40
2.0
 40
2.0
 40
2.0
 40
3.0
 40
3.0
 40
3.0
 40
4.0
 40
4.0
 40
4.0
 40
4.0
 10
76.08631182993676
 20
-89.95867782039228
 10
76.08631182993676
 20
-90.12335338458722
 10
76.18139646532966
 20
-90.20775822397584
 10
76.31678871789997
 20
-90.20775822397584
 10
76.43943411717487
 20
-90.20775822397584
 10
76.55794540186746
 20
-90.13610023788264
 10
76.55794540186746
 20
-89.95867782039228
 10
76.55794540186746
 20
-89.78159991245043
 10
76.43943411717487
 20
-89.70959741680872
 10
76.31678871789997
 20
-89.70959741680872
 10
76.18139646532966
 20
-89.70959741680872
 10
76.08631182993676
 20
-89.79641382303701
 10
76.08631182993676
 20
-89.95867782039228
 97
        0
 97
        0
 92
        1
 93
        1
 72
     4
 94
        3
 73
     0
 74
     1
 95
       17
 96
       13
 40
0.0
 40
0.0
 40
0.0
 40
0.0
 40
1.0
 40
1.0
 40
1.0
 40
2.0
 40
2.0
 40
2.0
 40
3.0
 40
3.0
 40
3.0
 40
4.0
 40
4.0
 40
4.0
 40
4.0
 10
76.74639212491063
 20
-89.95867782039228
 10
76.74639212491063
 20
-90.1023383021272
 10
76.83320853113892
 20
-90.25426701302672
 10
77.03612465522014
 20
-90.25426701302672
 10
77.24145234614103
 20
-90.25426701302672
 10
77.34273815340737
 20
-90.12748749916952
 10
77.34273815340737
 20
-89.95867782039228
 10
77.34273815340737
 20
-89.7729871737373
 10
77.22009275413248
 20
-89.66343313730637
 10
77.04232582709359
 20
-89.66343313730637
 10
76.8204616778435
 20
-89.66343313730637
 10
76.74639212491063
 20
-89.82569713466164
 10
76.74639212491063
 20
-89.95867782039228
 97
        0
 97
        0
 75
     2
 76
     1
 98
        0
  0
POLYLINE
  5
E8
330
E0
100
AcDbEntity
  8
_U+30EC_U+30A4_U+30E4_U+30FC 1
370
     0
100
AcDb2dPolyline
 66
     1
 10
0.0
 20
0.0
 30
0.0
  0
VERTEX
  5
E9
330
E8
100
AcDbEntity
  8
_U+30EC_U+30A4_U+30E4_U+30FC 1
370
     0
100
AcDbVertex
100
AcDb2dVertex
 10
77.48674314469082
 20
-89.22521699158258
 30
0.0
  0
VERTEX
  5
EA
330
E8
100
AcDbEntity
  8
_U+30EC_U+30A4_U+30E4_U+30FC 1
370
     0
100
AcDbVertex
100
AcDb2dVertex
 10
77.23490666471905
 20
-89.22521699158258
 30
0.0
  0
VERTEX
  5
EB
330
E8
100
AcDbEntity
  8
_U+30EC_U+30A4_U+30E4_U+30FC 1
370
     0
100
AcDbVertex
100
AcDb2dVertex
 10
77.23490666471905
 20
-88.97406953070788
 30
0.0
  0
VERTEX
  5
EC
330
E8
100
AcDbEntity
  8
_U+30EC_U+30A4_U+30E4_U+30FC 1
370
     0
100
AcDbVertex
100
AcDb2dVertex
 10
77.48674314469082
 20
-88.97406953070788
 30
0.0
  0
VERTEX
  5
ED
330
E8
100
AcDbEntity
  8
_U+30EC_U+30A4_U+30E4_U+30FC 1
370
     0
100
AcDbVertex
100
AcDb2dVertex
 10
77.48674314469082
 20
-89.22521699158258
 30
0.0
  0
SEQEND
  5
EE
330
E8
100
AcDbEntity
  8
_U+30EC_U+30A4_U+30E4_U+30FC 1
370
     0
  0
HATCH
  5
EF
330
E0
100
AcDbEntity
  8
_U+30EC_U+30A4_U+30E4_U+30FC 1
 62
   179
420
  2234388
100
AcDbHatch
 10
0.0
 20
0.0
 30
0.0
210
0.0
220
0.0
230
1.0
  2
SOLID
 70
     1
 71
     0
 91
        1
 92
        1
 93
        4
 72
     1
 10
77.48674314469082
 20
-89.22521699158258
 11
77.23490666471905
 21
-89.22521699158258
 72
     1
 10
77.23490666471905
 20
-89.22521699158258
 11
77.23490666471905
 21
-88.97406953070788
 72
     1
 10
77.23490666471905
 20
-88.97406953070788
 11
77.48674314469082
 21
-88.97406953070788
 72
     1
 10
77.48674314469082
 20
-88.97406953070788
 11
77.48674314469082
 21
-89.22521699158258
 97
        0
 75
     2
 76
     1
 98
        0
  0
SPLINE
  5
F0
330
E0
100
AcDbEntity
  8
_U+30EC_U+30A4_U+30E4_U+30FC 1
370
     0
100
AcDbSpline
210
0.0
220
0.0
230
1.0
 70
    11
 71
     3
 72
    53
 73
    49
 74
     0
 42
0.0000000001
 43
0.0000000001
 12
1.0
 22
0.0
 32
0.0
 13
1.0
 23
0.0
 33
0.0
 40
0.0
 40
0.0
 40
0.0
 40
0.0
 40
1.0
 40
1.0
 40
1.0
 40
2.0
 40
2.0
 40
2.0
 40
3.0
 40
3.0
 40
3.0
 40
4.0
 40
4.0
 40
4.0
 40
5.0
 40
5.0
 40
5.0
 40
6.0
 40
6.0
 40
6.0
 40
7.0
 40
7.0
 40
7.0
 40
8.0
 40
8.0
 40
8.0
 40
9.0
 40
9.0
 40
9.0
 40
10.0
 40
10.0
 40
10.0
 40
11.0
 40
11.0
 40
11.0
 40
12.0
 40
12.0
 40
12.0
 40
13.0
 40
13.0
 40
13.0
 40
14.0
 40
14.0
 40
14.0
 40
15.0
 40
15.0
 40
15.0
 40
16.0
 40
16.0
 40
16.0
 40
16.0
 10
77.537386048324
 20
-88.25921221751854
 30
0.0
 10
77.537386048324
 20
-88.3374158850337
 30
0.0
 10
77.52050508044627
 20
-88.43870169230006
 30
0.0
 10
77.45711532351767
 20
-88.5399874995664
 30
0.0
 10
77.3472167775382
 20
-88.71293129292594
 30
0.0
 10
77.21595863955018
 20
-88.73394637538597
 30
0.0
 10
77.10812715086186
 20
-88.75323891010336
 30
0.0
 10
77.10812715086186
 20
-88.75323891010336
 30
0.0
 10
77.10812715086186
 20
-88.53137476085327
 30
0.0
 10
77.10812715086186
 20
-88.53137476085327
 30
0.0
 10
77.30690916036077
 20
-88.4765977426378
 30
0.0
 10
77.33653698153392
 20
-88.35016273832913
 30
0.0
 10
77.33653698153392
 20
-88.25714516022738
 30
0.0
 10
77.33653698153392
 20
-88.1179633026233
 30
0.0
 10
77.2369737220102
 20
-87.96603459172377
 30
0.0
 10
77.00442977675584
 20
-87.96603459172377
 30
0.0
 10
76.74845918220177
 20
-87.96603459172377
 30
0.0
 10
76.6785237438512
 20
-88.14552406650529
 30
0.0
 10
76.6785237438512
 20
-88.2657578989405
 30
0.0
 10
76.6785237438512
 20
-88.29745277740481
 30
0.0
 10
76.6785237438512
 20
-88.43870169230006
 30
0.0
 10
76.80771482454807
 20
-88.52724064627097
 30
0.0
 10
76.80771482454807
 20
-88.52724064627097
 30
0.0
 10
76.7887667993792
 20
-88.70259600647019
 30
0.0
 10
76.7887667993792
 20
-88.70259600647019
 30
0.0
 10
76.7887667993792
 20
-88.70259600647019
 30
0.0
 10
75.94230683865331
 20
-88.58236217403497
 30
0.0
 10
75.94230683865331
 20
-88.58236217403497
 30
0.0
 10
75.94230683865331
 20
-88.58236217403497
 30
0.0
 10
75.94230683865331
 20
-87.80583765165966
 30
0.0
 10
75.94230683865331
 20
-87.80583765165966
 30
0.0
 10
75.94230683865331
 20
-87.80583765165966
 30
0.0
 10
76.13695473356994
 20
-87.80583765165966
 30
0.0
 10
76.13695473356994
 20
-87.80583765165966
 30
0.0
 10
76.13695473356994
 20
-87.80583765165966
 30
0.0
 10
76.13695473356994
 20
-88.41975366713118
 30
0.0
 10
76.13695473356994
 20
-88.41975366713118
 30
0.0
 10
76.13695473356994
 20
-88.41975366713118
 30
0.0
 10
76.56001245915861
 20
-88.48521048135092
 30
0.0
 10
76.56001245915861
 20
-88.48521048135092
 30
0.0
 10
76.52625052340316
 20
-88.42388778171347
 30
0.0
 10
76.48594290622574
 20
-88.341549999616
 30
0.0
 10
76.48594290622574
 20
-88.22338322447193
 30
0.0
 10
76.48594290622574
 20
-87.97016870630607
 30
0.0
 10
76.67232257197776
 20
-87.73383515601793
 30
0.0
 10
76.98548175158696
 20
-87.73383515601793
 30
0.0
 10
77.30277504577847
 20
-87.73383515601793
 30
0.0
 10
77.537386048324
 20
-87.95742185301064
 30
0.0
 10
77.537386048324
 20
-88.25921221751854
 30
0.0
  0
HATCH
  5
F1
330
E0
100
AcDbEntity
  8
_U+30EC_U+30A4_U+30E4_U+30FC 1
 62
   179
420
  2234388
100
AcDbHatch
 10
0.0
 20
0.0
 30
0.0
210
0.0
220
0.0
230
1.0
  2
SOLID
 70
     1
 71
     0
 91
        1
 92
        1
 93
        1
 72
     4
 94
        3
 73
     0
 74
     1
 95
       53
 96
       49
 40
0.0
 40
0.0
 40
0.0
 40
0.0
 40
1.0
 40
1.0
 40
1.0
 40
2.0
 40
2.0
 40
2.0
 40
3.0
 40
3.0
 40
3.0
 40
4.0
 40
4.0
 40
4.0
 40
5.0
 40
5.0
 40
5.0
 40
6.0
 40
6.0
 40
6.0
 40
7.0
 40
7.0
 40
7.0
 40
8.0
 40
8.0
 40
8.0
 40
9.0
 40
9.0
 40
9.0
 40
10.0
 40
10.0
 40
10.0
 40
11.0
 40
11.0
 40
11.0
 40
12.0
 40
12.0
 40
12.0
 40
13.0
 40
13.0
 40
13.0
 40
14.0
 40
14.0
 40
14.0
 40
15.0
 40
15.0
 40
15.0
 40
16.0
 40
16.0
 40
16.0
 40
16.0
 10
77.537386048324
 20
-88.25921221751854
 10
77.537386048324
 20
-88.3374158850337
 10
77.52050508044627
 20
-88.43870169230006
 10
77.45711532351767
 20
-88.5399874995664
 10
77.3472167775382
 20
-88.71293129292594
 10
77.21595863955018
 20
-88.73394637538597
 10
77.10812715086186
 20
-88.75323891010336
 10
77.10812715086186
 20
-88.75323891010336
 10
77.10812715086186
 20
-88.53137476085327
 10
77.10812715086186
 20
-88.53137476085327
 10
77.30690916036077
 20
-88.4765977426378
 10
77.33653698153392
 20
-88.35016273832913
 10
77.33653698153392
 20
-88.25714516022738
 10
77.33653698153392
 20
-88.1179633026233
 10
77.2369737220102
 20
-87.96603459172377
 10
77.00442977675584
 20
-87.96603459172377
 10
76.74845918220177
 20
-87.96603459172377
 10
76.6785237438512
 20
-88.14552406650529
 10
76.6785237438512
 20
-88.2657578989405
 10
76.6785237438512
 20
-88.29745277740481
 10
76.6785237438512
 20
-88.43870169230006
 10
76.80771482454807
 20
-88.52724064627097
 10
76.80771482454807
 20
-88.52724064627097
 10
76.7887667993792
 20
-88.70259600647019
 10
76.7887667993792
 20
-88.70259600647019
 10
76.7887667993792
 20
-88.70259600647019
 10
75.94230683865331
 20
-88.58236217403497
 10
75.94230683865331
 20
-88.58236217403497
 10
75.94230683865331
 20
-88.58236217403497
 10
75.94230683865331
 20
-87.80583765165966
 10
75.94230683865331
 20
-87.80583765165966
 10
75.94230683865331
 20
-87.80583765165966
 10
76.13695473356994
 20
-87.80583765165966
 10
76.13695473356994
 20
-87.80583765165966
 10
76.13695473356994
 20
-87.80583765165966
 10
76.13695473356994
 20
-88.41975366713118
 10
76.13695473356994
 20
-88.41975366713118
 10
76.13695473356994
 20
-88.41975366713118
 10
76.56001245915861
 20
-88.48521048135092
 10
76.56001245915861
 20
-88.48521048135092
 10
76.52625052340316
 20
-88.42388778171347
 10
76.48594290622574
 20
-88.341549999616
 10
76.48594290622574
 20
-88.22338322447193
 10
76.48594290622574
 20
-87.97016870630607
 10
76.67232257197776
 20
-87.73383515601793
 10
76.98548175158696
 20
-87.73383515601793
 10
77.30277504577847
 20
-87.73383515601793
 10
77.537386048324
 20
-87.95742185301064
 10
77.537386048324
 20
-88.25921221751854
 97
        0
 97
        0
 75
     2
 76
     1
 98
        0
  0
ENDBLK
  5
E3
330
E0
100
AcDbEntity
  8
0
100
AcDbBlockEnd
  0
ENDSEC
  0
SECTION
  2
ENTITIES
  0
INSERT
  5
42
330
1F
100
AcDbEntity
  8
_U+30EC_U+30A4_U+30E4_U+30FC 1
100
AcDbBlockReference
  2
block 2
 10
0.0
 20
0.0
 30
0.0
  0
INSERT
  5
4B
330
1F
100
AcDbEntity
  8
_U+30EC_U+30A4_U+30E4_U+30FC 1
100
AcDbBlockReference
  2
block 3
 10
0.0
 20
0.0
 30
0.0
  0
INSERT
  5
5B
330
1F
100
AcDbEntity
  8
_U+30EC_U+30A4_U+30E4_U+30FC 1
100
AcDbBlockReference
  2
block 4
 10
0.0
 20
0.0
 30
0.0
  0
INSERT
  5
61
330
1F
100
AcDbEntity
  8
_U+30EC_U+30A4_U+30E4_U+30FC 1
100
AcDbBlockReference
  2
block 5
 10
0.0
 20
0.0
 30
0.0
  0
POLYLINE
  5
68
330
1F
100
AcDbEntity
  8
_U+30EC_U+30A4_U+30E4_U+30FC 1
 62
   179
420
  2234388
370
    25
100
AcDb2dPolyline
 66
     1
 10
0.0
 20
0.0
 30
0.0
  0
VERTEX
  5
69
330
68
100
AcDbEntity
  8
_U+30EC_U+30A4_U+30E4_U+30FC 1
 62
   179
420
  2234388
370
    25
100
AcDbVertex
100
AcDb2dVertex
 10
54.13261973007292
 20
-93.3503621988847
 30
0.0
  0
VERTEX
  5
6A
330
68
100
AcDbEntity
  8
_U+30EC_U+30A4_U+30E4_U+30FC 1
 62
   179
420
  2234388
370
    25
100
AcDbVertex
100
AcDb2dVertex
 10
57.13260659798133
 20
-93.3503621988847
 30
0.0
  0
SEQEND
  5
6B
330
68
100
AcDbEntity
  8
_U+30EC_U+30A4_U+30E4_U+30FC 1
 62
   179
420
  2234388
370
    25
  0
POLYLINE
  5
6C
330
1F
100
AcDbEntity
  8
_U+30EC_U+30A4_U+30E4_U+30FC 1
 62
   179
420
  2234388
370
    25
100
AcDb2dPolyline
 66
     1
 10
0.0
 20
0.0
 30
0.0
  0
VERTEX
  5
6D
330
6C
100
AcDbEntity
  8
_U+30EC_U+30A4_U+30E4_U+30FC 1
 62
   179
420
  2234388
370
    25
100
AcDbVertex
100
AcDb2dVertex
 10
47.13269740865582
 20
-96.55016247586232
 30
0.0
  0
VERTEX
  5
6E
330
6C
100
AcDbEntity
  8
_U+30EC_U+30A4_U+30E4_U+30FC 1
 62
   179
420
  2234388
370
    25
100
AcDbVertex
100
AcDb2dVertex
 10
57.13260659798133
 20
-96.55016247586232
 30
0.0
  0
SEQEND
  5
6F
330
6C
100
AcDbEntity
  8
_U+30EC_U+30A4_U+30E4_U+30FC 1
 62
   179
420
  2234388
370
    25
  0
POLYLINE
  5
70
330
1F
100
AcDbEntity
  8
_U+30EC_U+30A4_U+30E4_U+30FC 1
 62
   179
420
  2234388
370
    25
100
AcDb2dPolyline
 66
     1
 10
0.0
 20
0.0
 30
0.0
  0
VERTEX
  5
71
330
70
100
AcDbEntity
  8
_U+30EC_U+30A4_U+30E4_U+30FC 1
 62
   179
420
  2234388
370
    25
100
AcDbVertex
100
AcDb2dVertex
 10
57.13260659798133
 20
-93.3503621988847
 30
0.0
  0
VERTEX
  5
72
330
70
100
AcDbEntity
  8
_U+30EC_U+30A4_U+30E4_U+30FC 1
 62
   179
420
  2234388
370
    25
100
AcDbVertex
100
AcDb2dVertex
 10
57.13260659798133
 20
-96.55016247586232
 30
0.0
  0
SEQEND
  5
73
330
70
100
AcDbEntity
  8
_U+30EC_U+30A4_U+30E4_U+30FC 1
 62
   179
420
  2234388
370
    25
  0
POLYLINE
  5
74
330
1F
100
AcDbEntity
  8
_U+30EC_U+30A4_U+30E4_U+30FC 1
 62
   179
420
  2234388
370
    25
100
AcDb2dPolyline
 66
     1
 10
0.0
 20
0.0
 30
0.0
  0
VERTEX
  5
75
330
74
100
AcDbEntity
  8
_U+30EC_U+30A4_U+30E4_U+30FC 1
 62
   179
420
  2234388
370
    25
100
AcDbVertex
100
AcDb2dVertex
 10
54.13261973007292
 20
-94.35083997641212
 30
0.0
  0
VERTEX
  5
76
330
74
100
AcDbEntity
  8
_U+30EC_U+30A4_U+30E4_U+30FC 1
 62
   179
420
  2234388
370
    25
100
AcDbVertex
100
AcDb2dVertex
 10
56.13283440126542
 20
-94.35083997641212
 30
0.0
  0
SEQEND
  5
77
330
74
100
AcDbEntity
  8
_U+30EC_U+30A4_U+30E4_U+30FC 1
 62
   179
420
  2234388
370
    25
  0
POLYLINE
  5
78
330
1F
100
AcDbEntity
  8
_U+30EC_U+30A4_U+30E4_U+30FC 1
 62
   179
420
  2234388
370
    25
100
AcDb2dPolyline
 66
     1
 10
0.0
 20
0.0
 30
0.0
  0
VERTEX
  5
79
330
78
100
AcDbEntity
  8
_U+30EC_U+30A4_U+30E4_U+30FC 1
 62
   179
420
  2234388
370
    25
100
AcDbVertex
100
AcDb2dVertex
 10
54.13261973007292
 20
-93.3503621988847
 30
0.0
  0
VERTEX
  5
7A
330
78
100
AcDbEntity
  8
_U+30EC_U+30A4_U+30E4_U+30FC 1
 62
   179
420
  2234388
370
    25
100
AcDbVertex
100
AcDb2dVertex
 10
54.13261973007292
 20
-94.35083997641212
 30
0.0
  0
SEQEND
  5
7B
330
78
100
AcDbEntity
  8
_U+30EC_U+30A4_U+30E4_U+30FC 1
 62
   179
420
  2234388
370
    25
  0
POLYLINE
  5
7C
330
1F
100
AcDbEntity
  8
_U+30EC_U+30A4_U+30E4_U+30FC 1
 62
   179
420
  2234388
370
    25
100
AcDb2dPolyline
 66
     1
 10
0.0
 20
0.0
 30
0.0
  0
VERTEX
  5
7D
330
7C
100
AcDbEntity
  8
_U+30EC_U+30A4_U+30E4_U+30FC 1
 62
   179
420
  2234388
370
    25
100
AcDbVertex
100
AcDb2dVertex
 10
47.13269740865582
 20
-95.55042553166794
 30
0.0
  0
VERTEX
  5
7E
330
7C
100
AcDbEntity
  8
_U+30EC_U+30A4_U+30E4_U+30FC 1
 62
   179
420
  2234388
370
    25
100
AcDbVertex
100
AcDb2dVertex
 10
47.13269740865582
 20
-96.55016247586232
 30
0.0
  0
SEQEND
  5
7F
330
7C
100
AcDbEntity
  8
_U+30EC_U+30A4_U+30E4_U+30FC 1
 62
   179
420
  2234388
370
    25
  0
POLYLINE
  5
80
330
1F
100
AcDbEntity
  8
_U+30EC_U+30A4_U+30E4_U+30FC 1
 62
   179
420
  2234388
370
    25
100
AcDb2dPolyline
 66
     1
 10
0.0
 20
0.0
 30
0.0
  0
VERTEX
  5
81
330
80
100
AcDbEntity
  8
_U+30EC_U+30A4_U+30E4_U+30FC 1
 62
   179
420
  2234388
370
    25
100
AcDbVertex
100
AcDb2dVertex
 10
47.13269740865582
 20
-95.55042553166794
 30
0.0
  0
VERTEX
  5
82
330
80
100
AcDbEntity
  8
_U+30EC_U+30A4_U+30E4_U+30FC 1
 62
   179
420
  2234388
370
    25
100
AcDbVertex
100
AcDb2dVertex
 10
47.6327610992029
 20
-95.55042553166794
 30
0.0
  0
SEQEND
  5
83
330
80
100
AcDbEntity
  8
_U+30EC_U+30A4_U+30E4_U+30FC 1
 62
   179
420
  2234388
370
    25
  0
POLYLINE
  5
84
330
1F
100
AcDbEntity
  8
_U+30EC_U+30A4_U+30E4_U+30FC 1
 62
   179
420
  2234388
370
    25
100
AcDb2dPolyline
 66
     1
 10
0.0
 20
0.0
 30
0.0
  0
VERTEX
  5
85
330
84
100
AcDbEntity
  8
_U+30EC_U+30A4_U+30E4_U+30FC 1
 62
   179
420
  2234388
370
    25
100
AcDbVertex
100
AcDb2dVertex
 10
48.6392360989513
 20
-95.55042553166794
 30
0.0
  0
VERTEX
  5
86
330
84
100
AcDbEntity
  8
_U+30EC_U+30A4_U+30E4_U+30FC 1
 62
   179
420
  2234388
370
    25
100
AcDbVertex
100
AcDb2dVertex
 10
56.13283440126542
 20
-95.55042553166794
 30
0.0
  0
SEQEND
  5
87
330
84
100
AcDbEntity
  8
_U+30EC_U+30A4_U+30E4_U+30FC 1
 62
   179
420
  2234388
370
    25
  0
POLYLINE
  5
88
330
1F
100
AcDbEntity
  8
_U+30EC_U+30A4_U+30E4_U+30FC 1
 62
   179
420
  2234388
370
    25
100
AcDb2dPolyline
 66
     1
 10
0.0
 20
0.0
 30
0.0
  0
VERTEX
  5
89
330
88
100
AcDbEntity
  8
_U+30EC_U+30A4_U+30E4_U+30FC 1
 62
   179
420
  2234388
370
    25
100
AcDbVertex
100
AcDb2dVertex
 10
56.13283440126542
 20
-94.35083997641212
 30
0.0
  0
VERTEX
  5
8A
330
88
100
AcDbEntity
  8
_U+30EC_U+30A4_U+30E4_U+30FC 1
 62
   179
420
  2234388
370
    25
100
AcDbVertex
100
AcDb2dVertex
 10
56.13283440126542
 20
-95.55042553166794
 30
0.0
  0
SEQEND
  5
8B
330
88
100
AcDbEntity
  8
_U+30EC_U+30A4_U+30E4_U+30FC 1
 62
   179
420
  2234388
370
    25
  0
POLYLINE
  5
8C
330
1F
100
AcDbEntity
  8
_U+30EC_U+30A4_U+30E4_U+30FC 1
 62
   179
420
  2234388
370
    25
100
AcDb2dPolyline
 66
     1
 10
0.0
 20
0.0
 30
0.0
  0
VERTEX
  5
8D
330
8C
100
AcDbEntity
  8
_U+30EC_U+30A4_U+30E4_U+30FC 1
 62
   179
420
  2234388
370
    25
100
AcDbVertex
100
AcDb2dVertex
 10
49.85811733912457
 20
-84.85064025656506
 30
0.0
  0
VERTEX
  5
8E
330
8C
100
AcDbEntity
  8
_U+30EC_U+30A4_U+30E4_U+30FC 1
 62
   179
420
  2234388
370
    25
100
AcDbVertex
100
AcDb2dVertex
 10
74.13293199760022
 20
-84.85064025656506
 30
0.0
  0
SEQEND
  5
8F
330
8C
100
AcDbEntity
  8
_U+30EC_U+30A4_U+30E4_U+30FC 1
 62
   179
420
  2234388
370
    25
  0
POLYLINE
  5
90
330
1F
100
AcDbEntity
  8
_U+30EC_U+30A4_U+30E4_U+30FC 1
 62
   179
420
  2234388
370
    25
100
AcDb2dPolyline
 66
     1
 10
0.0
 20
0.0
 30
0.0
  0
VERTEX
  5
91
330
90
100
AcDbEntity
  8
_U+30EC_U+30A4_U+30E4_U+30FC 1
 62
   179
420
  2234388
370
    25
100
AcDbVertex
100
AcDb2dVertex
 10
74.13293199760022
 20
-83.85016247903732
 30
0.0
  0
VERTEX
  5
92
330
90
100
AcDbEntity
  8
_U+30EC_U+30A4_U+30E4_U+30FC 1
 62
   179
420
  2234388
370
    25
100
AcDbVertex
100
AcDb2dVertex
 10
74.13293199760022
 20
-84.85064025656506
 30
0.0
  0
SEQEND
  5
93
330
90
100
AcDbEntity
  8
_U+30EC_U+30A4_U+30E4_U+30FC 1
 62
   179
420
  2234388
370
    25
  0
POLYLINE
  5
94
330
1F
100
AcDbEntity
  8
_U+30EC_U+30A4_U+30E4_U+30FC 1
 62
   179
420
  2234388
370
    25
100
AcDb2dPolyline
 66
     1
 10
0.0
 20
0.0
 30
0.0
  0
VERTEX
  5
95
330
94
100
AcDbEntity
  8
_U+30EC_U+30A4_U+30E4_U+30FC 1
 62
   179
420
  2234388
370
    25
100
AcDbVertex
100
AcDb2dVertex
 10
48.96530736190205
 20
-83.85016247903732
 30
0.0
  0
VERTEX
  5
96
330
94
100
AcDbEntity
  8
_U+30EC_U+30A4_U+30E4_U+30FC 1
 62
   179
420
  2234388
370
    25
100
AcDbVertex
100
AcDb2dVertex
 10
74.13293199760022
 20
-83.85016247903732
 30
0.0
  0
SEQEND
  5
97
330
94
100
AcDbEntity
  8
_U+30EC_U+30A4_U+30E4_U+30FC 1
 62
   179
420
  2234388
370
    25
  0
POLYLINE
  5
98
330
1F
100
AcDbEntity
  8
_U+30EC_U+30A4_U+30E4_U+30FC 1
 62
   179
420
  2234388
370
    25
100
AcDb2dPolyline
 66
     1
 10
0.0
 20
0.0
 30
0.0
  0
VERTEX
  5
99
330
98
100
AcDbEntity
  8
_U+30EC_U+30A4_U+30E4_U+30FC 1
 62
   179
420
  2234388
370
    25
100
AcDbVertex
100
AcDb2dVertex
 10
48.96530736190205
 20
-83.85016247903732
 30
0.0
  0
VERTEX
  5
9A
330
98
100
AcDbEntity
  8
_U+30EC_U+30A4_U+30E4_U+30FC 1
 62
   179
420
  2234388
370
    25
100
AcDbVertex
100
AcDb2dVertex
 10
47.6327610992029
 20
-95.55042553166794
 30
0.0
  0
SEQEND
  5
9B
330
98
100
AcDbEntity
  8
_U+30EC_U+30A4_U+30E4_U+30FC 1
 62
   179
420
  2234388
370
    25
  0
POLYLINE
  5
9C
330
1F
100
AcDbEntity
  8
_U+30EC_U+30A4_U+30E4_U+30FC 1
 62
   179
420
  2234388
370
    25
100
AcDb2dPolyline
 66
     1
 10
0.0
 20
0.0
 30
0.0
  0
VERTEX
  5
9D
330
9C
100
AcDbEntity
  8
_U+30EC_U+30A4_U+30E4_U+30FC 1
 62
   179
420
  2234388
370
    25
100
AcDbVertex
100
AcDb2dVertex
 10
49.85811733912457
 20
-84.85064025656506
 30
0.0
  0
VERTEX
  5
9E
330
9C
100
AcDbEntity
  8
_U+30EC_U+30A4_U+30E4_U+30FC 1
 62
   179
420
  2234388
370
    25
100
AcDbVertex
100
AcDb2dVertex
 10
48.6392360989513
 20
-95.55042553166794
 30
0.0
  0
SEQEND
  5
9F
330
9C
100
AcDbEntity
  8
_U+30EC_U+30A4_U+30E4_U+30FC 1
 62
   179
420
  2234388
370
    25
  0
SPLINE
  5
A0
330
1F
100
AcDbEntity
  8
_U+30EC_U+30A4_U+30E4_U+30FC 1
 62
   179
420
  2234388
370
     9
100
AcDbSpline
210
0.0
220
0.0
230
1.0
 70
    11
 71
     3
 72
    17
 73
    13
 74
     0
 42
0.0000000001
 43
0.0000000001
 12
1.0
 22
0.0
 32
0.0
 13
1.0
 23
0.0
 33
0.0
 40
0.0
 40
0.0
 40
0.0
 40
0.0
 40
1.0
 40
1.0
 40
1.0
 40
2.0
 40
2.0
 40
2.0
 40
3.0
 40
3.0
 40
3.0
 40
4.0
 40
4.0
 40
4.0
 40
4.0
 10
57.23251326209917
 20
-100.5506271970847
 30
0.0
 10
57.23251326209917
 20
-100.4954880304316
 30
0.0
 10
57.1877104854644
 20
-100.4507205304431
 30
0.0
 10
57.13260659798133
 20
-100.4507205304431
 30
0.0
 10
57.07746743272138
 20
-100.4507205304431
 30
0.0
 10
57.0326999338635
 20
-100.4954880304316
 30
0.0
 10
57.0326999338635
 20
-100.5506271970847
 30
0.0
 10
57.0326999338635
 20
-100.6057310859596
 30
0.0
 10
57.07746743272138
 20
-100.6505338637264
 30
0.0
 10
57.13260659798133
 20
-100.6505338637264
 30
0.0
 10
57.1877104854644
 20
-100.6505338637264
 30
0.0
 10
57.23251326209917
 20
-100.6057310859596
 30
0.0
 10
57.23251326209917
 20
-100.5506271970847
 30
0.0
  0
SPLINE
  5
A1
330
1F
100
AcDbEntity
  8
_U+30EC_U+30A4_U+30E4_U+30FC 1
 62
   179
420
  2234388
370
     9
100
AcDbSpline
210
0.0
220
0.0
230
1.0
 70
    11
 71
     3
 72
    17
 73
    13
 74
     0
 42
0.0000000001
 43
0.0000000001
 12
1.0
 22
0.0
 32
0.0
 13
1.0
 23
0.0
 33
0.0
 40
0.0
 40
0.0
 40
0.0
 40
0.0
 40
1.0
 40
1.0
 40
1.0
 40
2.0
 40
2.0
 40
2.0
 40
3.0
 40
3.0
 40
3.0
 40
4.0
 40
4.0
 40
4.0
 40
4.0
 10
47.23278046165805
 20
-100.5506271970847
 30
0.0
 10
47.23278046165805
 20
-100.4954880304316
 30
0.0
 10
47.18797768502328
 20
-100.4507205304431
 30
0.0
 10
47.13269740865582
 20
-100.4507205304431
 30
0.0
 10
47.07755824339587
 20
-100.4507205304431
 30
0.0
 10
47.03279074453799
 20
-100.4954880304316
 30
0.0
 10
47.03279074453799
 20
-100.5506271970847
 30
0.0
 10
47.03279074453799
 20
-100.6057310859596
 30
0.0
 10
47.07755824339587
 20
-100.6505338637264
 30
0.0
 10
47.13269740865582
 20
-100.6505338637264
 30
0.0
 10
47.18797768502328
 20
-100.6505338637264
 30
0.0
 10
47.23278046165805
 20
-100.6057310859596
 30
0.0
 10
47.23278046165805
 20
-100.5506271970847
 30
0.0
  0
SPLINE
  5
A2
330
1F
100
AcDbEntity
  8
_U+30EC_U+30A4_U+30E4_U+30FC 1
 62
   179
420
  2234388
370
     9
100
AcDbSpline
210
0.0
220
0.0
230
1.0
 70
    11
 71
     3
 72
    17
 73
    13
 74
     0
 42
0.0000000001
 43
0.0000000001
 12
1.0
 22
0.0
 32
0.0
 13
1.0
 23
0.0
 33
0.0
 40
0.0
 40
0.0
 40
0.0
 40
0.0
 40
1.0
 40
1.0
 40
1.0
 40
2.0
 40
2.0
 40
2.0
 40
3.0
 40
3.0
 40
3.0
 40
4.0
 40
4.0
 40
4.0
 40
4.0
 10
78.23259772634238
 20
-83.85016247903732
 30
0.0
 10
78.23259772634238
 20
-83.7950585901624
 30
0.0
 10
78.1878302274845
 20
-83.75025581239568
 30
0.0
 10
78.13269106222454
 20
-83.75025581239568
 30
0.0
 10
78.07758717474147
 20
-83.75025581239568
 30
0.0
 10
78.0327843981067
 20
-83.7950585901624
 30
0.0
 10
78.0327843981067
 20
-83.85016247903732
 30
0.0
 10
78.0327843981067
 20
-83.9060072012456
 30
0.0
 10
78.07758717474147
 20
-83.95010442345679
 30
0.0
 10
78.13269106222454
 20
-83.95010442345679
 30
0.0
 10
78.1878302274845
 20
-83.95010442345679
 30
0.0
 10
78.23259772634238
 20
-83.9060072012456
 30
0.0
 10
78.23259772634238
 20
-83.85016247903732
 30
0.0
  0
SPLINE
  5
A3
330
1F
100
AcDbEntity
  8
_U+30EC_U+30A4_U+30E4_U+30FC 1
 62
   179
420
  2234388
370
     9
100
AcDbSpline
210
0.0
220
0.0
230
1.0
 70
    11
 71
     3
 72
    17
 73
    13
 74
     0
 42
0.0000000001
 43
0.0000000001
 12
1.0
 22
0.0
 32
0.0
 13
1.0
 23
0.0
 33
0.0
 40
0.0
 40
0.0
 40
0.0
 40
0.0
 40
1.0
 40
1.0
 40
1.0
 40
2.0
 40
2.0
 40
2.0
 40
3.0
 40
3.0
 40
3.0
 40
4.0
 40
4.0
 40
4.0
 40
4.0
 10
78.23259772634238
 20
-84.85064025656506
 30
0.0
 10
78.23259772634238
 20
-84.7955010899123
 30
0.0
 10
78.1878302274845
 20
-84.75073358992343
 30
0.0
 10
78.13269106222454
 20
-84.75073358992343
 30
0.0
 10
78.07758717474147
 20
-84.75073358992343
 30
0.0
 10
78.0327843981067
 20
-84.7955010899123
 30
0.0
 10
78.0327843981067
 20
-84.85064025656506
 30
0.0
 10
78.0327843981067
 20
-84.9057441454403
 30
0.0
 10
78.07758717474147
 20
-84.9505469232067
 30
0.0
 10
78.13269106222454
 20
-84.9505469232067
 30
0.0
 10
78.1878302274845
 20
-84.9505469232067
 30
0.0
 10
78.23259772634238
 20
-84.9057441454403
 30
0.0
 10
78.23259772634238
 20
-84.85064025656506
 30
0.0
  0
SPLINE
  5
A4
330
1F
100
AcDbEntity
  8
_U+30EC_U+30A4_U+30E4_U+30FC 1
 62
   179
420
  2234388
370
     9
100
AcDbSpline
210
0.0
220
0.0
230
1.0
 70
    11
 71
     3
 72
    17
 73
    13
 74
     0
 42
0.0000000001
 43
0.0000000001
 12
1.0
 22
0.0
 32
0.0
 13
1.0
 23
0.0
 33
0.0
 40
0.0
 40
0.0
 40
0.0
 40
0.0
 40
1.0
 40
1.0
 40
1.0
 40
2.0
 40
2.0
 40
2.0
 40
3.0
 40
3.0
 40
3.0
 40
4.0
 40
4.0
 40
4.0
 40
4.0
 10
78.23259772634238
 20
-93.3503621988847
 30
0.0
 10
78.23259772634238
 20
-93.29525831000979
 30
0.0
 10
78.1878302274845
 20
-93.25045553224307
 30
0.0
 10
78.13269106222454
 20
-93.25045553224307
 30
0.0
 10
78.07758717474147
 20
-93.25045553224307
 30
0.0
 10
78.0327843981067
 20
-93.29525831000979
 30
0.0
 10
78.0327843981067
 20
-93.3503621988847
 30
0.0
 10
78.0327843981067
 20
-93.40550136553777
 30
0.0
 10
78.07758717474147
 20
-93.45026886552634
 30
0.0
 10
78.13269106222454
 20
-93.45026886552634
 30
0.0
 10
78.1878302274845
 20
-93.45026886552634
 30
0.0
 10
78.23259772634238
 20
-93.40550136553777
 30
0.0
 10
78.23259772634238
 20
-93.3503621988847
 30
0.0
  0
SPLINE
  5
A5
330
1F
100
AcDbEntity
  8
_U+30EC_U+30A4_U+30E4_U+30FC 1
 62
   179
420
  2234388
370
     9
100
AcDbSpline
210
0.0
220
0.0
230
1.0
 70
    11
 71
     3
 72
    17
 73
    13
 74
     0
 42
0.0000000001
 43
0.0000000001
 12
1.0
 22
0.0
 32
0.0
 13
1.0
 23
0.0
 33
0.0
 40
0.0
 40
0.0
 40
0.0
 40
0.0
 40
1.0
 40
1.0
 40
1.0
 40
2.0
 40
2.0
 40
2.0
 40
3.0
 40
3.0
 40
3.0
 40
4.0
 40
4.0
 40
4.0
 40
4.0
 10
78.23259772634238
 20
-96.55016247586232
 30
0.0
 10
78.23259772634238
 20
-96.4950585869874
 30
0.0
 10
78.1878302274845
 20
-96.45025580922068
 30
0.0
 10
78.13269106222454
 20
-96.45025580922068
 30
0.0
 10
78.07758717474147
 20
-96.45025580922068
 30
0.0
 10
78.0327843981067
 20
-96.4950585869874
 30
0.0
 10
78.0327843981067
 20
-96.55016247586232
 30
0.0
 10
78.0327843981067
 20
-96.60600719807093
 30
0.0
 10
78.07758717474147
 20
-96.65077469805948
 30
0.0
 10
78.13269106222454
 20
-96.65077469805948
 30
0.0
 10
78.1878302274845
 20
-96.65077469805948
 30
0.0
 10
78.23259772634238
 20
-96.60600719807093
 30
0.0
 10
78.23259772634238
 20
-96.55016247586232
 30
0.0
  0
SPLINE
  5
A6
330
1F
100
AcDbEntity
  8
_U+30EC_U+30A4_U+30E4_U+30FC 1
 62
   179
420
  2234388
370
     9
100
AcDbSpline
210
0.0
220
0.0
230
1.0
 70
    11
 71
     3
 72
    17
 73
    13
 74
     0
 42
0.0000000001
 43
0.0000000001
 12
1.0
 22
0.0
 32
0.0
 13
1.0
 23
0.0
 33
0.0
 40
0.0
 40
0.0
 40
0.0
 40
0.0
 40
1.0
 40
1.0
 40
1.0
 40
2.0
 40
2.0
 40
2.0
 40
3.0
 40
3.0
 40
3.0
 40
4.0
 40
4.0
 40
4.0
 40
4.0
 10
74.23283866171806
 20
-79.8504385911486
 30
0.0
 10
74.23283866171806
 20
-79.79529942449552
 30
0.0
 10
74.18807116286018
 20
-79.75053192450696
 30
0.0
 10
74.13293199760022
 20
-79.75053192450696
 30
0.0
 10
74.07782811011715
 20
-79.75053192450696
 30
0.0
 10
74.0330253334824
 20
-79.79529942449552
 30
0.0
 10
74.0330253334824
 20
-79.8504385911486
 30
0.0
 10
74.0330253334824
 20
-79.90554248002351
 30
0.0
 10
74.07782811011715
 20
-79.95034525779023
 30
0.0
 10
74.13293199760022
 20
-79.95034525779023
 30
0.0
 10
74.18807116286018
 20
-79.95034525779023
 30
0.0
 10
74.23283866171806
 20
-79.90554248002351
 30
0.0
 10
74.23283866171806
 20
-79.8504385911486
 30
0.0
  0
SPLINE
  5
A7
330
1F
100
AcDbEntity
  8
_U+30EC_U+30A4_U+30E4_U+30FC 1
 62
   179
420
  2234388
370
     9
100
AcDbSpline
210
0.0
220
0.0
230
1.0
 70
    11
 71
     3
 72
    17
 73
    13
 74
     0
 42
0.0000000001
 43
0.0000000001
 12
1.0
 22
0.0
 32
0.0
 13
1.0
 23
0.0
 33
0.0
 40
0.0
 40
0.0
 40
0.0
 40
0.0
 40
1.0
 40
1.0
 40
1.0
 40
2.0
 40
2.0
 40
2.0
 40
3.0
 40
3.0
 40
3.0
 40
4.0
 40
4.0
 40
4.0
 40
4.0
 10
49.23264235508177
 20
-79.8504385911486
 30
0.0
 10
49.23264235508177
 20
-79.79529942449552
 30
0.0
 10
49.18805124510827
 20
-79.75053192450696
 30
0.0
 10
49.13273569096393
 20
-79.75053192450696
 30
0.0
 10
49.07745541459647
 20
-79.75053192450696
 30
0.0
 10
49.0326526379617
 20
-79.79529942449552
 30
0.0
 10
49.0326526379617
 20
-79.8504385911486
 30
0.0
 10
49.0326526379617
 20
-79.90554248002351
 30
0.0
 10
49.07745541459647
 20
-79.95034525779023
 30
0.0
 10
49.13273569096393
 20
-79.95034525779023
 30
0.0
 10
49.18805124510827
 20
-79.95034525779023
 30
0.0
 10
49.23264235508177
 20
-79.90554248002351
 30
0.0
 10
49.23264235508177
 20
-79.8504385911486
 30
0.0
  0
POLYLINE
  5
A8
330
1F
100
AcDbEntity
  8
_U+30EC_U+30A4_U+30E4_U+30FC 1
 62
   179
420
  2234388
370
     9
100
AcDb2dPolyline
 66
     1
 10
0.0
 20
0.0
 30
0.0
  0
VERTEX
  5
A9
330
A8
100
AcDbEntity
  8
_U+30EC_U+30A4_U+30E4_U+30FC 1
 62
   179
420
  2234388
370
     9
100
AcDbVertex
100
AcDb2dVertex
 10
47.13269740865582
 20
-100.5506271970847
 30
0.0
  0
VERTEX
  5
AA
330
A8
100
AcDbEntity
  8
_U+30EC_U+30A4_U+30E4_U+30FC 1
 62
   179
420
  2234388
370
     9
100
AcDbVertex
100
AcDb2dVertex
 10
57.13260659798133
 20
-100.5506271970847
 30
0.0
  0
SEQEND
  5
AB
330
A8
100
AcDbEntity
  8
_U+30EC_U+30A4_U+30E4_U+30FC 1
 62
   179
420
  2234388
370
     9
  0
POLYLINE
  5
AC
330
1F
100
AcDbEntity
  8
_U+30EC_U+30A4_U+30E4_U+30FC 1
 62
   179
420
  2234388
370
     9
100
AcDb2dPolyline
 66
     1
 10
0.0
 20
0.0
 30
0.0
  0
VERTEX
  5
AD
330
AC
100
AcDbEntity
  8
_U+30EC_U+30A4_U+30E4_U+30FC 1
 62
   179
420
  2234388
370
     9
100
AcDbVertex
100
AcDb2dVertex
 10
47.13269740865582
 20
-99.09058580856038
 30
0.0
  0
VERTEX
  5
AE
330
AC
100
AcDbEntity
  8
_U+30EC_U+30A4_U+30E4_U+30FC 1
 62
   179
420
  2234388
370
     9
100
AcDbVertex
100
AcDb2dVertex
 10
47.13269740865582
 20
-101.5503994190566
 30
0.0
  0
SEQEND
  5
AF
330
AC
100
AcDbEntity
  8
_U+30EC_U+30A4_U+30E4_U+30FC 1
 62
   179
420
  2234388
370
     9
  0
POLYLINE
  5
B0
330
1F
100
AcDbEntity
  8
_U+30EC_U+30A4_U+30E4_U+30FC 1
 62
   179
420
  2234388
370
     9
100
AcDb2dPolyline
 66
     1
 10
0.0
 20
0.0
 30
0.0
  0
VERTEX
  5
B1
330
B0
100
AcDbEntity
  8
_U+30EC_U+30A4_U+30E4_U+30FC 1
 62
   179
420
  2234388
370
     9
100
AcDbVertex
100
AcDb2dVertex
 10
57.13260659798133
 20
-99.09058580856038
 30
0.0
  0
VERTEX
  5
B2
330
B0
100
AcDbEntity
  8
_U+30EC_U+30A4_U+30E4_U+30FC 1
 62
   179
420
  2234388
370
     9
100
AcDbVertex
100
AcDb2dVertex
 10
57.13260659798133
 20
-101.5503994190566
 30
0.0
  0
SEQEND
  5
B3
330
B0
100
AcDbEntity
  8
_U+30EC_U+30A4_U+30E4_U+30FC 1
 62
   179
420
  2234388
370
     9
  0
POLYLINE
  5
B4
330
1F
100
AcDbEntity
  8
_U+30EC_U+30A4_U+30E4_U+30FC 1
 62
   179
420
  2234388
370
     9
100
AcDb2dPolyline
 66
     1
 10
0.0
 20
0.0
 30
0.0
  0
VERTEX
  5
B5
330
B4
100
AcDbEntity
  8
_U+30EC_U+30A4_U+30E4_U+30FC 1
 62
   179
420
  2234388
370
     9
100
AcDbVertex
100
AcDb2dVertex
 10
78.13269106222454
 20
-93.3503621988847
 30
0.0
  0
VERTEX
  5
B6
330
B4
100
AcDbEntity
  8
_U+30EC_U+30A4_U+30E4_U+30FC 1
 62
   179
420
  2234388
370
     9
100
AcDbVertex
100
AcDb2dVertex
 10
78.13269106222454
 20
-96.55016247586232
 30
0.0
  0
SEQEND
  5
B7
330
B4
100
AcDbEntity
  8
_U+30EC_U+30A4_U+30E4_U+30FC 1
 62
   179
420
  2234388
370
     9
  0
POLYLINE
  5
B8
330
1F
100
AcDbEntity
  8
_U+30EC_U+30A4_U+30E4_U+30FC 1
 62
   179
420
  2234388
370
     9
100
AcDb2dPolyline
 66
     1
 10
0.0
 20
0.0
 30
0.0
  0
VERTEX
  5
B9
330
B8
100
AcDbEntity
  8
_U+30EC_U+30A4_U+30E4_U+30FC 1
 62
   179
420
  2234388
370
     9
100
AcDbVertex
100
AcDb2dVertex
 10
59.67267708873429
 20
-93.3503621988847
 30
0.0
  0
VERTEX
  5
BA
330
B8
100
AcDbEntity
  8
_U+30EC_U+30A4_U+30E4_U+30FC 1
 62
   179
420
  2234388
370
     9
100
AcDbVertex
100
AcDb2dVertex
 10
79.13246325894045
 20
-93.3503621988847
 30
0.0
  0
SEQEND
  5
BB
330
B8
100
AcDbEntity
  8
_U+30EC_U+30A4_U+30E4_U+30FC 1
 62
   179
420
  2234388
370
     9
  0
POLYLINE
  5
BC
330
1F
100
AcDbEntity
  8
_U+30EC_U+30A4_U+30E4_U+30FC 1
 62
   179
420
  2234388
370
     9
100
AcDb2dPolyline
 66
     1
 10
0.0
 20
0.0
 30
0.0
  0
VERTEX
  5
BD
330
BC
100
AcDbEntity
  8
_U+30EC_U+30A4_U+30E4_U+30FC 1
 62
   179
420
  2234388
370
     9
100
AcDbVertex
100
AcDb2dVertex
 10
59.67267708873429
 20
-96.55016247586232
 30
0.0
  0
VERTEX
  5
BE
330
BC
100
AcDbEntity
  8
_U+30EC_U+30A4_U+30E4_U+30FC 1
 62
   179
420
  2234388
370
     9
100
AcDbVertex
100
AcDb2dVertex
 10
79.13246325894045
 20
-96.55016247586232
 30
0.0
  0
SEQEND
  5
BF
330
BC
100
AcDbEntity
  8
_U+30EC_U+30A4_U+30E4_U+30FC 1
 62
   179
420
  2234388
370
     9
  0
POLYLINE
  5
C0
330
1F
100
AcDbEntity
  8
_U+30EC_U+30A4_U+30E4_U+30FC 1
 62
   179
420
  2234388
370
     9
100
AcDb2dPolyline
 66
     1
 10
0.0
 20
0.0
 30
0.0
  0
VERTEX
  5
C1
330
C0
100
AcDbEntity
  8
_U+30EC_U+30A4_U+30E4_U+30FC 1
 62
   179
420
  2234388
370
     9
100
AcDbVertex
100
AcDb2dVertex
 10
78.13269106222454
 20
-83.85016247903732
 30
0.0
  0
VERTEX
  5
C2
330
C0
100
AcDbEntity
  8
_U+30EC_U+30A4_U+30E4_U+30FC 1
 62
   179
420
  2234388
370
     9
100
AcDbVertex
100
AcDb2dVertex
 10
78.13269106222454
 20
-80.0798499799799
 30
0.0
  0
SEQEND
  5
C3
330
C0
100
AcDbEntity
  8
_U+30EC_U+30A4_U+30E4_U+30FC 1
 62
   179
420
  2234388
370
     9
  0
POLYLINE
  5
C4
330
1F
100
AcDbEntity
  8
_U+30EC_U+30A4_U+30E4_U+30FC 1
 62
   179
420
  2234388
370
     9
100
AcDb2dPolyline
 66
     1
 10
0.0
 20
0.0
 30
0.0
  0
VERTEX
  5
C5
330
C4
100
AcDbEntity
  8
_U+30EC_U+30A4_U+30E4_U+30FC 1
 62
   179
420
  2234388
370
     9
100
AcDbVertex
100
AcDb2dVertex
 10
78.13269106222454
 20
-84.85064025656506
 30
0.0
  0
VERTEX
  5
C6
330
C4
100
AcDbEntity
  8
_U+30EC_U+30A4_U+30E4_U+30FC 1
 62
   179
420
  2234388
370
     9
100
AcDbVertex
100
AcDb2dVertex
 10
78.13269106222454
 20
-83.85016247903732
 30
0.0
  0
SEQEND
  5
C7
330
C4
100
AcDbEntity
  8
_U+30EC_U+30A4_U+30E4_U+30FC 1
 62
   179
420
  2234388
370
     9
  0
POLYLINE
  5
C8
330
1F
100
AcDbEntity
  8
_U+30EC_U+30A4_U+30E4_U+30FC 1
 62
   179
420
  2234388
370
     9
100
AcDb2dPolyline
 66
     1
 10
0.0
 20
0.0
 30
0.0
  0
VERTEX
  5
C9
330
C8
100
AcDbEntity
  8
_U+30EC_U+30A4_U+30E4_U+30FC 1
 62
   179
420
  2234388
370
     9
100
AcDbVertex
100
AcDb2dVertex
 10
76.67264971058441
 20
-83.85016247903732
 30
0.0
  0
VERTEX
  5
CA
330
C8
100
AcDbEntity
  8
_U+30EC_U+30A4_U+30E4_U+30FC 1
 62
   179
420
  2234388
370
     9
100
AcDbVertex
100
AcDb2dVertex
 10
79.13246325894045
 20
-83.85016247903732
 30
0.0
  0
SEQEND
  5
CB
330
C8
100
AcDbEntity
  8
_U+30EC_U+30A4_U+30E4_U+30FC 1
 62
   179
420
  2234388
370
     9
  0
POLYLINE
  5
CC
330
1F
100
AcDbEntity
  8
_U+30EC_U+30A4_U+30E4_U+30FC 1
 62
   179
420
  2234388
370
     9
100
AcDb2dPolyline
 66
     1
 10
0.0
 20
0.0
 30
0.0
  0
VERTEX
  5
CD
330
CC
100
AcDbEntity
  8
_U+30EC_U+30A4_U+30E4_U+30FC 1
 62
   179
420
  2234388
370
     9
100
AcDbVertex
100
AcDb2dVertex
 10
49.13273569096393
 20
-79.8504385911486
 30
0.0
  0
VERTEX
  5
CE
330
CC
100
AcDbEntity
  8
_U+30EC_U+30A4_U+30E4_U+30FC 1
 62
   179
420
  2234388
370
     9
100
AcDbVertex
100
AcDb2dVertex
 10
74.13293199760022
 20
-79.8504385911486
 30
0.0
  0
SEQEND
  5
CF
330
CC
100
AcDbEntity
  8
_U+30EC_U+30A4_U+30E4_U+30FC 1
 62
   179
420
  2234388
370
     9
  0
POLYLINE
  5
D0
330
1F
100
AcDbEntity
  8
_U+30EC_U+30A4_U+30E4_U+30FC 1
 62
   179
420
  2234388
370
     9
100
AcDb2dPolyline
 66
     1
 10
0.0
 20
0.0
 30
0.0
  0
VERTEX
  5
D1
330
D0
100
AcDbEntity
  8
_U+30EC_U+30A4_U+30E4_U+30FC 1
 62
   179
420
  2234388
370
     9
100
AcDbVertex
100
AcDb2dVertex
 10
49.13273569096393
 20
-81.31044470189447
 30
0.0
  0
VERTEX
  5
D2
330
D0
100
AcDbEntity
  8
_U+30EC_U+30A4_U+30E4_U+30FC 1
 62
   179
420
  2234388
370
     9
100
AcDbVertex
100
AcDb2dVertex
 10
49.13273569096393
 20
-78.85066636917638
 30
0.0
  0
SEQEND
  5
D3
330
D0
100
AcDbEntity
  8
_U+30EC_U+30A4_U+30E4_U+30FC 1
 62
   179
420
  2234388
370
     9
  0
POLYLINE
  5
D4
330
1F
100
AcDbEntity
  8
_U+30EC_U+30A4_U+30E4_U+30FC 1
 62
   179
420
  2234388
370
     9
100
AcDb2dPolyline
 66
     1
 10
0.0
 20
0.0
 30
0.0
  0
VERTEX
  5
D5
330
D4
100
AcDbEntity
  8
_U+30EC_U+30A4_U+30E4_U+30FC 1
 62
   179
420
  2234388
370
     9
100
AcDbVertex
100
AcDb2dVertex
 10
74.13293199760022
 20
-81.31044470189447
 30
0.0
  0
VERTEX
  5
D6
330
D4
100
AcDbEntity
  8
_U+30EC_U+30A4_U+30E4_U+30FC 1
 62
   179
420
  2234388
370
     9
100
AcDbVertex
100
AcDb2dVertex
 10
74.13293199760022
 20
-78.85066636917638
 30
0.0
  0
SEQEND
  5
D7
330
D4
100
AcDbEntity
  8
_U+30EC_U+30A4_U+30E4_U+30FC 1
 62
   179
420
  2234388
370
     9
  0
POLYLINE
  5
D8
330
1F
100
AcDbEntity
  8
_U+30EC_U+30A4_U+30E4_U+30FC 1
 62
   179
420
  2234388
370
     9
100
AcDb2dPolyline
 66
     1
 10
0.0
 20
0.0
 30
0.0
  0
VERTEX
  5
D9
330
D8
100
AcDbEntity
  8
_U+30EC_U+30A4_U+30E4_U+30FC 1
 62
   179
420
  2234388
370
     9
100
AcDbVertex
100
AcDb2dVertex
 10
78.13269106222454
 20
-84.85064025656506
 30
0.0
  0
VERTEX
  5
DA
330
D8
100
AcDbEntity
  8
_U+30EC_U+30A4_U+30E4_U+30FC 1
 62
   179
420
  2234388
370
     9
100
AcDbVertex
100
AcDb2dVertex
 10
78.13269106222454
 20
-93.3503621988847
 30
0.0
  0
SEQEND
  5
DB
330
D8
100
AcDbEntity
  8
_U+30EC_U+30A4_U+30E4_U+30FC 1
 62
   179
420
  2234388
370
     9
  0
POLYLINE
  5
DC
330
1F
100
AcDbEntity
  8
_U+30EC_U+30A4_U+30E4_U+30FC 1
 62
   179
420
  2234388
370
     9
100
AcDb2dPolyline
 66
     1
 10
0.0
 20
0.0
 30
0.0
  0
VERTEX
  5
DD
330
DC
100
AcDbEntity
  8
_U+30EC_U+30A4_U+30E4_U+30FC 1
 62
   179
420
  2234388
370
     9
100
AcDbVertex
100
AcDb2dVertex
 10
76.67264971058441
 20
-84.85064025656506
 30
0.0
  0
VERTEX
  5
DE
330
DC
100
AcDbEntity
  8
_U+30EC_U+30A4_U+30E4_U+30FC 1
 62
   179
420
  2234388
370
     9
100
AcDbVertex
100
AcDb2dVertex
 10
79.13246325894045
 20
-84.85064025656506
 30
0.0
  0
SEQEND
  5
DF
330
DC
100
AcDbEntity
  8
_U+30EC_U+30A4_U+30E4_U+30FC 1
 62
   179
420
  2234388
370
     9
  0
INSERT
  5
E1
330
1F
100
AcDbEntity
  8
_U+30EC_U+30A4_U+30E4_U+30FC 1
100
AcDbBlockReference
  2
block 6
 10
0.0
 20
0.0
 30
0.0
  0
ENDSEC
  0
SECTION
  2
OBJECTS
  0
DICTIONARY
  5
C
330
0
100
AcDbDictionary
281
     1
  3
ACAD_GROUP
350
D
  3
ACAD_LAYOUT
350
1A
  3
ACAD_MATERIAL
350
3B
  3
ACAD_MLEADERSTYLE
350
F3
  3
ACAD_MLINESTYLE
350
17
  3
ACAD_PLOTSETTINGS
350
19
  3
ACAD_PLOTSTYLENAME
350
E
  3
ACAD_TABLESTYLE
350
F2
  3
ACAD_VISUALSTYLE
350
2A
  0
SUN
  5
3F
330
29
100
AcDbSun
 90
        1
290
     0
 63
     7
421
 16777215
 40
1.0
291
     1
 91
  2455826
 92
 54000000
292
     0
 70
     2
 71
   256
280
     1
  0
DICTIONARY
  5
D
102
{ACAD_REACTORS
330
C
102
}
330
C
100
AcDbDictionary
281
     1
  0
DICTIONARY
  5
1A
102
{ACAD_REACTORS
330
C
102
}
330
C
100
AcDbDictionary
281
     1
  3
Layout1
350
1E
  3
Layout2
350
26
  3
Model
350
22
  0
DICTIONARY
  5
3B
102
{ACAD_REACTORS
330
C
102
}
330
C
100
AcDbDictionary
281
     1
  3
ByBlock
350
3D
  3
ByLayer
350
3C
  3
Global
350
3E
  0
DICTIONARY
  5
F3
102
{ACAD_REACTORS
330
C
102
}
330
C
100
AcDbDictionary
281
     1
  0
DICTIONARY
  5
17
102
{ACAD_REACTORS
330
C
102
}
330
C
100
AcDbDictionary
281
     1
  3
Standard
350
18
  0
DICTIONARY
  5
19
102
{ACAD_REACTORS
330
C
102
}
330
C
100
AcDbDictionary
281
     1
  0
ACDBDICTIONARYWDFLT
  5
E
102
{ACAD_REACTORS
330
C
102
}
330
C
100
AcDbDictionary
281
     1
  3
Normal
350
F
100
AcDbDictionaryWithDefault
340
F
  0
DICTIONARY
  5
F2
102
{ACAD_REACTORS
330
C
102
}
330
C
100
AcDbDictionary
281
     1
  0
DICTIONARY
  5
2A
102
{ACAD_REACTORS
330
C
102
}
330
C
100
AcDbDictionary
281
     1
  3
2dWireframe
350
2F
  3
3D Hidden
350
31
  3
3dWireframe
350
30
  3
Basic
350
32
  3
Brighten
350
36
  3
ColorChange
350
3A
  3
Conceptual
350
34
  3
Dim
350
35
  3
Facepattern
350
39
  3
Flat
350
2B
  3
FlatWithEdges
350
2C
  3
Gouraud
350
2D
  3
GouraudWithEdges
350
2E
  3
Linepattern
350
38
  3
Realistic
350
33
  3
Thicken
350
37
  0
LAYOUT
  5
1E
102
{ACAD_REACTORS
330
1A
102
}
330
1A
100
AcDbPlotSettings
  1

  2
none_device
  4

  6

 40
0.0
 41
0.0
 42
0.0
 43
0.0
 44
0.0
 45
0.0
 46
0.0
 47
0.0
 48
0.0
 49
0.0
140
0.0
141
0.0
142
1.0
143
1.0
 70
   688
 72
     0
 73
     0
 74
     5
  7

 75
    16
 76
     0
 77
     2
 78
   300
147
1.0
148
0.0
149
0.0
100
AcDbLayout
  1
Layout1
 70
     1
 71
     1
 10
0.0
 20
0.0
 11
12.0
 21
9.0
 12
0.0
 22
0.0
 32
0.0
 14
1.000000000000000E+20
 24
1.000000000000000E+20
 34
1.000000000000000E+20
 15
-1.000000000000000E+20
 25
-1.000000000000000E+20
 35
-1.000000000000000E+20
146
0.0
 13
0.0
 23
0.0
 33
0.0
 16
1.0
 26
0.0
 36
0.0
 17
0.0
 27
1.0
 37
0.0
 76
     0
330
1B
  0
LAYOUT
  5
26
102
{ACAD_REACTORS
330
1A
102
}
330
1A
100
AcDbPlotSettings
  1

  2
none_device
  4

  6

 40
0.0
 41
0.0
 42
0.0
 43
0.0
 44
0.0
 45
0.0
 46
0.0
 47
0.0
 48
0.0
 49
0.0
140
0.0
141
0.0
142
1.0
143
1.0
 70
   688
 72
     0
 73
     0
 74
     5
  7

 75
    16
 76
     0
 77
     2
 78
   300
147
1.0
148
0.0
149
0.0
100
AcDbLayout
  1
Layout2
 70
     1
 71
     2
 10
0.0
 20
0.0
 11
0.0
 21
0.0
 12
0.0
 22
0.0
 32
0.0
 14
0.0
 24
0.0
 34
0.0
 15
0.0
 25
0.0
 35
0.0
146
0.0
 13
0.0
 23
0.0
 33
0.0
 16
1.0
 26
0.0
 36
0.0
 17
0.0
 27
1.0
 37
0.0
 76
     0
330
23
  0
LAYOUT
  5
22
102
{ACAD_REACTORS
330
1A
102
}
330
1A
100
AcDbPlotSettings
  1

  2
none_device
  4

  6

 40
0.0
 41
0.0
 42
0.0
 43
0.0
 44
0.0
 45
0.0
 46
0.0
 47
0.0
 48
0.0
 49
0.0
140
0.0
141
0.0
142
1.0
143
1.0
 70
  1712
 72
     0
 73
     0
 74
     0
  7

 75
     0
 76
     0
 77
     2
 78
   300
147
1.0
148
0.0
149
0.0
100
AcDbLayout
  1
Model
 70
     1
 71
     0
 10
0.0
 20
0.0
 11
12.0
 21
9.0
 12
0.0
 22
0.0
 32
0.0
 14
1.000000000000000E+20
 24
1.000000000000000E+20
 34
1.000000000000000E+20
 15
-1.000000000000000E+20
 25
-1.000000000000000E+20
 35
-1.000000000000000E+20
146
0.0
 13
0.0
 23
0.0
 33
0.0
 16
1.0
 26
0.0
 36
0.0
 17
0.0
 27
1.0
 37
0.0
 76
     0
330
1F
331
29
  0
MATERIAL
  5
3D
102
{ACAD_REACTORS
330
3B
102
}
330
3B
100
AcDbMaterial
  1
ByBlock
 72
     1
 94
      127
  0
MATERIAL
  5
3C
102
{ACAD_REACTORS
330
3B
102
}
330
3B
100
AcDbMaterial
  1
ByLayer
 72
     1
 94
      127
  0
MATERIAL
  5
3E
102
{ACAD_REACTORS
330
3B
102
}
330
3B
100
AcDbMaterial
  1
Global
 72
     1
 94
      127
  0
MLINESTYLE
  5
18
102
{ACAD_REACTORS
330
17
102
}
330
17
100
AcDbMlineStyle
  2
Standard
 70
     0
  3

 62
   256
 51
90.0
 52
90.0
 71
     2
 49
0.5
 62
   256
  6
BYLAYER
 49
-0.5
 62
   256
  6
BYLAYER
  0
ACDBPLACEHOLDER
  5
F
102
{ACAD_REACTORS
330
E
102
}
330
E
  0
VISUALSTYLE
  5
2F
102
{ACAD_REACTORS
330
2A
102
}
330
2A
100
AcDbVisualStyle
  2
2dWireframe
 70
     4
177
     2
291
     0
 71
     0
176
     1
 72
     2
176
     1
 73
     0
176
     1
 90
        0
176
     1
 40
-0.6
176
     1
 41
-30.0
176
     1
 62
     5
 63
     7
421
 16777215
176
     1
 74
     1
176
     1
 91
        4
176
     1
 64
     7
176
     1
 65
   257
176
     1
 75
     1
176
     1
175
     1
176
     1
 42
1.0
176
     1
 92
        0
176
     1
 66
   257
176
     1
 43
1.0
176
     1
 76
     1
176
     1
 77
     6
176
     1
 78
     2
176
     1
 67
     7
176
     1
 79
     5
176
     1
170
     0
176
     1
171
     0
176
     1
290
     0
176
     1
 93
        1
176
     1
 44
0.0
176
     1
173
     0
176
     1
  0
VISUALSTYLE
  5
31
102
{ACAD_REACTORS
330
2A
102
}
330
2A
100
AcDbVisualStyle
  2
3D Hidden
 70
     6
177
     2
291
     0
 71
     1
176
     1
 72
     2
176
     1
 73
     2
176
     1
 90
        0
176
     1
 40
-0.6
176
     1
 41
-30.0
176
     1
 62
     5
 63
     7
421
 16777215
176
     1
 74
     2
176
     1
 91
        2
176
     1
 64
     7
176
     1
 65
   257
176
     1
 75
     2
176
     1
175
     1
176
     1
 42
40.0
176
     1
 92
        0
176
     1
 66
   257
176
     1
 43
1.0
176
     1
 76
     1
176
     1
 77
     6
176
     1
 78
     2
176
     1
 67
     7
176
     1
 79
     3
176
     1
170
     0
176
     1
171
     0
176
     1
290
     0
176
     1
 93
        1
176
     1
 44
0.0
176
     1
173
     0
176
     1
  0
VISUALSTYLE
  5
30
102
{ACAD_REACTORS
330
2A
102
}
330
2A
100
AcDbVisualStyle
  2
3dWireframe
 70
     5
177
     2
291
     0
 71
     0
176
     1
 72
     2
176
     1
 73
     0
176
     1
 90
        0
176
     1
 40
-0.6
176
     1
 41
-30.0
176
     1
 62
     5
 63
     7
421
 16777215
176
     1
 74
     1
176
     1
 91
        4
176
     1
 64
     7
176
     1
 65
   257
176
     1
 75
     1
176
     1
175
     1
176
     1
 42
1.0
176
     1
 92
        0
176
     1
 66
   257
176
     1
 43
1.0
176
     1
 76
     1
176
     1
 77
     6
176
     1
 78
     2
176
     1
 67
     7
176
     1
 79
     5
176
     1
170
     0
176
     1
171
     0
176
     1
290
     0
176
     1
 93
        1
176
     1
 44
0.0
176
     1
173
     0
176
     1
  0
VISUALSTYLE
  5
32
102
{ACAD_REACTORS
330
2A
102
}
330
2A
100
AcDbVisualStyle
  2
Basic
 70
     7
177
     2
291
     1
 71
     1
176
     1
 72
     0
176
     1
 73
     1
176
     1
 90
        0
176
     1
 40
-0.6
176
     1
 41
-30.0
176
     1
 62
     5
 63
     7
421
 16777215
176
     1
 74
     0
176
     1
 91
        4
176
     1
 64
     7
176
     1
 65
   257
176
     1
 75
     1
176
     1
175
     1
176
     1
 42
1.0
176
     1
 92
        8
176
     1
 66
     7
176
     1
 43
1.0
176
     1
 76
     1
176
     1
 77
     6
176
     1
 78
     2
176
     1
 67
     7
176
     1
 79
     5
176
     1
170
     0
176
     1
171
     0
176
     1
290
     0
176
     1
 93
        1
176
     1
 44
0.0
176
     1
173
     0
176
     1
  0
VISUALSTYLE
  5
36
102
{ACAD_REACTORS
330
2A
102
}
330
2A
100
AcDbVisualStyle
  2
Brighten
 70
    12
177
     2
291
     1
 71
     2
176
     1
 72
     2
176
     1
 73
     0
176
     1
 90
        0
176
     1
 40
-0.6
176
     1
 41
-30.0
176
     1
 62
     5
 63
     7
421
 16777215
176
     1
 74
     1
176
     1
 91
        4
176
     1
 64
     7
176
     1
 65
   257
176
     1
 75
     1
176
     1
175
     1
176
     1
 42
1.0
176
     1
 92
        8
176
     1
 66
     7
176
     1
 43
1.0
176
     1
 76
     1
176
     1
 77
     6
176
     1
 78
     2
176
     1
 67
     7
176
     1
 79
     5
176
     1
170
     0
176
     1
171
     0
176
     1
290
     0
176
     1
 93
        1
176
     1
 44
50.0
176
     1
173
     0
176
     1
  0
VISUALSTYLE
  5
3A
102
{ACAD_REACTORS
330
2A
102
}
330
2A
100
AcDbVisualStyle
  2
ColorChange
 70
    16
177
     2
291
     1
 71
     2
176
     1
 72
     2
176
     1
 73
     3
176
     1
 90
        0
176
     1
 40
-0.6
176
     1
 41
-30.0
176
     1
 62
     5
 63
     8
421
  8421504
176
     1
 74
     1
176
     1
 91
        4
176
     1
 64
     7
176
     1
 65
   257
176
     1
 75
     1
176
     1
175
     1
176
     1
 42
1.0
176
     1
 92
        8
176
     1
 66
     8
424
  8421504
176
     1
 43
1.0
176
     1
 76
     1
176
     1
 77
     6
176
     1
 78
     2
176
     1
 67
     7
176
     1
 79
     5
176
     1
170
     0
176
     1
171
     0
176
     1
290
     0
176
     1
 93
        1
176
     1
 44
0.0
176
     1
173
     0
176
     1
  0
VISUALSTYLE
  5
34
102
{ACAD_REACTORS
330
2A
102
}
330
2A
100
AcDbVisualStyle
  2
Conceptual
 70
     9
177
     2
291
     0
 71
     3
176
     1
 72
     2
176
     1
 73
     0
176
     1
 90
        0
176
     1
 40
-0.6
176
     1
 41
-30.0
176
     1
 62
     5
 63
     7
421
 16777215
176
     1
 74
     2
176
     1
 91
        2
176
     1
 64
     7
176
     1
 65
   257
176
     1
 75
     1
176
     1
175
     1
176
     1
 42
40.0
176
     1
 92
        8
176
     1
 66
     7
176
     1
 43
1.0
176
     1
 76
     1
176
     1
 77
     6
176
     1
 78
     2
176
     1
 67
     7
176
     1
 79
     3
176
     1
170
     0
176
     1
171
     0
176
     1
290
     0
176
     1
 93
        1
176
     1
 44
0.0
176
     1
173
     0
176
     1
  0
VISUALSTYLE
  5
35
102
{ACAD_REACTORS
330
2A
102
}
330
2A
100
AcDbVisualStyle
  2
Dim
 70
    11
177
     2
291
     1
 71
     2
176
     1
 72
     2
176
     1
 73
     0
176
     1
 90
        0
176
     1
 40
-0.6
176
     1
 41
-30.0
176
     1
 62
     5
 63
     7
421
 16777215
176
     1
 74
     1
176
     1
 91
        4
176
     1
 64
     7
176
     1
 65
   257
176
     1
 75
     1
176
     1
175
     1
176
     1
 42
1.0
176
     1
 92
        8
176
     1
 66
     7
176
     1
 43
1.0
176
     1
 76
     1
176
     1
 77
     6
176
     1
 78
     2
176
     1
 67
     7
176
     1
 79
     5
176
     1
170
     0
176
     1
171
     0
176
     1
290
     0
176
     1
 93
        1
176
     1
 44
-50.0
176
     1
173
     0
176
     1
  0
VISUALSTYLE
  5
39
102
{ACAD_REACTORS
330
2A
102
}
330
2A
100
AcDbVisualStyle
  2
Facepattern
 70
    15
177
     2
291
     1
 71
     2
176
     1
 72
     2
176
     1
 73
     0
176
     1
 90
        0
176
     1
 40
-0.6
176
     1
 41
-30.0
176
     1
 62
     5
 63
     7
421
 16777215
176
     1
 74
     1
176
     1
 91
        4
176
     1
 64
     7
176
     1
 65
   257
176
     1
 75
     1
176
     1
175
     1
176
     1
 42
1.0
176
     1
 92
        8
176
     1
 66
     7
176
     1
 43
1.0
176
     1
 76
     1
176
     1
 77
     6
176
     1
 78
     2
176
     1
 67
     7
176
     1
 79
     5
176
     1
170
     0
176
     1
171
     0
176
     1
290
     0
176
     1
 93
        1
176
     1
 44
0.0
176
     1
173
     0
176
     1
  0
VISUALSTYLE
  5
2B
102
{ACAD_REACTORS
330
2A
102
}
330
2A
100
AcDbVisualStyle
  2
Flat
 70
     0
177
     2
291
     1
 71
     2
176
     1
 72
     1
176
     1
 73
     1
176
     1
 90
        2
176
     1
 40
-0.6
176
     1
 41
30.0
176
     1
 62
     5
 63
     7
421
 16777215
176
     1
 74
     0
176
     1
 91
        4
176
     1
 64
     7
176
     1
 65
   257
176
     1
 75
     1
176
     1
175
     1
176
     1
 42
1.0
176
     1
 92
        8
176
     1
 66
     7
176
     1
 43
1.0
176
     1
 76
     1
176
     1
 77
     6
176
     1
 78
     2
176
     1
 67
     7
176
     1
 79
     5
176
     1
170
     0
176
     1
171
     0
176
     1
290
     0
176
     1
 93
       13
176
     1
 44
0.0
176
     1
173
     0
176
     1
  0
VISUALSTYLE
  5
2C
102
{ACAD_REACTORS
330
2A
102
}
330
2A
100
AcDbVisualStyle
  2
FlatWithEdges
 70
     1
177
     2
291
     1
 71
     2
176
     1
 72
     1
176
     1
 73
     1
176
     1
 90
        2
176
     1
 40
-0.6
176
     1
 41
30.0
176
     1
 62
     5
 63
     7
421
 16777215
176
     1
 74
     1
176
     1
 91
        4
176
     1
 64
     7
176
     1
 65
   257
176
     1
 75
     1
176
     1
175
     1
176
     1
 42
1.0
176
     1
 92
        0
176
     1
 66
   257
176
     1
 43
1.0
176
     1
 76
     1
176
     1
 77
     6
176
     1
 78
     2
176
     1
 67
     7
176
     1
 79
     5
176
     1
170
     0
176
     1
171
     0
176
     1
290
     0
176
     1
 93
       13
176
     1
 44
0.0
176
     1
173
     0
176
     1
  0
VISUALSTYLE
  5
2D
102
{ACAD_REACTORS
330
2A
102
}
330
2A
100
AcDbVisualStyle
  2
Gouraud
 70
     2
177
     2
291
     1
 71
     2
176
     1
 72
     2
176
     1
 73
     1
176
     1
 90
        2
176
     1
 40
-0.6
176
     1
 41
30.0
176
     1
 62
     5
 63
     7
421
 16777215
176
     1
 74
     0
176
     1
 91
        4
176
     1
 64
     7
176
     1
 65
   257
176
     1
 75
     1
176
     1
175
     1
176
     1
 42
1.0
176
     1
 92
        0
176
     1
 66
     7
176
     1
 43
1.0
176
     1
 76
     1
176
     1
 77
     6
176
     1
 78
     2
176
     1
 67
     7
176
     1
 79
     5
176
     1
170
     0
176
     1
171
     0
176
     1
290
     0
176
     1
 93
       13
176
     1
 44
0.0
176
     1
173
     0
176
     1
  0
VISUALSTYLE
  5
2E
102
{ACAD_REACTORS
330
2A
102
}
330
2A
100
AcDbVisualStyle
  2
GouraudWithEdges
 70
     3
177
     2
291
     1
 71
     2
176
     1
 72
     2
176
     1
 73
     1
176
     1
 90
        2
176
     1
 40
-0.6
176
     1
 41
30.0
176
     1
 62
     5
 63
     7
421
 16777215
176
     1
 74
     1
176
     1
 91
        4
176
     1
 64
     7
176
     1
 65
   257
176
     1
 75
     1
176
     1
175
     1
176
     1
 42
1.0
176
     1
 92
        0
176
     1
 66
   257
176
     1
 43
1.0
176
     1
 76
     1
176
     1
 77
     6
176
     1
 78
     2
176
     1
 67
     7
176
     1
 79
     5
176
     1
170
     0
176
     1
171
     0
176
     1
290
     0
176
     1
 93
       13
176
     1
 44
0.0
176
     1
173
     0
176
     1
  0
VISUALSTYLE
  5
38
102
{ACAD_REACTORS
330
2A
102
}
330
2A
100
AcDbVisualStyle
  2
Linepattern
 70
    14
177
     2
291
     1
 71
     2
176
     1
 72
     2
176
     1
 73
     0
176
     1
 90
        0
176
     1
 40
-0.6
176
     1
 41
-30.0
176
     1
 62
     5
 63
     7
421
 16777215
176
     1
 74
     1
176
     1
 91
        4
176
     1
 64
     7
176
     1
 65
   257
176
     1
 75
     7
176
     1
175
     7
176
     1
 42
1.0
176
     1
 92
        8
176
     1
 66
     7
176
     1
 43
1.0
176
     1
 76
     1
176
     1
 77
     6
176
     1
 78
     2
176
     1
 67
     7
176
     1
 79
     5
176
     1
170
     0
176
     1
171
     0
176
     1
290
     0
176
     1
 93
        1
176
     1
 44
0.0
176
     1
173
     0
176
     1
  0
VISUALSTYLE
  5
33
102
{ACAD_REACTORS
330
2A
102
}
330
2A
100
AcDbVisualStyle
  2
Realistic
 70
     8
177
     2
291
     0
 71
     2
176
     1
 72
     2
176
     1
 73
     0
176
     1
 90
        0
176
     1
 40
-0.6
176
     1
 41
-30.0
176
     1
 62
     5
 63
     7
421
 16777215
176
     1
 74
     1
176
     1
 91
        0
176
     1
 64
     7
176
     1
 65
   257
176
     1
 75
     1
176
     1
175
     1
176
     1
 42
1.0
176
     1
 92
        8
176
     1
 66
     8
424
  7895160
176
     1
 43
1.0
176
     1
 76
     1
176
     1
 77
     6
176
     1
 78
     2
176
     1
 67
     7
176
     1
 79
     5
176
     1
170
     0
176
     1
171
     0
176
     1
290
     0
176
     1
 93
       13
176
     1
 44
0.0
176
     1
173
     0
176
     1
  0
VISUALSTYLE
  5
37
102
{ACAD_REACTORS
330
2A
102
}
330
2A
100
AcDbVisualStyle
  2
Thicken
 70
    13
177
     2
291
     1
 71
     2
176
     1
 72
     2
176
     1
 73
     0
176
     1
 90
        0
176
     1
 40
-0.6
176
     1
 41
-30.0
176
     1
 62
     5
 63
     7
421
 16777215
176
     1
 74
     1
176
     1
 91
        4
176
     1
 64
     7
176
     1
 65
   257
176
     1
 75
     1
176
     1
175
     1
176
     1
 42
1.0
176
     1
 92
       12
176
     1
 66
     7
176
     1
 43
1.0
176
     1
 76
     1
176
     1
 77
     6
176
     1
 78
     2
176
     1
 67
     7
176
     1
 79
     5
176
     1
170
     0
176
     1
171
     0
176
     1
290
     0
176
     1
 93
        1
176
     1
 44
0.0
176
     1
173
     0
176
     1
  0
ENDSEC
  0
EOF
