  0
SECTION
  2
HEADER
  9
$ACADVER
  1
AC1024
  9
$ACADMAINTVER
 70
     6
  9
$DWGCODEPAGE
  3
UNDEFINED
  9
$INSBASE
 10
0.0
 20
0.0
 30
0.0
  9
$EXTMIN
 10
1.000000000000000E+20
 20
1.000000000000000E+20
 30
1.000000000000000E+20
  9
$EXTMAX
 10
-1.000000000000000E+20
 20
-1.000000000000000E+20
 30
-1.000000000000000E+20
  9
$LIMMIN
 10
0.0
 20
0.0
  9
$LIMMAX
 10
12.0
 20
9.0
  9
$ORTHOMODE
 70
     0
  9
$REGENMODE
 70
     1
  9
$FILLMODE
 70
     1
  9
$QTEXTMODE
 70
     0
  9
$MIRRTEXT
 70
     1
  9
$LTSCALE
 40
1.0
  9
$ATTMODE
 70
     1
  9
$TEXTSIZE
 40
0.2
  9
$TRACEWID
 40
0.05
  9
$TEXTSTYLE
  7
Standard
  9
$CLAYER
  8
0
  9
$CELTYPE
  6
ByLayer
  9
$CECOLOR
 62
   256
  9
$CELTSCALE
 40
1.0
  9
$DISPSILH
 70
     0
  9
$DIMSCALE
 40
1.0
  9
$DIMASZ
 40
0.18
  9
$DIMEXO
 40
0.0625
  9
$DIMDLI
 40
0.38
  9
$DIMRND
 40
0.0
  9
$DIMDLE
 40
0.0
  9
$DIMEXE
 40
0.18
  9
$DIMTP
 40
0.0
  9
$DIMTM
 40
0.0
  9
$DIMTXT
 40
0.18
  9
$DIMCEN
 40
0.09
  9
$DIMTSZ
 40
0.0
  9
$DIMTOL
 70
     0
  9
$DIMLIM
 70
     0
  9
$DIMTIH
 70
     1
  9
$DIMTOH
 70
     1
  9
$DIMSE1
 70
     0
  9
$DIMSE2
 70
     0
  9
$DIMTAD
 70
     0
  9
$DIMZIN
 70
     0
  9
$DIMBLK
  1

  9
$DIMASO
 70
     1
  9
$DIMSHO
 70
     1
  9
$DIMPOST
  1

  9
$DIMAPOST
  1

  9
$DIMALT
 70
     0
  9
$DIMALTD
 70
     2
  9
$DIMALTF
 40
25.4
  9
$DIMLFAC
 40
1.0
  9
$DIMTOFL
 70
     0
  9
$DIMTVP
 40
0.0
  9
$DIMTIX
 70
     0
  9
$DIMSOXD
 70
     0
  9
$DIMSAH
 70
     0
  9
$DIMBLK1
  1

  9
$DIMBLK2
  1

  9
$DIMSTYLE
  2
Standard
  9
$DIMCLRD
 70
     0
  9
$DIMCLRE
 70
     0
  9
$DIMCLRT
 70
     0
  9
$DIMTFAC
 40
1.0
  9
$DIMGAP
 40
0.09
  9
$DIMJUST
 70
     0
  9
$DIMSD1
 70
     0
  9
$DIMSD2
 70
     0
  9
$DIMTOLJ
 70
     1
  9
$DIMTZIN
 70
     0
  9
$DIMALTZ
 70
     0
  9
$DIMALTTZ
 70
     0
  9
$DIMUPT
 70
     0
  9
$DIMDEC
 70
     4
  9
$DIMTDEC
 70
     4
  9
$DIMALTU
 70
     2
  9
$DIMALTTD
 70
     2
  9
$DIMTXSTY
  7
Standard
  9
$DIMAUNIT
 70
     0
  9
$DIMADEC
 70
     0
  9
$DIMALTRND
 40
0.0
  9
$DIMAZIN
 70
     0
  9
$DIMDSEP
 70
    46
  9
$DIMATFIT
 70
     3
  9
$DIMFRAC
 70
     0
  9
$DIMLDRBLK
  1

  9
$DIMLUNIT
 70
     2
  9
$DIMLWD
 70
    -2
  9
$DIMLWE
 70
    -2
  9
$DIMTMOVE
 70
     0
  9
$DIMFXL
 40
1.0
  9
$DIMFXLON
 70
     0
  9
$DIMJOGANG
 40
0.7853981633974483
  9
$DIMTFILL
 70
     0
  9
$DIMTFILLCLR
 70
     0
  9
$DIMARCSYM
 70
     0
  9
$DIMLTYPE
  6

  9
$DIMLTEX1
  6

  9
$DIMLTEX2
  6

  9
$DIMTXTDIRECTION
 70
     0
  9
$LUNITS
 70
     2
  9
$LUPREC
 70
     4
  9
$SKETCHINC
 40
0.1
  9
$FILLETRAD
 40
0.5
  9
$AUNITS
 70
     0
  9
$AUPREC
 70
     0
  9
$MENU
  1
.
  9
$ELEVATION
 40
0.0
  9
$PELEVATION
 40
0.0
  9
$THICKNESS
 40
0.0
  9
$LIMCHECK
 70
     0
  9
$CHAMFERA
 40
0.5
  9
$CHAMFERB
 40
0.5
  9
$CHAMFERC
 40
1.0
  9
$CHAMFERD
 40
0.0
  9
$SKPOLY
 70
     0
  9
$TDCREATE
 40
2457917.588379618
  9
$TDUCREATE
 40
2457917.213379629
  9
$TDUPDATE
 40
2457917.588391204
  9
$TDUUPDATE
 40
2457917.213391204
  9
$TDINDWG
 40
0.0000000116
  9
$TDUSRTIMER
 40
0.0000000116
  9
$USRTIMER
 70
     1
  9
$ANGBASE
 50
0.0
  9
$ANGDIR
 70
     0
  9
$PDMODE
 70
     0
  9
$PDSIZE
 40
0.0
  9
$PLINEWID
 40
0.0
  9
$SPLFRAME
 70
     0
  9
$SPLINETYPE
 70
     6
  9
$SPLINESEGS
 70
     8
  9
$HANDSEED
  5
E0
  9
$SURFTAB1
 70
     6
  9
$SURFTAB2
 70
     6
  9
$SURFTYPE
 70
     6
  9
$SURFU
 70
     6
  9
$SURFV
 70
     6
  9
$UCSBASE
  2

  9
$UCSNAME
  2

  9
$UCSORG
 10
0.0
 20
0.0
 30
0.0
  9
$UCSXDIR
 10
1.0
 20
0.0
 30
0.0
  9
$UCSYDIR
 10
0.0
 20
1.0
 30
0.0
  9
$UCSORTHOREF
  2

  9
$UCSORTHOVIEW
 70
     0
  9
$UCSORGTOP
 10
0.0
 20
0.0
 30
0.0
  9
$UCSORGBOTTOM
 10
0.0
 20
0.0
 30
0.0
  9
$UCSORGLEFT
 10
0.0
 20
0.0
 30
0.0
  9
$UCSORGRIGHT
 10
0.0
 20
0.0
 30
0.0
  9
$UCSORGFRONT
 10
0.0
 20
0.0
 30
0.0
  9
$UCSORGBACK
 10
0.0
 20
0.0
 30
0.0
  9
$PUCSBASE
  2

  9
$PUCSNAME
  2

  9
$PUCSORG
 10
0.0
 20
0.0
 30
0.0
  9
$PUCSXDIR
 10
1.0
 20
0.0
 30
0.0
  9
$PUCSYDIR
 10
0.0
 20
1.0
 30
0.0
  9
$PUCSORTHOREF
  2

  9
$PUCSORTHOVIEW
 70
     0
  9
$PUCSORGTOP
 10
0.0
 20
0.0
 30
0.0
  9
$PUCSORGBOTTOM
 10
0.0
 20
0.0
 30
0.0
  9
$PUCSORGLEFT
 10
0.0
 20
0.0
 30
0.0
  9
$PUCSORGRIGHT
 10
0.0
 20
0.0
 30
0.0
  9
$PUCSORGFRONT
 10
0.0
 20
0.0
 30
0.0
  9
$PUCSORGBACK
 10
0.0
 20
0.0
 30
0.0
  9
$USERI1
 70
     0
  9
$USERI2
 70
     0
  9
$USERI3
 70
     0
  9
$USERI4
 70
     0
  9
$USERI5
 70
     0
  9
$USERR1
 40
0.0
  9
$USERR2
 40
0.0
  9
$USERR3
 40
0.0
  9
$USERR4
 40
0.0
  9
$USERR5
 40
0.0
  9
$WORLDVIEW
 70
     1
  9
$SHADEDGE
 70
     3
  9
$SHADEDIF
 70
    70
  9
$TILEMODE
 70
     1
  9
$MAXACTVP
 70
    64
  9
$PINSBASE
 10
0.0
 20
0.0
 30
0.0
  9
$PLIMCHECK
 70
     0
  9
$PEXTMIN
 10
1.000000000000000E+20
 20
1.000000000000000E+20
 30
1.000000000000000E+20
  9
$PEXTMAX
 10
-1.000000000000000E+20
 20
-1.000000000000000E+20
 30
-1.000000000000000E+20
  9
$PLIMMIN
 10
0.0
 20
0.0
  9
$PLIMMAX
 10
12.0
 20
9.0
  9
$UNITMODE
 70
     0
  9
$VISRETAIN
 70
     1
  9
$PLINEGEN
 70
     0
  9
$PSLTSCALE
 70
     1
  9
$TREEDEPTH
 70
  3020
  9
$CMLSTYLE
  2
Standard
  9
$CMLJUST
 70
     0
  9
$CMLSCALE
 40
1.0
  9
$PROXYGRAPHICS
 70
     1
  9
$MEASUREMENT
 70
     0
  9
$CELWEIGHT
370
    -1
  9
$ENDCAPS
280
     0
  9
$JOINSTYLE
280
     0
  9
$LWDISPLAY
290
     1
  9
$INSUNITS
 70
     1
  9
$HYPERLINKBASE
  1

  9
$STYLESHEET
  1

  9
$XEDIT
290
     1
  9
$CEPSNTYPE
380
     0
  9
$PSTYLEMODE
290
     1
  9
$FINGERPRINTGUID
  2
{DBA36991-76CC-F80D-C0E4-B821C1F8598A}
  9
$VERSIONGUID
  2
{FAEB1C32-E019-11D5-929B-00C0DF256EC4}
  9
$EXTNAMES
290
     1
  9
$PSVPSCALE
 40
0.0
  9
$OLESTARTUP
290
     0
  9
$SORTENTS
280
   127
  9
$INDEXCTL
280
     0
  9
$HIDETEXT
280
     1
  9
$XCLIPFRAME
280
     2
  9
$HALOGAP
280
     0
  9
$OBSCOLOR
 70
   257
  9
$OBSLTYPE
280
     0
  9
$INTERSECTIONDISPLAY
280
     0
  9
$INTERSECTIONCOLOR
 70
   257
  9
$DIMASSOC
280
     2
  9
$PROJECTNAME
  1

  9
$CAMERADISPLAY
290
     0
  9
$LENSLENGTH
 40
50.0
  9
$CAMERAHEIGHT
 40
0.0
  9
$STEPSPERSEC
 40
2.0
  9
$STEPSIZE
 40
6.0
  9
$3DDWFPREC
 40
2.0
  9
$PSOLWIDTH
 40
0.25
  9
$PSOLHEIGHT
 40
4.0
  9
$LOFTANG1
 40
1.570796326794897
  9
$LOFTANG2
 40
1.570796326794897
  9
$LOFTMAG1
 40
0.0
  9
$LOFTMAG2
 40
0.0
  9
$LOFTPARAM
 70
     7
  9
$LOFTNORMALS
280
     1
  9
$LATITUDE
 40
37.795
  9
$LONGITUDE
 40
-122.394
  9
$NORTHDIRECTION
 40
0.0
  9
$TIMEZONE
 70
 -8000
  9
$LIGHTGLYPHDISPLAY
280
     1
  9
$TILEMODELIGHTSYNCH
280
     1
  9
$CMATERIAL
347
3C
  9
$SOLIDHIST
280
     1
  9
$SHOWHIST
280
     1
  9
$DWFFRAME
280
     2
  9
$DGNFRAME
280
     2
  9
$REALWORLDSCALE
290
     1
  9
$INTERFERECOLOR
 62
   256
  9
$CSHADOW
280
     0
  9
$SHADOWPLANELOCATION
 40
0.0
  0
ENDSEC
  0
SECTION
  2
CLASSES
  0
CLASS
  1
ACDBDICTIONARYWDFLT
  2
AcDbDictionaryWithDefault
  3
ObjectDBX Classes
 90
        0
 91
        4
280
     0
281
     0
  0
CLASS
  1
VISUALSTYLE
  2
AcDbVisualStyle
  3
ObjectDBX Classes
 90
     4095
 91
        4
280
     0
281
     0
  0
CLASS
  1
MATERIAL
  2
AcDbMaterial
  3
ObjectDBX Classes
 90
     1153
 91
        4
280
     0
281
     0
  0
CLASS
  1
SUN
  2
AcDbSun
  3
SCENEOE
 90
     1024
 91
        4
280
     0
281
     0
  0
ENDSEC
  0
SECTION
  2
TABLES
  0
TABLE
  2
VPORT
  5
8
330
0
100
AcDbSymbolTable
 70
     1
  0
VPORT
  5
29
330
8
100
AcDbSymbolTableRecord
100
AcDbViewportTableRecord
  2
*Active
 70
     0
 10
0.0
 20
0.0
 11
1.0
 21
1.0
 12
0.0
 22
0.0
 13
0.0
 23
0.0
 14
0.5
 24
0.5
 15
0.5
 25
0.5
 16
0.0
 26
0.0
 36
1.0
 17
63.499999984125
 27
-89.00059456108309
 37
0.0
 40
178.0011891221662
 41
0.7134783795241226
 42
50.0
 43
0.0
 44
0.0
 50
0.0
 51
0.0
 71
     0
 72
   100
 73
     1
 74
     3
 75
     0
 76
     0
 77
     0
 78
     0
281
     0
 65
     1
110
0.0
120
0.0
130
0.0
111
1.0
121
0.0
131
0.0
112
0.0
122
1.0
132
0.0
 79
     0
146
0.0
 60
     3
 61
     5
292
     1
282
     1
141
0.0
142
0.0
 63
   250
361
3F
  0
ENDTAB
  0
TABLE
  2
LTYPE
  5
5
330
0
100
AcDbSymbolTable
 70
     1
  0
LTYPE
  5
14
330
5
100
AcDbSymbolTableRecord
100
AcDbLinetypeTableRecord
  2
ByBlock
 70
     0
  3

 72
    65
 73
     0
 40
0.0
  0
LTYPE
  5
15
330
5
100
AcDbSymbolTableRecord
100
AcDbLinetypeTableRecord
  2
ByLayer
 70
     0
  3

 72
    65
 73
     0
 40
0.0
  0
LTYPE
  5
16
330
5
100
AcDbSymbolTableRecord
100
AcDbLinetypeTableRecord
  2
Continuous
 70
     0
  3
Solid line
 72
    65
 73
     0
 40
0.0
  0
ENDTAB
  0
TABLE
  2
LAYER
  5
2
330
0
100
AcDbSymbolTable
 70
     2
  0
LAYER
  5
10
330
2
100
AcDbSymbolTableRecord
100
AcDbLayerTableRecord
  2
0
 70
     0
 62
     7
  6
Continuous
370
    -3
390
F
347
3E
  0
LAYER
  5
40
330
2
100
AcDbSymbolTableRecord
100
AcDbLayerTableRecord
  2
_U+30EC_U+30A4_U+30E4_U+30FC 1
 70
     0
 62
     7
  6
Continuous
370
    -3
390
F
347
3E
  0
ENDTAB
  0
TABLE
  2
STYLE
  5
3
330
0
100
AcDbSymbolTable
 70
     1
  0
STYLE
  5
11
330
3
100
AcDbSymbolTableRecord
100
AcDbTextStyleTableRecord
  2
Standard
 70
     0
 40
0.0
 41
1.0
 50
0.0
 71
     0
 42
0.2
  3
txt
  4

  0
ENDTAB
  0
TABLE
  2
VIEW
  5
6
330
0
100
AcDbSymbolTable
 70
     0
  0
ENDTAB
  0
TABLE
  2
UCS
  5
7
330
0
100
AcDbSymbolTable
 70
     0
  0
ENDTAB
  0
TABLE
  2
APPID
  5
9
330
0
100
AcDbSymbolTable
 70
     1
  0
APPID
  5
12
330
9
100
AcDbSymbolTableRecord
100
AcDbRegAppTableRecord
  2
ACAD
 70
     0
  0
ENDTAB
  0
TABLE
  2
DIMSTYLE
  5
A
330
0
100
AcDbSymbolTable
 70
     1
100
AcDbDimStyleTable
  0
DIMSTYLE
105
27
330
A
100
AcDbSymbolTableRecord
100
AcDbDimStyleTableRecord
  2
Standard
 70
     0
178
     0
340
11
  0
ENDTAB
  0
TABLE
  2
BLOCK_RECORD
  5
1
330
0
100
AcDbSymbolTable
 70
     7
  0
BLOCK_RECORD
  5
1F
330
1
100
AcDbSymbolTableRecord
100
AcDbBlockTableRecord
  2
*Model_Space
340
22
 70
     0
280
     1
281
     0
  0
BLOCK_RECORD
  5
1B
330
1
100
AcDbSymbolTableRecord
100
AcDbBlockTableRecord
  2
*Paper_Space
340
1E
 70
     0
280
     1
281
     0
  0
BLOCK_RECORD
  5
23
330
1
100
AcDbSymbolTableRecord
100
AcDbBlockTableRecord
  2
*Paper_Space0
340
26
 70
     0
280
     1
281
     0
  0
BLOCK_RECORD
  5
41
330
1
100
AcDbSymbolTableRecord
100
AcDbBlockTableRecord
  2
block 2
340
0
102
{BLKREFS
331
42
102
}
 70
     0
280
     1
281
     0
  0
BLOCK_RECORD
  5
91
330
1
100
AcDbSymbolTableRecord
100
AcDbBlockTableRecord
  2
block 3
340
0
102
{BLKREFS
331
92
102
}
 70
     0
280
     1
281
     0
  0
BLOCK_RECORD
  5
A5
330
1
100
AcDbSymbolTableRecord
100
AcDbBlockTableRecord
  2
block 4
340
0
102
{BLKREFS
331
A6
102
}
 70
     0
280
     1
281
     0
  0
BLOCK_RECORD
  5
B3
330
1
100
AcDbSymbolTableRecord
100
AcDbBlockTableRecord
  2
block 5
340
0
102
{BLKREFS
331
B4
102
}
 70
     0
280
     1
281
     0
  0
BLOCK_RECORD
  5
C5
330
1
100
AcDbSymbolTableRecord
100
AcDbBlockTableRecord
  2
block 6
340
0
102
{BLKREFS
331
C6
102
}
 70
     0
280
     1
281
     0
  0
BLOCK_RECORD
  5
D5
330
1
100
AcDbSymbolTableRecord
100
AcDbBlockTableRecord
  2
block 7
340
0
102
{BLKREFS
331
D6
102
}
 70
     0
280
     1
281
     0
  0
ENDTAB
  0
ENDSEC
  0
SECTION
  2
BLOCKS
  0
BLOCK
  5
20
330
1F
100
AcDbEntity
  8
0
100
AcDbBlockBegin
  2
*Model_Space
 70
     0
 10
0.0
 20
0.0
 30
0.0
  3
*Model_Space
  1

  0
ENDBLK
  5
21
330
1F
100
AcDbEntity
  8
0
100
AcDbBlockEnd
  0
BLOCK
  5
1C
330
1B
100
AcDbEntity
 67
     1
  8
0
100
AcDbBlockBegin
  2
*Paper_Space
 70
     0
 10
0.0
 20
0.0
 30
0.0
  3
*Paper_Space
  1

  0
ENDBLK
  5
1D
330
1B
100
AcDbEntity
 67
     1
  8
0
100
AcDbBlockEnd
  0
BLOCK
  5
24
330
23
100
AcDbEntity
  8
0
100
AcDbBlockBegin
  2
*Paper_Space0
 70
     0
 10
0.0
 20
0.0
 30
0.0
  3
*Paper_Space0
  1

  0
ENDBLK
  5
25
330
23
100
AcDbEntity
  8
0
100
AcDbBlockEnd
  0
BLOCK
  5
43
330
41
100
AcDbEntity
  8
0
100
AcDbBlockBegin
  2
block 2
 70
     0
 10
0.0
 20
0.0
 30
0.0
  3
block 2
  1

  0
POLYLINE
  5
45
330
41
100
AcDbEntity
  8
_U+30EC_U+30A4_U+30E4_U+30FC 1
 62
     7
420
 16777215
370
    25
100
AcDb2dPolyline
 66
     1
 10
0.0
 20
0.0
 30
0.0
  0
VERTEX
  5
46
330
45
100
AcDbEntity
  8
_U+30EC_U+30A4_U+30E4_U+30FC 1
 62
     7
420
 16777215
370
    25
100
AcDbVertex
100
AcDb2dVertex
 10
59.01449960552579
 20
-94.05835192093004
 30
0.0
  0
VERTEX
  5
47
330
45
100
AcDbEntity
  8
_U+30EC_U+30A4_U+30E4_U+30FC 1
 62
     7
420
 16777215
370
    25
100
AcDbVertex
100
AcDb2dVertex
 10
62.0144864734342
 20
-94.05835192093004
 30
0.0
  0
SEQEND
  5
48
330
45
100
AcDbEntity
  8
_U+30EC_U+30A4_U+30E4_U+30FC 1
 62
     7
420
 16777215
370
    25
  0
POLYLINE
  5
49
330
41
100
AcDbEntity
  8
_U+30EC_U+30A4_U+30E4_U+30FC 1
 62
     7
420
 16777215
370
    25
100
AcDb2dPolyline
 66
     1
 10
0.0
 20
0.0
 30
0.0
  0
VERTEX
  5
4A
330
49
100
AcDbEntity
  8
_U+30EC_U+30A4_U+30E4_U+30FC 1
 62
     7
420
 16777215
370
    25
100
AcDbVertex
100
AcDb2dVertex
 10
47.01451685611531
 20
-97.25815219790766
 30
0.0
  0
VERTEX
  5
4B
330
49
100
AcDbEntity
  8
_U+30EC_U+30A4_U+30E4_U+30FC 1
 62
     7
420
 16777215
370
    25
100
AcDbVertex
100
AcDb2dVertex
 10
62.0144864734342
 20
-97.25815219790766
 30
0.0
  0
SEQEND
  5
4C
330
49
100
AcDbEntity
  8
_U+30EC_U+30A4_U+30E4_U+30FC 1
 62
     7
420
 16777215
370
    25
  0
POLYLINE
  5
4D
330
41
100
AcDbEntity
  8
_U+30EC_U+30A4_U+30E4_U+30FC 1
 62
     7
420
 16777215
370
    25
100
AcDb2dPolyline
 66
     1
 10
0.0
 20
0.0
 30
0.0
  0
VERTEX
  5
4E
330
4D
100
AcDbEntity
  8
_U+30EC_U+30A4_U+30E4_U+30FC 1
 62
     7
420
 16777215
370
    25
100
AcDbVertex
100
AcDb2dVertex
 10
62.0144864734342
 20
-94.05835192093004
 30
0.0
  0
VERTEX
  5
4F
330
4D
100
AcDbEntity
  8
_U+30EC_U+30A4_U+30E4_U+30FC 1
 62
     7
420
 16777215
370
    25
100
AcDbVertex
100
AcDb2dVertex
 10
62.0144864734342
 20
-97.25815219790766
 30
0.0
  0
SEQEND
  5
50
330
4D
100
AcDbEntity
  8
_U+30EC_U+30A4_U+30E4_U+30FC 1
 62
     7
420
 16777215
370
    25
  0
POLYLINE
  5
51
330
41
100
AcDbEntity
  8
_U+30EC_U+30A4_U+30E4_U+30FC 1
 62
     7
420
 16777215
370
    25
100
AcDb2dPolyline
 66
     1
 10
0.0
 20
0.0
 30
0.0
  0
VERTEX
  5
52
330
51
100
AcDbEntity
  8
_U+30EC_U+30A4_U+30E4_U+30FC 1
 62
     7
420
 16777215
370
    25
100
AcDbVertex
100
AcDb2dVertex
 10
59.01449960552579
 20
-95.05844164290218
 30
0.0
  0
VERTEX
  5
53
330
51
100
AcDbEntity
  8
_U+30EC_U+30A4_U+30E4_U+30FC 1
 62
     7
420
 16777215
370
    25
100
AcDbVertex
100
AcDb2dVertex
 10
61.01471427671829
 20
-95.05844164290218
 30
0.0
  0
SEQEND
  5
54
330
51
100
AcDbEntity
  8
_U+30EC_U+30A4_U+30E4_U+30FC 1
 62
     7
420
 16777215
370
    25
  0
POLYLINE
  5
55
330
41
100
AcDbEntity
  8
_U+30EC_U+30A4_U+30E4_U+30FC 1
 62
     7
420
 16777215
370
    25
100
AcDb2dPolyline
 66
     1
 10
0.0
 20
0.0
 30
0.0
  0
VERTEX
  5
56
330
55
100
AcDbEntity
  8
_U+30EC_U+30A4_U+30E4_U+30FC 1
 62
     7
420
 16777215
370
    25
100
AcDbVertex
100
AcDb2dVertex
 10
59.01449960552579
 20
-94.05835192093004
 30
0.0
  0
VERTEX
  5
57
330
55
100
AcDbEntity
  8
_U+30EC_U+30A4_U+30E4_U+30FC 1
 62
     7
420
 16777215
370
    25
100
AcDbVertex
100
AcDb2dVertex
 10
59.01449960552579
 20
-95.05844164290218
 30
0.0
  0
SEQEND
  5
58
330
55
100
AcDbEntity
  8
_U+30EC_U+30A4_U+30E4_U+30FC 1
 62
     7
420
 16777215
370
    25
  0
POLYLINE
  5
59
330
41
100
AcDbEntity
  8
_U+30EC_U+30A4_U+30E4_U+30FC 1
 62
     7
420
 16777215
370
    25
100
AcDb2dPolyline
 66
     1
 10
0.0
 20
0.0
 30
0.0
  0
VERTEX
  5
5A
330
59
100
AcDbEntity
  8
_U+30EC_U+30A4_U+30E4_U+30FC 1
 62
     7
420
 16777215
370
    25
100
AcDbVertex
100
AcDb2dVertex
 10
47.01451685611531
 20
-96.25837997593511
 30
0.0
  0
VERTEX
  5
5B
330
59
100
AcDbEntity
  8
_U+30EC_U+30A4_U+30E4_U+30FC 1
 62
     7
420
 16777215
370
    25
100
AcDbVertex
100
AcDb2dVertex
 10
47.01451685611531
 20
-97.25815219790766
 30
0.0
  0
SEQEND
  5
5C
330
59
100
AcDbEntity
  8
_U+30EC_U+30A4_U+30E4_U+30FC 1
 62
     7
420
 16777215
370
    25
  0
POLYLINE
  5
5D
330
41
100
AcDbEntity
  8
_U+30EC_U+30A4_U+30E4_U+30FC 1
 62
     7
420
 16777215
370
    25
100
AcDb2dPolyline
 66
     1
 10
0.0
 20
0.0
 30
0.0
  0
VERTEX
  5
5E
330
5D
100
AcDbEntity
  8
_U+30EC_U+30A4_U+30E4_U+30FC 1
 62
     7
420
 16777215
370
    25
100
AcDbVertex
100
AcDb2dVertex
 10
47.01451685611531
 20
-96.25837997593511
 30
0.0
  0
VERTEX
  5
5F
330
5D
100
AcDbEntity
  8
_U+30EC_U+30A4_U+30E4_U+30FC 1
 62
     7
420
 16777215
370
    25
100
AcDbVertex
100
AcDb2dVertex
 10
47.51475573224204
 20
-96.25837997593511
 30
0.0
  0
SEQEND
  5
60
330
5D
100
AcDbEntity
  8
_U+30EC_U+30A4_U+30E4_U+30FC 1
 62
     7
420
 16777215
370
    25
  0
POLYLINE
  5
61
330
41
100
AcDbEntity
  8
_U+30EC_U+30A4_U+30E4_U+30FC 1
 62
     7
420
 16777215
370
    25
100
AcDb2dPolyline
 66
     1
 10
0.0
 20
0.0
 30
0.0
  0
VERTEX
  5
62
330
61
100
AcDbEntity
  8
_U+30EC_U+30A4_U+30E4_U+30FC 1
 62
     7
420
 16777215
370
    25
100
AcDbVertex
100
AcDb2dVertex
 10
48.52105554342528
 20
-96.25837997593511
 30
0.0
  0
VERTEX
  5
63
330
61
100
AcDbEntity
  8
_U+30EC_U+30A4_U+30E4_U+30FC 1
 62
     7
420
 16777215
370
    25
100
AcDbVertex
100
AcDb2dVertex
 10
61.01471427671829
 20
-96.25837997593511
 30
0.0
  0
SEQEND
  5
64
330
61
100
AcDbEntity
  8
_U+30EC_U+30A4_U+30E4_U+30FC 1
 62
     7
420
 16777215
370
    25
  0
POLYLINE
  5
65
330
41
100
AcDbEntity
  8
_U+30EC_U+30A4_U+30E4_U+30FC 1
 62
     7
420
 16777215
370
    25
100
AcDb2dPolyline
 66
     1
 10
0.0
 20
0.0
 30
0.0
  0
VERTEX
  5
66
330
65
100
AcDbEntity
  8
_U+30EC_U+30A4_U+30E4_U+30FC 1
 62
     7
420
 16777215
370
    25
100
AcDbVertex
100
AcDb2dVertex
 10
61.01471427671829
 20
-95.05844164290218
 30
0.0
  0
VERTEX
  5
67
330
65
100
AcDbEntity
  8
_U+30EC_U+30A4_U+30E4_U+30FC 1
 62
     7
420
 16777215
370
    25
100
AcDbVertex
100
AcDb2dVertex
 10
61.01471427671829
 20
-96.25837997593511
 30
0.0
  0
SEQEND
  5
68
330
65
100
AcDbEntity
  8
_U+30EC_U+30A4_U+30E4_U+30FC 1
 62
     7
420
 16777215
370
    25
  0
POLYLINE
  5
69
330
41
100
AcDbEntity
  8
_U+30EC_U+30A4_U+30E4_U+30FC 1
 62
     7
420
 16777215
370
    25
100
AcDb2dPolyline
 66
     1
 10
0.0
 20
0.0
 30
0.0
  0
VERTEX
  5
6A
330
69
100
AcDbEntity
  8
_U+30EC_U+30A4_U+30E4_U+30FC 1
 62
     7
420
 16777215
370
    25
100
AcDbVertex
100
AcDb2dVertex
 10
49.90736511564593
 20
-84.05826609009671
 30
0.0
  0
VERTEX
  5
6B
330
69
100
AcDbEntity
  8
_U+30EC_U+30A4_U+30E4_U+30FC 1
 62
     7
420
 16777215
370
    25
100
AcDbVertex
100
AcDb2dVertex
 10
74.01443394506781
 20
-84.05826609009671
 30
0.0
  0
SEQEND
  5
6C
330
69
100
AcDbEntity
  8
_U+30EC_U+30A4_U+30E4_U+30FC 1
 62
     7
420
 16777215
370
    25
  0
POLYLINE
  5
6D
330
41
100
AcDbEntity
  8
_U+30EC_U+30A4_U+30E4_U+30FC 1
 62
     7
420
 16777215
370
    25
100
AcDb2dPolyline
 66
     1
 10
0.0
 20
0.0
 30
0.0
  0
VERTEX
  5
6E
330
6D
100
AcDbEntity
  8
_U+30EC_U+30A4_U+30E4_U+30FC 1
 62
     7
420
 16777215
370
    25
100
AcDbVertex
100
AcDb2dVertex
 10
74.01443394506781
 20
-83.05814109034672
 30
0.0
  0
VERTEX
  5
6F
330
6D
100
AcDbEntity
  8
_U+30EC_U+30A4_U+30E4_U+30FC 1
 62
     7
420
 16777215
370
    25
100
AcDbVertex
100
AcDb2dVertex
 10
74.01443394506781
 20
-84.05826609009671
 30
0.0
  0
SEQEND
  5
70
330
6D
100
AcDbEntity
  8
_U+30EC_U+30A4_U+30E4_U+30FC 1
 62
     7
420
 16777215
370
    25
  0
POLYLINE
  5
71
330
41
100
AcDbEntity
  8
_U+30EC_U+30A4_U+30E4_U+30FC 1
 62
     7
420
 16777215
370
    25
100
AcDb2dPolyline
 66
     1
 10
0.0
 20
0.0
 30
0.0
  0
VERTEX
  5
72
330
71
100
AcDbEntity
  8
_U+30EC_U+30A4_U+30E4_U+30FC 1
 62
     7
420
 16777215
370
    25
100
AcDbVertex
100
AcDb2dVertex
 10
49.01476680508468
 20
-83.05814109034672
 30
0.0
  0
VERTEX
  5
73
330
71
100
AcDbEntity
  8
_U+30EC_U+30A4_U+30E4_U+30FC 1
 62
     7
420
 16777215
370
    25
100
AcDbVertex
100
AcDb2dVertex
 10
74.01443394506781
 20
-83.05814109034672
 30
0.0
  0
SEQEND
  5
74
330
71
100
AcDbEntity
  8
_U+30EC_U+30A4_U+30E4_U+30FC 1
 62
     7
420
 16777215
370
    25
  0
POLYLINE
  5
75
330
41
100
AcDbEntity
  8
_U+30EC_U+30A4_U+30E4_U+30FC 1
 62
     7
420
 16777215
370
    25
100
AcDb2dPolyline
 66
     1
 10
0.0
 20
0.0
 30
0.0
  0
VERTEX
  5
76
330
75
100
AcDbEntity
  8
_U+30EC_U+30A4_U+30E4_U+30FC 1
 62
     7
420
 16777215
370
    25
100
AcDbVertex
100
AcDb2dVertex
 10
49.01476680508468
 20
-83.05814109034672
 30
0.0
  0
VERTEX
  5
77
330
75
100
AcDbEntity
  8
_U+30EC_U+30A4_U+30E4_U+30FC 1
 62
     7
420
 16777215
370
    25
100
AcDbVertex
100
AcDb2dVertex
 10
47.51475573224204
 20
-96.25837997593511
 30
0.0
  0
SEQEND
  5
78
330
75
100
AcDbEntity
  8
_U+30EC_U+30A4_U+30E4_U+30FC 1
 62
     7
420
 16777215
370
    25
  0
POLYLINE
  5
79
330
41
100
AcDbEntity
  8
_U+30EC_U+30A4_U+30E4_U+30FC 1
 62
     7
420
 16777215
370
    25
100
AcDb2dPolyline
 66
     1
 10
0.0
 20
0.0
 30
0.0
  0
VERTEX
  5
7A
330
79
100
AcDbEntity
  8
_U+30EC_U+30A4_U+30E4_U+30FC 1
 62
     7
420
 16777215
370
    25
100
AcDbVertex
100
AcDb2dVertex
 10
49.90736511564593
 20
-84.05826609009671
 30
0.0
  0
VERTEX
  5
7B
330
79
100
AcDbEntity
  8
_U+30EC_U+30A4_U+30E4_U+30FC 1
 62
     7
420
 16777215
370
    25
100
AcDbVertex
100
AcDb2dVertex
 10
48.52105554342528
 20
-96.25837997593511
 30
0.0
  0
SEQEND
  5
7C
330
79
100
AcDbEntity
  8
_U+30EC_U+30A4_U+30E4_U+30FC 1
 62
     7
420
 16777215
370
    25
  0
ENDBLK
  5
44
330
41
100
AcDbEntity
  8
0
100
AcDbBlockEnd
  0
BLOCK
  5
93
330
91
100
AcDbEntity
  8
0
100
AcDbBlockBegin
  2
block 3
 70
     0
 10
0.0
 20
0.0
 30
0.0
  3
block 3
  1

  0
SPLINE
  5
95
330
91
100
AcDbEntity
  8
_U+30EC_U+30A4_U+30E4_U+30FC 1
370
     0
100
AcDbSpline
210
0.0
220
0.0
230
1.0
 70
    11
 71
     3
 72
    26
 73
    22
 74
     0
 42
0.0000000001
 43
0.0000000001
 12
1.0
 22
0.0
 32
0.0
 13
1.0
 23
0.0
 33
0.0
 40
0.0
 40
0.0
 40
0.0
 40
0.0
 40
1.0
 40
1.0
 40
1.0
 40
2.0
 40
2.0
 40
2.0
 40
3.0
 40
3.0
 40
3.0
 40
4.0
 40
4.0
 40
4.0
 40
5.0
 40
5.0
 40
5.0
 40
6.0
 40
6.0
 40
6.0
 40
7.0
 40
7.0
 40
7.0
 40
7.0
 10
53.88043211543614
 20
-100.6126356085274
 30
0.0
 10
53.88043211543614
 20
-100.6126356085274
 30
0.0
 10
53.88043211543614
 20
-99.50848250550483
 30
0.0
 10
53.88043211543614
 20
-99.50848250550483
 30
0.0
 10
53.88043211543614
 20
-99.50848250550483
 30
0.0
 10
53.55125324182053
 20
-99.50848250550483
 30
0.0
 10
53.55125324182053
 20
-99.50848250550483
 30
0.0
 10
53.55125324182053
 20
-99.50848250550483
 30
0.0
 10
53.55125324182053
 20
-99.36034339963909
 30
0.0
 10
53.55125324182053
 20
-99.36034339963909
 30
0.0
 10
53.88249917272729
 20
-99.34552948905251
 30
0.0
 10
53.92883570700391
 20
-99.18257647260019
 30
0.0
 10
53.95846352817706
 20
-99.0681993024899
 30
0.0
 10
53.95846352817706
 20
-99.0681993024899
 30
0.0
 10
54.10401881242886
 20
-99.0681993024899
 30
0.0
 10
54.10401881242886
 20
-99.0681993024899
 30
0.0
 10
54.10401881242886
 20
-99.0681993024899
 30
0.0
 10
54.10401881242886
 20
-100.6126356085274
 30
0.0
 10
54.10401881242886
 20
-100.6126356085274
 30
0.0
 10
54.10401881242886
 20
-100.6126356085274
 30
0.0
 10
53.88043211543614
 20
-100.6126356085274
 30
0.0
 10
53.88043211543614
 20
-100.6126356085274
 30
0.0
  0
HATCH
  5
96
330
91
100
AcDbEntity
  8
_U+30EC_U+30A4_U+30E4_U+30FC 1
 62
     7
420
 16777215
100
AcDbHatch
 10
0.0
 20
0.0
 30
0.0
210
0.0
220
0.0
230
1.0
  2
SOLID
 70
     1
 71
     0
 91
        1
 92
        1
 93
        1
 72
     4
 94
        3
 73
     0
 74
     1
 95
       26
 96
       22
 40
0.0
 40
0.0
 40
0.0
 40
0.0
 40
1.0
 40
1.0
 40
1.0
 40
2.0
 40
2.0
 40
2.0
 40
3.0
 40
3.0
 40
3.0
 40
4.0
 40
4.0
 40
4.0
 40
5.0
 40
5.0
 40
5.0
 40
6.0
 40
6.0
 40
6.0
 40
7.0
 40
7.0
 40
7.0
 40
7.0
 10
53.88043211543614
 20
-100.6126356085274
 10
53.88043211543614
 20
-100.6126356085274
 10
53.88043211543614
 20
-99.50848250550483
 10
53.88043211543614
 20
-99.50848250550483
 10
53.88043211543614
 20
-99.50848250550483
 10
53.55125324182053
 20
-99.50848250550483
 10
53.55125324182053
 20
-99.50848250550483
 10
53.55125324182053
 20
-99.50848250550483
 10
53.55125324182053
 20
-99.36034339963909
 10
53.55125324182053
 20
-99.36034339963909
 10
53.88249917272729
 20
-99.34552948905251
 10
53.92883570700391
 20
-99.18257647260019
 10
53.95846352817706
 20
-99.0681993024899
 10
53.95846352817706
 20
-99.0681993024899
 10
54.10401881242886
 20
-99.0681993024899
 10
54.10401881242886
 20
-99.0681993024899
 10
54.10401881242886
 20
-99.0681993024899
 10
54.10401881242886
 20
-100.6126356085274
 10
54.10401881242886
 20
-100.6126356085274
 10
54.10401881242886
 20
-100.6126356085274
 10
53.88043211543614
 20
-100.6126356085274
 10
53.88043211543614
 20
-100.6126356085274
 97
        0
 97
        0
 75
     2
 76
     1
 98
        0
  0
SPLINE
  5
97
330
91
100
AcDbEntity
  8
_U+30EC_U+30A4_U+30E4_U+30FC 1
370
     0
100
AcDbSpline
210
0.0
220
0.0
230
1.0
 70
    11
 71
     3
 72
    53
 73
    49
 74
     0
 42
0.0000000001
 43
0.0000000001
 12
1.0
 22
0.0
 32
0.0
 13
1.0
 23
0.0
 33
0.0
 40
0.0
 40
0.0
 40
0.0
 40
0.0
 40
1.0
 40
1.0
 40
1.0
 40
2.0
 40
2.0
 40
2.0
 40
3.0
 40
3.0
 40
3.0
 40
4.0
 40
4.0
 40
4.0
 40
5.0
 40
5.0
 40
5.0
 40
6.0
 40
6.0
 40
6.0
 40
7.0
 40
7.0
 40
7.0
 40
8.0
 40
8.0
 40
8.0
 40
9.0
 40
9.0
 40
9.0
 40
10.0
 40
10.0
 40
10.0
 40
11.0
 40
11.0
 40
11.0
 40
12.0
 40
12.0
 40
12.0
 40
13.0
 40
13.0
 40
13.0
 40
14.0
 40
14.0
 40
14.0
 40
15.0
 40
15.0
 40
15.0
 40
16.0
 40
16.0
 40
16.0
 40
16.0
 10
55.08208142069129
 20
-100.6632785121606
 30
0.0
 10
55.00405000795038
 20
-100.6632785121606
 30
0.0
 10
54.90276420068403
 20
-100.6463975442828
 30
0.0
 10
54.80147839341769
 20
-100.5830077873542
 30
0.0
 10
54.62853460005815
 20
-100.4731092413748
 30
0.0
 10
54.60734726282386
 20
-100.3418511033868
 30
0.0
 10
54.58839923765498
 20
-100.2340196146984
 30
0.0
 10
54.58839923765498
 20
-100.2340196146984
 30
0.0
 10
54.80991887735655
 20
-100.2340196146984
 30
0.0
 10
54.80991887735655
 20
-100.2340196146984
 30
0.0
 10
54.86486815034628
 20
-100.4328016241974
 30
0.0
 10
54.99130315465496
 20
-100.4624294453705
 30
0.0
 10
55.0843207327567
 20
-100.4624294453705
 30
0.0
 10
55.22350259036079
 20
-100.4624294453705
 30
0.0
 10
55.37543130126031
 20
-100.3628661858468
 30
0.0
 10
55.37543130126031
 20
-100.1303222405924
 30
0.0
 10
55.37543130126031
 20
-99.87435164603836
 30
0.0
 10
55.19611408125306
 20
-99.8044162076878
 30
0.0
 10
55.07570799404358
 20
-99.8044162076878
 30
0.0
 10
55.04418537035354
 20
-99.8044162076878
 30
0.0
 10
54.90276420068403
 20
-99.8044162076878
 30
0.0
 10
54.81422524671311
 20
-99.93360728838466
 30
0.0
 10
54.81422524671311
 20
-99.93360728838466
 30
0.0
 10
54.63904214128816
 20
-99.91465926321578
 30
0.0
 10
54.63904214128816
 20
-99.91465926321578
 30
0.0
 10
54.63904214128816
 20
-99.91465926321578
 30
0.0
 10
54.75927597372338
 20
-99.0681993024899
 30
0.0
 10
54.75927597372338
 20
-99.0681993024899
 30
0.0
 10
54.75927597372338
 20
-99.0681993024899
 30
0.0
 10
55.53580049609869
 20
-99.0681993024899
 30
0.0
 10
55.53580049609869
 20
-99.0681993024899
 30
0.0
 10
55.53580049609869
 20
-99.0681993024899
 30
0.0
 10
55.53580049609869
 20
-99.26284719740651
 30
0.0
 10
55.53580049609869
 20
-99.26284719740651
 30
0.0
 10
55.53580049609869
 20
-99.26284719740651
 30
0.0
 10
54.92171222585291
 20
-99.26284719740651
 30
0.0
 10
54.92171222585291
 20
-99.26284719740651
 30
0.0
 10
54.92171222585291
 20
-99.26284719740651
 30
0.0
 10
54.85625541163316
 20
-99.68590492299519
 30
0.0
 10
54.85625541163316
 20
-99.68590492299519
 30
0.0
 10
54.91757811127061
 20
-99.65214298723974
 30
0.0
 10
54.99991589336808
 20
-99.61183537006232
 30
0.0
 10
55.11808266851215
 20
-99.61183537006232
 30
0.0
 10
55.37129718667801
 20
-99.61183537006232
 30
0.0
 10
55.60763073696615
 20
-99.79821503581434
 30
0.0
 10
55.60763073696615
 20
-100.1113742154236
 30
0.0
 10
55.60763073696615
 20
-100.4286675096151
 30
0.0
 10
55.38387178519918
 20
-100.6632785121606
 30
0.0
 10
55.08208142069129
 20
-100.6632785121606
 30
0.0
  0
HATCH
  5
98
330
91
100
AcDbEntity
  8
_U+30EC_U+30A4_U+30E4_U+30FC 1
 62
     7
420
 16777215
100
AcDbHatch
 10
0.0
 20
0.0
 30
0.0
210
0.0
220
0.0
230
1.0
  2
SOLID
 70
     1
 71
     0
 91
        1
 92
        1
 93
        1
 72
     4
 94
        3
 73
     0
 74
     1
 95
       53
 96
       49
 40
0.0
 40
0.0
 40
0.0
 40
0.0
 40
1.0
 40
1.0
 40
1.0
 40
2.0
 40
2.0
 40
2.0
 40
3.0
 40
3.0
 40
3.0
 40
4.0
 40
4.0
 40
4.0
 40
5.0
 40
5.0
 40
5.0
 40
6.0
 40
6.0
 40
6.0
 40
7.0
 40
7.0
 40
7.0
 40
8.0
 40
8.0
 40
8.0
 40
9.0
 40
9.0
 40
9.0
 40
10.0
 40
10.0
 40
10.0
 40
11.0
 40
11.0
 40
11.0
 40
12.0
 40
12.0
 40
12.0
 40
13.0
 40
13.0
 40
13.0
 40
14.0
 40
14.0
 40
14.0
 40
15.0
 40
15.0
 40
15.0
 40
16.0
 40
16.0
 40
16.0
 40
16.0
 10
55.08208142069129
 20
-100.6632785121606
 10
55.00405000795038
 20
-100.6632785121606
 10
54.90276420068403
 20
-100.6463975442828
 10
54.80147839341769
 20
-100.5830077873542
 10
54.62853460005815
 20
-100.4731092413748
 10
54.60734726282386
 20
-100.3418511033868
 10
54.58839923765498
 20
-100.2340196146984
 10
54.58839923765498
 20
-100.2340196146984
 10
54.80991887735655
 20
-100.2340196146984
 10
54.80991887735655
 20
-100.2340196146984
 10
54.86486815034628
 20
-100.4328016241974
 10
54.99130315465496
 20
-100.4624294453705
 10
55.0843207327567
 20
-100.4624294453705
 10
55.22350259036079
 20
-100.4624294453705
 10
55.37543130126031
 20
-100.3628661858468
 10
55.37543130126031
 20
-100.1303222405924
 10
55.37543130126031
 20
-99.87435164603836
 10
55.19611408125306
 20
-99.8044162076878
 10
55.07570799404358
 20
-99.8044162076878
 10
55.04418537035354
 20
-99.8044162076878
 10
54.90276420068403
 20
-99.8044162076878
 10
54.81422524671311
 20
-99.93360728838466
 10
54.81422524671311
 20
-99.93360728838466
 10
54.63904214128816
 20
-99.91465926321578
 10
54.63904214128816
 20
-99.91465926321578
 10
54.63904214128816
 20
-99.91465926321578
 10
54.75927597372338
 20
-99.0681993024899
 10
54.75927597372338
 20
-99.0681993024899
 10
54.75927597372338
 20
-99.0681993024899
 10
55.53580049609869
 20
-99.0681993024899
 10
55.53580049609869
 20
-99.0681993024899
 10
55.53580049609869
 20
-99.0681993024899
 10
55.53580049609869
 20
-99.26284719740651
 10
55.53580049609869
 20
-99.26284719740651
 10
55.53580049609869
 20
-99.26284719740651
 10
54.92171222585291
 20
-99.26284719740651
 10
54.92171222585291
 20
-99.26284719740651
 10
54.92171222585291
 20
-99.26284719740651
 10
54.85625541163316
 20
-99.68590492299519
 10
54.85625541163316
 20
-99.68590492299519
 10
54.91757811127061
 20
-99.65214298723974
 10
54.99991589336808
 20
-99.61183537006232
 10
55.11808266851215
 20
-99.61183537006232
 10
55.37129718667801
 20
-99.61183537006232
 10
55.60763073696615
 20
-99.79821503581434
 10
55.60763073696615
 20
-100.1113742154236
 10
55.60763073696615
 20
-100.4286675096151
 10
55.38387178519918
 20
-100.6632785121606
 10
55.08208142069129
 20
-100.6632785121606
 97
        0
 97
        0
 75
     2
 76
     1
 98
        0
  0
ENDBLK
  5
94
330
91
100
AcDbEntity
  8
0
100
AcDbBlockEnd
  0
BLOCK
  5
A7
330
A5
100
AcDbEntity
  8
0
100
AcDbBlockBegin
  2
block 4
 70
     0
 10
0.0
 20
0.0
 30
0.0
  3
block 4
  1

  0
SPLINE
  5
A9
330
A5
100
AcDbEntity
  8
_U+30EC_U+30A4_U+30E4_U+30FC 1
370
     0
100
AcDbSpline
210
0.0
220
0.0
230
1.0
 70
    11
 71
     3
 72
    62
 73
    58
 74
     0
 42
0.0000000001
 43
0.0000000001
 12
1.0
 22
0.0
 32
0.0
 13
1.0
 23
0.0
 33
0.0
 40
0.0
 40
0.0
 40
0.0
 40
0.0
 40
1.0
 40
1.0
 40
1.0
 40
2.0
 40
2.0
 40
2.0
 40
3.0
 40
3.0
 40
3.0
 40
4.0
 40
4.0
 40
4.0
 40
5.0
 40
5.0
 40
5.0
 40
6.0
 40
6.0
 40
6.0
 40
7.0
 40
7.0
 40
7.0
 40
8.0
 40
8.0
 40
8.0
 40
9.0
 40
9.0
 40
9.0
 40
10.0
 40
10.0
 40
10.0
 40
11.0
 40
11.0
 40
11.0
 40
12.0
 40
12.0
 40
12.0
 40
13.0
 40
13.0
 40
13.0
 40
14.0
 40
14.0
 40
14.0
 40
15.0
 40
15.0
 40
15.0
 40
16.0
 40
16.0
 40
16.0
 40
17.0
 40
17.0
 40
17.0
 40
18.0
 40
18.0
 40
18.0
 40
19.0
 40
19.0
 40
19.0
 40
19.0
 10
76.68472491572466
 20
-95.76607527987792
 30
0.0
 10
76.68472491572466
 20
-95.8608154057223
 30
0.0
 10
76.66370983326463
 20
-96.07820093084156
 30
0.0
 10
76.47767467706115
 20
-96.2029133874076
 30
0.0
 10
76.365364564242
 20
-96.27663843079196
 30
0.0
 10
76.2661458142668
 20
-96.28077254537426
 30
0.0
 10
76.18139646532966
 20
-96.28490665995656
 30
0.0
 10
76.18139646532966
 20
-96.28490665995656
 30
0.0
 10
76.18139646532966
 20
-96.06579858709466
 30
0.0
 10
76.18139646532966
 20
-96.06579858709466
 30
0.0
 10
76.25546601826252
 20
-96.06338702025499
 30
0.0
 10
76.49007702080804
 20
-96.05305173379924
 30
0.0
 10
76.49007702080804
 20
-95.77020939446022
 30
0.0
 10
76.49007702080804
 20
-95.63309459414728
 30
0.0
 10
76.42048609200599
 20
-95.48116588324777
 30
0.0
 10
76.19207626133392
 20
-95.48116588324777
 30
0.0
 10
76.07563203393248
 20
-95.48116588324777
 30
0.0
 10
76.02705618759046
 20
-95.51906193358552
 30
0.0
 10
75.99536130912617
 20
-95.55075681204981
 30
0.0
 10
75.9212917561933
 20
-95.62448185543415
 30
0.0
 10
75.90854490289787
 20
-95.74058157328709
 30
0.0
 10
75.90854490289787
 20
-95.79570310105107
 30
0.0
 10
75.90854490289787
 20
-95.81465112621996
 30
0.0
 10
75.91061196018902
 20
-95.85048011926655
 30
0.0
 10
75.91474607477132
 20
-95.87769637360003
 30
0.0
 10
75.91474607477132
 20
-95.87769637360003
 30
0.0
 10
75.7200981798547
 20
-95.87769637360003
 30
0.0
 10
75.7200981798547
 20
-95.87769637360003
 30
0.0
 10
75.72664386127667
 20
-95.83980032326228
 30
0.0
 10
75.72871091856783
 20
-95.79777015834223
 30
0.0
 10
75.72871091856783
 20
-95.79122447692025
 30
0.0
 10
75.72871091856783
 20
-95.7257676627005
 30
0.0
 10
75.70735132655928
 20
-95.52767467229864
 30
0.0
 10
75.47067326672261
 20
-95.52767467229864
 30
0.0
 10
75.29290633968373
 20
-95.52767467229864
 30
0.0
 10
75.23778481191972
 20
-95.6582437911896
 30
0.0
 10
75.23778481191972
 20
-95.76814233716908
 30
0.0
 10
75.23778481191972
 20
-96.03203665133921
 30
0.0
 10
75.47067326672261
 20
-96.04030488050381
 30
0.0
 10
75.54233125281581
 20
-96.04443899508611
 30
0.0
 10
75.54233125281581
 20
-96.04443899508611
 30
0.0
 10
75.54233125281581
 20
-96.24701060961881
 30
0.0
 10
75.54233125281581
 20
-96.24701060961881
 30
0.0
 10
75.41761879624977
 20
-96.23874238045421
 30
0.0
 10
75.04106985971195
 20
-96.2111816165722
 30
0.0
 10
75.04106985971195
 20
-95.75539548387366
 30
0.0
 10
75.04106985971195
 20
-95.53180878688094
 30
0.0
 10
75.16819388311768
 20
-95.29134112201051
 30
0.0
 10
75.46412758530064
 20
-95.29134112201051
 30
0.0
 10
75.65050725105266
 20
-95.29134112201051
 30
0.0
 10
75.73284503315013
 20
-95.38608124785488
 30
0.0
 10
75.79416773278757
 20
-95.48529999783007
 30
0.0
 10
75.82172849666956
 20
-95.42432180774115
 30
0.0
 10
75.90199922147589
 20
-95.24276527566848
 30
0.0
 10
76.1793294080385
 20
-95.24276527566848
 30
0.0
 10
76.51763778469004
 20
-95.24276527566848
 30
0.0
 10
76.68472491572466
 20
-95.48943411241237
 30
0.0
 10
76.68472491572466
 20
-95.76607527987792
 30
0.0
  0
HATCH
  5
AA
330
A5
100
AcDbEntity
  8
_U+30EC_U+30A4_U+30E4_U+30FC 1
 62
     7
420
 16777215
100
AcDbHatch
 10
0.0
 20
0.0
 30
0.0
210
0.0
220
0.0
230
1.0
  2
SOLID
 70
     1
 71
     0
 91
        1
 92
        1
 93
        1
 72
     4
 94
        3
 73
     0
 74
     1
 95
       62
 96
       58
 40
0.0
 40
0.0
 40
0.0
 40
0.0
 40
1.0
 40
1.0
 40
1.0
 40
2.0
 40
2.0
 40
2.0
 40
3.0
 40
3.0
 40
3.0
 40
4.0
 40
4.0
 40
4.0
 40
5.0
 40
5.0
 40
5.0
 40
6.0
 40
6.0
 40
6.0
 40
7.0
 40
7.0
 40
7.0
 40
8.0
 40
8.0
 40
8.0
 40
9.0
 40
9.0
 40
9.0
 40
10.0
 40
10.0
 40
10.0
 40
11.0
 40
11.0
 40
11.0
 40
12.0
 40
12.0
 40
12.0
 40
13.0
 40
13.0
 40
13.0
 40
14.0
 40
14.0
 40
14.0
 40
15.0
 40
15.0
 40
15.0
 40
16.0
 40
16.0
 40
16.0
 40
17.0
 40
17.0
 40
17.0
 40
18.0
 40
18.0
 40
18.0
 40
19.0
 40
19.0
 40
19.0
 40
19.0
 10
76.68472491572466
 20
-95.76607527987792
 10
76.68472491572466
 20
-95.8608154057223
 10
76.66370983326463
 20
-96.07820093084156
 10
76.47767467706115
 20
-96.2029133874076
 10
76.365364564242
 20
-96.27663843079196
 10
76.2661458142668
 20
-96.28077254537426
 10
76.18139646532966
 20
-96.28490665995656
 10
76.18139646532966
 20
-96.28490665995656
 10
76.18139646532966
 20
-96.06579858709466
 10
76.18139646532966
 20
-96.06579858709466
 10
76.25546601826252
 20
-96.06338702025499
 10
76.49007702080804
 20
-96.05305173379924
 10
76.49007702080804
 20
-95.77020939446022
 10
76.49007702080804
 20
-95.63309459414728
 10
76.42048609200599
 20
-95.48116588324777
 10
76.19207626133392
 20
-95.48116588324777
 10
76.07563203393248
 20
-95.48116588324777
 10
76.02705618759046
 20
-95.51906193358552
 10
75.99536130912617
 20
-95.55075681204981
 10
75.9212917561933
 20
-95.62448185543415
 10
75.90854490289787
 20
-95.74058157328709
 10
75.90854490289787
 20
-95.79570310105107
 10
75.90854490289787
 20
-95.81465112621996
 10
75.91061196018902
 20
-95.85048011926655
 10
75.91474607477132
 20
-95.87769637360003
 10
75.91474607477132
 20
-95.87769637360003
 10
75.7200981798547
 20
-95.87769637360003
 10
75.7200981798547
 20
-95.87769637360003
 10
75.72664386127667
 20
-95.83980032326228
 10
75.72871091856783
 20
-95.79777015834223
 10
75.72871091856783
 20
-95.79122447692025
 10
75.72871091856783
 20
-95.7257676627005
 10
75.70735132655928
 20
-95.52767467229864
 10
75.47067326672261
 20
-95.52767467229864
 10
75.29290633968373
 20
-95.52767467229864
 10
75.23778481191972
 20
-95.6582437911896
 10
75.23778481191972
 20
-95.76814233716908
 10
75.23778481191972
 20
-96.03203665133921
 10
75.47067326672261
 20
-96.04030488050381
 10
75.54233125281581
 20
-96.04443899508611
 10
75.54233125281581
 20
-96.04443899508611
 10
75.54233125281581
 20
-96.24701060961881
 10
75.54233125281581
 20
-96.24701060961881
 10
75.41761879624977
 20
-96.23874238045421
 10
75.04106985971195
 20
-96.2111816165722
 10
75.04106985971195
 20
-95.75539548387366
 10
75.04106985971195
 20
-95.53180878688094
 10
75.16819388311768
 20
-95.29134112201051
 10
75.46412758530064
 20
-95.29134112201051
 10
75.65050725105266
 20
-95.29134112201051
 10
75.73284503315013
 20
-95.38608124785488
 10
75.79416773278757
 20
-95.48529999783007
 10
75.82172849666956
 20
-95.42432180774115
 10
75.90199922147589
 20
-95.24276527566848
 10
76.1793294080385
 20
-95.24276527566848
 10
76.51763778469004
 20
-95.24276527566848
 10
76.68472491572466
 20
-95.48943411241237
 10
76.68472491572466
 20
-95.76607527987792
 97
        0
 97
        0
 75
     2
 76
     1
 98
        0
  0
ENDBLK
  5
A8
330
A5
100
AcDbEntity
  8
0
100
AcDbBlockEnd
  0
BLOCK
  5
B5
330
B3
100
AcDbEntity
  8
0
100
AcDbBlockBegin
  2
block 5
 70
     0
 10
0.0
 20
0.0
 30
0.0
  3
block 5
  1

  0
SPLINE
  5
B7
330
B3
100
AcDbEntity
  8
_U+30EC_U+30A4_U+30E4_U+30FC 1
370
     0
100
AcDbSpline
210
0.0
220
0.0
230
1.0
 70
    11
 71
     3
 72
    26
 73
    22
 74
     0
 42
0.0000000001
 43
0.0000000001
 12
1.0
 22
0.0
 32
0.0
 13
1.0
 23
0.0
 33
0.0
 40
0.0
 40
0.0
 40
0.0
 40
0.0
 40
1.0
 40
1.0
 40
1.0
 40
2.0
 40
2.0
 40
2.0
 40
3.0
 40
3.0
 40
3.0
 40
4.0
 40
4.0
 40
4.0
 40
5.0
 40
5.0
 40
5.0
 40
6.0
 40
6.0
 40
6.0
 40
7.0
 40
7.0
 40
7.0
 40
7.0
 10
77.26246742860106
 20
-81.24051918541905
 30
0.0
 10
77.26246742860106
 20
-81.24051918541905
 30
0.0
 10
76.15831432557847
 20
-81.24051918541905
 30
0.0
 10
76.15831432557847
 20
-81.24051918541905
 30
0.0
 10
76.15831432557847
 20
-81.24051918541905
 30
0.0
 10
76.15831432557847
 20
-81.56987031380892
 30
0.0
 10
76.15831432557847
 20
-81.56987031380892
 30
0.0
 10
76.15831432557847
 20
-81.56987031380892
 30
0.0
 10
76.01017521971274
 20
-81.56987031380892
 30
0.0
 10
76.01017521971274
 20
-81.56987031380892
 30
0.0
 10
75.99536130912617
 20
-81.23845212812789
 30
0.0
 10
75.83240829267385
 20
-81.19194333907701
 30
0.0
 10
75.71803112256354
 20
-81.16231551790386
 30
0.0
 10
75.71803112256354
 20
-81.16231551790386
 30
0.0
 10
75.71803112256354
 20
-81.01693248842632
 30
0.0
 10
75.71803112256354
 20
-81.01693248842632
 30
0.0
 10
75.71803112256354
 20
-81.01693248842632
 30
0.0
 10
77.26246742860106
 20
-81.01693248842632
 30
0.0
 10
77.26246742860106
 20
-81.01693248842632
 30
0.0
 10
77.26246742860106
 20
-81.01693248842632
 30
0.0
 10
77.26246742860106
 20
-81.24051918541905
 30
0.0
 10
77.26246742860106
 20
-81.24051918541905
 30
0.0
  0
HATCH
  5
B8
330
B3
100
AcDbEntity
  8
_U+30EC_U+30A4_U+30E4_U+30FC 1
 62
     7
420
 16777215
100
AcDbHatch
 10
0.0
 20
0.0
 30
0.0
210
0.0
220
0.0
230
1.0
  2
SOLID
 70
     1
 71
     0
 91
        1
 92
        1
 93
        1
 72
     4
 94
        3
 73
     0
 74
     1
 95
       26
 96
       22
 40
0.0
 40
0.0
 40
0.0
 40
0.0
 40
1.0
 40
1.0
 40
1.0
 40
2.0
 40
2.0
 40
2.0
 40
3.0
 40
3.0
 40
3.0
 40
4.0
 40
4.0
 40
4.0
 40
5.0
 40
5.0
 40
5.0
 40
6.0
 40
6.0
 40
6.0
 40
7.0
 40
7.0
 40
7.0
 40
7.0
 10
77.26246742860106
 20
-81.24051918541905
 10
77.26246742860106
 20
-81.24051918541905
 10
76.15831432557847
 20
-81.24051918541905
 10
76.15831432557847
 20
-81.24051918541905
 10
76.15831432557847
 20
-81.24051918541905
 10
76.15831432557847
 20
-81.56987031380892
 10
76.15831432557847
 20
-81.56987031380892
 10
76.15831432557847
 20
-81.56987031380892
 10
76.01017521971274
 20
-81.56987031380892
 10
76.01017521971274
 20
-81.56987031380892
 10
75.99536130912617
 20
-81.23845212812789
 10
75.83240829267385
 20
-81.19194333907701
 10
75.71803112256354
 20
-81.16231551790386
 10
75.71803112256354
 20
-81.16231551790386
 10
75.71803112256354
 20
-81.01693248842632
 10
75.71803112256354
 20
-81.01693248842632
 10
75.71803112256354
 20
-81.01693248842632
 10
77.26246742860106
 20
-81.01693248842632
 10
77.26246742860106
 20
-81.01693248842632
 10
77.26246742860106
 20
-81.01693248842632
 10
77.26246742860106
 20
-81.24051918541905
 10
77.26246742860106
 20
-81.24051918541905
 97
        0
 97
        0
 75
     2
 76
     1
 98
        0
  0
ENDBLK
  5
B6
330
B3
100
AcDbEntity
  8
0
100
AcDbBlockEnd
  0
BLOCK
  5
C7
330
C5
100
AcDbEntity
  8
0
100
AcDbBlockBegin
  2
block 6
 70
     0
 10
0.0
 20
0.0
 30
0.0
  3
block 6
  1

  0
SPLINE
  5
C9
330
C5
100
AcDbEntity
  8
_U+30EC_U+30A4_U+30E4_U+30FC 1
370
     0
100
AcDbSpline
210
0.0
220
0.0
230
1.0
 70
    11
 71
     3
 72
    44
 73
    40
 74
     0
 42
0.0000000001
 43
0.0000000001
 12
1.0
 22
0.0
 32
0.0
 13
1.0
 23
0.0
 33
0.0
 40
0.0
 40
0.0
 40
0.0
 40
0.0
 40
1.0
 40
1.0
 40
1.0
 40
2.0
 40
2.0
 40
2.0
 40
3.0
 40
3.0
 40
3.0
 40
4.0
 40
4.0
 40
4.0
 40
5.0
 40
5.0
 40
5.0
 40
6.0
 40
6.0
 40
6.0
 40
7.0
 40
7.0
 40
7.0
 40
8.0
 40
8.0
 40
8.0
 40
9.0
 40
9.0
 40
9.0
 40
10.0
 40
10.0
 40
10.0
 40
11.0
 40
11.0
 40
11.0
 40
12.0
 40
12.0
 40
12.0
 40
13.0
 40
13.0
 40
13.0
 40
13.0
 10
61.02177054681053
 20
-77.83108043844153
 30
0.0
 10
60.80455727646553
 20
-77.9897270855373
 30
0.0
 10
60.71171195313805
 20
-78.06379663847017
 30
0.0
 10
60.66313610679602
 20
-78.20762937497935
 30
0.0
 10
60.66313610679602
 20
-78.20762937497935
 30
0.0
 10
61.43966062917134
 20
-78.20762937497935
 30
0.0
 10
61.43966062917134
 20
-78.20762937497935
 30
0.0
 10
61.43966062917134
 20
-78.20762937497935
 30
0.0
 10
61.43966062917134
 20
-78.41278481112597
 30
0.0
 10
61.43966062917134
 20
-78.41278481112597
 30
0.0
 10
61.43966062917134
 20
-78.41278481112597
 30
0.0
 10
60.41405570321246
 20
-78.41278481112597
 30
0.0
 10
60.41405570321246
 20
-78.41278481112597
 30
0.0
 10
60.44575058167676
 20
-78.05518389975704
 30
0.0
 10
60.51120739589651
 20
-77.97698023224187
 30
0.0
 10
60.89533554250186
 20
-77.67863496321924
 30
0.0
 10
61.15061711795887
 20
-77.47985295372033
 30
0.0
 10
61.21607393217862
 20
-77.41215682743515
 30
0.0
 10
61.21607393217862
 20
-77.27469751757368
 30
0.0
 10
61.21607393217862
 20
-77.1561862328811
 30
0.0
 10
61.14441594608542
 20
-77.02510034966734
 30
0.0
 10
60.94804550342619
 20
-77.02510034966734
 30
0.0
 10
60.68845755861261
 20
-77.02510034966734
 30
0.0
 10
60.68001707467375
 20
-77.25557723763055
 30
0.0
 10
60.67588296009145
 20
-77.37202146503199
 30
0.0
 10
60.67588296009145
 20
-77.37202146503199
 30
0.0
 10
60.45212400832447
 20
-77.37202146503199
 30
0.0
 10
60.45212400832447
 20
-77.37202146503199
 30
0.0
 10
60.46056449226334
 20
-77.24506969640055
 30
0.0
 10
60.47107203349334
 20
-77.13293183835566
 30
0.0
 10
60.55134275829967
 20
-77.01442055366306
 30
0.0
 10
60.66106904950487
 20
-76.85370684927616
 30
0.0
 10
60.84675969615984
 20
-76.81977265874644
 30
0.0
 10
60.96285941401276
 20
-76.81977265874644
 30
0.0
 10
61.2391560719298
 20
-76.81977265874644
 30
0.0
 10
61.44586180104479
 20
-77.00391301243306
 30
0.0
 10
61.44586180104479
 20
-77.27676457486484
 30
0.0
 10
61.44586180104479
 20
-77.5051744055369
 30
0.0
 10
61.32976208319187
 20
-77.60473766506063
 30
0.0
 10
61.02177054681053
 20
-77.83108043844153
 30
0.0
  0
HATCH
  5
CA
330
C5
100
AcDbEntity
  8
_U+30EC_U+30A4_U+30E4_U+30FC 1
 62
     7
420
 16777215
100
AcDbHatch
 10
0.0
 20
0.0
 30
0.0
210
0.0
220
0.0
230
1.0
  2
SOLID
 70
     1
 71
     0
 91
        1
 92
        1
 93
        1
 72
     4
 94
        3
 73
     0
 74
     1
 95
       44
 96
       40
 40
0.0
 40
0.0
 40
0.0
 40
0.0
 40
1.0
 40
1.0
 40
1.0
 40
2.0
 40
2.0
 40
2.0
 40
3.0
 40
3.0
 40
3.0
 40
4.0
 40
4.0
 40
4.0
 40
5.0
 40
5.0
 40
5.0
 40
6.0
 40
6.0
 40
6.0
 40
7.0
 40
7.0
 40
7.0
 40
8.0
 40
8.0
 40
8.0
 40
9.0
 40
9.0
 40
9.0
 40
10.0
 40
10.0
 40
10.0
 40
11.0
 40
11.0
 40
11.0
 40
12.0
 40
12.0
 40
12.0
 40
13.0
 40
13.0
 40
13.0
 40
13.0
 10
61.02177054681053
 20
-77.83108043844153
 10
60.80455727646553
 20
-77.9897270855373
 10
60.71171195313805
 20
-78.06379663847017
 10
60.66313610679602
 20
-78.20762937497935
 10
60.66313610679602
 20
-78.20762937497935
 10
61.43966062917134
 20
-78.20762937497935
 10
61.43966062917134
 20
-78.20762937497935
 10
61.43966062917134
 20
-78.20762937497935
 10
61.43966062917134
 20
-78.41278481112597
 10
61.43966062917134
 20
-78.41278481112597
 10
61.43966062917134
 20
-78.41278481112597
 10
60.41405570321246
 20
-78.41278481112597
 10
60.41405570321246
 20
-78.41278481112597
 10
60.44575058167676
 20
-78.05518389975704
 10
60.51120739589651
 20
-77.97698023224187
 10
60.89533554250186
 20
-77.67863496321924
 10
61.15061711795887
 20
-77.47985295372033
 10
61.21607393217862
 20
-77.41215682743515
 10
61.21607393217862
 20
-77.27469751757368
 10
61.21607393217862
 20
-77.1561862328811
 10
61.14441594608542
 20
-77.02510034966734
 10
60.94804550342619
 20
-77.02510034966734
 10
60.68845755861261
 20
-77.02510034966734
 10
60.68001707467375
 20
-77.25557723763055
 10
60.67588296009145
 20
-77.37202146503199
 10
60.67588296009145
 20
-77.37202146503199
 10
60.45212400832447
 20
-77.37202146503199
 10
60.45212400832447
 20
-77.37202146503199
 10
60.46056449226334
 20
-77.24506969640055
 10
60.47107203349334
 20
-77.13293183835566
 10
60.55134275829967
 20
-77.01442055366306
 10
60.66106904950487
 20
-76.85370684927616
 10
60.84675969615984
 20
-76.81977265874644
 10
60.96285941401276
 20
-76.81977265874644
 10
61.2391560719298
 20
-76.81977265874644
 10
61.44586180104479
 20
-77.00391301243306
 10
61.44586180104479
 20
-77.27676457486484
 10
61.44586180104479
 20
-77.5051744055369
 10
61.32976208319187
 20
-77.60473766506063
 10
61.02177054681053
 20
-77.83108043844153
 97
        0
 97
        0
 75
     2
 76
     1
 98
        0
  0
SPLINE
  5
CB
330
C5
100
AcDbEntity
  8
_U+30EC_U+30A4_U+30E4_U+30FC 1
370
     0
100
AcDbSpline
210
0.0
220
0.0
230
1.0
 70
    11
 71
     3
 72
    53
 73
    49
 74
     0
 42
0.0000000001
 43
0.0000000001
 12
1.0
 22
0.0
 32
0.0
 13
1.0
 23
0.0
 33
0.0
 40
0.0
 40
0.0
 40
0.0
 40
0.0
 40
1.0
 40
1.0
 40
1.0
 40
2.0
 40
2.0
 40
2.0
 40
3.0
 40
3.0
 40
3.0
 40
4.0
 40
4.0
 40
4.0
 40
5.0
 40
5.0
 40
5.0
 40
6.0
 40
6.0
 40
6.0
 40
7.0
 40
7.0
 40
7.0
 40
8.0
 40
8.0
 40
8.0
 40
9.0
 40
9.0
 40
9.0
 40
10.0
 40
10.0
 40
10.0
 40
11.0
 40
11.0
 40
11.0
 40
12.0
 40
12.0
 40
12.0
 40
13.0
 40
13.0
 40
13.0
 40
14.0
 40
14.0
 40
14.0
 40
15.0
 40
15.0
 40
15.0
 40
16.0
 40
16.0
 40
16.0
 40
16.0
 10
62.08251544671896
 20
-78.4635999695334
 30
0.0
 10
62.00431177920379
 20
-78.4635999695334
 30
0.0
 10
61.90302597193744
 20
-78.44654674688142
 30
0.0
 10
61.8017401646711
 20
-78.38315698995282
 30
0.0
 10
61.62879637131155
 20
-78.27308618919909
 30
0.0
 10
61.60743677930301
 20
-78.14200030598533
 30
0.0
 10
61.58848875413413
 20
-78.03416881729702
 30
0.0
 10
61.58848875413413
 20
-78.03416881729702
 30
0.0
 10
61.81000839383569
 20
-78.03416881729702
 30
0.0
 10
61.81000839383569
 20
-78.03416881729702
 30
0.0
 10
61.8651299215997
 20
-78.23295082679593
 30
0.0
 10
61.99156492590836
 20
-78.26257864796908
 30
0.0
 10
62.08458250401011
 20
-78.26257864796908
 30
0.0
 10
62.2237643616142
 20
-78.26257864796908
 30
0.0
 10
62.37569307251372
 20
-78.16318764321963
 30
0.0
 10
62.37569307251372
 20
-77.930471443191
 30
0.0
 10
62.37569307251372
 20
-77.67450084863694
 30
0.0
 10
62.1962035977322
 20
-77.60473766506063
 30
0.0
 10
62.07596976529698
 20
-77.60473766506063
 30
0.0
 10
62.04427488683268
 20
-77.60473766506063
 30
0.0
 10
61.90302597193744
 20
-77.60473766506063
 30
0.0
 10
61.81448701796652
 20
-77.73375649098323
 30
0.0
 10
61.81448701796652
 20
-77.73375649098323
 30
0.0
 10
61.6391316577673
 20
-77.7146362110401
 30
0.0
 10
61.6391316577673
 20
-77.7146362110401
 30
0.0
 10
61.6391316577673
 20
-77.7146362110401
 30
0.0
 10
61.75970999975105
 20
-76.86852075986273
 30
0.0
 10
61.75970999975105
 20
-76.86852075986273
 30
0.0
 10
61.75970999975105
 20
-76.86852075986273
 30
0.0
 10
62.53623452212636
 20
-76.86852075986273
 30
0.0
 10
62.53623452212636
 20
-76.86852075986273
 30
0.0
 10
62.53623452212636
 20
-76.86852075986273
 30
0.0
 10
62.53623452212636
 20
-77.06316865477935
 30
0.0
 10
62.53623452212636
 20
-77.06316865477935
 30
0.0
 10
62.53623452212636
 20
-77.06316865477935
 30
0.0
 10
61.92197399710631
 20
-77.06316865477935
 30
0.0
 10
61.92197399710631
 20
-77.06316865477935
 30
0.0
 10
61.92197399710631
 20
-77.06316865477935
 30
0.0
 10
61.85651718288657
 20
-77.48622638036802
 30
0.0
 10
61.85651718288657
 20
-77.48622638036802
 30
0.0
 10
61.91783988252401
 20
-77.45229218983832
 30
0.0
 10
62.00017766462149
 20
-77.41215682743515
 30
0.0
 10
62.11834443976556
 20
-77.41215682743515
 30
0.0
 10
62.37155895793142
 20
-77.41215682743515
 30
0.0
 10
62.60789250821956
 20
-77.59836423841291
 30
0.0
 10
62.60789250821956
 20
-77.91135116324786
 30
0.0
 10
62.60789250821956
 20
-78.22881671221363
 30
0.0
 10
62.38396130167832
 20
-78.4635999695334
 30
0.0
 10
62.08251544671896
 20
-78.4635999695334
 30
0.0
  0
HATCH
  5
CC
330
C5
100
AcDbEntity
  8
_U+30EC_U+30A4_U+30E4_U+30FC 1
 62
     7
420
 16777215
100
AcDbHatch
 10
0.0
 20
0.0
 30
0.0
210
0.0
220
0.0
230
1.0
  2
SOLID
 70
     1
 71
     0
 91
        1
 92
        1
 93
        1
 72
     4
 94
        3
 73
     0
 74
     1
 95
       53
 96
       49
 40
0.0
 40
0.0
 40
0.0
 40
0.0
 40
1.0
 40
1.0
 40
1.0
 40
2.0
 40
2.0
 40
2.0
 40
3.0
 40
3.0
 40
3.0
 40
4.0
 40
4.0
 40
4.0
 40
5.0
 40
5.0
 40
5.0
 40
6.0
 40
6.0
 40
6.0
 40
7.0
 40
7.0
 40
7.0
 40
8.0
 40
8.0
 40
8.0
 40
9.0
 40
9.0
 40
9.0
 40
10.0
 40
10.0
 40
10.0
 40
11.0
 40
11.0
 40
11.0
 40
12.0
 40
12.0
 40
12.0
 40
13.0
 40
13.0
 40
13.0
 40
14.0
 40
14.0
 40
14.0
 40
15.0
 40
15.0
 40
15.0
 40
16.0
 40
16.0
 40
16.0
 40
16.0
 10
62.08251544671896
 20
-78.4635999695334
 10
62.00431177920379
 20
-78.4635999695334
 10
61.90302597193744
 20
-78.44654674688142
 10
61.8017401646711
 20
-78.38315698995282
 10
61.62879637131155
 20
-78.27308618919909
 10
61.60743677930301
 20
-78.14200030598533
 10
61.58848875413413
 20
-78.03416881729702
 10
61.58848875413413
 20
-78.03416881729702
 10
61.81000839383569
 20
-78.03416881729702
 10
61.81000839383569
 20
-78.03416881729702
 10
61.8651299215997
 20
-78.23295082679593
 10
61.99156492590836
 20
-78.26257864796908
 10
62.08458250401011
 20
-78.26257864796908
 10
62.2237643616142
 20
-78.26257864796908
 10
62.37569307251372
 20
-78.16318764321963
 10
62.37569307251372
 20
-77.930471443191
 10
62.37569307251372
 20
-77.67450084863694
 10
62.1962035977322
 20
-77.60473766506063
 10
62.07596976529698
 20
-77.60473766506063
 10
62.04427488683268
 20
-77.60473766506063
 10
61.90302597193744
 20
-77.60473766506063
 10
61.81448701796652
 20
-77.73375649098323
 10
61.81448701796652
 20
-77.73375649098323
 10
61.6391316577673
 20
-77.7146362110401
 10
61.6391316577673
 20
-77.7146362110401
 10
61.6391316577673
 20
-77.7146362110401
 10
61.75970999975105
 20
-76.86852075986273
 10
61.75970999975105
 20
-76.86852075986273
 10
61.75970999975105
 20
-76.86852075986273
 10
62.53623452212636
 20
-76.86852075986273
 10
62.53623452212636
 20
-76.86852075986273
 10
62.53623452212636
 20
-76.86852075986273
 10
62.53623452212636
 20
-77.06316865477935
 10
62.53623452212636
 20
-77.06316865477935
 10
62.53623452212636
 20
-77.06316865477935
 10
61.92197399710631
 20
-77.06316865477935
 10
61.92197399710631
 20
-77.06316865477935
 10
61.92197399710631
 20
-77.06316865477935
 10
61.85651718288657
 20
-77.48622638036802
 10
61.85651718288657
 20
-77.48622638036802
 10
61.91783988252401
 20
-77.45229218983832
 10
62.00017766462149
 20
-77.41215682743515
 10
62.11834443976556
 20
-77.41215682743515
 10
62.37155895793142
 20
-77.41215682743515
 10
62.60789250821956
 20
-77.59836423841291
 10
62.60789250821956
 20
-77.91135116324786
 10
62.60789250821956
 20
-78.22881671221363
 10
62.38396130167832
 20
-78.4635999695334
 10
62.08251544671896
 20
-78.4635999695334
 97
        0
 97
        0
 75
     2
 76
     1
 98
        0
  0
ENDBLK
  5
C8
330
C5
100
AcDbEntity
  8
0
100
AcDbBlockEnd
  0
BLOCK
  5
D7
330
D5
100
AcDbEntity
  8
0
100
AcDbBlockBegin
  2
block 7
 70
     0
 10
0.0
 20
0.0
 30
0.0
  3
block 7
  1

  0
SPLINE
  5
D9
330
D5
100
AcDbEntity
  8
_U+30EC_U+30A4_U+30E4_U+30FC 1
370
     0
100
AcDbSpline
210
0.0
220
0.0
230
1.0
 70
    11
 71
     3
 72
    26
 73
    22
 74
     0
 42
0.0000000001
 43
0.0000000001
 12
1.0
 22
0.0
 32
0.0
 13
1.0
 23
0.0
 33
0.0
 40
0.0
 40
0.0
 40
0.0
 40
0.0
 40
1.0
 40
1.0
 40
1.0
 40
2.0
 40
2.0
 40
2.0
 40
3.0
 40
3.0
 40
3.0
 40
4.0
 40
4.0
 40
4.0
 40
5.0
 40
5.0
 40
5.0
 40
6.0
 40
6.0
 40
6.0
 40
7.0
 40
7.0
 40
7.0
 40
7.0
 10
76.63408201209148
 20
-89.79296872755177
 30
0.0
 10
76.63408201209148
 20
-89.79296872755177
 30
0.0
 10
75.52992890906891
 20
-89.79296872755177
 30
0.0
 10
75.52992890906891
 20
-89.79296872755177
 30
0.0
 10
75.52992890906891
 20
-89.79296872755177
 30
0.0
 10
75.52992890906891
 20
-90.12231985594164
 30
0.0
 10
75.52992890906891
 20
-90.12231985594164
 30
0.0
 10
75.52992890906891
 20
-90.12231985594164
 30
0.0
 10
75.38178980320316
 20
-90.12231985594164
 30
0.0
 10
75.38178980320316
 20
-90.12231985594164
 30
0.0
 10
75.3669758926166
 20
-89.79090167026061
 30
0.0
 10
75.20402287616427
 20
-89.74439288120973
 30
0.0
 10
75.08964570605399
 20
-89.71510956958511
 30
0.0
 10
75.08964570605399
 20
-89.71510956958511
 30
0.0
 10
75.08964570605399
 20
-89.56938203055904
 30
0.0
 10
75.08964570605399
 20
-89.56938203055904
 30
0.0
 10
75.08964570605399
 20
-89.56938203055904
 30
0.0
 10
76.63408201209148
 20
-89.56938203055904
 30
0.0
 10
76.63408201209148
 20
-89.56938203055904
 30
0.0
 10
76.63408201209148
 20
-89.56938203055904
 30
0.0
 10
76.63408201209148
 20
-89.79296872755177
 30
0.0
 10
76.63408201209148
 20
-89.79296872755177
 30
0.0
  0
HATCH
  5
DA
330
D5
100
AcDbEntity
  8
_U+30EC_U+30A4_U+30E4_U+30FC 1
 62
     7
420
 16777215
100
AcDbHatch
 10
0.0
 20
0.0
 30
0.0
210
0.0
220
0.0
230
1.0
  2
SOLID
 70
     1
 71
     0
 91
        1
 92
        1
 93
        1
 72
     4
 94
        3
 73
     0
 74
     1
 95
       26
 96
       22
 40
0.0
 40
0.0
 40
0.0
 40
0.0
 40
1.0
 40
1.0
 40
1.0
 40
2.0
 40
2.0
 40
2.0
 40
3.0
 40
3.0
 40
3.0
 40
4.0
 40
4.0
 40
4.0
 40
5.0
 40
5.0
 40
5.0
 40
6.0
 40
6.0
 40
6.0
 40
7.0
 40
7.0
 40
7.0
 40
7.0
 10
76.63408201209148
 20
-89.79296872755177
 10
76.63408201209148
 20
-89.79296872755177
 10
75.52992890906891
 20
-89.79296872755177
 10
75.52992890906891
 20
-89.79296872755177
 10
75.52992890906891
 20
-89.79296872755177
 10
75.52992890906891
 20
-90.12231985594164
 10
75.52992890906891
 20
-90.12231985594164
 10
75.52992890906891
 20
-90.12231985594164
 10
75.38178980320316
 20
-90.12231985594164
 10
75.38178980320316
 20
-90.12231985594164
 10
75.3669758926166
 20
-89.79090167026061
 10
75.20402287616427
 20
-89.74439288120973
 10
75.08964570605399
 20
-89.71510956958511
 10
75.08964570605399
 20
-89.71510956958511
 10
75.08964570605399
 20
-89.56938203055904
 10
75.08964570605399
 20
-89.56938203055904
 10
75.08964570605399
 20
-89.56938203055904
 10
76.63408201209148
 20
-89.56938203055904
 10
76.63408201209148
 20
-89.56938203055904
 10
76.63408201209148
 20
-89.56938203055904
 10
76.63408201209148
 20
-89.79296872755177
 10
76.63408201209148
 20
-89.79296872755177
 97
        0
 97
        0
 75
     2
 76
     1
 98
        0
  0
SPLINE
  5
DB
330
D5
100
AcDbEntity
  8
_U+30EC_U+30A4_U+30E4_U+30FC 1
370
     0
100
AcDbSpline
210
0.0
220
0.0
230
1.0
 70
    11
 71
     3
 72
    29
 73
    25
 74
     0
 42
0.0000000001
 43
0.0000000001
 12
1.0
 22
0.0
 32
0.0
 13
1.0
 23
0.0
 33
0.0
 40
0.0
 40
0.0
 40
0.0
 40
0.0
 40
1.0
 40
1.0
 40
1.0
 40
2.0
 40
2.0
 40
2.0
 40
3.0
 40
3.0
 40
3.0
 40
4.0
 40
4.0
 40
4.0
 40
5.0
 40
5.0
 40
5.0
 40
6.0
 40
6.0
 40
6.0
 40
7.0
 40
7.0
 40
7.0
 40
8.0
 40
8.0
 40
8.0
 40
8.0
 10
76.4563150850526
 20
-88.17549639722696
 30
0.0
 10
76.66577689055578
 20
-88.28298337636676
 30
0.0
 10
76.68472491572466
 20
-88.4559271697263
 30
0.0
 10
76.68472491572466
 20
-88.57202688757921
 30
0.0
 10
76.68472491572466
 20
-88.73256833719186
 30
0.0
 10
76.63821612667378
 20
-88.87381725208711
 30
0.0
 10
76.4563150850526
 20
-88.96890188748
 30
0.0
 10
76.26166719013598
 20
-89.0722547520375
 30
0.0
 10
76.02498913029932
 20
-89.09120277720638
 30
0.0
 10
75.862036113847
 20
-89.09120277720638
 30
0.0
 10
75.71803112256354
 20
-89.09120277720638
 30
0.0
 10
75.46619464259179
 20
-89.07432180932865
 30
0.0
 10
75.26741263309287
 20
-88.96890188748
 30
0.0
 10
75.06449650901166
 20
-88.86107039879168
 30
0.0
 10
75.04106985971195
 20
-88.70087345872756
 30
0.0
 10
75.04106985971195
 20
-88.57202688757921
 30
0.0
 10
75.04106985971195
 20
-88.41389700480626
 30
0.0
 10
75.08551159147169
 20
-88.27023652307133
 30
0.0
 10
75.26741263309287
 20
-88.17549639722696
 30
0.0
 10
75.45999347071835
 20
-88.07627764725177
 30
0.0
 10
75.68840330139041
 20
-88.05319550750059
 30
0.0
 10
75.862036113847
 20
-88.05319550750059
 30
0.0
 10
76.03325735946392
 20
-88.05319550750059
 30
0.0
 10
76.26373424742712
 20
-88.07421058996061
 30
0.0
 10
76.4563150850526
 20
-88.17549639722696
 30
0.0
  0
SPLINE
  5
DC
330
D5
100
AcDbEntity
  8
_U+30EC_U+30A4_U+30E4_U+30FC 1
370
     0
100
AcDbSpline
210
0.0
220
0.0
230
1.0
 70
    11
 71
     3
 72
    17
 73
    13
 74
     0
 42
0.0000000001
 43
0.0000000001
 12
1.0
 22
0.0
 32
0.0
 13
1.0
 23
0.0
 33
0.0
 40
0.0
 40
0.0
 40
0.0
 40
0.0
 40
1.0
 40
1.0
 40
1.0
 40
2.0
 40
2.0
 40
2.0
 40
3.0
 40
3.0
 40
3.0
 40
4.0
 40
4.0
 40
4.0
 40
4.0
 10
75.23365069733742
 20
-88.57202688757921
 30
0.0
 10
75.23365069733742
 20
-88.82110729116279
 30
0.0
 10
75.51718205577349
 20
-88.86761608021365
 30
0.0
 10
75.862036113847
 20
-88.86761608021365
 30
0.0
 10
76.18139646532966
 20
-88.86761608021365
 30
0.0
 10
76.49007702080804
 20
-88.83178708716706
 30
0.0
 10
76.49007702080804
 20
-88.57202688757921
 30
0.0
 10
76.49007702080804
 20
-88.32535805083533
 30
0.0
 10
76.20895722921165
 20
-88.27678220449332
 30
0.0
 10
75.862036113847
 20
-88.27678220449332
 30
0.0
 10
75.54233125281581
 20
-88.27678220449332
 30
0.0
 10
75.23365069733742
 20
-88.31467825483105
 30
0.0
 10
75.23365069733742
 20
-88.57202688757921
 30
0.0
  0
HATCH
  5
DD
330
D5
100
AcDbEntity
  8
_U+30EC_U+30A4_U+30E4_U+30FC 1
 62
     7
420
 16777215
100
AcDbHatch
 10
0.0
 20
0.0
 30
0.0
210
0.0
220
0.0
230
1.0
  2
SOLID
 70
     1
 71
     0
 91
        2
 92
        1
 93
        1
 72
     4
 94
        3
 73
     0
 74
     1
 95
       29
 96
       25
 40
0.0
 40
0.0
 40
0.0
 40
0.0
 40
1.0
 40
1.0
 40
1.0
 40
2.0
 40
2.0
 40
2.0
 40
3.0
 40
3.0
 40
3.0
 40
4.0
 40
4.0
 40
4.0
 40
5.0
 40
5.0
 40
5.0
 40
6.0
 40
6.0
 40
6.0
 40
7.0
 40
7.0
 40
7.0
 40
8.0
 40
8.0
 40
8.0
 40
8.0
 10
76.4563150850526
 20
-88.17549639722696
 10
76.66577689055578
 20
-88.28298337636676
 10
76.68472491572466
 20
-88.4559271697263
 10
76.68472491572466
 20
-88.57202688757921
 10
76.68472491572466
 20
-88.73256833719186
 10
76.63821612667378
 20
-88.87381725208711
 10
76.4563150850526
 20
-88.96890188748
 10
76.26166719013598
 20
-89.0722547520375
 10
76.02498913029932
 20
-89.09120277720638
 10
75.862036113847
 20
-89.09120277720638
 10
75.71803112256354
 20
-89.09120277720638
 10
75.46619464259179
 20
-89.07432180932865
 10
75.26741263309287
 20
-88.96890188748
 10
75.06449650901166
 20
-88.86107039879168
 10
75.04106985971195
 20
-88.70087345872756
 10
75.04106985971195
 20
-88.57202688757921
 10
75.04106985971195
 20
-88.41389700480626
 10
75.08551159147169
 20
-88.27023652307133
 10
75.26741263309287
 20
-88.17549639722696
 10
75.45999347071835
 20
-88.07627764725177
 10
75.68840330139041
 20
-88.05319550750059
 10
75.862036113847
 20
-88.05319550750059
 10
76.03325735946392
 20
-88.05319550750059
 10
76.26373424742712
 20
-88.07421058996061
 10
76.4563150850526
 20
-88.17549639722696
 97
        0
 97
        0
 92
        1
 93
        1
 72
     4
 94
        3
 73
     0
 74
     1
 95
       17
 96
       13
 40
0.0
 40
0.0
 40
0.0
 40
0.0
 40
1.0
 40
1.0
 40
1.0
 40
2.0
 40
2.0
 40
2.0
 40
3.0
 40
3.0
 40
3.0
 40
4.0
 40
4.0
 40
4.0
 40
4.0
 10
75.23365069733742
 20
-88.57202688757921
 10
75.23365069733742
 20
-88.82110729116279
 10
75.51718205577349
 20
-88.86761608021365
 10
75.862036113847
 20
-88.86761608021365
 10
76.18139646532966
 20
-88.86761608021365
 10
76.49007702080804
 20
-88.83178708716706
 10
76.49007702080804
 20
-88.57202688757921
 10
76.49007702080804
 20
-88.32535805083533
 10
76.20895722921165
 20
-88.27678220449332
 10
75.862036113847
 20
-88.27678220449332
 10
75.54233125281581
 20
-88.27678220449332
 10
75.23365069733742
 20
-88.31467825483105
 10
75.23365069733742
 20
-88.57202688757921
 97
        0
 97
        0
 75
     2
 76
     1
 98
        0
  0
ENDBLK
  5
D8
330
D5
100
AcDbEntity
  8
0
100
AcDbBlockEnd
  0
ENDSEC
  0
SECTION
  2
ENTITIES
  0
INSERT
  5
42
330
1F
100
AcDbEntity
  8
_U+30EC_U+30A4_U+30E4_U+30FC 1
100
AcDbBlockReference
  2
block 2
 10
0.0
 20
0.0
 30
0.0
  0
SPLINE
  5
7D
330
1F
100
AcDbEntity
  8
_U+30EC_U+30A4_U+30E4_U+30FC 1
 62
     7
420
 16777215
370
     9
100
AcDbSpline
210
0.0
220
0.0
230
1.0
 70
    11
 71
     3
 72
    17
 73
    13
 74
     0
 42
0.0000000001
 43
0.0000000001
 12
1.0
 22
0.0
 32
0.0
 13
1.0
 23
0.0
 33
0.0
 40
0.0
 40
0.0
 40
0.0
 40
0.0
 40
1.0
 40
1.0
 40
1.0
 40
2.0
 40
2.0
 40
2.0
 40
3.0
 40
3.0
 40
3.0
 40
4.0
 40
4.0
 40
4.0
 40
4.0
 10
62.0144864734342
 20
-101.2582641413523
 30
0.0
 10
62.0144864734342
 20
-101.2031249746992
 30
0.0
 10
61.96968369679944
 20
-101.1583221969325
 30
0.0
 10
61.91457980931636
 20
-101.1583221969325
 30
0.0
 10
61.85944064405641
 20
-101.1583221969325
 30
0.0
 10
61.81467314519853
 20
-101.2031249746992
 30
0.0
 10
61.81467314519853
 20
-101.2582641413523
 30
0.0
 10
61.81467314519853
 20
-101.3133680302272
 30
0.0
 10
61.85944064405641
 20
-101.3581708079939
 30
0.0
 10
61.91457980931636
 20
-101.3581708079939
 30
0.0
 10
61.96968369679944
 20
-101.3581708079939
 30
0.0
 10
62.0144864734342
 20
-101.3133680302272
 30
0.0
 10
62.0144864734342
 20
-101.2582641413523
 30
0.0
  0
SPLINE
  5
7E
330
1F
100
AcDbEntity
  8
_U+30EC_U+30A4_U+30E4_U+30FC 1
 62
     7
420
 16777215
370
     9
100
AcDbSpline
210
0.0
220
0.0
230
1.0
 70
    11
 71
     3
 72
    17
 73
    13
 74
     0
 42
0.0000000001
 43
0.0000000001
 12
1.0
 22
0.0
 32
0.0
 13
1.0
 23
0.0
 33
0.0
 40
0.0
 40
0.0
 40
0.0
 40
0.0
 40
1.0
 40
1.0
 40
1.0
 40
2.0
 40
2.0
 40
2.0
 40
3.0
 40
3.0
 40
3.0
 40
4.0
 40
4.0
 40
4.0
 40
4.0
 10
47.11442352023314
 20
-101.2582641413523
 30
0.0
 10
47.11442352023314
 20
-101.2031249746992
 30
0.0
 10
47.06965602137525
 20
-101.1583221969325
 30
0.0
 10
47.01451685611531
 20
-101.1583221969325
 30
0.0
 10
46.95941296863224
 20
-101.1583221969325
 30
0.0
 10
46.91461019199747
 20
-101.2031249746992
 30
0.0
 10
46.91461019199747
 20
-101.2582641413523
 30
0.0
 10
46.91461019199747
 20
-101.3133680302272
 30
0.0
 10
46.95941296863224
 20
-101.3581708079939
 30
0.0
 10
47.01451685611531
 20
-101.3581708079939
 30
0.0
 10
47.06965602137525
 20
-101.3581708079939
 30
0.0
 10
47.11442352023314
 20
-101.3133680302272
 30
0.0
 10
47.11442352023314
 20
-101.2582641413523
 30
0.0
  0
SPLINE
  5
7F
330
1F
100
AcDbEntity
  8
_U+30EC_U+30A4_U+30E4_U+30FC 1
 62
     7
420
 16777215
370
     9
100
AcDbSpline
210
0.0
220
0.0
230
1.0
 70
    11
 71
     3
 72
    17
 73
    13
 74
     0
 42
0.0000000001
 43
0.0000000001
 12
1.0
 22
0.0
 32
0.0
 13
1.0
 23
0.0
 33
0.0
 40
0.0
 40
0.0
 40
0.0
 40
0.0
 40
1.0
 40
1.0
 40
1.0
 40
2.0
 40
2.0
 40
2.0
 40
3.0
 40
3.0
 40
3.0
 40
4.0
 40
4.0
 40
4.0
 40
4.0
 10
78.11476995157064
 20
-83.15804775698837
 30
0.0
 10
78.11476995157064
 20
-83.10294386811313
 30
0.0
 10
78.07000245271274
 20
-83.05814109034672
 30
0.0
 10
78.0148632874528
 20
-83.05814109034672
 30
0.0
 10
77.95905384443218
 20
-83.05814109034672
 30
0.0
 10
77.91428634557428
 20
-83.10294386811313
 30
0.0
 10
77.91428634557428
 20
-83.15804775698837
 30
0.0
 10
77.91428634557428
 20
-83.21353970141888
 30
0.0
 10
77.95905384443218
 20
-83.25795442363
 30
0.0
 10
78.0148632874528
 20
-83.25795442363
 30
0.0
 10
78.07000245271274
 20
-83.25795442363
 30
0.0
 10
78.11476995157064
 20
-83.21353970141888
 30
0.0
 10
78.11476995157064
 20
-83.15804775698837
 30
0.0
  0
SPLINE
  5
80
330
1F
100
AcDbEntity
  8
_U+30EC_U+30A4_U+30E4_U+30FC 1
 62
     7
420
 16777215
370
     9
100
AcDbSpline
210
0.0
220
0.0
230
1.0
 70
    11
 71
     3
 72
    17
 73
    13
 74
     0
 42
0.0000000001
 43
0.0000000001
 12
1.0
 22
0.0
 32
0.0
 13
1.0
 23
0.0
 33
0.0
 40
0.0
 40
0.0
 40
0.0
 40
0.0
 40
1.0
 40
1.0
 40
1.0
 40
2.0
 40
2.0
 40
2.0
 40
3.0
 40
3.0
 40
3.0
 40
4.0
 40
4.0
 40
4.0
 40
4.0
 10
78.11476995157064
 20
-84.15817275673834
 30
0.0
 10
78.11476995157064
 20
-84.10303359008526
 30
0.0
 10
78.07000245271274
 20
-84.05826609009671
 30
0.0
 10
78.0148632874528
 20
-84.05826609009671
 30
0.0
 10
77.95905384443218
 20
-84.05826609009671
 30
0.0
 10
77.91428634557428
 20
-84.10303359008526
 30
0.0
 10
77.91428634557428
 20
-84.15817275673834
 30
0.0
 10
77.91428634557428
 20
-84.21362942339103
 30
0.0
 10
77.95905384443218
 20
-84.25843220115775
 30
0.0
 10
78.0148632874528
 20
-84.25843220115775
 30
0.0
 10
78.07000245271274
 20
-84.25843220115775
 30
0.0
 10
78.11476995157064
 20
-84.21362942339103
 30
0.0
 10
78.11476995157064
 20
-84.15817275673834
 30
0.0
  0
SPLINE
  5
81
330
1F
100
AcDbEntity
  8
_U+30EC_U+30A4_U+30E4_U+30FC 1
 62
     7
420
 16777215
370
     9
100
AcDbSpline
210
0.0
220
0.0
230
1.0
 70
    11
 71
     3
 72
    17
 73
    13
 74
     0
 42
0.0000000001
 43
0.0000000001
 12
1.0
 22
0.0
 32
0.0
 13
1.0
 23
0.0
 33
0.0
 40
0.0
 40
0.0
 40
0.0
 40
0.0
 40
1.0
 40
1.0
 40
1.0
 40
2.0
 40
2.0
 40
2.0
 40
3.0
 40
3.0
 40
3.0
 40
4.0
 40
4.0
 40
4.0
 40
4.0
 10
78.11476995157064
 20
-94.15825858757168
 30
0.0
 10
78.11476995157064
 20
-94.1031194209186
 30
0.0
 10
78.07000245271274
 20
-94.05835192093004
 30
0.0
 10
78.0148632874528
 20
-94.05835192093004
 30
0.0
 10
77.95905384443218
 20
-94.05835192093004
 30
0.0
 10
77.91428634557428
 20
-94.1031194209186
 30
0.0
 10
77.91428634557428
 20
-94.15825858757168
 30
0.0
 10
77.91428634557428
 20
-94.21336247644659
 30
0.0
 10
77.95905384443218
 20
-94.25816525421331
 30
0.0
 10
78.0148632874528
 20
-94.25816525421331
 30
0.0
 10
78.07000245271274
 20
-94.25816525421331
 30
0.0
 10
78.11476995157064
 20
-94.21336247644659
 30
0.0
 10
78.11476995157064
 20
-94.15825858757168
 30
0.0
  0
SPLINE
  5
82
330
1F
100
AcDbEntity
  8
_U+30EC_U+30A4_U+30E4_U+30FC 1
 62
     7
420
 16777215
370
     9
100
AcDbSpline
210
0.0
220
0.0
230
1.0
 70
    11
 71
     3
 72
    17
 73
    13
 74
     0
 42
0.0000000001
 43
0.0000000001
 12
1.0
 22
0.0
 32
0.0
 13
1.0
 23
0.0
 33
0.0
 40
0.0
 40
0.0
 40
0.0
 40
0.0
 40
1.0
 40
1.0
 40
1.0
 40
2.0
 40
2.0
 40
2.0
 40
3.0
 40
3.0
 40
3.0
 40
4.0
 40
4.0
 40
4.0
 40
4.0
 10
78.11476995157064
 20
-97.25815219790766
 30
0.0
 10
78.11476995157064
 20
-97.20301303125457
 30
0.0
 10
78.07000245271274
 20
-97.15824553126602
 30
0.0
 10
78.0148632874528
 20
-97.15824553126602
 30
0.0
 10
77.95905384443218
 20
-97.15824553126602
 30
0.0
 10
77.91428634557428
 20
-97.20301303125457
 30
0.0
 10
77.91428634557428
 20
-97.25815219790766
 30
0.0
 10
77.91428634557428
 20
-97.31360886456034
 30
0.0
 10
77.95905384443218
 20
-97.35841164232706
 30
0.0
 10
78.0148632874528
 20
-97.35841164232706
 30
0.0
 10
78.07000245271274
 20
-97.35841164232706
 30
0.0
 10
78.11476995157064
 20
-97.31360886456034
 30
0.0
 10
78.11476995157064
 20
-97.25815219790766
 30
0.0
  0
SPLINE
  5
83
330
1F
100
AcDbEntity
  8
_U+30EC_U+30A4_U+30E4_U+30FC 1
 62
     7
420
 16777215
370
     9
100
AcDbSpline
210
0.0
220
0.0
230
1.0
 70
    11
 71
     3
 72
    17
 73
    13
 74
     0
 42
0.0000000001
 43
0.0000000001
 12
1.0
 22
0.0
 32
0.0
 13
1.0
 23
0.0
 33
0.0
 40
0.0
 40
0.0
 40
0.0
 40
0.0
 40
1.0
 40
1.0
 40
1.0
 40
2.0
 40
2.0
 40
2.0
 40
3.0
 40
3.0
 40
3.0
 40
4.0
 40
4.0
 40
4.0
 40
4.0
 10
74.11434060918565
 20
-79.05838192467984
 30
0.0
 10
74.11434060918565
 20
-79.00310164691604
 30
0.0
 10
74.06953783255088
 20
-78.95829886914932
 30
0.0
 10
74.01443394506781
 20
-78.95829886914932
 30
0.0
 10
73.95929477980786
 20
-78.95829886914932
 30
0.0
 10
73.91452728094997
 20
-79.00310164691604
 30
0.0
 10
73.91452728094997
 20
-79.05838192467984
 30
0.0
 10
73.91452728094997
 20
-79.1135210913326
 30
0.0
 10
73.95929477980786
 20
-79.15828859132148
 30
0.0
 10
74.01443394506781
 20
-79.15828859132148
 30
0.0
 10
74.06953783255088
 20
-79.15828859132148
 30
0.0
 10
74.11434060918565
 20
-79.1135210913326
 30
0.0
 10
74.11434060918565
 20
-79.05838192467984
 30
0.0
  0
SPLINE
  5
84
330
1F
100
AcDbEntity
  8
_U+30EC_U+30A4_U+30E4_U+30FC 1
 62
     7
420
 16777215
370
     9
100
AcDbSpline
210
0.0
220
0.0
230
1.0
 70
    11
 71
     3
 72
    17
 73
    13
 74
     0
 42
0.0000000001
 43
0.0000000001
 12
1.0
 22
0.0
 32
0.0
 13
1.0
 23
0.0
 33
0.0
 40
0.0
 40
0.0
 40
0.0
 40
0.0
 40
1.0
 40
1.0
 40
1.0
 40
2.0
 40
2.0
 40
2.0
 40
3.0
 40
3.0
 40
3.0
 40
4.0
 40
4.0
 40
4.0
 40
4.0
 10
49.11467346920251
 20
-79.05838192467984
 30
0.0
 10
49.11467346920251
 20
-79.00310164691604
 30
0.0
 10
49.06987069256775
 20
-78.95829886914932
 30
0.0
 10
49.01476680508468
 20
-78.95829886914932
 30
0.0
 10
48.95927486205595
 20
-78.95829886914932
 30
0.0
 10
48.91450736319806
 20
-79.00310164691604
 30
0.0
 10
48.91450736319806
 20
-79.05838192467984
 30
0.0
 10
48.91450736319806
 20
-79.1135210913326
 30
0.0
 10
48.95927486205595
 20
-79.15828859132148
 30
0.0
 10
49.01476680508468
 20
-79.15828859132148
 30
0.0
 10
49.06987069256775
 20
-79.15828859132148
 30
0.0
 10
49.11467346920251
 20
-79.1135210913326
 30
0.0
 10
49.11467346920251
 20
-79.05838192467984
 30
0.0
  0
POLYLINE
  5
85
330
1F
100
AcDbEntity
  8
_U+30EC_U+30A4_U+30E4_U+30FC 1
 62
     7
420
 16777215
370
     9
100
AcDb2dPolyline
 66
     1
 10
0.0
 20
0.0
 30
0.0
  0
VERTEX
  5
86
330
85
100
AcDbEntity
  8
_U+30EC_U+30A4_U+30E4_U+30FC 1
 62
     7
420
 16777215
370
     9
100
AcDbVertex
100
AcDb2dVertex
 10
47.01451685611531
 20
-101.2582641413523
 30
0.0
  0
VERTEX
  5
87
330
85
100
AcDbEntity
  8
_U+30EC_U+30A4_U+30E4_U+30FC 1
 62
     7
420
 16777215
370
     9
100
AcDbVertex
100
AcDb2dVertex
 10
62.0144864734342
 20
-101.2582641413523
 30
0.0
  0
SEQEND
  5
88
330
85
100
AcDbEntity
  8
_U+30EC_U+30A4_U+30E4_U+30FC 1
 62
     7
420
 16777215
370
     9
  0
POLYLINE
  5
89
330
1F
100
AcDbEntity
  8
_U+30EC_U+30A4_U+30E4_U+30FC 1
 62
     7
420
 16777215
370
     9
100
AcDb2dPolyline
 66
     1
 10
0.0
 20
0.0
 30
0.0
  0
VERTEX
  5
8A
330
89
100
AcDbEntity
  8
_U+30EC_U+30A4_U+30E4_U+30FC 1
 62
     7
420
 16777215
370
     9
100
AcDbVertex
100
AcDb2dVertex
 10
47.01451685611531
 20
-99.79822275282795
 30
0.0
  0
VERTEX
  5
8B
330
89
100
AcDbEntity
  8
_U+30EC_U+30A4_U+30E4_U+30FC 1
 62
     7
420
 16777215
370
     9
100
AcDbVertex
100
AcDb2dVertex
 10
47.01451685611531
 20
-102.2587066411022
 30
0.0
  0
SEQEND
  5
8C
330
89
100
AcDbEntity
  8
_U+30EC_U+30A4_U+30E4_U+30FC 1
 62
     7
420
 16777215
370
     9
  0
POLYLINE
  5
8D
330
1F
100
AcDbEntity
  8
_U+30EC_U+30A4_U+30E4_U+30FC 1
 62
     7
420
 16777215
370
     9
100
AcDb2dPolyline
 66
     1
 10
0.0
 20
0.0
 30
0.0
  0
VERTEX
  5
8E
330
8D
100
AcDbEntity
  8
_U+30EC_U+30A4_U+30E4_U+30FC 1
 62
     7
420
 16777215
370
     9
100
AcDbVertex
100
AcDb2dVertex
 10
61.91457980931636
 20
-99.79822275282795
 30
0.0
  0
VERTEX
  5
8F
330
8D
100
AcDbEntity
  8
_U+30EC_U+30A4_U+30E4_U+30FC 1
 62
     7
420
 16777215
370
     9
100
AcDbVertex
100
AcDb2dVertex
 10
61.91457980931636
 20
-102.2587066411022
 30
0.0
  0
SEQEND
  5
90
330
8D
100
AcDbEntity
  8
_U+30EC_U+30A4_U+30E4_U+30FC 1
 62
     7
420
 16777215
370
     9
  0
INSERT
  5
92
330
1F
100
AcDbEntity
  8
_U+30EC_U+30A4_U+30E4_U+30FC 1
100
AcDbBlockReference
  2
block 3
 10
0.0
 20
0.0
 30
0.0
  0
POLYLINE
  5
99
330
1F
100
AcDbEntity
  8
_U+30EC_U+30A4_U+30E4_U+30FC 1
 62
     7
420
 16777215
370
     9
100
AcDb2dPolyline
 66
     1
 10
0.0
 20
0.0
 30
0.0
  0
VERTEX
  5
9A
330
99
100
AcDbEntity
  8
_U+30EC_U+30A4_U+30E4_U+30FC 1
 62
     7
420
 16777215
370
     9
100
AcDbVertex
100
AcDb2dVertex
 10
78.0148632874528
 20
-94.25816525421331
 30
0.0
  0
VERTEX
  5
9B
330
99
100
AcDbEntity
  8
_U+30EC_U+30A4_U+30E4_U+30FC 1
 62
     7
420
 16777215
370
     9
100
AcDbVertex
100
AcDb2dVertex
 10
78.0148632874528
 20
-97.25815219790766
 30
0.0
  0
SEQEND
  5
9C
330
99
100
AcDbEntity
  8
_U+30EC_U+30A4_U+30E4_U+30FC 1
 62
     7
420
 16777215
370
     9
  0
POLYLINE
  5
9D
330
1F
100
AcDbEntity
  8
_U+30EC_U+30A4_U+30E4_U+30FC 1
 62
     7
420
 16777215
370
     9
100
AcDb2dPolyline
 66
     1
 10
0.0
 20
0.0
 30
0.0
  0
VERTEX
  5
9E
330
9D
100
AcDbEntity
  8
_U+30EC_U+30A4_U+30E4_U+30FC 1
 62
     7
420
 16777215
370
     9
100
AcDbVertex
100
AcDb2dVertex
 10
64.51423609498255
 20
-94.15825858757168
 30
0.0
  0
VERTEX
  5
9F
330
9D
100
AcDbEntity
  8
_U+30EC_U+30A4_U+30E4_U+30FC 1
 62
     7
420
 16777215
370
     9
100
AcDbVertex
100
AcDb2dVertex
 10
79.0146354841687
 20
-94.15825858757168
 30
0.0
  0
SEQEND
  5
A0
330
9D
100
AcDbEntity
  8
_U+30EC_U+30A4_U+30E4_U+30FC 1
 62
     7
420
 16777215
370
     9
  0
POLYLINE
  5
A1
330
1F
100
AcDbEntity
  8
_U+30EC_U+30A4_U+30E4_U+30FC 1
 62
     7
420
 16777215
370
     9
100
AcDb2dPolyline
 66
     1
 10
0.0
 20
0.0
 30
0.0
  0
VERTEX
  5
A2
330
A1
100
AcDbEntity
  8
_U+30EC_U+30A4_U+30E4_U+30FC 1
 62
     7
420
 16777215
370
     9
100
AcDbVertex
100
AcDb2dVertex
 10
64.51423609498255
 20
-97.25815219790766
 30
0.0
  0
VERTEX
  5
A3
330
A1
100
AcDbEntity
  8
_U+30EC_U+30A4_U+30E4_U+30FC 1
 62
     7
420
 16777215
370
     9
100
AcDbVertex
100
AcDb2dVertex
 10
79.0146354841687
 20
-97.25815219790766
 30
0.0
  0
SEQEND
  5
A4
330
A1
100
AcDbEntity
  8
_U+30EC_U+30A4_U+30E4_U+30FC 1
 62
     7
420
 16777215
370
     9
  0
INSERT
  5
A6
330
1F
100
AcDbEntity
  8
_U+30EC_U+30A4_U+30E4_U+30FC 1
100
AcDbBlockReference
  2
block 4
 10
0.0
 20
0.0
 30
0.0
  0
POLYLINE
  5
AB
330
1F
100
AcDbEntity
  8
_U+30EC_U+30A4_U+30E4_U+30FC 1
 62
     7
420
 16777215
370
     9
100
AcDb2dPolyline
 66
     1
 10
0.0
 20
0.0
 30
0.0
  0
VERTEX
  5
AC
330
AB
100
AcDbEntity
  8
_U+30EC_U+30A4_U+30E4_U+30FC 1
 62
     7
420
 16777215
370
     9
100
AcDbVertex
100
AcDb2dVertex
 10
78.0148632874528
 20
-84.15817275673834
 30
0.0
  0
VERTEX
  5
AD
330
AB
100
AcDbEntity
  8
_U+30EC_U+30A4_U+30E4_U+30FC 1
 62
     7
420
 16777215
370
     9
100
AcDbVertex
100
AcDb2dVertex
 10
78.0148632874528
 20
-79.15828859132148
 30
0.0
  0
SEQEND
  5
AE
330
AB
100
AcDbEntity
  8
_U+30EC_U+30A4_U+30E4_U+30FC 1
 62
     7
420
 16777215
370
     9
  0
POLYLINE
  5
AF
330
1F
100
AcDbEntity
  8
_U+30EC_U+30A4_U+30E4_U+30FC 1
 62
     7
420
 16777215
370
     9
100
AcDb2dPolyline
 66
     1
 10
0.0
 20
0.0
 30
0.0
  0
VERTEX
  5
B0
330
AF
100
AcDbEntity
  8
_U+30EC_U+30A4_U+30E4_U+30FC 1
 62
     7
420
 16777215
370
     9
100
AcDbVertex
100
AcDb2dVertex
 10
76.55485721358954
 20
-83.15804775698837
 30
0.0
  0
VERTEX
  5
B1
330
AF
100
AcDbEntity
  8
_U+30EC_U+30A4_U+30E4_U+30FC 1
 62
     7
420
 16777215
370
     9
100
AcDbVertex
100
AcDb2dVertex
 10
79.0146354841687
 20
-83.15804775698837
 30
0.0
  0
SEQEND
  5
B2
330
AF
100
AcDbEntity
  8
_U+30EC_U+30A4_U+30E4_U+30FC 1
 62
     7
420
 16777215
370
     9
  0
INSERT
  5
B4
330
1F
100
AcDbEntity
  8
_U+30EC_U+30A4_U+30E4_U+30FC 1
100
AcDbBlockReference
  2
block 5
 10
0.0
 20
0.0
 30
0.0
  0
POLYLINE
  5
B9
330
1F
100
AcDbEntity
  8
_U+30EC_U+30A4_U+30E4_U+30FC 1
 62
     7
420
 16777215
370
     9
100
AcDb2dPolyline
 66
     1
 10
0.0
 20
0.0
 30
0.0
  0
VERTEX
  5
BA
330
B9
100
AcDbEntity
  8
_U+30EC_U+30A4_U+30E4_U+30FC 1
 62
     7
420
 16777215
370
     9
100
AcDbVertex
100
AcDb2dVertex
 10
49.01476680508468
 20
-79.05838192467984
 30
0.0
  0
VERTEX
  5
BB
330
B9
100
AcDbEntity
  8
_U+30EC_U+30A4_U+30E4_U+30FC 1
 62
     7
420
 16777215
370
     9
100
AcDbVertex
100
AcDb2dVertex
 10
74.01443394506781
 20
-79.05838192467984
 30
0.0
  0
SEQEND
  5
BC
330
B9
100
AcDbEntity
  8
_U+30EC_U+30A4_U+30E4_U+30FC 1
 62
     7
420
 16777215
370
     9
  0
POLYLINE
  5
BD
330
1F
100
AcDbEntity
  8
_U+30EC_U+30A4_U+30E4_U+30FC 1
 62
     7
420
 16777215
370
     9
100
AcDb2dPolyline
 66
     1
 10
0.0
 20
0.0
 30
0.0
  0
VERTEX
  5
BE
330
BD
100
AcDbEntity
  8
_U+30EC_U+30A4_U+30E4_U+30FC 1
 62
     7
420
 16777215
370
     9
100
AcDbVertex
100
AcDb2dVertex
 10
49.01476680508468
 20
-80.51842331320387
 30
0.0
  0
VERTEX
  5
BF
330
BD
100
AcDbEntity
  8
_U+30EC_U+30A4_U+30E4_U+30FC 1
 62
     7
420
 16777215
370
     9
100
AcDbVertex
100
AcDb2dVertex
 10
49.01476680508468
 20
-78.0582922027077
 30
0.0
  0
SEQEND
  5
C0
330
BD
100
AcDbEntity
  8
_U+30EC_U+30A4_U+30E4_U+30FC 1
 62
     7
420
 16777215
370
     9
  0
POLYLINE
  5
C1
330
1F
100
AcDbEntity
  8
_U+30EC_U+30A4_U+30E4_U+30FC 1
 62
     7
420
 16777215
370
     9
100
AcDb2dPolyline
 66
     1
 10
0.0
 20
0.0
 30
0.0
  0
VERTEX
  5
C2
330
C1
100
AcDbEntity
  8
_U+30EC_U+30A4_U+30E4_U+30FC 1
 62
     7
420
 16777215
370
     9
100
AcDbVertex
100
AcDb2dVertex
 10
74.01443394506781
 20
-80.51842331320387
 30
0.0
  0
VERTEX
  5
C3
330
C1
100
AcDbEntity
  8
_U+30EC_U+30A4_U+30E4_U+30FC 1
 62
     7
420
 16777215
370
     9
100
AcDbVertex
100
AcDb2dVertex
 10
74.01443394506781
 20
-78.0582922027077
 30
0.0
  0
SEQEND
  5
C4
330
C1
100
AcDbEntity
  8
_U+30EC_U+30A4_U+30E4_U+30FC 1
 62
     7
420
 16777215
370
     9
  0
INSERT
  5
C6
330
1F
100
AcDbEntity
  8
_U+30EC_U+30A4_U+30E4_U+30FC 1
100
AcDbBlockReference
  2
block 6
 10
0.0
 20
0.0
 30
0.0
  0
POLYLINE
  5
CD
330
1F
100
AcDbEntity
  8
_U+30EC_U+30A4_U+30E4_U+30FC 1
 62
     7
420
 16777215
370
     9
100
AcDb2dPolyline
 66
     1
 10
0.0
 20
0.0
 30
0.0
  0
VERTEX
  5
CE
330
CD
100
AcDbEntity
  8
_U+30EC_U+30A4_U+30E4_U+30FC 1
 62
     7
420
 16777215
370
     9
100
AcDbVertex
100
AcDb2dVertex
 10
78.0148632874528
 20
-84.15817275673834
 30
0.0
  0
VERTEX
  5
CF
330
CD
100
AcDbEntity
  8
_U+30EC_U+30A4_U+30E4_U+30FC 1
 62
     7
420
 16777215
370
     9
100
AcDbVertex
100
AcDb2dVertex
 10
78.0148632874528
 20
-94.15825858757168
 30
0.0
  0
SEQEND
  5
D0
330
CD
100
AcDbEntity
  8
_U+30EC_U+30A4_U+30E4_U+30FC 1
 62
     7
420
 16777215
370
     9
  0
POLYLINE
  5
D1
330
1F
100
AcDbEntity
  8
_U+30EC_U+30A4_U+30E4_U+30FC 1
 62
     7
420
 16777215
370
     9
100
AcDb2dPolyline
 66
     1
 10
0.0
 20
0.0
 30
0.0
  0
VERTEX
  5
D2
330
D1
100
AcDbEntity
  8
_U+30EC_U+30A4_U+30E4_U+30FC 1
 62
     7
420
 16777215
370
     9
100
AcDbVertex
100
AcDb2dVertex
 10
76.55485721358954
 20
-84.15817275673834
 30
0.0
  0
VERTEX
  5
D3
330
D1
100
AcDbEntity
  8
_U+30EC_U+30A4_U+30E4_U+30FC 1
 62
     7
420
 16777215
370
     9
100
AcDbVertex
100
AcDb2dVertex
 10
79.0146354841687
 20
-84.15817275673834
 30
0.0
  0
SEQEND
  5
D4
330
D1
100
AcDbEntity
  8
_U+30EC_U+30A4_U+30E4_U+30FC 1
 62
     7
420
 16777215
370
     9
  0
INSERT
  5
D6
330
1F
100
AcDbEntity
  8
_U+30EC_U+30A4_U+30E4_U+30FC 1
100
AcDbBlockReference
  2
block 7
 10
0.0
 20
0.0
 30
0.0
  0
ENDSEC
  0
SECTION
  2
OBJECTS
  0
DICTIONARY
  5
C
330
0
100
AcDbDictionary
281
     1
  3
ACAD_GROUP
350
D
  3
ACAD_LAYOUT
350
1A
  3
ACAD_MATERIAL
350
3B
  3
ACAD_MLEADERSTYLE
350
DF
  3
ACAD_MLINESTYLE
350
17
  3
ACAD_PLOTSETTINGS
350
19
  3
ACAD_PLOTSTYLENAME
350
E
  3
ACAD_TABLESTYLE
350
DE
  3
ACAD_VISUALSTYLE
350
2A
  0
SUN
  5
3F
330
29
100
AcDbSun
 90
        1
290
     0
 63
     7
421
 16777215
 40
1.0
291
     1
 91
  2455826
 92
 54000000
292
     0
 70
     2
 71
   256
280
     1
  0
DICTIONARY
  5
D
102
{ACAD_REACTORS
330
C
102
}
330
C
100
AcDbDictionary
281
     1
  0
DICTIONARY
  5
1A
102
{ACAD_REACTORS
330
C
102
}
330
C
100
AcDbDictionary
281
     1
  3
Layout1
350
1E
  3
Layout2
350
26
  3
Model
350
22
  0
DICTIONARY
  5
3B
102
{ACAD_REACTORS
330
C
102
}
330
C
100
AcDbDictionary
281
     1
  3
ByBlock
350
3D
  3
ByLayer
350
3C
  3
Global
350
3E
  0
DICTIONARY
  5
DF
102
{ACAD_REACTORS
330
C
102
}
330
C
100
AcDbDictionary
281
     1
  0
DICTIONARY
  5
17
102
{ACAD_REACTORS
330
C
102
}
330
C
100
AcDbDictionary
281
     1
  3
Standard
350
18
  0
DICTIONARY
  5
19
102
{ACAD_REACTORS
330
C
102
}
330
C
100
AcDbDictionary
281
     1
  0
ACDBDICTIONARYWDFLT
  5
E
102
{ACAD_REACTORS
330
C
102
}
330
C
100
AcDbDictionary
281
     1
  3
Normal
350
F
100
AcDbDictionaryWithDefault
340
F
  0
DICTIONARY
  5
DE
102
{ACAD_REACTORS
330
C
102
}
330
C
100
AcDbDictionary
281
     1
  0
DICTIONARY
  5
2A
102
{ACAD_REACTORS
330
C
102
}
330
C
100
AcDbDictionary
281
     1
  3
2dWireframe
350
2F
  3
3D Hidden
350
31
  3
3dWireframe
350
30
  3
Basic
350
32
  3
Brighten
350
36
  3
ColorChange
350
3A
  3
Conceptual
350
34
  3
Dim
350
35
  3
Facepattern
350
39
  3
Flat
350
2B
  3
FlatWithEdges
350
2C
  3
Gouraud
350
2D
  3
GouraudWithEdges
350
2E
  3
Linepattern
350
38
  3
Realistic
350
33
  3
Thicken
350
37
  0
LAYOUT
  5
1E
102
{ACAD_REACTORS
330
1A
102
}
330
1A
100
AcDbPlotSettings
  1

  2
none_device
  4

  6

 40
0.0
 41
0.0
 42
0.0
 43
0.0
 44
0.0
 45
0.0
 46
0.0
 47
0.0
 48
0.0
 49
0.0
140
0.0
141
0.0
142
1.0
143
1.0
 70
   688
 72
     0
 73
     0
 74
     5
  7

 75
    16
 76
     0
 77
     2
 78
   300
147
1.0
148
0.0
149
0.0
100
AcDbLayout
  1
Layout1
 70
     1
 71
     1
 10
0.0
 20
0.0
 11
12.0
 21
9.0
 12
0.0
 22
0.0
 32
0.0
 14
1.000000000000000E+20
 24
1.000000000000000E+20
 34
1.000000000000000E+20
 15
-1.000000000000000E+20
 25
-1.000000000000000E+20
 35
-1.000000000000000E+20
146
0.0
 13
0.0
 23
0.0
 33
0.0
 16
1.0
 26
0.0
 36
0.0
 17
0.0
 27
1.0
 37
0.0
 76
     0
330
1B
  0
LAYOUT
  5
26
102
{ACAD_REACTORS
330
1A
102
}
330
1A
100
AcDbPlotSettings
  1

  2
none_device
  4

  6

 40
0.0
 41
0.0
 42
0.0
 43
0.0
 44
0.0
 45
0.0
 46
0.0
 47
0.0
 48
0.0
 49
0.0
140
0.0
141
0.0
142
1.0
143
1.0
 70
   688
 72
     0
 73
     0
 74
     5
  7

 75
    16
 76
     0
 77
     2
 78
   300
147
1.0
148
0.0
149
0.0
100
AcDbLayout
  1
Layout2
 70
     1
 71
     2
 10
0.0
 20
0.0
 11
0.0
 21
0.0
 12
0.0
 22
0.0
 32
0.0
 14
0.0
 24
0.0
 34
0.0
 15
0.0
 25
0.0
 35
0.0
146
0.0
 13
0.0
 23
0.0
 33
0.0
 16
1.0
 26
0.0
 36
0.0
 17
0.0
 27
1.0
 37
0.0
 76
     0
330
23
  0
LAYOUT
  5
22
102
{ACAD_REACTORS
330
1A
102
}
330
1A
100
AcDbPlotSettings
  1

  2
none_device
  4

  6

 40
0.0
 41
0.0
 42
0.0
 43
0.0
 44
0.0
 45
0.0
 46
0.0
 47
0.0
 48
0.0
 49
0.0
140
0.0
141
0.0
142
1.0
143
1.0
 70
  1712
 72
     0
 73
     0
 74
     0
  7

 75
     0
 76
     0
 77
     2
 78
   300
147
1.0
148
0.0
149
0.0
100
AcDbLayout
  1
Model
 70
     1
 71
     0
 10
0.0
 20
0.0
 11
12.0
 21
9.0
 12
0.0
 22
0.0
 32
0.0
 14
1.000000000000000E+20
 24
1.000000000000000E+20
 34
1.000000000000000E+20
 15
-1.000000000000000E+20
 25
-1.000000000000000E+20
 35
-1.000000000000000E+20
146
0.0
 13
0.0
 23
0.0
 33
0.0
 16
1.0
 26
0.0
 36
0.0
 17
0.0
 27
1.0
 37
0.0
 76
     0
330
1F
331
29
  0
MATERIAL
  5
3D
102
{ACAD_REACTORS
330
3B
102
}
330
3B
100
AcDbMaterial
  1
ByBlock
 72
     1
 94
      127
  0
MATERIAL
  5
3C
102
{ACAD_REACTORS
330
3B
102
}
330
3B
100
AcDbMaterial
  1
ByLayer
 72
     1
 94
      127
  0
MATERIAL
  5
3E
102
{ACAD_REACTORS
330
3B
102
}
330
3B
100
AcDbMaterial
  1
Global
 72
     1
 94
      127
  0
MLINESTYLE
  5
18
102
{ACAD_REACTORS
330
17
102
}
330
17
100
AcDbMlineStyle
  2
Standard
 70
     0
  3

 62
   256
 51
90.0
 52
90.0
 71
     2
 49
0.5
 62
   256
  6
BYLAYER
 49
-0.5
 62
   256
  6
BYLAYER
  0
ACDBPLACEHOLDER
  5
F
102
{ACAD_REACTORS
330
E
102
}
330
E
  0
VISUALSTYLE
  5
2F
102
{ACAD_REACTORS
330
2A
102
}
330
2A
100
AcDbVisualStyle
  2
2dWireframe
 70
     4
177
     2
291
     0
 71
     0
176
     1
 72
     2
176
     1
 73
     0
176
     1
 90
        0
176
     1
 40
-0.6
176
     1
 41
-30.0
176
     1
 62
     5
 63
     7
421
 16777215
176
     1
 74
     1
176
     1
 91
        4
176
     1
 64
     7
176
     1
 65
   257
176
     1
 75
     1
176
     1
175
     1
176
     1
 42
1.0
176
     1
 92
        0
176
     1
 66
   257
176
     1
 43
1.0
176
     1
 76
     1
176
     1
 77
     6
176
     1
 78
     2
176
     1
 67
     7
176
     1
 79
     5
176
     1
170
     0
176
     1
171
     0
176
     1
290
     0
176
     1
 93
        1
176
     1
 44
0.0
176
     1
173
     0
176
     1
  0
VISUALSTYLE
  5
31
102
{ACAD_REACTORS
330
2A
102
}
330
2A
100
AcDbVisualStyle
  2
3D Hidden
 70
     6
177
     2
291
     0
 71
     1
176
     1
 72
     2
176
     1
 73
     2
176
     1
 90
        0
176
     1
 40
-0.6
176
     1
 41
-30.0
176
     1
 62
     5
 63
     7
421
 16777215
176
     1
 74
     2
176
     1
 91
        2
176
     1
 64
     7
176
     1
 65
   257
176
     1
 75
     2
176
     1
175
     1
176
     1
 42
40.0
176
     1
 92
        0
176
     1
 66
   257
176
     1
 43
1.0
176
     1
 76
     1
176
     1
 77
     6
176
     1
 78
     2
176
     1
 67
     7
176
     1
 79
     3
176
     1
170
     0
176
     1
171
     0
176
     1
290
     0
176
     1
 93
        1
176
     1
 44
0.0
176
     1
173
     0
176
     1
  0
VISUALSTYLE
  5
30
102
{ACAD_REACTORS
330
2A
102
}
330
2A
100
AcDbVisualStyle
  2
3dWireframe
 70
     5
177
     2
291
     0
 71
     0
176
     1
 72
     2
176
     1
 73
     0
176
     1
 90
        0
176
     1
 40
-0.6
176
     1
 41
-30.0
176
     1
 62
     5
 63
     7
421
 16777215
176
     1
 74
     1
176
     1
 91
        4
176
     1
 64
     7
176
     1
 65
   257
176
     1
 75
     1
176
     1
175
     1
176
     1
 42
1.0
176
     1
 92
        0
176
     1
 66
   257
176
     1
 43
1.0
176
     1
 76
     1
176
     1
 77
     6
176
     1
 78
     2
176
     1
 67
     7
176
     1
 79
     5
176
     1
170
     0
176
     1
171
     0
176
     1
290
     0
176
     1
 93
        1
176
     1
 44
0.0
176
     1
173
     0
176
     1
  0
VISUALSTYLE
  5
32
102
{ACAD_REACTORS
330
2A
102
}
330
2A
100
AcDbVisualStyle
  2
Basic
 70
     7
177
     2
291
     1
 71
     1
176
     1
 72
     0
176
     1
 73
     1
176
     1
 90
        0
176
     1
 40
-0.6
176
     1
 41
-30.0
176
     1
 62
     5
 63
     7
421
 16777215
176
     1
 74
     0
176
     1
 91
        4
176
     1
 64
     7
176
     1
 65
   257
176
     1
 75
     1
176
     1
175
     1
176
     1
 42
1.0
176
     1
 92
        8
176
     1
 66
     7
176
     1
 43
1.0
176
     1
 76
     1
176
     1
 77
     6
176
     1
 78
     2
176
     1
 67
     7
176
     1
 79
     5
176
     1
170
     0
176
     1
171
     0
176
     1
290
     0
176
     1
 93
        1
176
     1
 44
0.0
176
     1
173
     0
176
     1
  0
VISUALSTYLE
  5
36
102
{ACAD_REACTORS
330
2A
102
}
330
2A
100
AcDbVisualStyle
  2
Brighten
 70
    12
177
     2
291
     1
 71
     2
176
     1
 72
     2
176
     1
 73
     0
176
     1
 90
        0
176
     1
 40
-0.6
176
     1
 41
-30.0
176
     1
 62
     5
 63
     7
421
 16777215
176
     1
 74
     1
176
     1
 91
        4
176
     1
 64
     7
176
     1
 65
   257
176
     1
 75
     1
176
     1
175
     1
176
     1
 42
1.0
176
     1
 92
        8
176
     1
 66
     7
176
     1
 43
1.0
176
     1
 76
     1
176
     1
 77
     6
176
     1
 78
     2
176
     1
 67
     7
176
     1
 79
     5
176
     1
170
     0
176
     1
171
     0
176
     1
290
     0
176
     1
 93
        1
176
     1
 44
50.0
176
     1
173
     0
176
     1
  0
VISUALSTYLE
  5
3A
102
{ACAD_REACTORS
330
2A
102
}
330
2A
100
AcDbVisualStyle
  2
ColorChange
 70
    16
177
     2
291
     1
 71
     2
176
     1
 72
     2
176
     1
 73
     3
176
     1
 90
        0
176
     1
 40
-0.6
176
     1
 41
-30.0
176
     1
 62
     5
 63
     8
421
  8421504
176
     1
 74
     1
176
     1
 91
        4
176
     1
 64
     7
176
     1
 65
   257
176
     1
 75
     1
176
     1
175
     1
176
     1
 42
1.0
176
     1
 92
        8
176
     1
 66
     8
424
  8421504
176
     1
 43
1.0
176
     1
 76
     1
176
     1
 77
     6
176
     1
 78
     2
176
     1
 67
     7
176
     1
 79
     5
176
     1
170
     0
176
     1
171
     0
176
     1
290
     0
176
     1
 93
        1
176
     1
 44
0.0
176
     1
173
     0
176
     1
  0
VISUALSTYLE
  5
34
102
{ACAD_REACTORS
330
2A
102
}
330
2A
100
AcDbVisualStyle
  2
Conceptual
 70
     9
177
     2
291
     0
 71
     3
176
     1
 72
     2
176
     1
 73
     0
176
     1
 90
        0
176
     1
 40
-0.6
176
     1
 41
-30.0
176
     1
 62
     5
 63
     7
421
 16777215
176
     1
 74
     2
176
     1
 91
        2
176
     1
 64
     7
176
     1
 65
   257
176
     1
 75
     1
176
     1
175
     1
176
     1
 42
40.0
176
     1
 92
        8
176
     1
 66
     7
176
     1
 43
1.0
176
     1
 76
     1
176
     1
 77
     6
176
     1
 78
     2
176
     1
 67
     7
176
     1
 79
     3
176
     1
170
     0
176
     1
171
     0
176
     1
290
     0
176
     1
 93
        1
176
     1
 44
0.0
176
     1
173
     0
176
     1
  0
VISUALSTYLE
  5
35
102
{ACAD_REACTORS
330
2A
102
}
330
2A
100
AcDbVisualStyle
  2
Dim
 70
    11
177
     2
291
     1
 71
     2
176
     1
 72
     2
176
     1
 73
     0
176
     1
 90
        0
176
     1
 40
-0.6
176
     1
 41
-30.0
176
     1
 62
     5
 63
     7
421
 16777215
176
     1
 74
     1
176
     1
 91
        4
176
     1
 64
     7
176
     1
 65
   257
176
     1
 75
     1
176
     1
175
     1
176
     1
 42
1.0
176
     1
 92
        8
176
     1
 66
     7
176
     1
 43
1.0
176
     1
 76
     1
176
     1
 77
     6
176
     1
 78
     2
176
     1
 67
     7
176
     1
 79
     5
176
     1
170
     0
176
     1
171
     0
176
     1
290
     0
176
     1
 93
        1
176
     1
 44
-50.0
176
     1
173
     0
176
     1
  0
VISUALSTYLE
  5
39
102
{ACAD_REACTORS
330
2A
102
}
330
2A
100
AcDbVisualStyle
  2
Facepattern
 70
    15
177
     2
291
     1
 71
     2
176
     1
 72
     2
176
     1
 73
     0
176
     1
 90
        0
176
     1
 40
-0.6
176
     1
 41
-30.0
176
     1
 62
     5
 63
     7
421
 16777215
176
     1
 74
     1
176
     1
 91
        4
176
     1
 64
     7
176
     1
 65
   257
176
     1
 75
     1
176
     1
175
     1
176
     1
 42
1.0
176
     1
 92
        8
176
     1
 66
     7
176
     1
 43
1.0
176
     1
 76
     1
176
     1
 77
     6
176
     1
 78
     2
176
     1
 67
     7
176
     1
 79
     5
176
     1
170
     0
176
     1
171
     0
176
     1
290
     0
176
     1
 93
        1
176
     1
 44
0.0
176
     1
173
     0
176
     1
  0
VISUALSTYLE
  5
2B
102
{ACAD_REACTORS
330
2A
102
}
330
2A
100
AcDbVisualStyle
  2
Flat
 70
     0
177
     2
291
     1
 71
     2
176
     1
 72
     1
176
     1
 73
     1
176
     1
 90
        2
176
     1
 40
-0.6
176
     1
 41
30.0
176
     1
 62
     5
 63
     7
421
 16777215
176
     1
 74
     0
176
     1
 91
        4
176
     1
 64
     7
176
     1
 65
   257
176
     1
 75
     1
176
     1
175
     1
176
     1
 42
1.0
176
     1
 92
        8
176
     1
 66
     7
176
     1
 43
1.0
176
     1
 76
     1
176
     1
 77
     6
176
     1
 78
     2
176
     1
 67
     7
176
     1
 79
     5
176
     1
170
     0
176
     1
171
     0
176
     1
290
     0
176
     1
 93
       13
176
     1
 44
0.0
176
     1
173
     0
176
     1
  0
VISUALSTYLE
  5
2C
102
{ACAD_REACTORS
330
2A
102
}
330
2A
100
AcDbVisualStyle
  2
FlatWithEdges
 70
     1
177
     2
291
     1
 71
     2
176
     1
 72
     1
176
     1
 73
     1
176
     1
 90
        2
176
     1
 40
-0.6
176
     1
 41
30.0
176
     1
 62
     5
 63
     7
421
 16777215
176
     1
 74
     1
176
     1
 91
        4
176
     1
 64
     7
176
     1
 65
   257
176
     1
 75
     1
176
     1
175
     1
176
     1
 42
1.0
176
     1
 92
        0
176
     1
 66
   257
176
     1
 43
1.0
176
     1
 76
     1
176
     1
 77
     6
176
     1
 78
     2
176
     1
 67
     7
176
     1
 79
     5
176
     1
170
     0
176
     1
171
     0
176
     1
290
     0
176
     1
 93
       13
176
     1
 44
0.0
176
     1
173
     0
176
     1
  0
VISUALSTYLE
  5
2D
102
{ACAD_REACTORS
330
2A
102
}
330
2A
100
AcDbVisualStyle
  2
Gouraud
 70
     2
177
     2
291
     1
 71
     2
176
     1
 72
     2
176
     1
 73
     1
176
     1
 90
        2
176
     1
 40
-0.6
176
     1
 41
30.0
176
     1
 62
     5
 63
     7
421
 16777215
176
     1
 74
     0
176
     1
 91
        4
176
     1
 64
     7
176
     1
 65
   257
176
     1
 75
     1
176
     1
175
     1
176
     1
 42
1.0
176
     1
 92
        0
176
     1
 66
     7
176
     1
 43
1.0
176
     1
 76
     1
176
     1
 77
     6
176
     1
 78
     2
176
     1
 67
     7
176
     1
 79
     5
176
     1
170
     0
176
     1
171
     0
176
     1
290
     0
176
     1
 93
       13
176
     1
 44
0.0
176
     1
173
     0
176
     1
  0
VISUALSTYLE
  5
2E
102
{ACAD_REACTORS
330
2A
102
}
330
2A
100
AcDbVisualStyle
  2
GouraudWithEdges
 70
     3
177
     2
291
     1
 71
     2
176
     1
 72
     2
176
     1
 73
     1
176
     1
 90
        2
176
     1
 40
-0.6
176
     1
 41
30.0
176
     1
 62
     5
 63
     7
421
 16777215
176
     1
 74
     1
176
     1
 91
        4
176
     1
 64
     7
176
     1
 65
   257
176
     1
 75
     1
176
     1
175
     1
176
     1
 42
1.0
176
     1
 92
        0
176
     1
 66
   257
176
     1
 43
1.0
176
     1
 76
     1
176
     1
 77
     6
176
     1
 78
     2
176
     1
 67
     7
176
     1
 79
     5
176
     1
170
     0
176
     1
171
     0
176
     1
290
     0
176
     1
 93
       13
176
     1
 44
0.0
176
     1
173
     0
176
     1
  0
VISUALSTYLE
  5
38
102
{ACAD_REACTORS
330
2A
102
}
330
2A
100
AcDbVisualStyle
  2
Linepattern
 70
    14
177
     2
291
     1
 71
     2
176
     1
 72
     2
176
     1
 73
     0
176
     1
 90
        0
176
     1
 40
-0.6
176
     1
 41
-30.0
176
     1
 62
     5
 63
     7
421
 16777215
176
     1
 74
     1
176
     1
 91
        4
176
     1
 64
     7
176
     1
 65
   257
176
     1
 75
     7
176
     1
175
     7
176
     1
 42
1.0
176
     1
 92
        8
176
     1
 66
     7
176
     1
 43
1.0
176
     1
 76
     1
176
     1
 77
     6
176
     1
 78
     2
176
     1
 67
     7
176
     1
 79
     5
176
     1
170
     0
176
     1
171
     0
176
     1
290
     0
176
     1
 93
        1
176
     1
 44
0.0
176
     1
173
     0
176
     1
  0
VISUALSTYLE
  5
33
102
{ACAD_REACTORS
330
2A
102
}
330
2A
100
AcDbVisualStyle
  2
Realistic
 70
     8
177
     2
291
     0
 71
     2
176
     1
 72
     2
176
     1
 73
     0
176
     1
 90
        0
176
     1
 40
-0.6
176
     1
 41
-30.0
176
     1
 62
     5
 63
     7
421
 16777215
176
     1
 74
     1
176
     1
 91
        0
176
     1
 64
     7
176
     1
 65
   257
176
     1
 75
     1
176
     1
175
     1
176
     1
 42
1.0
176
     1
 92
        8
176
     1
 66
     8
424
  7895160
176
     1
 43
1.0
176
     1
 76
     1
176
     1
 77
     6
176
     1
 78
     2
176
     1
 67
     7
176
     1
 79
     5
176
     1
170
     0
176
     1
171
     0
176
     1
290
     0
176
     1
 93
       13
176
     1
 44
0.0
176
     1
173
     0
176
     1
  0
VISUALSTYLE
  5
37
102
{ACAD_REACTORS
330
2A
102
}
330
2A
100
AcDbVisualStyle
  2
Thicken
 70
    13
177
     2
291
     1
 71
     2
176
     1
 72
     2
176
     1
 73
     0
176
     1
 90
        0
176
     1
 40
-0.6
176
     1
 41
-30.0
176
     1
 62
     5
 63
     7
421
 16777215
176
     1
 74
     1
176
     1
 91
        4
176
     1
 64
     7
176
     1
 65
   257
176
     1
 75
     1
176
     1
175
     1
176
     1
 42
1.0
176
     1
 92
       12
176
     1
 66
     7
176
     1
 43
1.0
176
     1
 76
     1
176
     1
 77
     6
176
     1
 78
     2
176
     1
 67
     7
176
     1
 79
     5
176
     1
170
     0
176
     1
171
     0
176
     1
290
     0
176
     1
 93
        1
176
     1
 44
0.0
176
     1
173
     0
176
     1
  0
ENDSEC
  0
EOF
