  0
SECTION
  2
HEADER
  9
$ACADVER
  1
AC1024
  9
$ACADMAINTVER
 70
     6
  9
$DWGCODEPAGE
  3
UNDEFINED
  9
$INSBASE
 10
0.0
 20
0.0
 30
0.0
  9
$EXTMIN
 10
1.000000000000000E+20
 20
1.000000000000000E+20
 30
1.000000000000000E+20
  9
$EXTMAX
 10
-1.000000000000000E+20
 20
-1.000000000000000E+20
 30
-1.000000000000000E+20
  9
$LIMMIN
 10
0.0
 20
0.0
  9
$LIMMAX
 10
12.0
 20
9.0
  9
$ORTHOMODE
 70
     0
  9
$REGENMODE
 70
     1
  9
$FILLMODE
 70
     1
  9
$QTEXTMODE
 70
     0
  9
$MIRRTEXT
 70
     1
  9
$LTSCALE
 40
1.0
  9
$ATTMODE
 70
     1
  9
$TEXTSIZE
 40
0.2
  9
$TRACEWID
 40
0.05
  9
$TEXTSTYLE
  7
Standard
  9
$CLAYER
  8
0
  9
$CELTYPE
  6
ByLayer
  9
$CECOLOR
 62
   256
  9
$CELTSCALE
 40
1.0
  9
$DISPSILH
 70
     0
  9
$DIMSCALE
 40
1.0
  9
$DIMASZ
 40
0.18
  9
$DIMEXO
 40
0.0625
  9
$DIMDLI
 40
0.38
  9
$DIMRND
 40
0.0
  9
$DIMDLE
 40
0.0
  9
$DIMEXE
 40
0.18
  9
$DIMTP
 40
0.0
  9
$DIMTM
 40
0.0
  9
$DIMTXT
 40
0.18
  9
$DIMCEN
 40
0.09
  9
$DIMTSZ
 40
0.0
  9
$DIMTOL
 70
     0
  9
$DIMLIM
 70
     0
  9
$DIMTIH
 70
     1
  9
$DIMTOH
 70
     1
  9
$DIMSE1
 70
     0
  9
$DIMSE2
 70
     0
  9
$DIMTAD
 70
     0
  9
$DIMZIN
 70
     0
  9
$DIMBLK
  1

  9
$DIMASO
 70
     1
  9
$DIMSHO
 70
     1
  9
$DIMPOST
  1

  9
$DIMAPOST
  1

  9
$DIMALT
 70
     0
  9
$DIMALTD
 70
     2
  9
$DIMALTF
 40
25.4
  9
$DIMLFAC
 40
1.0
  9
$DIMTOFL
 70
     0
  9
$DIMTVP
 40
0.0
  9
$DIMTIX
 70
     0
  9
$DIMSOXD
 70
     0
  9
$DIMSAH
 70
     0
  9
$DIMBLK1
  1

  9
$DIMBLK2
  1

  9
$DIMSTYLE
  2
Standard
  9
$DIMCLRD
 70
     0
  9
$DIMCLRE
 70
     0
  9
$DIMCLRT
 70
     0
  9
$DIMTFAC
 40
1.0
  9
$DIMGAP
 40
0.09
  9
$DIMJUST
 70
     0
  9
$DIMSD1
 70
     0
  9
$DIMSD2
 70
     0
  9
$DIMTOLJ
 70
     1
  9
$DIMTZIN
 70
     0
  9
$DIMALTZ
 70
     0
  9
$DIMALTTZ
 70
     0
  9
$DIMUPT
 70
     0
  9
$DIMDEC
 70
     4
  9
$DIMTDEC
 70
     4
  9
$DIMALTU
 70
     2
  9
$DIMALTTD
 70
     2
  9
$DIMTXSTY
  7
Standard
  9
$DIMAUNIT
 70
     0
  9
$DIMADEC
 70
     0
  9
$DIMALTRND
 40
0.0
  9
$DIMAZIN
 70
     0
  9
$DIMDSEP
 70
    46
  9
$DIMATFIT
 70
     3
  9
$DIMFRAC
 70
     0
  9
$DIMLDRBLK
  1

  9
$DIMLUNIT
 70
     2
  9
$DIMLWD
 70
    -2
  9
$DIMLWE
 70
    -2
  9
$DIMTMOVE
 70
     0
  9
$DIMFXL
 40
1.0
  9
$DIMFXLON
 70
     0
  9
$DIMJOGANG
 40
0.7853981633974483
  9
$DIMTFILL
 70
     0
  9
$DIMTFILLCLR
 70
     0
  9
$DIMARCSYM
 70
     0
  9
$DIMLTYPE
  6

  9
$DIMLTEX1
  6

  9
$DIMLTEX2
  6

  9
$DIMTXTDIRECTION
 70
     0
  9
$LUNITS
 70
     2
  9
$LUPREC
 70
     4
  9
$SKETCHINC
 40
0.1
  9
$FILLETRAD
 40
0.5
  9
$AUNITS
 70
     0
  9
$AUPREC
 70
     0
  9
$MENU
  1
.
  9
$ELEVATION
 40
0.0
  9
$PELEVATION
 40
0.0
  9
$THICKNESS
 40
0.0
  9
$LIMCHECK
 70
     0
  9
$CHAMFERA
 40
0.5
  9
$CHAMFERB
 40
0.5
  9
$CHAMFERC
 40
1.0
  9
$CHAMFERD
 40
0.0
  9
$SKPOLY
 70
     0
  9
$TDCREATE
 40
2457917.588344896
  9
$TDUCREATE
 40
2457917.213344907
  9
$TDUPDATE
 40
2457917.588344896
  9
$TDUUPDATE
 40
2457917.213344907
  9
$TDINDWG
 40
0.0000000116
  9
$TDUSRTIMER
 40
0.0000000116
  9
$USRTIMER
 70
     1
  9
$ANGBASE
 50
0.0
  9
$ANGDIR
 70
     0
  9
$PDMODE
 70
     0
  9
$PDSIZE
 40
0.0
  9
$PLINEWID
 40
0.0
  9
$SPLFRAME
 70
     0
  9
$SPLINETYPE
 70
     6
  9
$SPLINESEGS
 70
     8
  9
$HANDSEED
  5
E7
  9
$SURFTAB1
 70
     6
  9
$SURFTAB2
 70
     6
  9
$SURFTYPE
 70
     6
  9
$SURFU
 70
     6
  9
$SURFV
 70
     6
  9
$UCSBASE
  2

  9
$UCSNAME
  2

  9
$UCSORG
 10
0.0
 20
0.0
 30
0.0
  9
$UCSXDIR
 10
1.0
 20
0.0
 30
0.0
  9
$UCSYDIR
 10
0.0
 20
1.0
 30
0.0
  9
$UCSORTHOREF
  2

  9
$UCSORTHOVIEW
 70
     0
  9
$UCSORGTOP
 10
0.0
 20
0.0
 30
0.0
  9
$UCSORGBOTTOM
 10
0.0
 20
0.0
 30
0.0
  9
$UCSORGLEFT
 10
0.0
 20
0.0
 30
0.0
  9
$UCSORGRIGHT
 10
0.0
 20
0.0
 30
0.0
  9
$UCSORGFRONT
 10
0.0
 20
0.0
 30
0.0
  9
$UCSORGBACK
 10
0.0
 20
0.0
 30
0.0
  9
$PUCSBASE
  2

  9
$PUCSNAME
  2

  9
$PUCSORG
 10
0.0
 20
0.0
 30
0.0
  9
$PUCSXDIR
 10
1.0
 20
0.0
 30
0.0
  9
$PUCSYDIR
 10
0.0
 20
1.0
 30
0.0
  9
$PUCSORTHOREF
  2

  9
$PUCSORTHOVIEW
 70
     0
  9
$PUCSORGTOP
 10
0.0
 20
0.0
 30
0.0
  9
$PUCSORGBOTTOM
 10
0.0
 20
0.0
 30
0.0
  9
$PUCSORGLEFT
 10
0.0
 20
0.0
 30
0.0
  9
$PUCSORGRIGHT
 10
0.0
 20
0.0
 30
0.0
  9
$PUCSORGFRONT
 10
0.0
 20
0.0
 30
0.0
  9
$PUCSORGBACK
 10
0.0
 20
0.0
 30
0.0
  9
$USERI1
 70
     0
  9
$USERI2
 70
     0
  9
$USERI3
 70
     0
  9
$USERI4
 70
     0
  9
$USERI5
 70
     0
  9
$USERR1
 40
0.0
  9
$USERR2
 40
0.0
  9
$USERR3
 40
0.0
  9
$USERR4
 40
0.0
  9
$USERR5
 40
0.0
  9
$WORLDVIEW
 70
     1
  9
$SHADEDGE
 70
     3
  9
$SHADEDIF
 70
    70
  9
$TILEMODE
 70
     1
  9
$MAXACTVP
 70
    64
  9
$PINSBASE
 10
0.0
 20
0.0
 30
0.0
  9
$PLIMCHECK
 70
     0
  9
$PEXTMIN
 10
1.000000000000000E+20
 20
1.000000000000000E+20
 30
1.000000000000000E+20
  9
$PEXTMAX
 10
-1.000000000000000E+20
 20
-1.000000000000000E+20
 30
-1.000000000000000E+20
  9
$PLIMMIN
 10
0.0
 20
0.0
  9
$PLIMMAX
 10
12.0
 20
9.0
  9
$UNITMODE
 70
     0
  9
$VISRETAIN
 70
     1
  9
$PLINEGEN
 70
     0
  9
$PSLTSCALE
 70
     1
  9
$TREEDEPTH
 70
  3020
  9
$CMLSTYLE
  2
Standard
  9
$CMLJUST
 70
     0
  9
$CMLSCALE
 40
1.0
  9
$PROXYGRAPHICS
 70
     1
  9
$MEASUREMENT
 70
     0
  9
$CELWEIGHT
370
    -1
  9
$ENDCAPS
280
     0
  9
$JOINSTYLE
280
     0
  9
$LWDISPLAY
290
     1
  9
$INSUNITS
 70
     1
  9
$HYPERLINKBASE
  1

  9
$STYLESHEET
  1

  9
$XEDIT
290
     1
  9
$CEPSNTYPE
380
     0
  9
$PSTYLEMODE
290
     1
  9
$FINGERPRINTGUID
  2
{1EE6C1D2-66CF-607B-284E-CD1C028E7CC6}
  9
$VERSIONGUID
  2
{FAEB1C32-E019-11D5-929B-00C0DF256EC4}
  9
$EXTNAMES
290
     1
  9
$PSVPSCALE
 40
0.0
  9
$OLESTARTUP
290
     0
  9
$SORTENTS
280
   127
  9
$INDEXCTL
280
     0
  9
$HIDETEXT
280
     1
  9
$XCLIPFRAME
280
     2
  9
$HALOGAP
280
     0
  9
$OBSCOLOR
 70
   257
  9
$OBSLTYPE
280
     0
  9
$INTERSECTIONDISPLAY
280
     0
  9
$INTERSECTIONCOLOR
 70
   257
  9
$DIMASSOC
280
     2
  9
$PROJECTNAME
  1

  9
$CAMERADISPLAY
290
     0
  9
$LENSLENGTH
 40
50.0
  9
$CAMERAHEIGHT
 40
0.0
  9
$STEPSPERSEC
 40
2.0
  9
$STEPSIZE
 40
6.0
  9
$3DDWFPREC
 40
2.0
  9
$PSOLWIDTH
 40
0.25
  9
$PSOLHEIGHT
 40
4.0
  9
$LOFTANG1
 40
1.570796326794897
  9
$LOFTANG2
 40
1.570796326794897
  9
$LOFTMAG1
 40
0.0
  9
$LOFTMAG2
 40
0.0
  9
$LOFTPARAM
 70
     7
  9
$LOFTNORMALS
280
     1
  9
$LATITUDE
 40
37.795
  9
$LONGITUDE
 40
-122.394
  9
$NORTHDIRECTION
 40
0.0
  9
$TIMEZONE
 70
 -8000
  9
$LIGHTGLYPHDISPLAY
280
     1
  9
$TILEMODELIGHTSYNCH
280
     1
  9
$CMATERIAL
347
3C
  9
$SOLIDHIST
280
     1
  9
$SHOWHIST
280
     1
  9
$DWFFRAME
280
     2
  9
$DGNFRAME
280
     2
  9
$REALWORLDSCALE
290
     1
  9
$INTERFERECOLOR
 62
   256
  9
$CSHADOW
280
     0
  9
$SHADOWPLANELOCATION
 40
0.0
  0
ENDSEC
  0
SECTION
  2
CLASSES
  0
CLASS
  1
ACDBDICTIONARYWDFLT
  2
AcDbDictionaryWithDefault
  3
ObjectDBX Classes
 90
        0
 91
        4
280
     0
281
     0
  0
CLASS
  1
VISUALSTYLE
  2
AcDbVisualStyle
  3
ObjectDBX Classes
 90
     4095
 91
        4
280
     0
281
     0
  0
CLASS
  1
MATERIAL
  2
AcDbMaterial
  3
ObjectDBX Classes
 90
     1153
 91
        4
280
     0
281
     0
  0
CLASS
  1
SUN
  2
AcDbSun
  3
SCENEOE
 90
     1024
 91
        4
280
     0
281
     0
  0
ENDSEC
  0
SECTION
  2
TABLES
  0
TABLE
  2
VPORT
  5
8
330
0
100
AcDbSymbolTable
 70
     1
  0
VPORT
  5
29
330
8
100
AcDbSymbolTableRecord
100
AcDbViewportTableRecord
  2
*Active
 70
     0
 10
0.0
 20
0.0
 11
1.0
 21
1.0
 12
0.0
 22
0.0
 13
0.0
 23
0.0
 14
0.5
 24
0.5
 15
0.5
 25
0.5
 16
0.0
 26
0.0
 36
1.0
 17
63.499999984125
 27
-89.00059456108309
 37
0.0
 40
178.0011891221662
 41
0.7134783795241226
 42
50.0
 43
0.0
 44
0.0
 50
0.0
 51
0.0
 71
     0
 72
   100
 73
     1
 74
     3
 75
     0
 76
     0
 77
     0
 78
     0
281
     0
 65
     1
110
0.0
120
0.0
130
0.0
111
1.0
121
0.0
131
0.0
112
0.0
122
1.0
132
0.0
 79
     0
146
0.0
 60
     3
 61
     5
292
     1
282
     1
141
0.0
142
0.0
 63
   250
361
3F
  0
ENDTAB
  0
TABLE
  2
LTYPE
  5
5
330
0
100
AcDbSymbolTable
 70
     1
  0
LTYPE
  5
14
330
5
100
AcDbSymbolTableRecord
100
AcDbLinetypeTableRecord
  2
ByBlock
 70
     0
  3

 72
    65
 73
     0
 40
0.0
  0
LTYPE
  5
15
330
5
100
AcDbSymbolTableRecord
100
AcDbLinetypeTableRecord
  2
ByLayer
 70
     0
  3

 72
    65
 73
     0
 40
0.0
  0
LTYPE
  5
16
330
5
100
AcDbSymbolTableRecord
100
AcDbLinetypeTableRecord
  2
Continuous
 70
     0
  3
Solid line
 72
    65
 73
     0
 40
0.0
  0
ENDTAB
  0
TABLE
  2
LAYER
  5
2
330
0
100
AcDbSymbolTable
 70
     2
  0
LAYER
  5
10
330
2
100
AcDbSymbolTableRecord
100
AcDbLayerTableRecord
  2
0
 70
     0
 62
     7
  6
Continuous
370
    -3
390
F
347
3E
  0
LAYER
  5
40
330
2
100
AcDbSymbolTableRecord
100
AcDbLayerTableRecord
  2
_U+30EC_U+30A4_U+30E4_U+30FC 1
 70
     0
 62
     7
  6
Continuous
370
    -3
390
F
347
3E
  0
ENDTAB
  0
TABLE
  2
STYLE
  5
3
330
0
100
AcDbSymbolTable
 70
     1
  0
STYLE
  5
11
330
3
100
AcDbSymbolTableRecord
100
AcDbTextStyleTableRecord
  2
Standard
 70
     0
 40
0.0
 41
1.0
 50
0.0
 71
     0
 42
0.2
  3
txt
  4

  0
ENDTAB
  0
TABLE
  2
VIEW
  5
6
330
0
100
AcDbSymbolTable
 70
     0
  0
ENDTAB
  0
TABLE
  2
UCS
  5
7
330
0
100
AcDbSymbolTable
 70
     0
  0
ENDTAB
  0
TABLE
  2
APPID
  5
9
330
0
100
AcDbSymbolTable
 70
     1
  0
APPID
  5
12
330
9
100
AcDbSymbolTableRecord
100
AcDbRegAppTableRecord
  2
ACAD
 70
     0
  0
ENDTAB
  0
TABLE
  2
DIMSTYLE
  5
A
330
0
100
AcDbSymbolTable
 70
     1
100
AcDbDimStyleTable
  0
DIMSTYLE
105
27
330
A
100
AcDbSymbolTableRecord
100
AcDbDimStyleTableRecord
  2
Standard
 70
     0
178
     0
340
11
  0
ENDTAB
  0
TABLE
  2
BLOCK_RECORD
  5
1
330
0
100
AcDbSymbolTable
 70
     6
  0
BLOCK_RECORD
  5
1F
330
1
100
AcDbSymbolTableRecord
100
AcDbBlockTableRecord
  2
*Model_Space
340
22
 70
     0
280
     1
281
     0
  0
BLOCK_RECORD
  5
1B
330
1
100
AcDbSymbolTableRecord
100
AcDbBlockTableRecord
  2
*Paper_Space
340
1E
 70
     0
280
     1
281
     0
  0
BLOCK_RECORD
  5
23
330
1
100
AcDbSymbolTableRecord
100
AcDbBlockTableRecord
  2
*Paper_Space0
340
26
 70
     0
280
     1
281
     0
  0
BLOCK_RECORD
  5
8D
330
1
100
AcDbSymbolTableRecord
100
AcDbBlockTableRecord
  2
block 2
340
0
102
{BLKREFS
331
8E
102
}
 70
     0
280
     1
281
     0
  0
BLOCK_RECORD
  5
A2
330
1
100
AcDbSymbolTableRecord
100
AcDbBlockTableRecord
  2
block 3
340
0
102
{BLKREFS
331
A3
102
}
 70
     0
280
     1
281
     0
  0
BLOCK_RECORD
  5
B0
330
1
100
AcDbSymbolTableRecord
100
AcDbBlockTableRecord
  2
block 4
340
0
102
{BLKREFS
331
B1
102
}
 70
     0
280
     1
281
     0
  0
BLOCK_RECORD
  5
C2
330
1
100
AcDbSymbolTableRecord
100
AcDbBlockTableRecord
  2
block 5
340
0
102
{BLKREFS
331
C3
102
}
 70
     0
280
     1
281
     0
  0
BLOCK_RECORD
  5
D2
330
1
100
AcDbSymbolTableRecord
100
AcDbBlockTableRecord
  2
block 6
340
0
102
{BLKREFS
331
D3
102
}
 70
     0
280
     1
281
     0
  0
ENDTAB
  0
ENDSEC
  0
SECTION
  2
BLOCKS
  0
BLOCK
  5
20
330
1F
100
AcDbEntity
  8
0
100
AcDbBlockBegin
  2
*Model_Space
 70
     0
 10
0.0
 20
0.0
 30
0.0
  3
*Model_Space
  1

  0
ENDBLK
  5
21
330
1F
100
AcDbEntity
  8
0
100
AcDbBlockEnd
  0
BLOCK
  5
1C
330
1B
100
AcDbEntity
 67
     1
  8
0
100
AcDbBlockBegin
  2
*Paper_Space
 70
     0
 10
0.0
 20
0.0
 30
0.0
  3
*Paper_Space
  1

  0
ENDBLK
  5
1D
330
1B
100
AcDbEntity
 67
     1
  8
0
100
AcDbBlockEnd
  0
BLOCK
  5
24
330
23
100
AcDbEntity
  8
0
100
AcDbBlockBegin
  2
*Paper_Space0
 70
     0
 10
0.0
 20
0.0
 30
0.0
  3
*Paper_Space0
  1

  0
ENDBLK
  5
25
330
23
100
AcDbEntity
  8
0
100
AcDbBlockEnd
  0
BLOCK
  5
8F
330
8D
100
AcDbEntity
  8
0
100
AcDbBlockBegin
  2
block 2
 70
     0
 10
0.0
 20
0.0
 30
0.0
  3
block 2
  1

  0
SPLINE
  5
91
330
8D
100
AcDbEntity
  8
_U+30EC_U+30A4_U+30E4_U+30FC 1
370
     0
100
AcDbSpline
210
0.0
220
0.0
230
1.0
 70
    11
 71
     3
 72
    26
 73
    22
 74
     0
 42
0.0000000001
 43
0.0000000001
 12
1.0
 22
0.0
 32
0.0
 13
1.0
 23
0.0
 33
0.0
 40
0.0
 40
0.0
 40
0.0
 40
0.0
 40
1.0
 40
1.0
 40
1.0
 40
2.0
 40
2.0
 40
2.0
 40
3.0
 40
3.0
 40
3.0
 40
4.0
 40
4.0
 40
4.0
 40
5.0
 40
5.0
 40
5.0
 40
6.0
 40
6.0
 40
6.0
 40
7.0
 40
7.0
 40
7.0
 40
7.0
 10
51.49883760648293
 20
-105.0792019051538
 30
0.0
 10
51.49883760648293
 20
-105.0792019051538
 30
0.0
 10
51.49883760648293
 20
-103.9750488021312
 30
0.0
 10
51.49883760648293
 20
-103.9750488021312
 30
0.0
 10
51.49883760648293
 20
-103.9750488021312
 30
0.0
 10
51.16965873286731
 20
-103.9750488021312
 30
0.0
 10
51.16965873286731
 20
-103.9750488021312
 30
0.0
 10
51.16965873286731
 20
-103.9750488021312
 30
0.0
 10
51.16965873286731
 20
-103.8269096962655
 30
0.0
 10
51.16965873286731
 20
-103.8269096962655
 30
0.0
 10
51.50090466377408
 20
-103.8120957856789
 30
0.0
 10
51.54724119805069
 20
-103.6491427692266
 30
0.0
 10
51.57686901922384
 20
-103.5347655991163
 30
0.0
 10
51.57686901922384
 20
-103.5347655991163
 30
0.0
 10
51.72242430347565
 20
-103.5347655991163
 30
0.0
 10
51.72242430347565
 20
-103.5347655991163
 30
0.0
 10
51.72242430347565
 20
-103.5347655991163
 30
0.0
 10
51.72242430347565
 20
-105.0792019051538
 30
0.0
 10
51.72242430347565
 20
-105.0792019051538
 30
0.0
 10
51.72242430347565
 20
-105.0792019051538
 30
0.0
 10
51.49883760648293
 20
-105.0792019051538
 30
0.0
 10
51.49883760648293
 20
-105.0792019051538
 30
0.0
  0
HATCH
  5
92
330
8D
100
AcDbEntity
  8
_U+30EC_U+30A4_U+30E4_U+30FC 1
 62
     7
420
 16777215
100
AcDbHatch
 10
0.0
 20
0.0
 30
0.0
210
0.0
220
0.0
230
1.0
  2
SOLID
 70
     1
 71
     0
 91
        1
 92
        1
 93
        1
 72
     4
 94
        3
 73
     0
 74
     1
 95
       26
 96
       22
 40
0.0
 40
0.0
 40
0.0
 40
0.0
 40
1.0
 40
1.0
 40
1.0
 40
2.0
 40
2.0
 40
2.0
 40
3.0
 40
3.0
 40
3.0
 40
4.0
 40
4.0
 40
4.0
 40
5.0
 40
5.0
 40
5.0
 40
6.0
 40
6.0
 40
6.0
 40
7.0
 40
7.0
 40
7.0
 40
7.0
 10
51.49883760648293
 20
-105.0792019051538
 10
51.49883760648293
 20
-105.0792019051538
 10
51.49883760648293
 20
-103.9750488021312
 10
51.49883760648293
 20
-103.9750488021312
 10
51.49883760648293
 20
-103.9750488021312
 10
51.16965873286731
 20
-103.9750488021312
 10
51.16965873286731
 20
-103.9750488021312
 10
51.16965873286731
 20
-103.9750488021312
 10
51.16965873286731
 20
-103.8269096962655
 10
51.16965873286731
 20
-103.8269096962655
 10
51.50090466377408
 20
-103.8120957856789
 10
51.54724119805069
 20
-103.6491427692266
 10
51.57686901922384
 20
-103.5347655991163
 10
51.57686901922384
 20
-103.5347655991163
 10
51.72242430347565
 20
-103.5347655991163
 10
51.72242430347565
 20
-103.5347655991163
 10
51.72242430347565
 20
-103.5347655991163
 10
51.72242430347565
 20
-105.0792019051538
 10
51.72242430347565
 20
-105.0792019051538
 10
51.72242430347565
 20
-105.0792019051538
 10
51.49883760648293
 20
-105.0792019051538
 10
51.49883760648293
 20
-105.0792019051538
 97
        0
 97
        0
 75
     2
 76
     1
 98
        0
  0
SPLINE
  5
93
330
8D
100
AcDbEntity
  8
_U+30EC_U+30A4_U+30E4_U+30FC 1
370
     0
100
AcDbSpline
210
0.0
220
0.0
230
1.0
 70
    11
 71
     3
 72
    29
 73
    25
 74
     0
 42
0.0000000001
 43
0.0000000001
 12
1.0
 22
0.0
 32
0.0
 13
1.0
 23
0.0
 33
0.0
 40
0.0
 40
0.0
 40
0.0
 40
0.0
 40
1.0
 40
1.0
 40
1.0
 40
2.0
 40
2.0
 40
2.0
 40
3.0
 40
3.0
 40
3.0
 40
4.0
 40
4.0
 40
4.0
 40
5.0
 40
5.0
 40
5.0
 40
6.0
 40
6.0
 40
6.0
 40
7.0
 40
7.0
 40
7.0
 40
8.0
 40
8.0
 40
8.0
 40
8.0
 10
53.11613768203347
 20
-104.9014349781149
 30
0.0
 10
53.00865070289368
 20
-105.1108967836181
 30
0.0
 10
52.83553465475987
 20
-105.129844808787
 30
0.0
 10
52.71960719168121
 20
-105.129844808787
 30
0.0
 10
52.55906574206857
 20
-105.129844808787
 30
0.0
 10
52.41781682717333
 20
-105.0833360197361
 30
0.0
 10
52.32273219178043
 20
-104.9014349781149
 30
0.0
 10
52.21937932722294
 20
-104.7067870831983
 30
0.0
 10
52.20043130205406
 20
-104.4697645138131
 30
0.0
 10
52.20043130205406
 20
-104.3071560069093
 30
0.0
 10
52.20043130205406
 20
-104.1631510156259
 30
0.0
 10
52.21731226993179
 20
-103.9113145356541
 30
0.0
 10
52.32273219178043
 20
-103.7125325261552
 30
0.0
 10
52.43039142569449
 20
-103.509616402074
 30
0.0
 10
52.59076062053287
 20
-103.4861897527743
 30
0.0
 10
52.71960719168121
 20
-103.4861897527743
 30
0.0
 10
52.87773707445418
 20
-103.4861897527743
 30
0.0
 10
53.02122530141484
 20
-103.530631484534
 30
0.0
 10
53.11613768203347
 20
-103.7125325261552
 30
0.0
 10
53.21535643200866
 20
-103.9051133637807
 30
0.0
 10
53.2386108265341
 20
-104.1335231944527
 30
0.0
 10
53.2386108265341
 20
-104.3071560069093
 30
0.0
 10
53.2386108265341
 20
-104.4783772525262
 30
0.0
 10
53.21742348929981
 20
-104.7088541404895
 30
0.0
 10
53.11613768203347
 20
-104.9014349781149
 30
0.0
  0
SPLINE
  5
94
330
8D
100
AcDbEntity
  8
_U+30EC_U+30A4_U+30E4_U+30FC 1
370
     0
100
AcDbSpline
210
0.0
220
0.0
230
1.0
 70
    11
 71
     3
 72
    17
 73
    13
 74
     0
 42
0.0000000001
 43
0.0000000001
 12
1.0
 22
0.0
 32
0.0
 13
1.0
 23
0.0
 33
0.0
 40
0.0
 40
0.0
 40
0.0
 40
0.0
 40
1.0
 40
1.0
 40
1.0
 40
2.0
 40
2.0
 40
2.0
 40
3.0
 40
3.0
 40
3.0
 40
4.0
 40
4.0
 40
4.0
 40
4.0
 10
52.71960719168121
 20
-103.6787705903998
 30
0.0
 10
52.47052678809765
 20
-103.6787705903998
 30
0.0
 10
52.42401799904678
 20
-103.9623019488358
 30
0.0
 10
52.42401799904678
 20
-104.3071560069093
 30
0.0
 10
52.42401799904678
 20
-104.626516358392
 30
0.0
 10
52.46001924686764
 20
-104.9351969138704
 30
0.0
 10
52.71960719168121
 20
-104.9351969138704
 30
0.0
 10
52.96644828319936
 20
-104.9351969138704
 30
0.0
 10
53.01485187476712
 20
-104.654077122274
 30
0.0
 10
53.01485187476712
 20
-104.3071560069093
 30
0.0
 10
53.01485187476712
 20
-103.9874511458781
 30
0.0
 10
52.97695582442937
 20
-103.6787705903998
 30
0.0
 10
52.71960719168121
 20
-103.6787705903998
 30
0.0
  0
HATCH
  5
95
330
8D
100
AcDbEntity
  8
_U+30EC_U+30A4_U+30E4_U+30FC 1
 62
     7
420
 16777215
100
AcDbHatch
 10
0.0
 20
0.0
 30
0.0
210
0.0
220
0.0
230
1.0
  2
SOLID
 70
     1
 71
     0
 91
        2
 92
        1
 93
        1
 72
     4
 94
        3
 73
     0
 74
     1
 95
       29
 96
       25
 40
0.0
 40
0.0
 40
0.0
 40
0.0
 40
1.0
 40
1.0
 40
1.0
 40
2.0
 40
2.0
 40
2.0
 40
3.0
 40
3.0
 40
3.0
 40
4.0
 40
4.0
 40
4.0
 40
5.0
 40
5.0
 40
5.0
 40
6.0
 40
6.0
 40
6.0
 40
7.0
 40
7.0
 40
7.0
 40
8.0
 40
8.0
 40
8.0
 40
8.0
 10
53.11613768203347
 20
-104.9014349781149
 10
53.00865070289368
 20
-105.1108967836181
 10
52.83553465475987
 20
-105.129844808787
 10
52.71960719168121
 20
-105.129844808787
 10
52.55906574206857
 20
-105.129844808787
 10
52.41781682717333
 20
-105.0833360197361
 10
52.32273219178043
 20
-104.9014349781149
 10
52.21937932722294
 20
-104.7067870831983
 10
52.20043130205406
 20
-104.4697645138131
 10
52.20043130205406
 20
-104.3071560069093
 10
52.20043130205406
 20
-104.1631510156259
 10
52.21731226993179
 20
-103.9113145356541
 10
52.32273219178043
 20
-103.7125325261552
 10
52.43039142569449
 20
-103.509616402074
 10
52.59076062053287
 20
-103.4861897527743
 10
52.71960719168121
 20
-103.4861897527743
 10
52.87773707445418
 20
-103.4861897527743
 10
53.02122530141484
 20
-103.530631484534
 10
53.11613768203347
 20
-103.7125325261552
 10
53.21535643200866
 20
-103.9051133637807
 10
53.2386108265341
 20
-104.1335231944527
 10
53.2386108265341
 20
-104.3071560069093
 10
53.2386108265341
 20
-104.4783772525262
 10
53.21742348929981
 20
-104.7088541404895
 10
53.11613768203347
 20
-104.9014349781149
 97
        0
 97
        0
 92
        1
 93
        1
 72
     4
 94
        3
 73
     0
 74
     1
 95
       17
 96
       13
 40
0.0
 40
0.0
 40
0.0
 40
0.0
 40
1.0
 40
1.0
 40
1.0
 40
2.0
 40
2.0
 40
2.0
 40
3.0
 40
3.0
 40
3.0
 40
4.0
 40
4.0
 40
4.0
 40
4.0
 10
52.71960719168121
 20
-103.6787705903998
 10
52.47052678809765
 20
-103.6787705903998
 10
52.42401799904678
 20
-103.9623019488358
 10
52.42401799904678
 20
-104.3071560069093
 10
52.42401799904678
 20
-104.626516358392
 10
52.46001924686764
 20
-104.9351969138704
 10
52.71960719168121
 20
-104.9351969138704
 10
52.96644828319936
 20
-104.9351969138704
 10
53.01485187476712
 20
-104.654077122274
 10
53.01485187476712
 20
-104.3071560069093
 10
53.01485187476712
 20
-103.9874511458781
 10
52.97695582442937
 20
-103.6787705903998
 10
52.71960719168121
 20
-103.6787705903998
 97
        0
 97
        0
 75
     2
 76
     1
 98
        0
  0
ENDBLK
  5
90
330
8D
100
AcDbEntity
  8
0
100
AcDbBlockEnd
  0
BLOCK
  5
A4
330
A2
100
AcDbEntity
  8
0
100
AcDbBlockBegin
  2
block 3
 70
     0
 10
0.0
 20
0.0
 30
0.0
  3
block 3
  1

  0
SPLINE
  5
A6
330
A2
100
AcDbEntity
  8
_U+30EC_U+30A4_U+30E4_U+30FC 1
370
     0
100
AcDbSpline
210
0.0
220
0.0
230
1.0
 70
    11
 71
     3
 72
    62
 73
    58
 74
     0
 42
0.0000000001
 43
0.0000000001
 12
1.0
 22
0.0
 32
0.0
 13
1.0
 23
0.0
 33
0.0
 40
0.0
 40
0.0
 40
0.0
 40
0.0
 40
1.0
 40
1.0
 40
1.0
 40
2.0
 40
2.0
 40
2.0
 40
3.0
 40
3.0
 40
3.0
 40
4.0
 40
4.0
 40
4.0
 40
5.0
 40
5.0
 40
5.0
 40
6.0
 40
6.0
 40
6.0
 40
7.0
 40
7.0
 40
7.0
 40
8.0
 40
8.0
 40
8.0
 40
9.0
 40
9.0
 40
9.0
 40
10.0
 40
10.0
 40
10.0
 40
11.0
 40
11.0
 40
11.0
 40
12.0
 40
12.0
 40
12.0
 40
13.0
 40
13.0
 40
13.0
 40
14.0
 40
14.0
 40
14.0
 40
15.0
 40
15.0
 40
15.0
 40
16.0
 40
16.0
 40
16.0
 40
17.0
 40
17.0
 40
17.0
 40
18.0
 40
18.0
 40
18.0
 40
19.0
 40
19.0
 40
19.0
 40
19.0
 10
77.537386048324
 20
-100.2333305956014
 30
0.0
 10
77.537386048324
 20
-100.3280707214458
 30
0.0
 10
77.51637096586397
 20
-100.545456246565
 30
0.0
 10
77.33033580966047
 20
-100.6701687031311
 30
0.0
 10
77.21802569684134
 20
-100.7438937465154
 30
0.0
 10
77.11880694686613
 20
-100.7480278610977
 30
0.0
 10
77.03405759792899
 20
-100.7525064852286
 30
0.0
 10
77.03405759792899
 20
-100.7525064852286
 30
0.0
 10
77.03405759792899
 20
-100.5327093932696
 30
0.0
 10
77.03405759792899
 20
-100.5327093932696
 30
0.0
 10
77.10812715086186
 20
-100.5306423359785
 30
0.0
 10
77.34273815340737
 20
-100.5203070495227
 30
0.0
 10
77.34273815340737
 20
-100.2374647101837
 30
0.0
 10
77.34273815340737
 20
-100.1003499098707
 30
0.0
 10
77.27314722460532
 20
-99.94842119897123
 30
0.0
 10
77.04473739393326
 20
-99.94842119897123
 30
0.0
 10
76.92829316653182
 20
-99.94842119897123
 30
0.0
 10
76.8797173201898
 20
-99.98631724930898
 30
0.0
 10
76.8480224417255
 20
-100.0180121277733
 30
0.0
 10
76.77395288879262
 20
-100.0917371711576
 30
0.0
 10
76.7612060354972
 20
-100.2078368890106
 30
0.0
 10
76.7612060354972
 20
-100.262613907226
 30
0.0
 10
76.7612060354972
 20
-100.2819064419434
 30
0.0
 10
76.76327309278835
 20
-100.31773543499
 30
0.0
 10
76.76740720737065
 20
-100.3449516893235
 30
0.0
 10
76.76740720737065
 20
-100.3449516893235
 30
0.0
 10
76.57275931245404
 20
-100.3449516893235
 30
0.0
 10
76.57275931245404
 20
-100.3449516893235
 30
0.0
 10
76.57930499387601
 20
-100.3070556389857
 30
0.0
 10
76.58137205116716
 20
-100.2650254740657
 30
0.0
 10
76.58137205116716
 20
-100.2584797926437
 30
0.0
 10
76.58137205116716
 20
-100.193022978424
 30
0.0
 10
76.56001245915861
 20
-99.99492998802211
 30
0.0
 10
76.32333439932195
 20
-99.99492998802211
 30
0.0
 10
76.14556747228306
 20
-99.99492998802211
 30
0.0
 10
76.09044594451906
 20
-100.1254991069131
 30
0.0
 10
76.09044594451906
 20
-100.2353976528925
 30
0.0
 10
76.09044594451906
 20
-100.4989474575142
 30
0.0
 10
76.32333439932195
 20
-100.5075601962273
 30
0.0
 10
76.39499238541515
 20
-100.5116943108096
 30
0.0
 10
76.39499238541515
 20
-100.5116943108096
 30
0.0
 10
76.39499238541515
 20
-100.7142659253423
 30
0.0
 10
76.39499238541515
 20
-100.7142659253423
 30
0.0
 10
76.2702799288491
 20
-100.7059976961777
 30
0.0
 10
75.89373099231129
 20
-100.6784369322957
 30
0.0
 10
75.89373099231129
 20
-100.2226507995971
 30
0.0
 10
75.89373099231129
 20
-99.99906410260441
 30
0.0
 10
76.02085501571702
 20
-99.75859643773397
 30
0.0
 10
76.31678871789997
 20
-99.75859643773397
 30
0.0
 10
76.503168383652
 20
-99.75859643773397
 30
0.0
 10
76.58550616574946
 20
-99.85333656357834
 30
0.0
 10
76.64682886538691
 20
-99.95255531355353
 30
0.0
 10
76.6743896292689
 20
-99.89123261391609
 30
0.0
 10
76.75466035407523
 20
-99.71002059139194
 30
0.0
 10
77.03199054063784
 20
-99.71002059139194
 30
0.0
 10
77.37029891728938
 20
-99.71002059139194
 30
0.0
 10
77.537386048324
 20
-99.95668942813583
 30
0.0
 10
77.537386048324
 20
-100.2333305956014
 30
0.0
  0
HATCH
  5
A7
330
A2
100
AcDbEntity
  8
_U+30EC_U+30A4_U+30E4_U+30FC 1
 62
     7
420
 16777215
100
AcDbHatch
 10
0.0
 20
0.0
 30
0.0
210
0.0
220
0.0
230
1.0
  2
SOLID
 70
     1
 71
     0
 91
        1
 92
        1
 93
        1
 72
     4
 94
        3
 73
     0
 74
     1
 95
       62
 96
       58
 40
0.0
 40
0.0
 40
0.0
 40
0.0
 40
1.0
 40
1.0
 40
1.0
 40
2.0
 40
2.0
 40
2.0
 40
3.0
 40
3.0
 40
3.0
 40
4.0
 40
4.0
 40
4.0
 40
5.0
 40
5.0
 40
5.0
 40
6.0
 40
6.0
 40
6.0
 40
7.0
 40
7.0
 40
7.0
 40
8.0
 40
8.0
 40
8.0
 40
9.0
 40
9.0
 40
9.0
 40
10.0
 40
10.0
 40
10.0
 40
11.0
 40
11.0
 40
11.0
 40
12.0
 40
12.0
 40
12.0
 40
13.0
 40
13.0
 40
13.0
 40
14.0
 40
14.0
 40
14.0
 40
15.0
 40
15.0
 40
15.0
 40
16.0
 40
16.0
 40
16.0
 40
17.0
 40
17.0
 40
17.0
 40
18.0
 40
18.0
 40
18.0
 40
19.0
 40
19.0
 40
19.0
 40
19.0
 10
77.537386048324
 20
-100.2333305956014
 10
77.537386048324
 20
-100.3280707214458
 10
77.51637096586397
 20
-100.545456246565
 10
77.33033580966047
 20
-100.6701687031311
 10
77.21802569684134
 20
-100.7438937465154
 10
77.11880694686613
 20
-100.7480278610977
 10
77.03405759792899
 20
-100.7525064852286
 10
77.03405759792899
 20
-100.7525064852286
 10
77.03405759792899
 20
-100.5327093932696
 10
77.03405759792899
 20
-100.5327093932696
 10
77.10812715086186
 20
-100.5306423359785
 10
77.34273815340737
 20
-100.5203070495227
 10
77.34273815340737
 20
-100.2374647101837
 10
77.34273815340737
 20
-100.1003499098707
 10
77.27314722460532
 20
-99.94842119897123
 10
77.04473739393326
 20
-99.94842119897123
 10
76.92829316653182
 20
-99.94842119897123
 10
76.8797173201898
 20
-99.98631724930898
 10
76.8480224417255
 20
-100.0180121277733
 10
76.77395288879262
 20
-100.0917371711576
 10
76.7612060354972
 20
-100.2078368890106
 10
76.7612060354972
 20
-100.262613907226
 10
76.7612060354972
 20
-100.2819064419434
 10
76.76327309278835
 20
-100.31773543499
 10
76.76740720737065
 20
-100.3449516893235
 10
76.76740720737065
 20
-100.3449516893235
 10
76.57275931245404
 20
-100.3449516893235
 10
76.57275931245404
 20
-100.3449516893235
 10
76.57930499387601
 20
-100.3070556389857
 10
76.58137205116716
 20
-100.2650254740657
 10
76.58137205116716
 20
-100.2584797926437
 10
76.58137205116716
 20
-100.193022978424
 10
76.56001245915861
 20
-99.99492998802211
 10
76.32333439932195
 20
-99.99492998802211
 10
76.14556747228306
 20
-99.99492998802211
 10
76.09044594451906
 20
-100.1254991069131
 10
76.09044594451906
 20
-100.2353976528925
 10
76.09044594451906
 20
-100.4989474575142
 10
76.32333439932195
 20
-100.5075601962273
 10
76.39499238541515
 20
-100.5116943108096
 10
76.39499238541515
 20
-100.5116943108096
 10
76.39499238541515
 20
-100.7142659253423
 10
76.39499238541515
 20
-100.7142659253423
 10
76.2702799288491
 20
-100.7059976961777
 10
75.89373099231129
 20
-100.6784369322957
 10
75.89373099231129
 20
-100.2226507995971
 10
75.89373099231129
 20
-99.99906410260441
 10
76.02085501571702
 20
-99.75859643773397
 10
76.31678871789997
 20
-99.75859643773397
 10
76.503168383652
 20
-99.75859643773397
 10
76.58550616574946
 20
-99.85333656357834
 10
76.64682886538691
 20
-99.95255531355353
 10
76.6743896292689
 20
-99.89123261391609
 10
76.75466035407523
 20
-99.71002059139194
 10
77.03199054063784
 20
-99.71002059139194
 10
77.37029891728938
 20
-99.71002059139194
 10
77.537386048324
 20
-99.95668942813583
 10
77.537386048324
 20
-100.2333305956014
 97
        0
 97
        0
 75
     2
 76
     1
 98
        0
  0
ENDBLK
  5
A5
330
A2
100
AcDbEntity
  8
0
100
AcDbBlockEnd
  0
BLOCK
  5
B2
330
B0
100
AcDbEntity
  8
0
100
AcDbBlockBegin
  2
block 4
 70
     0
 10
0.0
 20
0.0
 30
0.0
  3
block 4
  1

  0
SPLINE
  5
B4
330
B0
100
AcDbEntity
  8
_U+30EC_U+30A4_U+30E4_U+30FC 1
370
     0
100
AcDbSpline
210
0.0
220
0.0
230
1.0
 70
    11
 71
     3
 72
    26
 73
    22
 74
     0
 42
0.0000000001
 43
0.0000000001
 12
1.0
 22
0.0
 32
0.0
 13
1.0
 23
0.0
 33
0.0
 40
0.0
 40
0.0
 40
0.0
 40
0.0
 40
1.0
 40
1.0
 40
1.0
 40
2.0
 40
2.0
 40
2.0
 40
3.0
 40
3.0
 40
3.0
 40
4.0
 40
4.0
 40
4.0
 40
5.0
 40
5.0
 40
5.0
 40
6.0
 40
6.0
 40
6.0
 40
7.0
 40
7.0
 40
7.0
 40
7.0
 10
77.48674314469082
 20
-79.53657495841448
 30
0.0
 10
77.48674314469082
 20
-79.53657495841448
 30
0.0
 10
76.38259004166825
 20
-79.53657495841448
 30
0.0
 10
76.38259004166825
 20
-79.53657495841448
 30
0.0
 10
76.38259004166825
 20
-79.53657495841448
 30
0.0
 10
76.38259004166825
 20
-79.86592608680435
 30
0.0
 10
76.38259004166825
 20
-79.86592608680435
 30
0.0
 10
76.38259004166825
 20
-79.86592608680435
 30
0.0
 10
76.2344509358025
 20
-79.86592608680435
 30
0.0
 10
76.2344509358025
 20
-79.86592608680435
 30
0.0
 10
76.21963702521593
 20
-79.53450790112332
 30
0.0
 10
76.05668400876361
 20
-79.48799911207244
 30
0.0
 10
75.94230683865331
 20
-79.4583712908993
 30
0.0
 10
75.94230683865331
 20
-79.4583712908993
 30
0.0
 10
75.94230683865331
 20
-79.31298826142175
 30
0.0
 10
75.94230683865331
 20
-79.31298826142175
 30
0.0
 10
75.94230683865331
 20
-79.31298826142175
 30
0.0
 10
77.48674314469082
 20
-79.31298826142175
 30
0.0
 10
77.48674314469082
 20
-79.31298826142175
 30
0.0
 10
77.48674314469082
 20
-79.31298826142175
 30
0.0
 10
77.48674314469082
 20
-79.53657495841448
 30
0.0
 10
77.48674314469082
 20
-79.53657495841448
 30
0.0
  0
HATCH
  5
B5
330
B0
100
AcDbEntity
  8
_U+30EC_U+30A4_U+30E4_U+30FC 1
 62
     7
420
 16777215
100
AcDbHatch
 10
0.0
 20
0.0
 30
0.0
210
0.0
220
0.0
230
1.0
  2
SOLID
 70
     1
 71
     0
 91
        1
 92
        1
 93
        1
 72
     4
 94
        3
 73
     0
 74
     1
 95
       26
 96
       22
 40
0.0
 40
0.0
 40
0.0
 40
0.0
 40
1.0
 40
1.0
 40
1.0
 40
2.0
 40
2.0
 40
2.0
 40
3.0
 40
3.0
 40
3.0
 40
4.0
 40
4.0
 40
4.0
 40
5.0
 40
5.0
 40
5.0
 40
6.0
 40
6.0
 40
6.0
 40
7.0
 40
7.0
 40
7.0
 40
7.0
 10
77.48674314469082
 20
-79.53657495841448
 10
77.48674314469082
 20
-79.53657495841448
 10
76.38259004166825
 20
-79.53657495841448
 10
76.38259004166825
 20
-79.53657495841448
 10
76.38259004166825
 20
-79.53657495841448
 10
76.38259004166825
 20
-79.86592608680435
 10
76.38259004166825
 20
-79.86592608680435
 10
76.38259004166825
 20
-79.86592608680435
 10
76.2344509358025
 20
-79.86592608680435
 10
76.2344509358025
 20
-79.86592608680435
 10
76.21963702521593
 20
-79.53450790112332
 10
76.05668400876361
 20
-79.48799911207244
 10
75.94230683865331
 20
-79.4583712908993
 10
75.94230683865331
 20
-79.4583712908993
 10
75.94230683865331
 20
-79.31298826142175
 10
75.94230683865331
 20
-79.31298826142175
 10
75.94230683865331
 20
-79.31298826142175
 10
77.48674314469082
 20
-79.31298826142175
 10
77.48674314469082
 20
-79.31298826142175
 10
77.48674314469082
 20
-79.31298826142175
 10
77.48674314469082
 20
-79.53657495841448
 10
77.48674314469082
 20
-79.53657495841448
 97
        0
 97
        0
 75
     2
 76
     1
 98
        0
  0
ENDBLK
  5
B3
330
B0
100
AcDbEntity
  8
0
100
AcDbBlockEnd
  0
BLOCK
  5
C4
330
C2
100
AcDbEntity
  8
0
100
AcDbBlockBegin
  2
block 5
 70
     0
 10
0.0
 20
0.0
 30
0.0
  3
block 5
  1

  0
SPLINE
  5
C6
330
C2
100
AcDbEntity
  8
_U+30EC_U+30A4_U+30E4_U+30FC 1
370
     0
100
AcDbSpline
210
0.0
220
0.0
230
1.0
 70
    11
 71
     3
 72
    44
 73
    40
 74
     0
 42
0.0000000001
 43
0.0000000001
 12
1.0
 22
0.0
 32
0.0
 13
1.0
 23
0.0
 33
0.0
 40
0.0
 40
0.0
 40
0.0
 40
0.0
 40
1.0
 40
1.0
 40
1.0
 40
2.0
 40
2.0
 40
2.0
 40
3.0
 40
3.0
 40
3.0
 40
4.0
 40
4.0
 40
4.0
 40
5.0
 40
5.0
 40
5.0
 40
6.0
 40
6.0
 40
6.0
 40
7.0
 40
7.0
 40
7.0
 40
8.0
 40
8.0
 40
8.0
 40
9.0
 40
9.0
 40
9.0
 40
10.0
 40
10.0
 40
10.0
 40
11.0
 40
11.0
 40
11.0
 40
12.0
 40
12.0
 40
12.0
 40
13.0
 40
13.0
 40
13.0
 40
13.0
 10
61.14010957672886
 20
-73.76896835178346
 30
0.0
 10
60.9227240516096
 20
-73.9276149988792
 30
0.0
 10
60.82987872828212
 20
-74.00168455181208
 30
0.0
 10
60.78130288194009
 20
-74.14551728832126
 30
0.0
 10
60.78130288194009
 20
-74.14551728832126
 30
0.0
 10
61.55765514954115
 20
-74.14551728832126
 30
0.0
 10
61.55765514954115
 20
-74.14551728832126
 30
0.0
 10
61.55765514954115
 20
-74.14551728832126
 30
0.0
 10
61.55765514954115
 20
-74.35067272446788
 30
0.0
 10
61.55765514954115
 20
-74.35067272446788
 30
0.0
 10
61.55765514954115
 20
-74.35067272446788
 30
0.0
 10
60.53239473313079
 20
-74.35067272446788
 30
0.0
 10
60.53239473313079
 20
-74.35067272446788
 30
0.0
 10
60.56391735682083
 20
-73.99307181309896
 30
0.0
 10
60.62937417104057
 20
-73.91486814558378
 30
0.0
 10
61.01333006287167
 20
-73.61652287656115
 30
0.0
 10
61.26861163832869
 20
-73.41774086706224
 30
0.0
 10
61.33406845254843
 20
-73.35004474077708
 30
0.0
 10
61.33406845254843
 20
-73.21258543091561
 30
0.0
 10
61.33406845254843
 20
-73.09407414622301
 30
0.0
 10
61.26241046645524
 20
-72.96298826300925
 30
0.0
 10
61.06621227857026
 20
-72.96298826300925
 30
0.0
 10
60.80662433375668
 20
-72.96298826300925
 30
0.0
 10
60.79818384981782
 20
-73.19346515097247
 30
0.0
 10
60.79387748046125
 20
-73.30990937837392
 30
0.0
 10
60.79387748046125
 20
-73.30990937837392
 30
0.0
 10
60.57029078346854
 20
-73.30990937837392
 30
0.0
 10
60.57029078346854
 20
-73.30990937837392
 30
0.0
 10
60.57873126740741
 20
-73.18295760974246
 30
0.0
 10
60.58923880863742
 20
-73.07081975169757
 30
0.0
 10
60.66950953344374
 20
-72.95230846700498
 30
0.0
 10
60.77923582464894
 20
-72.79159476261808
 30
0.0
 10
60.96492647130391
 20
-72.75766057208837
 30
0.0
 10
61.08085393438257
 20
-72.75766057208837
 30
0.0
 10
61.35749510184813
 20
-72.75766057208837
 30
0.0
 10
61.56420083096312
 20
-72.94180092577497
 30
0.0
 10
61.56420083096312
 20
-73.21465248820675
 30
0.0
 10
61.56420083096312
 20
-73.44306231887882
 30
0.0
 10
61.4481011131102
 20
-73.54262557840254
 30
0.0
 10
61.14010957672886
 20
-73.76896835178346
 30
0.0
  0
HATCH
  5
C7
330
C2
100
AcDbEntity
  8
_U+30EC_U+30A4_U+30E4_U+30FC 1
 62
     7
420
 16777215
100
AcDbHatch
 10
0.0
 20
0.0
 30
0.0
210
0.0
220
0.0
230
1.0
  2
SOLID
 70
     1
 71
     0
 91
        1
 92
        1
 93
        1
 72
     4
 94
        3
 73
     0
 74
     1
 95
       44
 96
       40
 40
0.0
 40
0.0
 40
0.0
 40
0.0
 40
1.0
 40
1.0
 40
1.0
 40
2.0
 40
2.0
 40
2.0
 40
3.0
 40
3.0
 40
3.0
 40
4.0
 40
4.0
 40
4.0
 40
5.0
 40
5.0
 40
5.0
 40
6.0
 40
6.0
 40
6.0
 40
7.0
 40
7.0
 40
7.0
 40
8.0
 40
8.0
 40
8.0
 40
9.0
 40
9.0
 40
9.0
 40
10.0
 40
10.0
 40
10.0
 40
11.0
 40
11.0
 40
11.0
 40
12.0
 40
12.0
 40
12.0
 40
13.0
 40
13.0
 40
13.0
 40
13.0
 10
61.14010957672886
 20
-73.76896835178346
 10
60.9227240516096
 20
-73.9276149988792
 10
60.82987872828212
 20
-74.00168455181208
 10
60.78130288194009
 20
-74.14551728832126
 10
60.78130288194009
 20
-74.14551728832126
 10
61.55765514954115
 20
-74.14551728832126
 10
61.55765514954115
 20
-74.14551728832126
 10
61.55765514954115
 20
-74.14551728832126
 10
61.55765514954115
 20
-74.35067272446788
 10
61.55765514954115
 20
-74.35067272446788
 10
61.55765514954115
 20
-74.35067272446788
 10
60.53239473313079
 20
-74.35067272446788
 10
60.53239473313079
 20
-74.35067272446788
 10
60.56391735682083
 20
-73.99307181309896
 10
60.62937417104057
 20
-73.91486814558378
 10
61.01333006287167
 20
-73.61652287656115
 10
61.26861163832869
 20
-73.41774086706224
 10
61.33406845254843
 20
-73.35004474077708
 10
61.33406845254843
 20
-73.21258543091561
 10
61.33406845254843
 20
-73.09407414622301
 10
61.26241046645524
 20
-72.96298826300925
 10
61.06621227857026
 20
-72.96298826300925
 10
60.80662433375668
 20
-72.96298826300925
 10
60.79818384981782
 20
-73.19346515097247
 10
60.79387748046125
 20
-73.30990937837392
 10
60.79387748046125
 20
-73.30990937837392
 10
60.57029078346854
 20
-73.30990937837392
 10
60.57029078346854
 20
-73.30990937837392
 10
60.57873126740741
 20
-73.18295760974246
 10
60.58923880863742
 20
-73.07081975169757
 10
60.66950953344374
 20
-72.95230846700498
 10
60.77923582464894
 20
-72.79159476261808
 10
60.96492647130391
 20
-72.75766057208837
 10
61.08085393438257
 20
-72.75766057208837
 10
61.35749510184813
 20
-72.75766057208837
 10
61.56420083096312
 20
-72.94180092577497
 10
61.56420083096312
 20
-73.21465248820675
 10
61.56420083096312
 20
-73.44306231887882
 10
61.4481011131102
 20
-73.54262557840254
 10
61.14010957672886
 20
-73.76896835178346
 97
        0
 97
        0
 75
     2
 76
     1
 98
        0
  0
SPLINE
  5
C8
330
C2
100
AcDbEntity
  8
_U+30EC_U+30A4_U+30E4_U+30FC 1
370
     0
100
AcDbSpline
210
0.0
220
0.0
230
1.0
 70
    11
 71
     3
 72
    53
 73
    49
 74
     0
 42
0.0000000001
 43
0.0000000001
 12
1.0
 22
0.0
 32
0.0
 13
1.0
 23
0.0
 33
0.0
 40
0.0
 40
0.0
 40
0.0
 40
0.0
 40
1.0
 40
1.0
 40
1.0
 40
2.0
 40
2.0
 40
2.0
 40
3.0
 40
3.0
 40
3.0
 40
4.0
 40
4.0
 40
4.0
 40
5.0
 40
5.0
 40
5.0
 40
6.0
 40
6.0
 40
6.0
 40
7.0
 40
7.0
 40
7.0
 40
8.0
 40
8.0
 40
8.0
 40
9.0
 40
9.0
 40
9.0
 40
10.0
 40
10.0
 40
10.0
 40
11.0
 40
11.0
 40
11.0
 40
12.0
 40
12.0
 40
12.0
 40
13.0
 40
13.0
 40
13.0
 40
14.0
 40
14.0
 40
14.0
 40
15.0
 40
15.0
 40
15.0
 40
16.0
 40
16.0
 40
16.0
 40
16.0
 10
62.20050996708876
 20
-74.40148788287533
 30
0.0
 10
62.12230629957359
 20
-74.40148788287533
 30
0.0
 10
62.02102049230725
 20
-74.38443466022333
 30
0.0
 10
61.9197346850409
 20
-74.32104490329475
 30
0.0
 10
61.74679089168136
 20
-74.21097410254102
 30
0.0
 10
61.72577580922134
 20
-74.07988821932726
 30
0.0
 10
61.70648327450394
 20
-73.97205673063894
 30
0.0
 10
61.70648327450394
 20
-73.97205673063894
 30
0.0
 10
61.92834742375403
 20
-73.97205673063894
 30
0.0
 10
61.92834742375403
 20
-73.97205673063894
 30
0.0
 10
61.9831244419695
 20
-74.17083874013785
 30
0.0
 10
62.10955944627817
 20
-74.200466561311
 30
0.0
 10
62.20257702437991
 20
-74.200466561311
 30
0.0
 10
62.34175888198401
 20
-74.200466561311
 30
0.0
 10
62.49368759288352
 20
-74.10107555656154
 30
0.0
 10
62.49368759288352
 20
-73.86835935653292
 30
0.0
 10
62.49368759288352
 20
-73.61238876197885
 30
0.0
 10
62.31419811810201
 20
-73.54262557840254
 30
0.0
 10
62.19396428566679
 20
-73.54262557840254
 30
0.0
 10
62.16226940720249
 20
-73.54262557840254
 30
0.0
 10
62.02102049230725
 20
-73.54262557840254
 30
0.0
 10
61.93248153833633
 20
-73.67164440432515
 30
0.0
 10
61.93248153833633
 20
-73.67164440432515
 30
0.0
 10
61.75712617813711
 20
-73.65252412438201
 30
0.0
 10
61.75712617813711
 20
-73.65252412438201
 30
0.0
 10
61.75712617813711
 20
-73.65252412438201
 30
0.0
 10
61.87736001057233
 20
-72.80640867320466
 30
0.0
 10
61.87736001057233
 20
-72.80640867320466
 30
0.0
 10
61.87736001057233
 20
-72.80640867320466
 30
0.0
 10
62.65388453294764
 20
-72.80640867320466
 30
0.0
 10
62.65388453294764
 20
-72.80640867320466
 30
0.0
 10
62.65388453294764
 20
-72.80640867320466
 30
0.0
 10
62.65388453294764
 20
-73.00105656812127
 30
0.0
 10
62.65388453294764
 20
-73.00105656812127
 30
0.0
 10
62.65388453294764
 20
-73.00105656812127
 30
0.0
 10
62.03996851747612
 20
-73.00105656812127
 30
0.0
 10
62.03996851747612
 20
-73.00105656812127
 30
0.0
 10
62.03996851747612
 20
-73.00105656812127
 30
0.0
 10
61.97451170325638
 20
-73.42411429370995
 30
0.0
 10
61.97451170325638
 20
-73.42411429370995
 30
0.0
 10
62.03583440289382
 20
-73.39018010318024
 30
0.0
 10
62.11817218499129
 20
-73.35004474077708
 30
0.0
 10
62.23633896013536
 20
-73.35004474077708
 30
0.0
 10
62.48955347830123
 20
-73.35004474077708
 30
0.0
 10
62.72588702858936
 20
-73.53625215175482
 30
0.0
 10
62.72588702858936
 20
-73.84923907658978
 30
0.0
 10
62.72588702858936
 20
-74.16670462555555
 30
0.0
 10
62.50230033159665
 20
-74.40148788287533
 30
0.0
 10
62.20050996708876
 20
-74.40148788287533
 30
0.0
  0
HATCH
  5
C9
330
C2
100
AcDbEntity
  8
_U+30EC_U+30A4_U+30E4_U+30FC 1
 62
     7
420
 16777215
100
AcDbHatch
 10
0.0
 20
0.0
 30
0.0
210
0.0
220
0.0
230
1.0
  2
SOLID
 70
     1
 71
     0
 91
        1
 92
        1
 93
        1
 72
     4
 94
        3
 73
     0
 74
     1
 95
       53
 96
       49
 40
0.0
 40
0.0
 40
0.0
 40
0.0
 40
1.0
 40
1.0
 40
1.0
 40
2.0
 40
2.0
 40
2.0
 40
3.0
 40
3.0
 40
3.0
 40
4.0
 40
4.0
 40
4.0
 40
5.0
 40
5.0
 40
5.0
 40
6.0
 40
6.0
 40
6.0
 40
7.0
 40
7.0
 40
7.0
 40
8.0
 40
8.0
 40
8.0
 40
9.0
 40
9.0
 40
9.0
 40
10.0
 40
10.0
 40
10.0
 40
11.0
 40
11.0
 40
11.0
 40
12.0
 40
12.0
 40
12.0
 40
13.0
 40
13.0
 40
13.0
 40
14.0
 40
14.0
 40
14.0
 40
15.0
 40
15.0
 40
15.0
 40
16.0
 40
16.0
 40
16.0
 40
16.0
 10
62.20050996708876
 20
-74.40148788287533
 10
62.12230629957359
 20
-74.40148788287533
 10
62.02102049230725
 20
-74.38443466022333
 10
61.9197346850409
 20
-74.32104490329475
 10
61.74679089168136
 20
-74.21097410254102
 10
61.72577580922134
 20
-74.07988821932726
 10
61.70648327450394
 20
-73.97205673063894
 10
61.70648327450394
 20
-73.97205673063894
 10
61.92834742375403
 20
-73.97205673063894
 10
61.92834742375403
 20
-73.97205673063894
 10
61.9831244419695
 20
-74.17083874013785
 10
62.10955944627817
 20
-74.200466561311
 10
62.20257702437991
 20
-74.200466561311
 10
62.34175888198401
 20
-74.200466561311
 10
62.49368759288352
 20
-74.10107555656154
 10
62.49368759288352
 20
-73.86835935653292
 10
62.49368759288352
 20
-73.61238876197885
 10
62.31419811810201
 20
-73.54262557840254
 10
62.19396428566679
 20
-73.54262557840254
 10
62.16226940720249
 20
-73.54262557840254
 10
62.02102049230725
 20
-73.54262557840254
 10
61.93248153833633
 20
-73.67164440432515
 10
61.93248153833633
 20
-73.67164440432515
 10
61.75712617813711
 20
-73.65252412438201
 10
61.75712617813711
 20
-73.65252412438201
 10
61.75712617813711
 20
-73.65252412438201
 10
61.87736001057233
 20
-72.80640867320466
 10
61.87736001057233
 20
-72.80640867320466
 10
61.87736001057233
 20
-72.80640867320466
 10
62.65388453294764
 20
-72.80640867320466
 10
62.65388453294764
 20
-72.80640867320466
 10
62.65388453294764
 20
-72.80640867320466
 10
62.65388453294764
 20
-73.00105656812127
 10
62.65388453294764
 20
-73.00105656812127
 10
62.65388453294764
 20
-73.00105656812127
 10
62.03996851747612
 20
-73.00105656812127
 10
62.03996851747612
 20
-73.00105656812127
 10
62.03996851747612
 20
-73.00105656812127
 10
61.97451170325638
 20
-73.42411429370995
 10
61.97451170325638
 20
-73.42411429370995
 10
62.03583440289382
 20
-73.39018010318024
 10
62.11817218499129
 20
-73.35004474077708
 10
62.23633896013536
 20
-73.35004474077708
 10
62.48955347830123
 20
-73.35004474077708
 10
62.72588702858936
 20
-73.53625215175482
 10
62.72588702858936
 20
-73.84923907658978
 10
62.72588702858936
 20
-74.16670462555555
 10
62.50230033159665
 20
-74.40148788287533
 10
62.20050996708876
 20
-74.40148788287533
 97
        0
 97
        0
 75
     2
 76
     1
 98
        0
  0
ENDBLK
  5
C5
330
C2
100
AcDbEntity
  8
0
100
AcDbBlockEnd
  0
BLOCK
  5
D4
330
D2
100
AcDbEntity
  8
0
100
AcDbBlockBegin
  2
block 6
 70
     0
 10
0.0
 20
0.0
 30
0.0
  3
block 6
  1

  0
SPLINE
  5
D6
330
D2
100
AcDbEntity
  8
_U+30EC_U+30A4_U+30E4_U+30FC 1
370
     0
100
AcDbSpline
210
0.0
220
0.0
230
1.0
 70
    11
 71
     3
 72
    26
 73
    22
 74
     0
 42
0.0000000001
 43
0.0000000001
 12
1.0
 22
0.0
 32
0.0
 13
1.0
 23
0.0
 33
0.0
 40
0.0
 40
0.0
 40
0.0
 40
0.0
 40
1.0
 40
1.0
 40
1.0
 40
2.0
 40
2.0
 40
2.0
 40
3.0
 40
3.0
 40
3.0
 40
4.0
 40
4.0
 40
4.0
 40
5.0
 40
5.0
 40
5.0
 40
6.0
 40
6.0
 40
6.0
 40
7.0
 40
7.0
 40
7.0
 40
7.0
 10
77.48674314469082
 20
-90.36829967358848
 30
0.0
 10
77.48674314469082
 20
-90.36829967358848
 30
0.0
 10
76.38259004166825
 20
-90.36829967358848
 30
0.0
 10
76.38259004166825
 20
-90.36829967358848
 30
0.0
 10
76.38259004166825
 20
-90.36829967358848
 30
0.0
 10
76.38259004166825
 20
-90.69765080197837
 30
0.0
 10
76.38259004166825
 20
-90.69765080197837
 30
0.0
 10
76.38259004166825
 20
-90.69765080197837
 30
0.0
 10
76.2344509358025
 20
-90.69765080197837
 30
0.0
 10
76.2344509358025
 20
-90.69765080197837
 30
0.0
 10
76.21963702521593
 20
-90.36623261629734
 30
0.0
 10
76.05668400876361
 20
-90.31972382724646
 30
0.0
 10
75.94230683865331
 20
-90.29044051562184
 30
0.0
 10
75.94230683865331
 20
-90.29044051562184
 30
0.0
 10
75.94230683865331
 20
-90.14471297659577
 30
0.0
 10
75.94230683865331
 20
-90.14471297659577
 30
0.0
 10
75.94230683865331
 20
-90.14471297659577
 30
0.0
 10
77.48674314469082
 20
-90.14471297659577
 30
0.0
 10
77.48674314469082
 20
-90.14471297659577
 30
0.0
 10
77.48674314469082
 20
-90.14471297659577
 30
0.0
 10
77.48674314469082
 20
-90.36829967358848
 30
0.0
 10
77.48674314469082
 20
-90.36829967358848
 30
0.0
  0
HATCH
  5
D7
330
D2
100
AcDbEntity
  8
_U+30EC_U+30A4_U+30E4_U+30FC 1
 62
     7
420
 16777215
100
AcDbHatch
 10
0.0
 20
0.0
 30
0.0
210
0.0
220
0.0
230
1.0
  2
SOLID
 70
     1
 71
     0
 91
        1
 92
        1
 93
        1
 72
     4
 94
        3
 73
     0
 74
     1
 95
       26
 96
       22
 40
0.0
 40
0.0
 40
0.0
 40
0.0
 40
1.0
 40
1.0
 40
1.0
 40
2.0
 40
2.0
 40
2.0
 40
3.0
 40
3.0
 40
3.0
 40
4.0
 40
4.0
 40
4.0
 40
5.0
 40
5.0
 40
5.0
 40
6.0
 40
6.0
 40
6.0
 40
7.0
 40
7.0
 40
7.0
 40
7.0
 10
77.48674314469082
 20
-90.36829967358848
 10
77.48674314469082
 20
-90.36829967358848
 10
76.38259004166825
 20
-90.36829967358848
 10
76.38259004166825
 20
-90.36829967358848
 10
76.38259004166825
 20
-90.36829967358848
 10
76.38259004166825
 20
-90.69765080197837
 10
76.38259004166825
 20
-90.69765080197837
 10
76.38259004166825
 20
-90.69765080197837
 10
76.2344509358025
 20
-90.69765080197837
 10
76.2344509358025
 20
-90.69765080197837
 10
76.21963702521593
 20
-90.36623261629734
 10
76.05668400876361
 20
-90.31972382724646
 10
75.94230683865331
 20
-90.29044051562184
 10
75.94230683865331
 20
-90.29044051562184
 10
75.94230683865331
 20
-90.14471297659577
 10
75.94230683865331
 20
-90.14471297659577
 10
75.94230683865331
 20
-90.14471297659577
 10
77.48674314469082
 20
-90.14471297659577
 10
77.48674314469082
 20
-90.14471297659577
 10
77.48674314469082
 20
-90.14471297659577
 10
77.48674314469082
 20
-90.36829967358848
 10
77.48674314469082
 20
-90.36829967358848
 97
        0
 97
        0
 75
     2
 76
     1
 98
        0
  0
SPLINE
  5
D8
330
D2
100
AcDbEntity
  8
_U+30EC_U+30A4_U+30E4_U+30FC 1
370
     0
100
AcDbSpline
210
0.0
220
0.0
230
1.0
 70
    11
 71
     3
 72
    32
 73
    28
 74
     0
 42
0.0000000001
 43
0.0000000001
 12
1.0
 22
0.0
 32
0.0
 13
1.0
 23
0.0
 33
0.0
 40
0.0
 40
0.0
 40
0.0
 40
0.0
 40
1.0
 40
1.0
 40
1.0
 40
2.0
 40
2.0
 40
2.0
 40
3.0
 40
3.0
 40
3.0
 40
4.0
 40
4.0
 40
4.0
 40
5.0
 40
5.0
 40
5.0
 40
6.0
 40
6.0
 40
6.0
 40
7.0
 40
7.0
 40
7.0
 40
8.0
 40
8.0
 40
8.0
 40
9.0
 40
9.0
 40
9.0
 40
9.0
 10
77.537386048324
 20
-89.18973250808452
 30
0.0
 10
77.537386048324
 20
-89.36267630144405
 30
0.0
 10
77.46779511952194
 20
-89.60762259044532
 30
0.0
 10
77.13568791474385
 20
-89.64551864078307
 30
0.0
 10
77.13568791474385
 20
-89.64551864078307
 30
0.0
 10
77.13568791474385
 20
-89.4322672302461
 30
0.0
 10
77.13568791474385
 20
-89.4322672302461
 30
0.0
 10
77.19494355709016
 20
-89.42158743424183
 30
0.0
 10
77.34273815340737
 20
-89.39023706532606
 30
0.0
 10
77.34273815340737
 20
-89.18766545079336
 30
0.0
 10
77.34273815340737
 20
-88.89621037274122
 30
0.0
 10
77.01304251546897
 20
-88.85831432240349
 30
0.0
 10
76.80771482454807
 20
-88.84556746910806
 30
0.0
 10
76.8879855493544
 20
-88.93651798991866
 30
0.0
 10
76.94517413440954
 20
-89.00404186142956
 30
0.0
 10
76.94517413440954
 20
-89.18525388395369
 30
0.0
 10
76.94517413440954
 20
-89.36474335873521
 30
0.0
 10
76.83940970301238
 20
-89.66653372324309
 30
0.0
 10
76.43323294530141
 20
-89.66653372324309
 30
0.0
 10
76.11387259381875
 20
-89.66653372324309
 30
0.0
 10
75.89373099231129
 20
-89.4680962232927
 30
0.0
 10
75.89373099231129
 20
-89.15149194819824
 30
0.0
 10
75.89373099231129
 20
-88.63886173999306
 30
0.0
 10
76.448046855888
 20
-88.62852645353732
 30
0.0
 10
76.66164277597348
 20
-88.62852645353732
 30
0.0
 10
76.8921196639367
 20
-88.62852645353732
 30
0.0
 10
77.537386048324
 20
-88.64747447870619
 30
0.0
 10
77.537386048324
 20
-89.18973250808452
 30
0.0
  0
SPLINE
  5
D9
330
D2
100
AcDbEntity
  8
_U+30EC_U+30A4_U+30E4_U+30FC 1
370
     0
100
AcDbSpline
210
0.0
220
0.0
230
1.0
 70
    11
 71
     3
 72
    17
 73
    13
 74
     0
 42
0.0000000001
 43
0.0000000001
 12
1.0
 22
0.0
 32
0.0
 13
1.0
 23
0.0
 33
0.0
 40
0.0
 40
0.0
 40
0.0
 40
0.0
 40
1.0
 40
1.0
 40
1.0
 40
2.0
 40
2.0
 40
2.0
 40
3.0
 40
3.0
 40
3.0
 40
4.0
 40
4.0
 40
4.0
 40
4.0
 10
76.08631182993676
 20
-89.1494248909071
 30
0.0
 10
76.08631182993676
 20
-89.26759166605116
 30
0.0
 10
76.1435004149919
 20
-89.44294702625038
 30
0.0
 10
76.42909883071911
 20
-89.44294702625038
 30
0.0
 10
76.65544160410003
 20
-89.44294702625038
 30
0.0
 10
76.75052623949293
 20
-89.30376516864628
 30
0.0
 10
76.75052623949293
 20
-89.1687174256245
 30
0.0
 10
76.75052623949293
 20
-88.9068901687455
 30
0.0
 10
76.54106443398973
 20
-88.86899411840776
 30
0.0
 10
76.42462020658829
 20
-88.86899411840776
 30
0.0
 10
76.24926484638908
 20
-88.86899411840776
 30
0.0
 10
76.08631182993676
 20
-88.96373424425212
 30
0.0
 10
76.08631182993676
 20
-89.1494248909071
 30
0.0
  0
HATCH
  5
DA
330
D2
100
AcDbEntity
  8
_U+30EC_U+30A4_U+30E4_U+30FC 1
 62
     7
420
 16777215
100
AcDbHatch
 10
0.0
 20
0.0
 30
0.0
210
0.0
220
0.0
230
1.0
  2
SOLID
 70
     1
 71
     0
 91
        2
 92
        1
 93
        1
 72
     4
 94
        3
 73
     0
 74
     1
 95
       32
 96
       28
 40
0.0
 40
0.0
 40
0.0
 40
0.0
 40
1.0
 40
1.0
 40
1.0
 40
2.0
 40
2.0
 40
2.0
 40
3.0
 40
3.0
 40
3.0
 40
4.0
 40
4.0
 40
4.0
 40
5.0
 40
5.0
 40
5.0
 40
6.0
 40
6.0
 40
6.0
 40
7.0
 40
7.0
 40
7.0
 40
8.0
 40
8.0
 40
8.0
 40
9.0
 40
9.0
 40
9.0
 40
9.0
 10
77.537386048324
 20
-89.18973250808452
 10
77.537386048324
 20
-89.36267630144405
 10
77.46779511952194
 20
-89.60762259044532
 10
77.13568791474385
 20
-89.64551864078307
 10
77.13568791474385
 20
-89.64551864078307
 10
77.13568791474385
 20
-89.4322672302461
 10
77.13568791474385
 20
-89.4322672302461
 10
77.19494355709016
 20
-89.42158743424183
 10
77.34273815340737
 20
-89.39023706532606
 10
77.34273815340737
 20
-89.18766545079336
 10
77.34273815340737
 20
-88.89621037274122
 10
77.01304251546897
 20
-88.85831432240349
 10
76.80771482454807
 20
-88.84556746910806
 10
76.8879855493544
 20
-88.93651798991866
 10
76.94517413440954
 20
-89.00404186142956
 10
76.94517413440954
 20
-89.18525388395369
 10
76.94517413440954
 20
-89.36474335873521
 10
76.83940970301238
 20
-89.66653372324309
 10
76.43323294530141
 20
-89.66653372324309
 10
76.11387259381875
 20
-89.66653372324309
 10
75.89373099231129
 20
-89.4680962232927
 10
75.89373099231129
 20
-89.15149194819824
 10
75.89373099231129
 20
-88.63886173999306
 10
76.448046855888
 20
-88.62852645353732
 10
76.66164277597348
 20
-88.62852645353732
 10
76.8921196639367
 20
-88.62852645353732
 10
77.537386048324
 20
-88.64747447870619
 10
77.537386048324
 20
-89.18973250808452
 97
        0
 97
        0
 92
        1
 93
        1
 72
     4
 94
        3
 73
     0
 74
     1
 95
       17
 96
       13
 40
0.0
 40
0.0
 40
0.0
 40
0.0
 40
1.0
 40
1.0
 40
1.0
 40
2.0
 40
2.0
 40
2.0
 40
3.0
 40
3.0
 40
3.0
 40
4.0
 40
4.0
 40
4.0
 40
4.0
 10
76.08631182993676
 20
-89.1494248909071
 10
76.08631182993676
 20
-89.26759166605116
 10
76.1435004149919
 20
-89.44294702625038
 10
76.42909883071911
 20
-89.44294702625038
 10
76.65544160410003
 20
-89.44294702625038
 10
76.75052623949293
 20
-89.30376516864628
 10
76.75052623949293
 20
-89.1687174256245
 10
76.75052623949293
 20
-88.9068901687455
 10
76.54106443398973
 20
-88.86899411840776
 10
76.42462020658829
 20
-88.86899411840776
 10
76.24926484638908
 20
-88.86899411840776
 10
76.08631182993676
 20
-88.96373424425212
 10
76.08631182993676
 20
-89.1494248909071
 97
        0
 97
        0
 75
     2
 76
     1
 98
        0
  0
POLYLINE
  5
DB
330
D2
100
AcDbEntity
  8
_U+30EC_U+30A4_U+30E4_U+30FC 1
370
     0
100
AcDb2dPolyline
 66
     1
 10
0.0
 20
0.0
 30
0.0
  0
VERTEX
  5
DC
330
DB
100
AcDbEntity
  8
_U+30EC_U+30A4_U+30E4_U+30FC 1
370
     0
100
AcDbVertex
100
AcDb2dVertex
 10
77.48674314469082
 20
-88.41389700480626
 30
0.0
  0
VERTEX
  5
DD
330
DB
100
AcDbEntity
  8
_U+30EC_U+30A4_U+30E4_U+30FC 1
370
     0
100
AcDbVertex
100
AcDb2dVertex
 10
77.23490666471905
 20
-88.41389700480626
 30
0.0
  0
VERTEX
  5
DE
330
DB
100
AcDbEntity
  8
_U+30EC_U+30A4_U+30E4_U+30FC 1
370
     0
100
AcDbVertex
100
AcDb2dVertex
 10
77.23490666471905
 20
-88.16274954393154
 30
0.0
  0
VERTEX
  5
DF
330
DB
100
AcDbEntity
  8
_U+30EC_U+30A4_U+30E4_U+30FC 1
370
     0
100
AcDbVertex
100
AcDb2dVertex
 10
77.48674314469082
 20
-88.16274954393154
 30
0.0
  0
VERTEX
  5
E0
330
DB
100
AcDbEntity
  8
_U+30EC_U+30A4_U+30E4_U+30FC 1
370
     0
100
AcDbVertex
100
AcDb2dVertex
 10
77.48674314469082
 20
-88.41389700480626
 30
0.0
  0
SEQEND
  5
E1
330
DB
100
AcDbEntity
  8
_U+30EC_U+30A4_U+30E4_U+30FC 1
370
     0
  0
HATCH
  5
E2
330
D2
100
AcDbEntity
  8
_U+30EC_U+30A4_U+30E4_U+30FC 1
 62
     7
420
 16777215
100
AcDbHatch
 10
0.0
 20
0.0
 30
0.0
210
0.0
220
0.0
230
1.0
  2
SOLID
 70
     1
 71
     0
 91
        1
 92
        1
 93
        4
 72
     1
 10
77.48674314469082
 20
-88.41389700480626
 11
77.23490666471905
 21
-88.41389700480626
 72
     1
 10
77.23490666471905
 20
-88.41389700480626
 11
77.23490666471905
 21
-88.16274954393154
 72
     1
 10
77.23490666471905
 20
-88.16274954393154
 11
77.48674314469082
 21
-88.16274954393154
 72
     1
 10
77.48674314469082
 20
-88.16274954393154
 11
77.48674314469082
 21
-88.41389700480626
 97
        0
 75
     2
 76
     1
 98
        0
  0
SPLINE
  5
E3
330
D2
100
AcDbEntity
  8
_U+30EC_U+30A4_U+30E4_U+30FC 1
370
     0
100
AcDbSpline
210
0.0
220
0.0
230
1.0
 70
    11
 71
     3
 72
    53
 73
    49
 74
     0
 42
0.0000000001
 43
0.0000000001
 12
1.0
 22
0.0
 32
0.0
 13
1.0
 23
0.0
 33
0.0
 40
0.0
 40
0.0
 40
0.0
 40
0.0
 40
1.0
 40
1.0
 40
1.0
 40
2.0
 40
2.0
 40
2.0
 40
3.0
 40
3.0
 40
3.0
 40
4.0
 40
4.0
 40
4.0
 40
5.0
 40
5.0
 40
5.0
 40
6.0
 40
6.0
 40
6.0
 40
7.0
 40
7.0
 40
7.0
 40
8.0
 40
8.0
 40
8.0
 40
9.0
 40
9.0
 40
9.0
 40
10.0
 40
10.0
 40
10.0
 40
11.0
 40
11.0
 40
11.0
 40
12.0
 40
12.0
 40
12.0
 40
13.0
 40
13.0
 40
13.0
 40
14.0
 40
14.0
 40
14.0
 40
15.0
 40
15.0
 40
15.0
 40
16.0
 40
16.0
 40
16.0
 40
16.0
 10
77.537386048324
 20
-87.4478922307422
 30
0.0
 10
77.537386048324
 20
-87.52609589825737
 30
0.0
 10
77.52050508044627
 20
-87.62738170552372
 30
0.0
 10
77.45711532351767
 20
-87.72866751279005
 30
0.0
 10
77.3472167775382
 20
-87.9016113061496
 30
0.0
 10
77.21595863955018
 20
-87.92297089815816
 30
0.0
 10
77.10812715086186
 20
-87.94191892332702
 30
0.0
 10
77.10812715086186
 20
-87.94191892332702
 30
0.0
 10
77.10812715086186
 20
-87.72039928362545
 30
0.0
 10
77.10812715086186
 20
-87.72039928362545
 30
0.0
 10
77.30690916036077
 20
-87.66527775586147
 30
0.0
 10
77.33653698153392
 20
-87.53884275155279
 30
0.0
 10
77.33653698153392
 20
-87.44582517345104
 30
0.0
 10
77.33653698153392
 20
-87.30664331584696
 30
0.0
 10
77.2369737220102
 20
-87.15471460494744
 30
0.0
 10
77.00442977675584
 20
-87.15471460494744
 30
0.0
 10
76.74845918220177
 20
-87.15471460494744
 30
0.0
 10
76.6785237438512
 20
-87.33420407972895
 30
0.0
 10
76.6785237438512
 20
-87.45443791216417
 30
0.0
 10
76.6785237438512
 20
-87.48613279062847
 30
0.0
 10
76.6785237438512
 20
-87.62738170552372
 30
0.0
 10
76.80771482454807
 20
-87.71592065949463
 30
0.0
 10
76.80771482454807
 20
-87.71592065949463
 30
0.0
 10
76.7887667993792
 20
-87.89127601969385
 30
0.0
 10
76.7887667993792
 20
-87.89127601969385
 30
0.0
 10
76.7887667993792
 20
-87.89127601969385
 30
0.0
 10
75.94230683865331
 20
-87.7706976777101
 30
0.0
 10
75.94230683865331
 20
-87.7706976777101
 30
0.0
 10
75.94230683865331
 20
-87.7706976777101
 30
0.0
 10
75.94230683865331
 20
-86.99417315533479
 30
0.0
 10
75.94230683865331
 20
-86.99417315533479
 30
0.0
 10
75.94230683865331
 20
-86.99417315533479
 30
0.0
 10
76.13695473356994
 20
-86.99417315533479
 30
0.0
 10
76.13695473356994
 20
-86.99417315533479
 30
0.0
 10
76.13695473356994
 20
-86.99417315533479
 30
0.0
 10
76.13695473356994
 20
-87.60843368035484
 30
0.0
 10
76.13695473356994
 20
-87.60843368035484
 30
0.0
 10
76.13695473356994
 20
-87.60843368035484
 30
0.0
 10
76.56001245915861
 20
-87.6738904945746
 30
0.0
 10
76.56001245915861
 20
-87.6738904945746
 30
0.0
 10
76.52625052340316
 20
-87.61256779493714
 30
0.0
 10
76.48594290622574
 20
-87.53023001283967
 30
0.0
 10
76.48594290622574
 20
-87.4120632376956
 30
0.0
 10
76.48594290622574
 20
-87.15884871952974
 30
0.0
 10
76.67232257197776
 20
-86.92251516924159
 30
0.0
 10
76.98548175158696
 20
-86.92251516924159
 30
0.0
 10
77.30277504577847
 20
-86.92251516924159
 30
0.0
 10
77.537386048324
 20
-87.14644637578283
 30
0.0
 10
77.537386048324
 20
-87.4478922307422
 30
0.0
  0
HATCH
  5
E4
330
D2
100
AcDbEntity
  8
_U+30EC_U+30A4_U+30E4_U+30FC 1
 62
     7
420
 16777215
100
AcDbHatch
 10
0.0
 20
0.0
 30
0.0
210
0.0
220
0.0
230
1.0
  2
SOLID
 70
     1
 71
     0
 91
        1
 92
        1
 93
        1
 72
     4
 94
        3
 73
     0
 74
     1
 95
       53
 96
       49
 40
0.0
 40
0.0
 40
0.0
 40
0.0
 40
1.0
 40
1.0
 40
1.0
 40
2.0
 40
2.0
 40
2.0
 40
3.0
 40
3.0
 40
3.0
 40
4.0
 40
4.0
 40
4.0
 40
5.0
 40
5.0
 40
5.0
 40
6.0
 40
6.0
 40
6.0
 40
7.0
 40
7.0
 40
7.0
 40
8.0
 40
8.0
 40
8.0
 40
9.0
 40
9.0
 40
9.0
 40
10.0
 40
10.0
 40
10.0
 40
11.0
 40
11.0
 40
11.0
 40
12.0
 40
12.0
 40
12.0
 40
13.0
 40
13.0
 40
13.0
 40
14.0
 40
14.0
 40
14.0
 40
15.0
 40
15.0
 40
15.0
 40
16.0
 40
16.0
 40
16.0
 40
16.0
 10
77.537386048324
 20
-87.4478922307422
 10
77.537386048324
 20
-87.52609589825737
 10
77.52050508044627
 20
-87.62738170552372
 10
77.45711532351767
 20
-87.72866751279005
 10
77.3472167775382
 20
-87.9016113061496
 10
77.21595863955018
 20
-87.92297089815816
 10
77.10812715086186
 20
-87.94191892332702
 10
77.10812715086186
 20
-87.94191892332702
 10
77.10812715086186
 20
-87.72039928362545
 10
77.10812715086186
 20
-87.72039928362545
 10
77.30690916036077
 20
-87.66527775586147
 10
77.33653698153392
 20
-87.53884275155279
 10
77.33653698153392
 20
-87.44582517345104
 10
77.33653698153392
 20
-87.30664331584696
 10
77.2369737220102
 20
-87.15471460494744
 10
77.00442977675584
 20
-87.15471460494744
 10
76.74845918220177
 20
-87.15471460494744
 10
76.6785237438512
 20
-87.33420407972895
 10
76.6785237438512
 20
-87.45443791216417
 10
76.6785237438512
 20
-87.48613279062847
 10
76.6785237438512
 20
-87.62738170552372
 10
76.80771482454807
 20
-87.71592065949463
 10
76.80771482454807
 20
-87.71592065949463
 10
76.7887667993792
 20
-87.89127601969385
 10
76.7887667993792
 20
-87.89127601969385
 10
76.7887667993792
 20
-87.89127601969385
 10
75.94230683865331
 20
-87.7706976777101
 10
75.94230683865331
 20
-87.7706976777101
 10
75.94230683865331
 20
-87.7706976777101
 10
75.94230683865331
 20
-86.99417315533479
 10
75.94230683865331
 20
-86.99417315533479
 10
75.94230683865331
 20
-86.99417315533479
 10
76.13695473356994
 20
-86.99417315533479
 10
76.13695473356994
 20
-86.99417315533479
 10
76.13695473356994
 20
-86.99417315533479
 10
76.13695473356994
 20
-87.60843368035484
 10
76.13695473356994
 20
-87.60843368035484
 10
76.13695473356994
 20
-87.60843368035484
 10
76.56001245915861
 20
-87.6738904945746
 10
76.56001245915861
 20
-87.6738904945746
 10
76.52625052340316
 20
-87.61256779493714
 10
76.48594290622574
 20
-87.53023001283967
 10
76.48594290622574
 20
-87.4120632376956
 10
76.48594290622574
 20
-87.15884871952974
 10
76.67232257197776
 20
-86.92251516924159
 10
76.98548175158696
 20
-86.92251516924159
 10
77.30277504577847
 20
-86.92251516924159
 10
77.537386048324
 20
-87.14644637578283
 10
77.537386048324
 20
-87.4478922307422
 97
        0
 97
        0
 75
     2
 76
     1
 98
        0
  0
ENDBLK
  5
D5
330
D2
100
AcDbEntity
  8
0
100
AcDbBlockEnd
  0
ENDSEC
  0
SECTION
  2
ENTITIES
  0
POLYLINE
  5
41
330
1F
100
AcDbEntity
  8
_U+30EC_U+30A4_U+30E4_U+30FC 1
 62
     7
420
 16777215
370
    25
100
AcDb2dPolyline
 66
     1
 10
0.0
 20
0.0
 30
0.0
  0
VERTEX
  5
42
330
41
100
AcDbEntity
  8
_U+30EC_U+30A4_U+30E4_U+30FC 1
 62
     7
420
 16777215
370
    25
100
AcDbVertex
100
AcDb2dVertex
 10
54.13244334118854
 20
-98.52490664203539
 30
0.0
  0
VERTEX
  5
43
330
41
100
AcDbEntity
  8
_U+30EC_U+30A4_U+30E4_U+30FC 1
 62
     7
420
 16777215
370
    25
100
AcDbVertex
100
AcDb2dVertex
 10
57.13243020909694
 20
-98.52490664203539
 30
0.0
  0
SEQEND
  5
44
330
41
100
AcDbEntity
  8
_U+30EC_U+30A4_U+30E4_U+30FC 1
 62
     7
420
 16777215
370
    25
  0
POLYLINE
  5
45
330
1F
100
AcDbEntity
  8
_U+30EC_U+30A4_U+30E4_U+30FC 1
 62
     7
420
 16777215
370
    25
100
AcDb2dPolyline
 66
     1
 10
0.0
 20
0.0
 30
0.0
  0
VERTEX
  5
46
330
45
100
AcDbEntity
  8
_U+30EC_U+30A4_U+30E4_U+30FC 1
 62
     7
420
 16777215
370
    25
100
AcDbVertex
100
AcDb2dVertex
 10
47.13269740865582
 20
-101.724706919013
 30
0.0
  0
VERTEX
  5
47
330
45
100
AcDbEntity
  8
_U+30EC_U+30A4_U+30E4_U+30FC 1
 62
     7
420
 16777215
370
    25
100
AcDbVertex
100
AcDb2dVertex
 10
57.13243020909694
 20
-101.724706919013
 30
0.0
  0
SEQEND
  5
48
330
45
100
AcDbEntity
  8
_U+30EC_U+30A4_U+30E4_U+30FC 1
 62
     7
420
 16777215
370
    25
  0
POLYLINE
  5
49
330
1F
100
AcDbEntity
  8
_U+30EC_U+30A4_U+30E4_U+30FC 1
 62
     7
420
 16777215
370
    25
100
AcDb2dPolyline
 66
     1
 10
0.0
 20
0.0
 30
0.0
  0
VERTEX
  5
4A
330
49
100
AcDbEntity
  8
_U+30EC_U+30A4_U+30E4_U+30FC 1
 62
     7
420
 16777215
370
    25
100
AcDbVertex
100
AcDb2dVertex
 10
57.13243020909694
 20
-98.52490664203539
 30
0.0
  0
VERTEX
  5
4B
330
49
100
AcDbEntity
  8
_U+30EC_U+30A4_U+30E4_U+30FC 1
 62
     7
420
 16777215
370
    25
100
AcDbVertex
100
AcDb2dVertex
 10
57.13243020909694
 20
-101.724706919013
 30
0.0
  0
SEQEND
  5
4C
330
49
100
AcDbEntity
  8
_U+30EC_U+30A4_U+30E4_U+30FC 1
 62
     7
420
 16777215
370
    25
  0
POLYLINE
  5
4D
330
1F
100
AcDbEntity
  8
_U+30EC_U+30A4_U+30E4_U+30FC 1
 62
     7
420
 16777215
370
    25
100
AcDb2dPolyline
 66
     1
 10
0.0
 20
0.0
 30
0.0
  0
VERTEX
  5
4E
330
4D
100
AcDbEntity
  8
_U+30EC_U+30A4_U+30E4_U+30FC 1
 62
     7
420
 16777215
370
    25
100
AcDbVertex
100
AcDb2dVertex
 10
54.13244334118854
 20
-99.52467886400794
 30
0.0
  0
VERTEX
  5
4F
330
4D
100
AcDbEntity
  8
_U+30EC_U+30A4_U+30E4_U+30FC 1
 62
     7
420
 16777215
370
    25
100
AcDbVertex
100
AcDb2dVertex
 10
56.13265801238103
 20
-99.52467886400794
 30
0.0
  0
SEQEND
  5
50
330
4D
100
AcDbEntity
  8
_U+30EC_U+30A4_U+30E4_U+30FC 1
 62
     7
420
 16777215
370
    25
  0
POLYLINE
  5
51
330
1F
100
AcDbEntity
  8
_U+30EC_U+30A4_U+30E4_U+30FC 1
 62
     7
420
 16777215
370
    25
100
AcDb2dPolyline
 66
     1
 10
0.0
 20
0.0
 30
0.0
  0
VERTEX
  5
52
330
51
100
AcDbEntity
  8
_U+30EC_U+30A4_U+30E4_U+30FC 1
 62
     7
420
 16777215
370
    25
100
AcDbVertex
100
AcDb2dVertex
 10
54.13244334118854
 20
-98.52490664203539
 30
0.0
  0
VERTEX
  5
53
330
51
100
AcDbEntity
  8
_U+30EC_U+30A4_U+30E4_U+30FC 1
 62
     7
420
 16777215
370
    25
100
AcDbVertex
100
AcDb2dVertex
 10
54.13244334118854
 20
-99.52467886400794
 30
0.0
  0
SEQEND
  5
54
330
51
100
AcDbEntity
  8
_U+30EC_U+30A4_U+30E4_U+30FC 1
 62
     7
420
 16777215
370
    25
  0
POLYLINE
  5
55
330
1F
100
AcDbEntity
  8
_U+30EC_U+30A4_U+30E4_U+30FC 1
 62
     7
420
 16777215
370
    25
100
AcDb2dPolyline
 66
     1
 10
0.0
 20
0.0
 30
0.0
  0
VERTEX
  5
56
330
55
100
AcDbEntity
  8
_U+30EC_U+30A4_U+30E4_U+30FC 1
 62
     7
420
 16777215
370
    25
100
AcDbVertex
100
AcDb2dVertex
 10
47.13269740865582
 20
-100.7249346970411
 30
0.0
  0
VERTEX
  5
57
330
55
100
AcDbEntity
  8
_U+30EC_U+30A4_U+30E4_U+30FC 1
 62
     7
420
 16777215
370
    25
100
AcDbVertex
100
AcDb2dVertex
 10
47.13269740865582
 20
-101.724706919013
 30
0.0
  0
SEQEND
  5
58
330
55
100
AcDbEntity
  8
_U+30EC_U+30A4_U+30E4_U+30FC 1
 62
     7
420
 16777215
370
    25
  0
POLYLINE
  5
59
330
1F
100
AcDbEntity
  8
_U+30EC_U+30A4_U+30E4_U+30FC 1
 62
     7
420
 16777215
370
    25
100
AcDb2dPolyline
 66
     1
 10
0.0
 20
0.0
 30
0.0
  0
VERTEX
  5
5A
330
59
100
AcDbEntity
  8
_U+30EC_U+30A4_U+30E4_U+30FC 1
 62
     7
420
 16777215
370
    25
100
AcDbVertex
100
AcDb2dVertex
 10
47.13269740865582
 20
-100.7249346970411
 30
0.0
  0
VERTEX
  5
5B
330
59
100
AcDbEntity
  8
_U+30EC_U+30A4_U+30E4_U+30FC 1
 62
     7
420
 16777215
370
    25
100
AcDbVertex
100
AcDb2dVertex
 10
47.63293628478255
 20
-100.7249346970411
 30
0.0
  0
SEQEND
  5
5C
330
59
100
AcDbEntity
  8
_U+30EC_U+30A4_U+30E4_U+30FC 1
 62
     7
420
 16777215
370
    25
  0
POLYLINE
  5
5D
330
1F
100
AcDbEntity
  8
_U+30EC_U+30A4_U+30E4_U+30FC 1
 62
     7
420
 16777215
370
    25
100
AcDb2dPolyline
 66
     1
 10
0.0
 20
0.0
 30
0.0
  0
VERTEX
  5
5E
330
5D
100
AcDbEntity
  8
_U+30EC_U+30A4_U+30E4_U+30FC 1
 62
     7
420
 16777215
370
    25
100
AcDbVertex
100
AcDb2dVertex
 10
48.63546014809493
 20
-100.7249346970411
 30
0.0
  0
VERTEX
  5
5F
330
5D
100
AcDbEntity
  8
_U+30EC_U+30A4_U+30E4_U+30FC 1
 62
     7
420
 16777215
370
    25
100
AcDbVertex
100
AcDb2dVertex
 10
56.13265801238103
 20
-100.7249346970411
 30
0.0
  0
SEQEND
  5
60
330
5D
100
AcDbEntity
  8
_U+30EC_U+30A4_U+30E4_U+30FC 1
 62
     7
420
 16777215
370
    25
  0
POLYLINE
  5
61
330
1F
100
AcDbEntity
  8
_U+30EC_U+30A4_U+30E4_U+30FC 1
 62
     7
420
 16777215
370
    25
100
AcDb2dPolyline
 66
     1
 10
0.0
 20
0.0
 30
0.0
  0
VERTEX
  5
62
330
61
100
AcDbEntity
  8
_U+30EC_U+30A4_U+30E4_U+30FC 1
 62
     7
420
 16777215
370
    25
100
AcDbVertex
100
AcDb2dVertex
 10
56.13265801238103
 20
-99.52467886400794
 30
0.0
  0
VERTEX
  5
63
330
61
100
AcDbEntity
  8
_U+30EC_U+30A4_U+30E4_U+30FC 1
 62
     7
420
 16777215
370
    25
100
AcDbVertex
100
AcDb2dVertex
 10
56.13265801238103
 20
-100.7249346970411
 30
0.0
  0
SEQEND
  5
64
330
61
100
AcDbEntity
  8
_U+30EC_U+30A4_U+30E4_U+30FC 1
 62
     7
420
 16777215
370
    25
  0
POLYLINE
  5
65
330
1F
100
AcDbEntity
  8
_U+30EC_U+30A4_U+30E4_U+30FC 1
 62
     7
420
 16777215
370
    25
100
AcDb2dPolyline
 66
     1
 10
0.0
 20
0.0
 30
0.0
  0
VERTEX
  5
66
330
65
100
AcDbEntity
  8
_U+30EC_U+30A4_U+30E4_U+30FC 1
 62
     7
420
 16777215
370
    25
100
AcDbVertex
100
AcDb2dVertex
 10
50.23879982941255
 20
-79.99581831333431
 30
0.0
  0
VERTEX
  5
67
330
65
100
AcDbEntity
  8
_U+30EC_U+30A4_U+30E4_U+30FC 1
 62
     7
420
 16777215
370
    25
100
AcDbVertex
100
AcDb2dVertex
 10
74.31380115965254
 20
-79.99581831333431
 30
0.0
  0
SEQEND
  5
68
330
65
100
AcDbEntity
  8
_U+30EC_U+30A4_U+30E4_U+30FC 1
 62
     7
420
 16777215
370
    25
  0
POLYLINE
  5
69
330
1F
100
AcDbEntity
  8
_U+30EC_U+30A4_U+30E4_U+30FC 1
 62
     7
420
 16777215
370
    25
100
AcDb2dPolyline
 66
     1
 10
0.0
 20
0.0
 30
0.0
  0
VERTEX
  5
6A
330
69
100
AcDbEntity
  8
_U+30EC_U+30A4_U+30E4_U+30FC 1
 62
     7
420
 16777215
370
    25
100
AcDbVertex
100
AcDb2dVertex
 10
74.31380115965254
 20
-78.9960460913621
 30
0.0
  0
VERTEX
  5
6B
330
69
100
AcDbEntity
  8
_U+30EC_U+30A4_U+30E4_U+30FC 1
 62
     7
420
 16777215
370
    25
100
AcDbVertex
100
AcDb2dVertex
 10
74.31380115965254
 20
-79.99581831333431
 30
0.0
  0
SEQEND
  5
6C
330
69
100
AcDbEntity
  8
_U+30EC_U+30A4_U+30E4_U+30FC 1
 62
     7
420
 16777215
370
    25
  0
POLYLINE
  5
6D
330
1F
100
AcDbEntity
  8
_U+30EC_U+30A4_U+30E4_U+30FC 1
 62
     7
420
 16777215
370
    25
100
AcDb2dPolyline
 66
     1
 10
0.0
 20
0.0
 30
0.0
  0
VERTEX
  5
6E
330
6D
100
AcDbEntity
  8
_U+30EC_U+30A4_U+30E4_U+30FC 1
 62
     7
420
 16777215
370
    25
100
AcDbVertex
100
AcDb2dVertex
 10
49.3141340196694
 20
-78.9960460913621
 30
0.0
  0
VERTEX
  5
6F
330
6D
100
AcDbEntity
  8
_U+30EC_U+30A4_U+30E4_U+30FC 1
 62
     7
420
 16777215
370
    25
100
AcDbVertex
100
AcDb2dVertex
 10
74.31380115965254
 20
-78.9960460913621
 30
0.0
  0
SEQEND
  5
70
330
6D
100
AcDbEntity
  8
_U+30EC_U+30A4_U+30E4_U+30FC 1
 62
     7
420
 16777215
370
    25
  0
POLYLINE
  5
71
330
1F
100
AcDbEntity
  8
_U+30EC_U+30A4_U+30E4_U+30FC 1
 62
     7
420
 16777215
370
    25
100
AcDb2dPolyline
 66
     1
 10
0.0
 20
0.0
 30
0.0
  0
VERTEX
  5
72
330
71
100
AcDbEntity
  8
_U+30EC_U+30A4_U+30E4_U+30FC 1
 62
     7
420
 16777215
370
    25
100
AcDbVertex
100
AcDb2dVertex
 10
49.3141340196694
 20
-79.09870442466982
 30
0.0
  0
VERTEX
  5
73
330
71
100
AcDbEntity
  8
_U+30EC_U+30A4_U+30E4_U+30FC 1
 62
     7
420
 16777215
370
    25
100
AcDbVertex
100
AcDb2dVertex
 10
47.63293628478255
 20
-100.7249346970411
 30
0.0
  0
SEQEND
  5
74
330
71
100
AcDbEntity
  8
_U+30EC_U+30A4_U+30E4_U+30FC 1
 62
     7
420
 16777215
370
    25
  0
POLYLINE
  5
75
330
1F
100
AcDbEntity
  8
_U+30EC_U+30A4_U+30E4_U+30FC 1
 62
     7
420
 16777215
370
    25
100
AcDb2dPolyline
 66
     1
 10
0.0
 20
0.0
 30
0.0
  0
VERTEX
  5
76
330
75
100
AcDbEntity
  8
_U+30EC_U+30A4_U+30E4_U+30FC 1
 62
     7
420
 16777215
370
    25
100
AcDbVertex
100
AcDb2dVertex
 10
50.25463955123067
 20
-79.98064886889378
 30
0.0
  0
VERTEX
  5
77
330
75
100
AcDbEntity
  8
_U+30EC_U+30A4_U+30E4_U+30FC 1
 62
     7
420
 16777215
370
    25
100
AcDbVertex
100
AcDb2dVertex
 10
48.63546014809493
 20
-100.7249346970411
 30
0.0
  0
SEQEND
  5
78
330
75
100
AcDbEntity
  8
_U+30EC_U+30A4_U+30E4_U+30FC 1
 62
     7
420
 16777215
370
    25
  0
SPLINE
  5
79
330
1F
100
AcDbEntity
  8
_U+30EC_U+30A4_U+30E4_U+30FC 1
 62
     7
420
 16777215
370
     9
100
AcDbSpline
210
0.0
220
0.0
230
1.0
 70
    11
 71
     3
 72
    17
 73
    13
 74
     0
 42
0.0000000001
 43
0.0000000001
 12
1.0
 22
0.0
 32
0.0
 13
1.0
 23
0.0
 33
0.0
 40
0.0
 40
0.0
 40
0.0
 40
0.0
 40
1.0
 40
1.0
 40
1.0
 40
2.0
 40
2.0
 40
2.0
 40
3.0
 40
3.0
 40
3.0
 40
4.0
 40
4.0
 40
4.0
 40
4.0
 10
57.23233687321478
 20
-105.7244660846799
 30
0.0
 10
57.23233687321478
 20
-105.669362195805
 30
0.0
 10
57.18753409658001
 20
-105.6245594180383
 30
0.0
 10
57.13243020909694
 20
-105.6245594180383
 30
0.0
 10
57.07729104383699
 20
-105.6245594180383
 30
0.0
 10
57.032524985742
 20
-105.669362195805
 30
0.0
 10
57.032524985742
 20
-105.7244660846799
 30
0.0
 10
57.032524985742
 20
-105.779605251333
 30
0.0
 10
57.07729104383699
 20
-105.8243727513215
 30
0.0
 10
57.13243020909694
 20
-105.8243727513215
 30
0.0
 10
57.18753409658001
 20
-105.8243727513215
 30
0.0
 10
57.23233687321478
 20
-105.779605251333
 30
0.0
 10
57.23233687321478
 20
-105.7244660846799
 30
0.0
  0
SPLINE
  5
7A
330
1F
100
AcDbEntity
  8
_U+30EC_U+30A4_U+30E4_U+30FC 1
 62
     7
420
 16777215
370
     9
100
AcDbSpline
210
0.0
220
0.0
230
1.0
 70
    11
 71
     3
 72
    17
 73
    13
 74
     0
 42
0.0000000001
 43
0.0000000001
 12
1.0
 22
0.0
 32
0.0
 13
1.0
 23
0.0
 33
0.0
 40
0.0
 40
0.0
 40
0.0
 40
0.0
 40
1.0
 40
1.0
 40
1.0
 40
2.0
 40
2.0
 40
2.0
 40
3.0
 40
3.0
 40
3.0
 40
4.0
 40
4.0
 40
4.0
 40
4.0
 10
47.23260407277366
 20
-105.7244660846799
 30
0.0
 10
47.23260407277366
 20
-105.669362195805
 30
0.0
 10
47.18780129613889
 20
-105.6245594180383
 30
0.0
 10
47.13269740865582
 20
-105.6245594180383
 30
0.0
 10
47.07755824339587
 20
-105.6245594180383
 30
0.0
 10
47.03279074453799
 20
-105.669362195805
 30
0.0
 10
47.03279074453799
 20
-105.7244660846799
 30
0.0
 10
47.03279074453799
 20
-105.779605251333
 30
0.0
 10
47.07755824339587
 20
-105.8243727513215
 30
0.0
 10
47.13269740865582
 20
-105.8243727513215
 30
0.0
 10
47.18780129613889
 20
-105.8243727513215
 30
0.0
 10
47.23260407277366
 20
-105.779605251333
 30
0.0
 10
47.23260407277366
 20
-105.7244660846799
 30
0.0
  0
SPLINE
  5
7B
330
1F
100
AcDbEntity
  8
_U+30EC_U+30A4_U+30E4_U+30FC 1
 62
     7
420
 16777215
370
     9
100
AcDbSpline
210
0.0
220
0.0
230
1.0
 70
    11
 71
     3
 72
    17
 73
    13
 74
     0
 42
0.0000000001
 43
0.0000000001
 12
1.0
 22
0.0
 32
0.0
 13
1.0
 23
0.0
 33
0.0
 40
0.0
 40
0.0
 40
0.0
 40
0.0
 40
1.0
 40
1.0
 40
1.0
 40
2.0
 40
2.0
 40
2.0
 40
3.0
 40
3.0
 40
3.0
 40
4.0
 40
4.0
 40
4.0
 40
4.0
 10
78.23295050411116
 20
-78.98846136914183
 30
0.0
 10
78.23295050411116
 20
-78.93332220248875
 30
0.0
 10
78.18814772747639
 20
-78.88855470250019
 30
0.0
 10
78.13304383999332
 20
-78.88855470250019
 30
0.0
 10
78.07723439697268
 20
-78.88855470250019
 30
0.0
 10
78.03243162033793
 20
-78.93332220248875
 30
0.0
 10
78.03243162033793
 20
-78.98846136914183
 30
0.0
 10
78.03243162033793
 20
-79.04356525801674
 30
0.0
 10
78.07723439697268
 20
-79.08836803578346
 30
0.0
 10
78.13304383999332
 20
-79.08836803578346
 30
0.0
 10
78.18814772747639
 20
-79.08836803578346
 30
0.0
 10
78.23295050411116
 20
-79.04356525801674
 30
0.0
 10
78.23295050411116
 20
-78.98846136914183
 30
0.0
  0
SPLINE
  5
7C
330
1F
100
AcDbEntity
  8
_U+30EC_U+30A4_U+30E4_U+30FC 1
 62
     7
420
 16777215
370
     9
100
AcDbSpline
210
0.0
220
0.0
230
1.0
 70
    11
 71
     3
 72
    17
 73
    13
 74
     0
 42
0.0000000001
 43
0.0000000001
 12
1.0
 22
0.0
 32
0.0
 13
1.0
 23
0.0
 33
0.0
 40
0.0
 40
0.0
 40
0.0
 40
0.0
 40
1.0
 40
1.0
 40
1.0
 40
2.0
 40
2.0
 40
2.0
 40
3.0
 40
3.0
 40
3.0
 40
4.0
 40
4.0
 40
4.0
 40
4.0
 10
78.23295050411116
 20
-79.98890386889173
 30
0.0
 10
78.23295050411116
 20
-79.93379998001649
 30
0.0
 10
78.18814772747639
 20
-79.8889972022501
 30
0.0
 10
78.13304383999332
 20
-79.8889972022501
 30
0.0
 10
78.07723439697268
 20
-79.8889972022501
 30
0.0
 10
78.03243162033793
 20
-79.93379998001649
 30
0.0
 10
78.03243162033793
 20
-79.98890386889173
 30
0.0
 10
78.03243162033793
 20
-80.04404303554449
 30
0.0
 10
78.07723439697268
 20
-80.08881053553337
 30
0.0
 10
78.13304383999332
 20
-80.08881053553337
 30
0.0
 10
78.18814772747639
 20
-80.08881053553337
 30
0.0
 10
78.23295050411116
 20
-80.04404303554449
 30
0.0
 10
78.23295050411116
 20
-79.98890386889173
 30
0.0
  0
SPLINE
  5
7D
330
1F
100
AcDbEntity
  8
_U+30EC_U+30A4_U+30E4_U+30FC 1
 62
     7
420
 16777215
370
     9
100
AcDbSpline
210
0.0
220
0.0
230
1.0
 70
    11
 71
     3
 72
    17
 73
    13
 74
     0
 42
0.0000000001
 43
0.0000000001
 12
1.0
 22
0.0
 32
0.0
 13
1.0
 23
0.0
 33
0.0
 40
0.0
 40
0.0
 40
0.0
 40
0.0
 40
1.0
 40
1.0
 40
1.0
 40
2.0
 40
2.0
 40
2.0
 40
3.0
 40
3.0
 40
3.0
 40
4.0
 40
4.0
 40
4.0
 40
4.0
 10
78.23295050411116
 20
-98.62481330867703
 30
0.0
 10
78.23295050411116
 20
-98.56970941980211
 30
0.0
 10
78.18814772747639
 20
-98.52490664203539
 30
0.0
 10
78.13304383999332
 20
-98.52490664203539
 30
0.0
 10
78.07723439697268
 20
-98.52490664203539
 30
0.0
 10
78.03243162033793
 20
-98.56970941980211
 30
0.0
 10
78.03243162033793
 20
-98.62481330867703
 30
0.0
 10
78.03243162033793
 20
-98.67995247533011
 30
0.0
 10
78.07723439697268
 20
-98.72471997531866
 30
0.0
 10
78.13304383999332
 20
-98.72471997531866
 30
0.0
 10
78.18814772747639
 20
-98.72471997531866
 30
0.0
 10
78.23295050411116
 20
-98.67995247533011
 30
0.0
 10
78.23295050411116
 20
-98.62481330867703
 30
0.0
  0
SPLINE
  5
7E
330
1F
100
AcDbEntity
  8
_U+30EC_U+30A4_U+30E4_U+30FC 1
 62
     7
420
 16777215
370
     9
100
AcDbSpline
210
0.0
220
0.0
230
1.0
 70
    11
 71
     3
 72
    17
 73
    13
 74
     0
 42
0.0000000001
 43
0.0000000001
 12
1.0
 22
0.0
 32
0.0
 13
1.0
 23
0.0
 33
0.0
 40
0.0
 40
0.0
 40
0.0
 40
0.0
 40
1.0
 40
1.0
 40
1.0
 40
2.0
 40
2.0
 40
2.0
 40
3.0
 40
3.0
 40
3.0
 40
4.0
 40
4.0
 40
4.0
 40
4.0
 10
78.23295050411116
 20
-101.724706919013
 30
0.0
 10
78.23295050411116
 20
-101.6696030301381
 30
0.0
 10
78.18814772747639
 20
-101.6248002523714
 30
0.0
 10
78.13304383999332
 20
-101.6248002523714
 30
0.0
 10
78.07723439697268
 20
-101.6248002523714
 30
0.0
 10
78.03243162033793
 20
-101.6696030301381
 30
0.0
 10
78.03243162033793
 20
-101.724706919013
 30
0.0
 10
78.03243162033793
 20
-101.7798460856661
 30
0.0
 10
78.07723439697268
 20
-101.8246135856546
 30
0.0
 10
78.13304383999332
 20
-101.8246135856546
 30
0.0
 10
78.18814772747639
 20
-101.8246135856546
 30
0.0
 10
78.23295050411116
 20
-101.7798460856661
 30
0.0
 10
78.23295050411116
 20
-101.724706919013
 30
0.0
  0
SPLINE
  5
7F
330
1F
100
AcDbEntity
  8
_U+30EC_U+30A4_U+30E4_U+30FC 1
 62
     7
420
 16777215
370
     9
100
AcDbSpline
210
0.0
220
0.0
230
1.0
 70
    11
 71
     3
 72
    17
 73
    13
 74
     0
 42
0.0000000001
 43
0.0000000001
 12
1.0
 22
0.0
 32
0.0
 13
1.0
 23
0.0
 33
0.0
 40
0.0
 40
0.0
 40
0.0
 40
0.0
 40
1.0
 40
1.0
 40
1.0
 40
2.0
 40
2.0
 40
2.0
 40
3.0
 40
3.0
 40
3.0
 40
4.0
 40
4.0
 40
4.0
 40
4.0
 10
74.23252116172617
 20
-74.99628692569553
 30
0.0
 10
74.23252116172617
 20
-74.94114775904245
 30
0.0
 10
74.1877183850914
 20
-74.89638025905357
 30
0.0
 10
74.13257921983146
 20
-74.89638025905357
 30
0.0
 10
74.07747533234838
 20
-74.89638025905357
 30
0.0
 10
74.03267255571362
 20
-74.94114775904245
 30
0.0
 10
74.03267255571362
 20
-74.99628692569553
 30
0.0
 10
74.03267255571362
 20
-75.05139081457045
 30
0.0
 10
74.07747533234838
 20
-75.09619359233717
 30
0.0
 10
74.13257921983146
 20
-75.09619359233717
 30
0.0
 10
74.1877183850914
 20
-75.09619359233717
 30
0.0
 10
74.23252116172617
 20
-75.05139081457045
 30
0.0
 10
74.23252116172617
 20
-74.99628692569553
 30
0.0
  0
SPLINE
  5
80
330
1F
100
AcDbEntity
  8
_U+30EC_U+30A4_U+30E4_U+30FC 1
 62
     7
420
 16777215
370
     9
100
AcDbSpline
210
0.0
220
0.0
230
1.0
 70
    11
 71
     3
 72
    17
 73
    13
 74
     0
 42
0.0000000001
 43
0.0000000001
 12
1.0
 22
0.0
 32
0.0
 13
1.0
 23
0.0
 33
0.0
 40
0.0
 40
0.0
 40
0.0
 40
0.0
 40
1.0
 40
1.0
 40
1.0
 40
2.0
 40
2.0
 40
2.0
 40
3.0
 40
3.0
 40
3.0
 40
4.0
 40
4.0
 40
4.0
 40
4.0
 10
49.23281874396616
 20
-74.99628692569553
 30
0.0
 10
49.23281874396616
 20
-74.94114775904245
 30
0.0
 10
49.18805124510827
 20
-74.89638025905357
 30
0.0
 10
49.13291207984832
 20
-74.89638025905357
 30
0.0
 10
49.07710263682769
 20
-74.89638025905357
 30
0.0
 10
49.0323351379698
 20
-74.94114775904245
 30
0.0
 10
49.0323351379698
 20
-74.99628692569553
 30
0.0
 10
49.0323351379698
 20
-75.05139081457045
 30
0.0
 10
49.07710263682769
 20
-75.09619359233717
 30
0.0
 10
49.13291207984832
 20
-75.09619359233717
 30
0.0
 10
49.18805124510827
 20
-75.09619359233717
 30
0.0
 10
49.23281874396616
 20
-75.05139081457045
 30
0.0
 10
49.23281874396616
 20
-74.99628692569553
 30
0.0
  0
POLYLINE
  5
81
330
1F
100
AcDbEntity
  8
_U+30EC_U+30A4_U+30E4_U+30FC 1
 62
     7
420
 16777215
370
     9
100
AcDb2dPolyline
 66
     1
 10
0.0
 20
0.0
 30
0.0
  0
VERTEX
  5
82
330
81
100
AcDbEntity
  8
_U+30EC_U+30A4_U+30E4_U+30FC 1
 62
     7
420
 16777215
370
     9
100
AcDbVertex
100
AcDb2dVertex
 10
47.13269740865582
 20
-105.7244660846799
 30
0.0
  0
VERTEX
  5
83
330
81
100
AcDbEntity
  8
_U+30EC_U+30A4_U+30E4_U+30FC 1
 62
     7
420
 16777215
370
     9
100
AcDbVertex
100
AcDb2dVertex
 10
57.13243020909694
 20
-105.7244660846799
 30
0.0
  0
SEQEND
  5
84
330
81
100
AcDbEntity
  8
_U+30EC_U+30A4_U+30E4_U+30FC 1
 62
     7
420
 16777215
370
     9
  0
POLYLINE
  5
85
330
1F
100
AcDbEntity
  8
_U+30EC_U+30A4_U+30E4_U+30FC 1
 62
     7
420
 16777215
370
     9
100
AcDb2dPolyline
 66
     1
 10
0.0
 20
0.0
 30
0.0
  0
VERTEX
  5
86
330
85
100
AcDbEntity
  8
_U+30EC_U+30A4_U+30E4_U+30FC 1
 62
     7
420
 16777215
370
     9
100
AcDbVertex
100
AcDb2dVertex
 10
47.13269740865582
 20
-104.2644246961562
 30
0.0
  0
VERTEX
  5
87
330
85
100
AcDbEntity
  8
_U+30EC_U+30A4_U+30E4_U+30FC 1
 62
     7
420
 16777215
370
     9
100
AcDbVertex
100
AcDb2dVertex
 10
47.13269740865582
 20
-106.7249085844298
 30
0.0
  0
SEQEND
  5
88
330
85
100
AcDbEntity
  8
_U+30EC_U+30A4_U+30E4_U+30FC 1
 62
     7
420
 16777215
370
     9
  0
POLYLINE
  5
89
330
1F
100
AcDbEntity
  8
_U+30EC_U+30A4_U+30E4_U+30FC 1
 62
     7
420
 16777215
370
     9
100
AcDb2dPolyline
 66
     1
 10
0.0
 20
0.0
 30
0.0
  0
VERTEX
  5
8A
330
89
100
AcDbEntity
  8
_U+30EC_U+30A4_U+30E4_U+30FC 1
 62
     7
420
 16777215
370
     9
100
AcDbVertex
100
AcDb2dVertex
 10
57.13243020909694
 20
-104.2644246961562
 30
0.0
  0
VERTEX
  5
8B
330
89
100
AcDbEntity
  8
_U+30EC_U+30A4_U+30E4_U+30FC 1
 62
     7
420
 16777215
370
     9
100
AcDbVertex
100
AcDb2dVertex
 10
57.13243020909694
 20
-106.7249085844298
 30
0.0
  0
SEQEND
  5
8C
330
89
100
AcDbEntity
  8
_U+30EC_U+30A4_U+30E4_U+30FC 1
 62
     7
420
 16777215
370
     9
  0
INSERT
  5
8E
330
1F
100
AcDbEntity
  8
_U+30EC_U+30A4_U+30E4_U+30FC 1
100
AcDbBlockReference
  2
block 2
 10
0.0
 20
0.0
 30
0.0
  0
POLYLINE
  5
96
330
1F
100
AcDbEntity
  8
_U+30EC_U+30A4_U+30E4_U+30FC 1
 62
     7
420
 16777215
370
     9
100
AcDb2dPolyline
 66
     1
 10
0.0
 20
0.0
 30
0.0
  0
VERTEX
  5
97
330
96
100
AcDbEntity
  8
_U+30EC_U+30A4_U+30E4_U+30FC 1
 62
     7
420
 16777215
370
     9
100
AcDbVertex
100
AcDb2dVertex
 10
78.13304383999332
 20
-98.72471997531866
 30
0.0
  0
VERTEX
  5
98
330
96
100
AcDbEntity
  8
_U+30EC_U+30A4_U+30E4_U+30FC 1
 62
     7
420
 16777215
370
     9
100
AcDbVertex
100
AcDb2dVertex
 10
78.13304383999332
 20
-101.724706919013
 30
0.0
  0
SEQEND
  5
99
330
96
100
AcDbEntity
  8
_U+30EC_U+30A4_U+30E4_U+30FC 1
 62
     7
420
 16777215
370
     9
  0
POLYLINE
  5
9A
330
1F
100
AcDbEntity
  8
_U+30EC_U+30A4_U+30E4_U+30FC 1
 62
     7
420
 16777215
370
     9
100
AcDb2dPolyline
 66
     1
 10
0.0
 20
0.0
 30
0.0
  0
VERTEX
  5
9B
330
9A
100
AcDbEntity
  8
_U+30EC_U+30A4_U+30E4_U+30FC 1
 62
     7
420
 16777215
370
     9
100
AcDbVertex
100
AcDb2dVertex
 10
59.67285347761868
 20
-98.62481330867703
 30
0.0
  0
VERTEX
  5
9C
330
9A
100
AcDbEntity
  8
_U+30EC_U+30A4_U+30E4_U+30FC 1
 62
     7
420
 16777215
370
     9
100
AcDbVertex
100
AcDb2dVertex
 10
79.13281603670923
 20
-98.62481330867703
 30
0.0
  0
SEQEND
  5
9D
330
9A
100
AcDbEntity
  8
_U+30EC_U+30A4_U+30E4_U+30FC 1
 62
     7
420
 16777215
370
     9
  0
POLYLINE
  5
9E
330
1F
100
AcDbEntity
  8
_U+30EC_U+30A4_U+30E4_U+30FC 1
 62
     7
420
 16777215
370
     9
100
AcDb2dPolyline
 66
     1
 10
0.0
 20
0.0
 30
0.0
  0
VERTEX
  5
9F
330
9E
100
AcDbEntity
  8
_U+30EC_U+30A4_U+30E4_U+30FC 1
 62
     7
420
 16777215
370
     9
100
AcDbVertex
100
AcDb2dVertex
 10
59.67285347761868
 20
-101.724706919013
 30
0.0
  0
VERTEX
  5
A0
330
9E
100
AcDbEntity
  8
_U+30EC_U+30A4_U+30E4_U+30FC 1
 62
     7
420
 16777215
370
     9
100
AcDbVertex
100
AcDb2dVertex
 10
79.13281603670923
 20
-101.724706919013
 30
0.0
  0
SEQEND
  5
A1
330
9E
100
AcDbEntity
  8
_U+30EC_U+30A4_U+30E4_U+30FC 1
 62
     7
420
 16777215
370
     9
  0
INSERT
  5
A3
330
1F
100
AcDbEntity
  8
_U+30EC_U+30A4_U+30E4_U+30FC 1
100
AcDbBlockReference
  2
block 3
 10
0.0
 20
0.0
 30
0.0
  0
POLYLINE
  5
A8
330
1F
100
AcDbEntity
  8
_U+30EC_U+30A4_U+30E4_U+30FC 1
 62
     7
420
 16777215
370
     9
100
AcDb2dPolyline
 66
     1
 10
0.0
 20
0.0
 30
0.0
  0
VERTEX
  5
A9
330
A8
100
AcDbEntity
  8
_U+30EC_U+30A4_U+30E4_U+30FC 1
 62
     7
420
 16777215
370
     9
100
AcDbVertex
100
AcDb2dVertex
 10
78.13304383999332
 20
-79.98890386889173
 30
0.0
  0
VERTEX
  5
AA
330
A8
100
AcDbEntity
  8
_U+30EC_U+30A4_U+30E4_U+30FC 1
 62
     7
420
 16777215
370
     9
100
AcDbVertex
100
AcDb2dVertex
 10
78.13304383999332
 20
-78.98846136914183
 30
0.0
  0
SEQEND
  5
AB
330
A8
100
AcDbEntity
  8
_U+30EC_U+30A4_U+30E4_U+30FC 1
 62
     7
420
 16777215
370
     9
  0
POLYLINE
  5
AC
330
1F
100
AcDbEntity
  8
_U+30EC_U+30A4_U+30E4_U+30FC 1
 62
     7
420
 16777215
370
     9
100
AcDb2dPolyline
 66
     1
 10
0.0
 20
0.0
 30
0.0
  0
VERTEX
  5
AD
330
AC
100
AcDbEntity
  8
_U+30EC_U+30A4_U+30E4_U+30FC 1
 62
     7
420
 16777215
370
     9
100
AcDbVertex
100
AcDb2dVertex
 10
76.67300248835319
 20
-78.98846136914183
 30
0.0
  0
VERTEX
  5
AE
330
AC
100
AcDbEntity
  8
_U+30EC_U+30A4_U+30E4_U+30FC 1
 62
     7
420
 16777215
370
     9
100
AcDbVertex
100
AcDb2dVertex
 10
79.13281603670923
 20
-78.98846136914183
 30
0.0
  0
SEQEND
  5
AF
330
AC
100
AcDbEntity
  8
_U+30EC_U+30A4_U+30E4_U+30FC 1
 62
     7
420
 16777215
370
     9
  0
INSERT
  5
B1
330
1F
100
AcDbEntity
  8
_U+30EC_U+30A4_U+30E4_U+30FC 1
100
AcDbBlockReference
  2
block 4
 10
0.0
 20
0.0
 30
0.0
  0
POLYLINE
  5
B6
330
1F
100
AcDbEntity
  8
_U+30EC_U+30A4_U+30E4_U+30FC 1
 62
     7
420
 16777215
370
     9
100
AcDb2dPolyline
 66
     1
 10
0.0
 20
0.0
 30
0.0
  0
VERTEX
  5
B7
330
B6
100
AcDbEntity
  8
_U+30EC_U+30A4_U+30E4_U+30FC 1
 62
     7
420
 16777215
370
     9
100
AcDbVertex
100
AcDb2dVertex
 10
49.13291207984832
 20
-74.99628692569553
 30
0.0
  0
VERTEX
  5
B8
330
B6
100
AcDbEntity
  8
_U+30EC_U+30A4_U+30E4_U+30FC 1
 62
     7
420
 16777215
370
     9
100
AcDbVertex
100
AcDb2dVertex
 10
74.13257921983146
 20
-74.99628692569553
 30
0.0
  0
SEQEND
  5
B9
330
B6
100
AcDbEntity
  8
_U+30EC_U+30A4_U+30E4_U+30FC 1
 62
     7
420
 16777215
370
     9
  0
POLYLINE
  5
BA
330
1F
100
AcDbEntity
  8
_U+30EC_U+30A4_U+30E4_U+30FC 1
 62
     7
420
 16777215
370
     9
100
AcDb2dPolyline
 66
     1
 10
0.0
 20
0.0
 30
0.0
  0
VERTEX
  5
BB
330
BA
100
AcDbEntity
  8
_U+30EC_U+30A4_U+30E4_U+30FC 1
 62
     7
420
 16777215
370
     9
100
AcDbVertex
100
AcDb2dVertex
 10
49.13291207984832
 20
-76.45632831421923
 30
0.0
  0
VERTEX
  5
BC
330
BA
100
AcDbEntity
  8
_U+30EC_U+30A4_U+30E4_U+30FC 1
 62
     7
420
 16777215
370
     9
100
AcDbVertex
100
AcDb2dVertex
 10
49.13291207984832
 20
-73.99584442594563
 30
0.0
  0
SEQEND
  5
BD
330
BA
100
AcDbEntity
  8
_U+30EC_U+30A4_U+30E4_U+30FC 1
 62
     7
420
 16777215
370
     9
  0
POLYLINE
  5
BE
330
1F
100
AcDbEntity
  8
_U+30EC_U+30A4_U+30E4_U+30FC 1
 62
     7
420
 16777215
370
     9
100
AcDb2dPolyline
 66
     1
 10
0.0
 20
0.0
 30
0.0
  0
VERTEX
  5
BF
330
BE
100
AcDbEntity
  8
_U+30EC_U+30A4_U+30E4_U+30FC 1
 62
     7
420
 16777215
370
     9
100
AcDbVertex
100
AcDb2dVertex
 10
74.13257921983146
 20
-76.45632831421923
 30
0.0
  0
VERTEX
  5
C0
330
BE
100
AcDbEntity
  8
_U+30EC_U+30A4_U+30E4_U+30FC 1
 62
     7
420
 16777215
370
     9
100
AcDbVertex
100
AcDb2dVertex
 10
74.13257921983146
 20
-73.99584442594563
 30
0.0
  0
SEQEND
  5
C1
330
BE
100
AcDbEntity
  8
_U+30EC_U+30A4_U+30E4_U+30FC 1
 62
     7
420
 16777215
370
     9
  0
INSERT
  5
C3
330
1F
100
AcDbEntity
  8
_U+30EC_U+30A4_U+30E4_U+30FC 1
100
AcDbBlockReference
  2
block 5
 10
0.0
 20
0.0
 30
0.0
  0
POLYLINE
  5
CA
330
1F
100
AcDbEntity
  8
_U+30EC_U+30A4_U+30E4_U+30FC 1
 62
     7
420
 16777215
370
     9
100
AcDb2dPolyline
 66
     1
 10
0.0
 20
0.0
 30
0.0
  0
VERTEX
  5
CB
330
CA
100
AcDbEntity
  8
_U+30EC_U+30A4_U+30E4_U+30FC 1
 62
     7
420
 16777215
370
     9
100
AcDbVertex
100
AcDb2dVertex
 10
78.13304383999332
 20
-80.08881053553337
 30
0.0
  0
VERTEX
  5
CC
330
CA
100
AcDbEntity
  8
_U+30EC_U+30A4_U+30E4_U+30FC 1
 62
     7
420
 16777215
370
     9
100
AcDbVertex
100
AcDb2dVertex
 10
78.13304383999332
 20
-98.62481330867703
 30
0.0
  0
SEQEND
  5
CD
330
CA
100
AcDbEntity
  8
_U+30EC_U+30A4_U+30E4_U+30FC 1
 62
     7
420
 16777215
370
     9
  0
POLYLINE
  5
CE
330
1F
100
AcDbEntity
  8
_U+30EC_U+30A4_U+30E4_U+30FC 1
 62
     7
420
 16777215
370
     9
100
AcDb2dPolyline
 66
     1
 10
0.0
 20
0.0
 30
0.0
  0
VERTEX
  5
CF
330
CE
100
AcDbEntity
  8
_U+30EC_U+30A4_U+30E4_U+30FC 1
 62
     7
420
 16777215
370
     9
100
AcDbVertex
100
AcDb2dVertex
 10
76.67300248835319
 20
-79.98890386889173
 30
0.0
  0
VERTEX
  5
D0
330
CE
100
AcDbEntity
  8
_U+30EC_U+30A4_U+30E4_U+30FC 1
 62
     7
420
 16777215
370
     9
100
AcDbVertex
100
AcDb2dVertex
 10
79.13281603670923
 20
-79.98890386889173
 30
0.0
  0
SEQEND
  5
D1
330
CE
100
AcDbEntity
  8
_U+30EC_U+30A4_U+30E4_U+30FC 1
 62
     7
420
 16777215
370
     9
  0
INSERT
  5
D3
330
1F
100
AcDbEntity
  8
_U+30EC_U+30A4_U+30E4_U+30FC 1
100
AcDbBlockReference
  2
block 6
 10
0.0
 20
0.0
 30
0.0
  0
ENDSEC
  0
SECTION
  2
OBJECTS
  0
DICTIONARY
  5
C
330
0
100
AcDbDictionary
281
     1
  3
ACAD_GROUP
350
D
  3
ACAD_LAYOUT
350
1A
  3
ACAD_MATERIAL
350
3B
  3
ACAD_MLEADERSTYLE
350
E6
  3
ACAD_MLINESTYLE
350
17
  3
ACAD_PLOTSETTINGS
350
19
  3
ACAD_PLOTSTYLENAME
350
E
  3
ACAD_TABLESTYLE
350
E5
  3
ACAD_VISUALSTYLE
350
2A
  0
SUN
  5
3F
330
29
100
AcDbSun
 90
        1
290
     0
 63
     7
421
 16777215
 40
1.0
291
     1
 91
  2455826
 92
 54000000
292
     0
 70
     2
 71
   256
280
     1
  0
DICTIONARY
  5
D
102
{ACAD_REACTORS
330
C
102
}
330
C
100
AcDbDictionary
281
     1
  0
DICTIONARY
  5
1A
102
{ACAD_REACTORS
330
C
102
}
330
C
100
AcDbDictionary
281
     1
  3
Layout1
350
1E
  3
Layout2
350
26
  3
Model
350
22
  0
DICTIONARY
  5
3B
102
{ACAD_REACTORS
330
C
102
}
330
C
100
AcDbDictionary
281
     1
  3
ByBlock
350
3D
  3
ByLayer
350
3C
  3
Global
350
3E
  0
DICTIONARY
  5
E6
102
{ACAD_REACTORS
330
C
102
}
330
C
100
AcDbDictionary
281
     1
  0
DICTIONARY
  5
17
102
{ACAD_REACTORS
330
C
102
}
330
C
100
AcDbDictionary
281
     1
  3
Standard
350
18
  0
DICTIONARY
  5
19
102
{ACAD_REACTORS
330
C
102
}
330
C
100
AcDbDictionary
281
     1
  0
ACDBDICTIONARYWDFLT
  5
E
102
{ACAD_REACTORS
330
C
102
}
330
C
100
AcDbDictionary
281
     1
  3
Normal
350
F
100
AcDbDictionaryWithDefault
340
F
  0
DICTIONARY
  5
E5
102
{ACAD_REACTORS
330
C
102
}
330
C
100
AcDbDictionary
281
     1
  0
DICTIONARY
  5
2A
102
{ACAD_REACTORS
330
C
102
}
330
C
100
AcDbDictionary
281
     1
  3
2dWireframe
350
2F
  3
3D Hidden
350
31
  3
3dWireframe
350
30
  3
Basic
350
32
  3
Brighten
350
36
  3
ColorChange
350
3A
  3
Conceptual
350
34
  3
Dim
350
35
  3
Facepattern
350
39
  3
Flat
350
2B
  3
FlatWithEdges
350
2C
  3
Gouraud
350
2D
  3
GouraudWithEdges
350
2E
  3
Linepattern
350
38
  3
Realistic
350
33
  3
Thicken
350
37
  0
LAYOUT
  5
1E
102
{ACAD_REACTORS
330
1A
102
}
330
1A
100
AcDbPlotSettings
  1

  2
none_device
  4

  6

 40
0.0
 41
0.0
 42
0.0
 43
0.0
 44
0.0
 45
0.0
 46
0.0
 47
0.0
 48
0.0
 49
0.0
140
0.0
141
0.0
142
1.0
143
1.0
 70
   688
 72
     0
 73
     0
 74
     5
  7

 75
    16
 76
     0
 77
     2
 78
   300
147
1.0
148
0.0
149
0.0
100
AcDbLayout
  1
Layout1
 70
     1
 71
     1
 10
0.0
 20
0.0
 11
12.0
 21
9.0
 12
0.0
 22
0.0
 32
0.0
 14
1.000000000000000E+20
 24
1.000000000000000E+20
 34
1.000000000000000E+20
 15
-1.000000000000000E+20
 25
-1.000000000000000E+20
 35
-1.000000000000000E+20
146
0.0
 13
0.0
 23
0.0
 33
0.0
 16
1.0
 26
0.0
 36
0.0
 17
0.0
 27
1.0
 37
0.0
 76
     0
330
1B
  0
LAYOUT
  5
26
102
{ACAD_REACTORS
330
1A
102
}
330
1A
100
AcDbPlotSettings
  1

  2
none_device
  4

  6

 40
0.0
 41
0.0
 42
0.0
 43
0.0
 44
0.0
 45
0.0
 46
0.0
 47
0.0
 48
0.0
 49
0.0
140
0.0
141
0.0
142
1.0
143
1.0
 70
   688
 72
     0
 73
     0
 74
     5
  7

 75
    16
 76
     0
 77
     2
 78
   300
147
1.0
148
0.0
149
0.0
100
AcDbLayout
  1
Layout2
 70
     1
 71
     2
 10
0.0
 20
0.0
 11
0.0
 21
0.0
 12
0.0
 22
0.0
 32
0.0
 14
0.0
 24
0.0
 34
0.0
 15
0.0
 25
0.0
 35
0.0
146
0.0
 13
0.0
 23
0.0
 33
0.0
 16
1.0
 26
0.0
 36
0.0
 17
0.0
 27
1.0
 37
0.0
 76
     0
330
23
  0
LAYOUT
  5
22
102
{ACAD_REACTORS
330
1A
102
}
330
1A
100
AcDbPlotSettings
  1

  2
none_device
  4

  6

 40
0.0
 41
0.0
 42
0.0
 43
0.0
 44
0.0
 45
0.0
 46
0.0
 47
0.0
 48
0.0
 49
0.0
140
0.0
141
0.0
142
1.0
143
1.0
 70
  1712
 72
     0
 73
     0
 74
     0
  7

 75
     0
 76
     0
 77
     2
 78
   300
147
1.0
148
0.0
149
0.0
100
AcDbLayout
  1
Model
 70
     1
 71
     0
 10
0.0
 20
0.0
 11
12.0
 21
9.0
 12
0.0
 22
0.0
 32
0.0
 14
1.000000000000000E+20
 24
1.000000000000000E+20
 34
1.000000000000000E+20
 15
-1.000000000000000E+20
 25
-1.000000000000000E+20
 35
-1.000000000000000E+20
146
0.0
 13
0.0
 23
0.0
 33
0.0
 16
1.0
 26
0.0
 36
0.0
 17
0.0
 27
1.0
 37
0.0
 76
     0
330
1F
331
29
  0
MATERIAL
  5
3D
102
{ACAD_REACTORS
330
3B
102
}
330
3B
100
AcDbMaterial
  1
ByBlock
 72
     1
 94
      127
  0
MATERIAL
  5
3C
102
{ACAD_REACTORS
330
3B
102
}
330
3B
100
AcDbMaterial
  1
ByLayer
 72
     1
 94
      127
  0
MATERIAL
  5
3E
102
{ACAD_REACTORS
330
3B
102
}
330
3B
100
AcDbMaterial
  1
Global
 72
     1
 94
      127
  0
MLINESTYLE
  5
18
102
{ACAD_REACTORS
330
17
102
}
330
17
100
AcDbMlineStyle
  2
Standard
 70
     0
  3

 62
   256
 51
90.0
 52
90.0
 71
     2
 49
0.5
 62
   256
  6
BYLAYER
 49
-0.5
 62
   256
  6
BYLAYER
  0
ACDBPLACEHOLDER
  5
F
102
{ACAD_REACTORS
330
E
102
}
330
E
  0
VISUALSTYLE
  5
2F
102
{ACAD_REACTORS
330
2A
102
}
330
2A
100
AcDbVisualStyle
  2
2dWireframe
 70
     4
177
     2
291
     0
 71
     0
176
     1
 72
     2
176
     1
 73
     0
176
     1
 90
        0
176
     1
 40
-0.6
176
     1
 41
-30.0
176
     1
 62
     5
 63
     7
421
 16777215
176
     1
 74
     1
176
     1
 91
        4
176
     1
 64
     7
176
     1
 65
   257
176
     1
 75
     1
176
     1
175
     1
176
     1
 42
1.0
176
     1
 92
        0
176
     1
 66
   257
176
     1
 43
1.0
176
     1
 76
     1
176
     1
 77
     6
176
     1
 78
     2
176
     1
 67
     7
176
     1
 79
     5
176
     1
170
     0
176
     1
171
     0
176
     1
290
     0
176
     1
 93
        1
176
     1
 44
0.0
176
     1
173
     0
176
     1
  0
VISUALSTYLE
  5
31
102
{ACAD_REACTORS
330
2A
102
}
330
2A
100
AcDbVisualStyle
  2
3D Hidden
 70
     6
177
     2
291
     0
 71
     1
176
     1
 72
     2
176
     1
 73
     2
176
     1
 90
        0
176
     1
 40
-0.6
176
     1
 41
-30.0
176
     1
 62
     5
 63
     7
421
 16777215
176
     1
 74
     2
176
     1
 91
        2
176
     1
 64
     7
176
     1
 65
   257
176
     1
 75
     2
176
     1
175
     1
176
     1
 42
40.0
176
     1
 92
        0
176
     1
 66
   257
176
     1
 43
1.0
176
     1
 76
     1
176
     1
 77
     6
176
     1
 78
     2
176
     1
 67
     7
176
     1
 79
     3
176
     1
170
     0
176
     1
171
     0
176
     1
290
     0
176
     1
 93
        1
176
     1
 44
0.0
176
     1
173
     0
176
     1
  0
VISUALSTYLE
  5
30
102
{ACAD_REACTORS
330
2A
102
}
330
2A
100
AcDbVisualStyle
  2
3dWireframe
 70
     5
177
     2
291
     0
 71
     0
176
     1
 72
     2
176
     1
 73
     0
176
     1
 90
        0
176
     1
 40
-0.6
176
     1
 41
-30.0
176
     1
 62
     5
 63
     7
421
 16777215
176
     1
 74
     1
176
     1
 91
        4
176
     1
 64
     7
176
     1
 65
   257
176
     1
 75
     1
176
     1
175
     1
176
     1
 42
1.0
176
     1
 92
        0
176
     1
 66
   257
176
     1
 43
1.0
176
     1
 76
     1
176
     1
 77
     6
176
     1
 78
     2
176
     1
 67
     7
176
     1
 79
     5
176
     1
170
     0
176
     1
171
     0
176
     1
290
     0
176
     1
 93
        1
176
     1
 44
0.0
176
     1
173
     0
176
     1
  0
VISUALSTYLE
  5
32
102
{ACAD_REACTORS
330
2A
102
}
330
2A
100
AcDbVisualStyle
  2
Basic
 70
     7
177
     2
291
     1
 71
     1
176
     1
 72
     0
176
     1
 73
     1
176
     1
 90
        0
176
     1
 40
-0.6
176
     1
 41
-30.0
176
     1
 62
     5
 63
     7
421
 16777215
176
     1
 74
     0
176
     1
 91
        4
176
     1
 64
     7
176
     1
 65
   257
176
     1
 75
     1
176
     1
175
     1
176
     1
 42
1.0
176
     1
 92
        8
176
     1
 66
     7
176
     1
 43
1.0
176
     1
 76
     1
176
     1
 77
     6
176
     1
 78
     2
176
     1
 67
     7
176
     1
 79
     5
176
     1
170
     0
176
     1
171
     0
176
     1
290
     0
176
     1
 93
        1
176
     1
 44
0.0
176
     1
173
     0
176
     1
  0
VISUALSTYLE
  5
36
102
{ACAD_REACTORS
330
2A
102
}
330
2A
100
AcDbVisualStyle
  2
Brighten
 70
    12
177
     2
291
     1
 71
     2
176
     1
 72
     2
176
     1
 73
     0
176
     1
 90
        0
176
     1
 40
-0.6
176
     1
 41
-30.0
176
     1
 62
     5
 63
     7
421
 16777215
176
     1
 74
     1
176
     1
 91
        4
176
     1
 64
     7
176
     1
 65
   257
176
     1
 75
     1
176
     1
175
     1
176
     1
 42
1.0
176
     1
 92
        8
176
     1
 66
     7
176
     1
 43
1.0
176
     1
 76
     1
176
     1
 77
     6
176
     1
 78
     2
176
     1
 67
     7
176
     1
 79
     5
176
     1
170
     0
176
     1
171
     0
176
     1
290
     0
176
     1
 93
        1
176
     1
 44
50.0
176
     1
173
     0
176
     1
  0
VISUALSTYLE
  5
3A
102
{ACAD_REACTORS
330
2A
102
}
330
2A
100
AcDbVisualStyle
  2
ColorChange
 70
    16
177
     2
291
     1
 71
     2
176
     1
 72
     2
176
     1
 73
     3
176
     1
 90
        0
176
     1
 40
-0.6
176
     1
 41
-30.0
176
     1
 62
     5
 63
     8
421
  8421504
176
     1
 74
     1
176
     1
 91
        4
176
     1
 64
     7
176
     1
 65
   257
176
     1
 75
     1
176
     1
175
     1
176
     1
 42
1.0
176
     1
 92
        8
176
     1
 66
     8
424
  8421504
176
     1
 43
1.0
176
     1
 76
     1
176
     1
 77
     6
176
     1
 78
     2
176
     1
 67
     7
176
     1
 79
     5
176
     1
170
     0
176
     1
171
     0
176
     1
290
     0
176
     1
 93
        1
176
     1
 44
0.0
176
     1
173
     0
176
     1
  0
VISUALSTYLE
  5
34
102
{ACAD_REACTORS
330
2A
102
}
330
2A
100
AcDbVisualStyle
  2
Conceptual
 70
     9
177
     2
291
     0
 71
     3
176
     1
 72
     2
176
     1
 73
     0
176
     1
 90
        0
176
     1
 40
-0.6
176
     1
 41
-30.0
176
     1
 62
     5
 63
     7
421
 16777215
176
     1
 74
     2
176
     1
 91
        2
176
     1
 64
     7
176
     1
 65
   257
176
     1
 75
     1
176
     1
175
     1
176
     1
 42
40.0
176
     1
 92
        8
176
     1
 66
     7
176
     1
 43
1.0
176
     1
 76
     1
176
     1
 77
     6
176
     1
 78
     2
176
     1
 67
     7
176
     1
 79
     3
176
     1
170
     0
176
     1
171
     0
176
     1
290
     0
176
     1
 93
        1
176
     1
 44
0.0
176
     1
173
     0
176
     1
  0
VISUALSTYLE
  5
35
102
{ACAD_REACTORS
330
2A
102
}
330
2A
100
AcDbVisualStyle
  2
Dim
 70
    11
177
     2
291
     1
 71
     2
176
     1
 72
     2
176
     1
 73
     0
176
     1
 90
        0
176
     1
 40
-0.6
176
     1
 41
-30.0
176
     1
 62
     5
 63
     7
421
 16777215
176
     1
 74
     1
176
     1
 91
        4
176
     1
 64
     7
176
     1
 65
   257
176
     1
 75
     1
176
     1
175
     1
176
     1
 42
1.0
176
     1
 92
        8
176
     1
 66
     7
176
     1
 43
1.0
176
     1
 76
     1
176
     1
 77
     6
176
     1
 78
     2
176
     1
 67
     7
176
     1
 79
     5
176
     1
170
     0
176
     1
171
     0
176
     1
290
     0
176
     1
 93
        1
176
     1
 44
-50.0
176
     1
173
     0
176
     1
  0
VISUALSTYLE
  5
39
102
{ACAD_REACTORS
330
2A
102
}
330
2A
100
AcDbVisualStyle
  2
Facepattern
 70
    15
177
     2
291
     1
 71
     2
176
     1
 72
     2
176
     1
 73
     0
176
     1
 90
        0
176
     1
 40
-0.6
176
     1
 41
-30.0
176
     1
 62
     5
 63
     7
421
 16777215
176
     1
 74
     1
176
     1
 91
        4
176
     1
 64
     7
176
     1
 65
   257
176
     1
 75
     1
176
     1
175
     1
176
     1
 42
1.0
176
     1
 92
        8
176
     1
 66
     7
176
     1
 43
1.0
176
     1
 76
     1
176
     1
 77
     6
176
     1
 78
     2
176
     1
 67
     7
176
     1
 79
     5
176
     1
170
     0
176
     1
171
     0
176
     1
290
     0
176
     1
 93
        1
176
     1
 44
0.0
176
     1
173
     0
176
     1
  0
VISUALSTYLE
  5
2B
102
{ACAD_REACTORS
330
2A
102
}
330
2A
100
AcDbVisualStyle
  2
Flat
 70
     0
177
     2
291
     1
 71
     2
176
     1
 72
     1
176
     1
 73
     1
176
     1
 90
        2
176
     1
 40
-0.6
176
     1
 41
30.0
176
     1
 62
     5
 63
     7
421
 16777215
176
     1
 74
     0
176
     1
 91
        4
176
     1
 64
     7
176
     1
 65
   257
176
     1
 75
     1
176
     1
175
     1
176
     1
 42
1.0
176
     1
 92
        8
176
     1
 66
     7
176
     1
 43
1.0
176
     1
 76
     1
176
     1
 77
     6
176
     1
 78
     2
176
     1
 67
     7
176
     1
 79
     5
176
     1
170
     0
176
     1
171
     0
176
     1
290
     0
176
     1
 93
       13
176
     1
 44
0.0
176
     1
173
     0
176
     1
  0
VISUALSTYLE
  5
2C
102
{ACAD_REACTORS
330
2A
102
}
330
2A
100
AcDbVisualStyle
  2
FlatWithEdges
 70
     1
177
     2
291
     1
 71
     2
176
     1
 72
     1
176
     1
 73
     1
176
     1
 90
        2
176
     1
 40
-0.6
176
     1
 41
30.0
176
     1
 62
     5
 63
     7
421
 16777215
176
     1
 74
     1
176
     1
 91
        4
176
     1
 64
     7
176
     1
 65
   257
176
     1
 75
     1
176
     1
175
     1
176
     1
 42
1.0
176
     1
 92
        0
176
     1
 66
   257
176
     1
 43
1.0
176
     1
 76
     1
176
     1
 77
     6
176
     1
 78
     2
176
     1
 67
     7
176
     1
 79
     5
176
     1
170
     0
176
     1
171
     0
176
     1
290
     0
176
     1
 93
       13
176
     1
 44
0.0
176
     1
173
     0
176
     1
  0
VISUALSTYLE
  5
2D
102
{ACAD_REACTORS
330
2A
102
}
330
2A
100
AcDbVisualStyle
  2
Gouraud
 70
     2
177
     2
291
     1
 71
     2
176
     1
 72
     2
176
     1
 73
     1
176
     1
 90
        2
176
     1
 40
-0.6
176
     1
 41
30.0
176
     1
 62
     5
 63
     7
421
 16777215
176
     1
 74
     0
176
     1
 91
        4
176
     1
 64
     7
176
     1
 65
   257
176
     1
 75
     1
176
     1
175
     1
176
     1
 42
1.0
176
     1
 92
        0
176
     1
 66
     7
176
     1
 43
1.0
176
     1
 76
     1
176
     1
 77
     6
176
     1
 78
     2
176
     1
 67
     7
176
     1
 79
     5
176
     1
170
     0
176
     1
171
     0
176
     1
290
     0
176
     1
 93
       13
176
     1
 44
0.0
176
     1
173
     0
176
     1
  0
VISUALSTYLE
  5
2E
102
{ACAD_REACTORS
330
2A
102
}
330
2A
100
AcDbVisualStyle
  2
GouraudWithEdges
 70
     3
177
     2
291
     1
 71
     2
176
     1
 72
     2
176
     1
 73
     1
176
     1
 90
        2
176
     1
 40
-0.6
176
     1
 41
30.0
176
     1
 62
     5
 63
     7
421
 16777215
176
     1
 74
     1
176
     1
 91
        4
176
     1
 64
     7
176
     1
 65
   257
176
     1
 75
     1
176
     1
175
     1
176
     1
 42
1.0
176
     1
 92
        0
176
     1
 66
   257
176
     1
 43
1.0
176
     1
 76
     1
176
     1
 77
     6
176
     1
 78
     2
176
     1
 67
     7
176
     1
 79
     5
176
     1
170
     0
176
     1
171
     0
176
     1
290
     0
176
     1
 93
       13
176
     1
 44
0.0
176
     1
173
     0
176
     1
  0
VISUALSTYLE
  5
38
102
{ACAD_REACTORS
330
2A
102
}
330
2A
100
AcDbVisualStyle
  2
Linepattern
 70
    14
177
     2
291
     1
 71
     2
176
     1
 72
     2
176
     1
 73
     0
176
     1
 90
        0
176
     1
 40
-0.6
176
     1
 41
-30.0
176
     1
 62
     5
 63
     7
421
 16777215
176
     1
 74
     1
176
     1
 91
        4
176
     1
 64
     7
176
     1
 65
   257
176
     1
 75
     7
176
     1
175
     7
176
     1
 42
1.0
176
     1
 92
        8
176
     1
 66
     7
176
     1
 43
1.0
176
     1
 76
     1
176
     1
 77
     6
176
     1
 78
     2
176
     1
 67
     7
176
     1
 79
     5
176
     1
170
     0
176
     1
171
     0
176
     1
290
     0
176
     1
 93
        1
176
     1
 44
0.0
176
     1
173
     0
176
     1
  0
VISUALSTYLE
  5
33
102
{ACAD_REACTORS
330
2A
102
}
330
2A
100
AcDbVisualStyle
  2
Realistic
 70
     8
177
     2
291
     0
 71
     2
176
     1
 72
     2
176
     1
 73
     0
176
     1
 90
        0
176
     1
 40
-0.6
176
     1
 41
-30.0
176
     1
 62
     5
 63
     7
421
 16777215
176
     1
 74
     1
176
     1
 91
        0
176
     1
 64
     7
176
     1
 65
   257
176
     1
 75
     1
176
     1
175
     1
176
     1
 42
1.0
176
     1
 92
        8
176
     1
 66
     8
424
  7895160
176
     1
 43
1.0
176
     1
 76
     1
176
     1
 77
     6
176
     1
 78
     2
176
     1
 67
     7
176
     1
 79
     5
176
     1
170
     0
176
     1
171
     0
176
     1
290
     0
176
     1
 93
       13
176
     1
 44
0.0
176
     1
173
     0
176
     1
  0
VISUALSTYLE
  5
37
102
{ACAD_REACTORS
330
2A
102
}
330
2A
100
AcDbVisualStyle
  2
Thicken
 70
    13
177
     2
291
     1
 71
     2
176
     1
 72
     2
176
     1
 73
     0
176
     1
 90
        0
176
     1
 40
-0.6
176
     1
 41
-30.0
176
     1
 62
     5
 63
     7
421
 16777215
176
     1
 74
     1
176
     1
 91
        4
176
     1
 64
     7
176
     1
 65
   257
176
     1
 75
     1
176
     1
175
     1
176
     1
 42
1.0
176
     1
 92
       12
176
     1
 66
     7
176
     1
 43
1.0
176
     1
 76
     1
176
     1
 77
     6
176
     1
 78
     2
176
     1
 67
     7
176
     1
 79
     5
176
     1
170
     0
176
     1
171
     0
176
     1
290
     0
176
     1
 93
        1
176
     1
 44
0.0
176
     1
173
     0
176
     1
  0
ENDSEC
  0
EOF
