  0
SECTION
  2
HEADER
  9
$ACADVER
  1
AC1024
  9
$ACADMAINTVER
 70
     6
  9
$DWGCODEPAGE
  3
UNDEFINED
  9
$INSBASE
 10
0.0
 20
0.0
 30
0.0
  9
$EXTMIN
 10
1.000000000000000E+20
 20
1.000000000000000E+20
 30
1.000000000000000E+20
  9
$EXTMAX
 10
-1.000000000000000E+20
 20
-1.000000000000000E+20
 30
-1.000000000000000E+20
  9
$LIMMIN
 10
0.0
 20
0.0
  9
$LIMMAX
 10
12.0
 20
9.0
  9
$ORTHOMODE
 70
     0
  9
$REGENMODE
 70
     1
  9
$FILLMODE
 70
     1
  9
$QTEXTMODE
 70
     0
  9
$MIRRTEXT
 70
     1
  9
$LTSCALE
 40
1.0
  9
$ATTMODE
 70
     1
  9
$TEXTSIZE
 40
0.2
  9
$TRACEWID
 40
0.05
  9
$TEXTSTYLE
  7
Standard
  9
$CLAYER
  8
0
  9
$CELTYPE
  6
ByLayer
  9
$CECOLOR
 62
   256
  9
$CELTSCALE
 40
1.0
  9
$DISPSILH
 70
     0
  9
$DIMSCALE
 40
1.0
  9
$DIMASZ
 40
0.18
  9
$DIMEXO
 40
0.0625
  9
$DIMDLI
 40
0.38
  9
$DIMRND
 40
0.0
  9
$DIMDLE
 40
0.0
  9
$DIMEXE
 40
0.18
  9
$DIMTP
 40
0.0
  9
$DIMTM
 40
0.0
  9
$DIMTXT
 40
0.18
  9
$DIMCEN
 40
0.09
  9
$DIMTSZ
 40
0.0
  9
$DIMTOL
 70
     0
  9
$DIMLIM
 70
     0
  9
$DIMTIH
 70
     1
  9
$DIMTOH
 70
     1
  9
$DIMSE1
 70
     0
  9
$DIMSE2
 70
     0
  9
$DIMTAD
 70
     0
  9
$DIMZIN
 70
     0
  9
$DIMBLK
  1

  9
$DIMASO
 70
     1
  9
$DIMSHO
 70
     1
  9
$DIMPOST
  1

  9
$DIMAPOST
  1

  9
$DIMALT
 70
     0
  9
$DIMALTD
 70
     2
  9
$DIMALTF
 40
25.4
  9
$DIMLFAC
 40
1.0
  9
$DIMTOFL
 70
     0
  9
$DIMTVP
 40
0.0
  9
$DIMTIX
 70
     0
  9
$DIMSOXD
 70
     0
  9
$DIMSAH
 70
     0
  9
$DIMBLK1
  1

  9
$DIMBLK2
  1

  9
$DIMSTYLE
  2
Standard
  9
$DIMCLRD
 70
     0
  9
$DIMCLRE
 70
     0
  9
$DIMCLRT
 70
     0
  9
$DIMTFAC
 40
1.0
  9
$DIMGAP
 40
0.09
  9
$DIMJUST
 70
     0
  9
$DIMSD1
 70
     0
  9
$DIMSD2
 70
     0
  9
$DIMTOLJ
 70
     1
  9
$DIMTZIN
 70
     0
  9
$DIMALTZ
 70
     0
  9
$DIMALTTZ
 70
     0
  9
$DIMUPT
 70
     0
  9
$DIMDEC
 70
     4
  9
$DIMTDEC
 70
     4
  9
$DIMALTU
 70
     2
  9
$DIMALTTD
 70
     2
  9
$DIMTXSTY
  7
Standard
  9
$DIMAUNIT
 70
     0
  9
$DIMADEC
 70
     0
  9
$DIMALTRND
 40
0.0
  9
$DIMAZIN
 70
     0
  9
$DIMDSEP
 70
    46
  9
$DIMATFIT
 70
     3
  9
$DIMFRAC
 70
     0
  9
$DIMLDRBLK
  1

  9
$DIMLUNIT
 70
     2
  9
$DIMLWD
 70
    -2
  9
$DIMLWE
 70
    -2
  9
$DIMTMOVE
 70
     0
  9
$DIMFXL
 40
1.0
  9
$DIMFXLON
 70
     0
  9
$DIMJOGANG
 40
0.7853981633974483
  9
$DIMTFILL
 70
     0
  9
$DIMTFILLCLR
 70
     0
  9
$DIMARCSYM
 70
     0
  9
$DIMLTYPE
  6

  9
$DIMLTEX1
  6

  9
$DIMLTEX2
  6

  9
$DIMTXTDIRECTION
 70
     0
  9
$LUNITS
 70
     2
  9
$LUPREC
 70
     4
  9
$SKETCHINC
 40
0.1
  9
$FILLETRAD
 40
0.5
  9
$AUNITS
 70
     0
  9
$AUPREC
 70
     0
  9
$MENU
  1
.
  9
$ELEVATION
 40
0.0
  9
$PELEVATION
 40
0.0
  9
$THICKNESS
 40
0.0
  9
$LIMCHECK
 70
     0
  9
$CHAMFERA
 40
0.5
  9
$CHAMFERB
 40
0.5
  9
$CHAMFERC
 40
1.0
  9
$CHAMFERD
 40
0.0
  9
$SKPOLY
 70
     0
  9
$TDCREATE
 40
2457917.588275451
  9
$TDUCREATE
 40
2457917.213275463
  9
$TDUPDATE
 40
2457917.588275451
  9
$TDUUPDATE
 40
2457917.213275463
  9
$TDINDWG
 40
0.0000000116
  9
$TDUSRTIMER
 40
0.0000000116
  9
$USRTIMER
 70
     1
  9
$ANGBASE
 50
0.0
  9
$ANGDIR
 70
     0
  9
$PDMODE
 70
     0
  9
$PDSIZE
 40
0.0
  9
$PLINEWID
 40
0.0
  9
$SPLFRAME
 70
     0
  9
$SPLINETYPE
 70
     6
  9
$SPLINESEGS
 70
     8
  9
$HANDSEED
  5
CB
  9
$SURFTAB1
 70
     6
  9
$SURFTAB2
 70
     6
  9
$SURFTYPE
 70
     6
  9
$SURFU
 70
     6
  9
$SURFV
 70
     6
  9
$UCSBASE
  2

  9
$UCSNAME
  2

  9
$UCSORG
 10
0.0
 20
0.0
 30
0.0
  9
$UCSXDIR
 10
1.0
 20
0.0
 30
0.0
  9
$UCSYDIR
 10
0.0
 20
1.0
 30
0.0
  9
$UCSORTHOREF
  2

  9
$UCSORTHOVIEW
 70
     0
  9
$UCSORGTOP
 10
0.0
 20
0.0
 30
0.0
  9
$UCSORGBOTTOM
 10
0.0
 20
0.0
 30
0.0
  9
$UCSORGLEFT
 10
0.0
 20
0.0
 30
0.0
  9
$UCSORGRIGHT
 10
0.0
 20
0.0
 30
0.0
  9
$UCSORGFRONT
 10
0.0
 20
0.0
 30
0.0
  9
$UCSORGBACK
 10
0.0
 20
0.0
 30
0.0
  9
$PUCSBASE
  2

  9
$PUCSNAME
  2

  9
$PUCSORG
 10
0.0
 20
0.0
 30
0.0
  9
$PUCSXDIR
 10
1.0
 20
0.0
 30
0.0
  9
$PUCSYDIR
 10
0.0
 20
1.0
 30
0.0
  9
$PUCSORTHOREF
  2

  9
$PUCSORTHOVIEW
 70
     0
  9
$PUCSORGTOP
 10
0.0
 20
0.0
 30
0.0
  9
$PUCSORGBOTTOM
 10
0.0
 20
0.0
 30
0.0
  9
$PUCSORGLEFT
 10
0.0
 20
0.0
 30
0.0
  9
$PUCSORGRIGHT
 10
0.0
 20
0.0
 30
0.0
  9
$PUCSORGFRONT
 10
0.0
 20
0.0
 30
0.0
  9
$PUCSORGBACK
 10
0.0
 20
0.0
 30
0.0
  9
$USERI1
 70
     0
  9
$USERI2
 70
     0
  9
$USERI3
 70
     0
  9
$USERI4
 70
     0
  9
$USERI5
 70
     0
  9
$USERR1
 40
0.0
  9
$USERR2
 40
0.0
  9
$USERR3
 40
0.0
  9
$USERR4
 40
0.0
  9
$USERR5
 40
0.0
  9
$WORLDVIEW
 70
     1
  9
$SHADEDGE
 70
     3
  9
$SHADEDIF
 70
    70
  9
$TILEMODE
 70
     1
  9
$MAXACTVP
 70
    64
  9
$PINSBASE
 10
0.0
 20
0.0
 30
0.0
  9
$PLIMCHECK
 70
     0
  9
$PEXTMIN
 10
1.000000000000000E+20
 20
1.000000000000000E+20
 30
1.000000000000000E+20
  9
$PEXTMAX
 10
-1.000000000000000E+20
 20
-1.000000000000000E+20
 30
-1.000000000000000E+20
  9
$PLIMMIN
 10
0.0
 20
0.0
  9
$PLIMMAX
 10
12.0
 20
9.0
  9
$UNITMODE
 70
     0
  9
$VISRETAIN
 70
     1
  9
$PLINEGEN
 70
     0
  9
$PSLTSCALE
 70
     1
  9
$TREEDEPTH
 70
  3020
  9
$CMLSTYLE
  2
Standard
  9
$CMLJUST
 70
     0
  9
$CMLSCALE
 40
1.0
  9
$PROXYGRAPHICS
 70
     1
  9
$MEASUREMENT
 70
     0
  9
$CELWEIGHT
370
    -1
  9
$ENDCAPS
280
     0
  9
$JOINSTYLE
280
     0
  9
$LWDISPLAY
290
     1
  9
$INSUNITS
 70
     1
  9
$HYPERLINKBASE
  1

  9
$STYLESHEET
  1

  9
$XEDIT
290
     1
  9
$CEPSNTYPE
380
     0
  9
$PSTYLEMODE
290
     1
  9
$FINGERPRINTGUID
  2
{432B5405-4F48-20C8-D8C2-89CF7E47DDE6}
  9
$VERSIONGUID
  2
{FAEB1C32-E019-11D5-929B-00C0DF256EC4}
  9
$EXTNAMES
290
     1
  9
$PSVPSCALE
 40
0.0
  9
$OLESTARTUP
290
     0
  9
$SORTENTS
280
   127
  9
$INDEXCTL
280
     0
  9
$HIDETEXT
280
     1
  9
$XCLIPFRAME
280
     2
  9
$HALOGAP
280
     0
  9
$OBSCOLOR
 70
   257
  9
$OBSLTYPE
280
     0
  9
$INTERSECTIONDISPLAY
280
     0
  9
$INTERSECTIONCOLOR
 70
   257
  9
$DIMASSOC
280
     2
  9
$PROJECTNAME
  1

  9
$CAMERADISPLAY
290
     0
  9
$LENSLENGTH
 40
50.0
  9
$CAMERAHEIGHT
 40
0.0
  9
$STEPSPERSEC
 40
2.0
  9
$STEPSIZE
 40
6.0
  9
$3DDWFPREC
 40
2.0
  9
$PSOLWIDTH
 40
0.25
  9
$PSOLHEIGHT
 40
4.0
  9
$LOFTANG1
 40
1.570796326794897
  9
$LOFTANG2
 40
1.570796326794897
  9
$LOFTMAG1
 40
0.0
  9
$LOFTMAG2
 40
0.0
  9
$LOFTPARAM
 70
     7
  9
$LOFTNORMALS
280
     1
  9
$LATITUDE
 40
37.795
  9
$LONGITUDE
 40
-122.394
  9
$NORTHDIRECTION
 40
0.0
  9
$TIMEZONE
 70
 -8000
  9
$LIGHTGLYPHDISPLAY
280
     1
  9
$TILEMODELIGHTSYNCH
280
     1
  9
$CMATERIAL
347
3C
  9
$SOLIDHIST
280
     1
  9
$SHOWHIST
280
     1
  9
$DWFFRAME
280
     2
  9
$DGNFRAME
280
     2
  9
$REALWORLDSCALE
290
     1
  9
$INTERFERECOLOR
 62
   256
  9
$CSHADOW
280
     0
  9
$SHADOWPLANELOCATION
 40
0.0
  0
ENDSEC
  0
SECTION
  2
CLASSES
  0
CLASS
  1
ACDBDICTIONARYWDFLT
  2
AcDbDictionaryWithDefault
  3
ObjectDBX Classes
 90
        0
 91
        4
280
     0
281
     0
  0
CLASS
  1
VISUALSTYLE
  2
AcDbVisualStyle
  3
ObjectDBX Classes
 90
     4095
 91
        4
280
     0
281
     0
  0
CLASS
  1
MATERIAL
  2
AcDbMaterial
  3
ObjectDBX Classes
 90
     1153
 91
        4
280
     0
281
     0
  0
CLASS
  1
SUN
  2
AcDbSun
  3
SCENEOE
 90
     1024
 91
        4
280
     0
281
     0
  0
ENDSEC
  0
SECTION
  2
TABLES
  0
TABLE
  2
VPORT
  5
8
330
0
100
AcDbSymbolTable
 70
     1
  0
VPORT
  5
29
330
8
100
AcDbSymbolTableRecord
100
AcDbViewportTableRecord
  2
*Active
 70
     0
 10
0.0
 20
0.0
 11
1.0
 21
1.0
 12
0.0
 22
0.0
 13
0.0
 23
0.0
 14
0.5
 24
0.5
 15
0.5
 25
0.5
 16
0.0
 26
0.0
 36
1.0
 17
105.0008280156501
 27
-148.4999710739862
 37
0.0
 40
296.9999421479724
 41
0.7070764206636528
 42
50.0
 43
0.0
 44
0.0
 50
0.0
 51
0.0
 71
     0
 72
   100
 73
     1
 74
     3
 75
     0
 76
     0
 77
     0
 78
     0
281
     0
 65
     1
110
0.0
120
0.0
130
0.0
111
1.0
121
0.0
131
0.0
112
0.0
122
1.0
132
0.0
 79
     0
146
0.0
 60
     3
 61
     5
292
     1
282
     1
141
0.0
142
0.0
 63
   250
361
3F
  0
ENDTAB
  0
TABLE
  2
LTYPE
  5
5
330
0
100
AcDbSymbolTable
 70
     1
  0
LTYPE
  5
14
330
5
100
AcDbSymbolTableRecord
100
AcDbLinetypeTableRecord
  2
ByBlock
 70
     0
  3

 72
    65
 73
     0
 40
0.0
  0
LTYPE
  5
15
330
5
100
AcDbSymbolTableRecord
100
AcDbLinetypeTableRecord
  2
ByLayer
 70
     0
  3

 72
    65
 73
     0
 40
0.0
  0
LTYPE
  5
16
330
5
100
AcDbSymbolTableRecord
100
AcDbLinetypeTableRecord
  2
Continuous
 70
     0
  3
Solid line
 72
    65
 73
     0
 40
0.0
  0
ENDTAB
  0
TABLE
  2
LAYER
  5
2
330
0
100
AcDbSymbolTable
 70
     2
  0
LAYER
  5
10
330
2
100
AcDbSymbolTableRecord
100
AcDbLayerTableRecord
  2
0
 70
     0
 62
     7
  6
Continuous
370
    -3
390
F
347
3E
  0
LAYER
  5
40
330
2
100
AcDbSymbolTableRecord
100
AcDbLayerTableRecord
  2
_U+30EC_U+30A4_U+30E4_U+30FC 1
 70
     0
 62
     7
  6
Continuous
370
    -3
390
F
347
3E
  0
ENDTAB
  0
TABLE
  2
STYLE
  5
3
330
0
100
AcDbSymbolTable
 70
     1
  0
STYLE
  5
11
330
3
100
AcDbSymbolTableRecord
100
AcDbTextStyleTableRecord
  2
Standard
 70
     0
 40
0.0
 41
1.0
 50
0.0
 71
     0
 42
0.2
  3
txt
  4

  0
ENDTAB
  0
TABLE
  2
VIEW
  5
6
330
0
100
AcDbSymbolTable
 70
     0
  0
ENDTAB
  0
TABLE
  2
UCS
  5
7
330
0
100
AcDbSymbolTable
 70
     0
  0
ENDTAB
  0
TABLE
  2
APPID
  5
9
330
0
100
AcDbSymbolTable
 70
     1
  0
APPID
  5
12
330
9
100
AcDbSymbolTableRecord
100
AcDbRegAppTableRecord
  2
ACAD
 70
     0
  0
ENDTAB
  0
TABLE
  2
DIMSTYLE
  5
A
330
0
100
AcDbSymbolTable
 70
     1
100
AcDbDimStyleTable
  0
DIMSTYLE
105
27
330
A
100
AcDbSymbolTableRecord
100
AcDbDimStyleTableRecord
  2
Standard
 70
     0
178
     0
340
11
  0
ENDTAB
  0
TABLE
  2
BLOCK_RECORD
  5
1
330
0
100
AcDbSymbolTable
 70
     6
  0
BLOCK_RECORD
  5
1F
330
1
100
AcDbSymbolTableRecord
100
AcDbBlockTableRecord
  2
*Model_Space
340
22
 70
     0
280
     1
281
     0
  0
BLOCK_RECORD
  5
1B
330
1
100
AcDbSymbolTableRecord
100
AcDbBlockTableRecord
  2
*Paper_Space
340
1E
 70
     0
280
     1
281
     0
  0
BLOCK_RECORD
  5
23
330
1
100
AcDbSymbolTableRecord
100
AcDbBlockTableRecord
  2
*Paper_Space0
340
26
 70
     0
280
     1
281
     0
  0
BLOCK_RECORD
  5
61
330
1
100
AcDbSymbolTableRecord
100
AcDbBlockTableRecord
  2
block 2
340
0
102
{BLKREFS
331
62
102
}
 70
     0
280
     1
281
     0
  0
BLOCK_RECORD
  5
75
330
1
100
AcDbSymbolTableRecord
100
AcDbBlockTableRecord
  2
block 3
340
0
102
{BLKREFS
331
76
102
}
 70
     0
280
     1
281
     0
  0
BLOCK_RECORD
  5
9A
330
1
100
AcDbSymbolTableRecord
100
AcDbBlockTableRecord
  2
block 4
340
0
102
{BLKREFS
331
9B
102
}
 70
     0
280
     1
281
     0
  0
BLOCK_RECORD
  5
AC
330
1
100
AcDbSymbolTableRecord
100
AcDbBlockTableRecord
  2
block 5
340
0
102
{BLKREFS
331
AD
102
}
 70
     0
280
     1
281
     0
  0
BLOCK_RECORD
  5
B8
330
1
100
AcDbSymbolTableRecord
100
AcDbBlockTableRecord
  2
block 6
340
0
102
{BLKREFS
331
B9
102
}
 70
     0
280
     1
281
     0
  0
ENDTAB
  0
ENDSEC
  0
SECTION
  2
BLOCKS
  0
BLOCK
  5
20
330
1F
100
AcDbEntity
  8
0
100
AcDbBlockBegin
  2
*Model_Space
 70
     0
 10
0.0
 20
0.0
 30
0.0
  3
*Model_Space
  1

  0
ENDBLK
  5
21
330
1F
100
AcDbEntity
  8
0
100
AcDbBlockEnd
  0
BLOCK
  5
1C
330
1B
100
AcDbEntity
 67
     1
  8
0
100
AcDbBlockBegin
  2
*Paper_Space
 70
     0
 10
0.0
 20
0.0
 30
0.0
  3
*Paper_Space
  1

  0
ENDBLK
  5
1D
330
1B
100
AcDbEntity
 67
     1
  8
0
100
AcDbBlockEnd
  0
BLOCK
  5
24
330
23
100
AcDbEntity
  8
0
100
AcDbBlockBegin
  2
*Paper_Space0
 70
     0
 10
0.0
 20
0.0
 30
0.0
  3
*Paper_Space0
  1

  0
ENDBLK
  5
25
330
23
100
AcDbEntity
  8
0
100
AcDbBlockEnd
  0
BLOCK
  5
63
330
61
100
AcDbEntity
  8
0
100
AcDbBlockBegin
  2
block 2
 70
     0
 10
0.0
 20
0.0
 30
0.0
  3
block 2
  1

  0
SPLINE
  5
65
330
61
100
AcDbEntity
  8
_U+30EC_U+30A4_U+30E4_U+30FC 1
370
     0
100
AcDbSpline
210
0.0
220
0.0
230
1.0
 70
    11
 71
     3
 72
    44
 73
    40
 74
     0
 42
0.0000000001
 43
0.0000000001
 12
1.0
 22
0.0
 32
0.0
 13
1.0
 23
0.0
 33
0.0
 40
0.0
 40
0.0
 40
0.0
 40
0.0
 40
1.0
 40
1.0
 40
1.0
 40
2.0
 40
2.0
 40
2.0
 40
3.0
 40
3.0
 40
3.0
 40
4.0
 40
4.0
 40
4.0
 40
5.0
 40
5.0
 40
5.0
 40
6.0
 40
6.0
 40
6.0
 40
7.0
 40
7.0
 40
7.0
 40
8.0
 40
8.0
 40
8.0
 40
9.0
 40
9.0
 40
9.0
 40
10.0
 40
10.0
 40
10.0
 40
11.0
 40
11.0
 40
11.0
 40
12.0
 40
12.0
 40
12.0
 40
13.0
 40
13.0
 40
13.0
 40
13.0
 10
102.1849771879954
 20
-136.5659966021432
 30
0.0
 10
101.9672471533276
 20
-136.7248155040132
 30
0.0
 10
101.8742295752259
 20
-136.7988850569461
 30
0.0
 10
101.8253092193353
 20
-136.942545538681
 30
0.0
 10
101.8253092193353
 20
-136.942545538681
 30
0.0
 10
102.6039007990018
 20
-136.942545538681
 30
0.0
 10
102.6039007990018
 20
-136.942545538681
 30
0.0
 10
102.6039007990018
 20
-136.942545538681
 30
0.0
 10
102.6039007990018
 20
-137.1478732296019
 30
0.0
 10
102.6039007990018
 20
-137.1478732296019
 30
0.0
 10
102.6039007990018
 20
-137.1478732296019
 30
0.0
 10
101.5758843062032
 20
-137.1478732296019
 30
0.0
 10
101.5758843062032
 20
-137.1478732296019
 30
0.0
 10
101.6075791846676
 20
-136.790272318233
 30
0.0
 10
101.6730359988873
 20
-136.7120686507178
 30
0.0
 10
102.0581976741382
 20
-136.4137233816952
 30
0.0
 10
102.3141682686923
 20
-136.2149413721963
 30
0.0
 10
102.379625082912
 20
-136.1470729911368
 30
0.0
 10
102.379625082912
 20
-136.0096136812754
 30
0.0
 10
102.379625082912
 20
-135.8911023965828
 30
0.0
 10
102.3076225872703
 20
-135.7601887681433
 30
0.0
 10
102.1109076350626
 20
-135.7601887681433
 30
0.0
 10
101.8508029259262
 20
-135.7601887681433
 30
0.0
 10
101.8425346967616
 20
-135.9906656561065
 30
0.0
 10
101.8380560726308
 20
-136.1071098835079
 30
0.0
 10
101.8380560726308
 20
-136.1071098835079
 30
0.0
 10
101.613780356541
 20
-136.1071098835079
 30
0.0
 10
101.613780356541
 20
-136.1071098835079
 30
0.0
 10
101.6223930952541
 20
-135.9799858601022
 30
0.0
 10
101.6330728912584
 20
-135.8680202568316
 30
0.0
 10
101.7133436160647
 20
-135.749508972139
 30
0.0
 10
101.8232421620442
 20
-135.5886230129778
 30
0.0
 10
102.0096218277962
 20
-135.5548610772224
 30
0.0
 10
102.1257215456491
 20
-135.5548610772224
 30
0.0
 10
102.4030517322117
 20
-135.5548610772224
 30
0.0
 10
102.6104464804238
 20
-135.7388291761347
 30
0.0
 10
102.6104464804238
 20
-136.0116807385665
 30
0.0
 10
102.6104464804238
 20
-136.2404350787871
 30
0.0
 10
102.4940022530223
 20
-136.3396538287623
 30
0.0
 10
102.1849771879954
 20
-136.5659966021432
 30
0.0
  0
HATCH
  5
66
330
61
100
AcDbEntity
  8
_U+30EC_U+30A4_U+30E4_U+30FC 1
 62
     7
420
 16777215
100
AcDbHatch
 10
0.0
 20
0.0
 30
0.0
210
0.0
220
0.0
230
1.0
  2
SOLID
 70
     1
 71
     0
 91
        1
 92
        1
 93
        1
 72
     4
 94
        3
 73
     0
 74
     1
 95
       44
 96
       40
 40
0.0
 40
0.0
 40
0.0
 40
0.0
 40
1.0
 40
1.0
 40
1.0
 40
2.0
 40
2.0
 40
2.0
 40
3.0
 40
3.0
 40
3.0
 40
4.0
 40
4.0
 40
4.0
 40
5.0
 40
5.0
 40
5.0
 40
6.0
 40
6.0
 40
6.0
 40
7.0
 40
7.0
 40
7.0
 40
8.0
 40
8.0
 40
8.0
 40
9.0
 40
9.0
 40
9.0
 40
10.0
 40
10.0
 40
10.0
 40
11.0
 40
11.0
 40
11.0
 40
12.0
 40
12.0
 40
12.0
 40
13.0
 40
13.0
 40
13.0
 40
13.0
 10
102.1849771879954
 20
-136.5659966021432
 10
101.9672471533276
 20
-136.7248155040132
 10
101.8742295752259
 20
-136.7988850569461
 10
101.8253092193353
 20
-136.942545538681
 10
101.8253092193353
 20
-136.942545538681
 10
102.6039007990018
 20
-136.942545538681
 10
102.6039007990018
 20
-136.942545538681
 10
102.6039007990018
 20
-136.942545538681
 10
102.6039007990018
 20
-137.1478732296019
 10
102.6039007990018
 20
-137.1478732296019
 10
102.6039007990018
 20
-137.1478732296019
 10
101.5758843062032
 20
-137.1478732296019
 10
101.5758843062032
 20
-137.1478732296019
 10
101.6075791846676
 20
-136.790272318233
 10
101.6730359988873
 20
-136.7120686507178
 10
102.0581976741382
 20
-136.4137233816952
 10
102.3141682686923
 20
-136.2149413721963
 10
102.379625082912
 20
-136.1470729911368
 10
102.379625082912
 20
-136.0096136812754
 10
102.379625082912
 20
-135.8911023965828
 10
102.3076225872703
 20
-135.7601887681433
 10
102.1109076350626
 20
-135.7601887681433
 10
101.8508029259262
 20
-135.7601887681433
 10
101.8425346967616
 20
-135.9906656561065
 10
101.8380560726308
 20
-136.1071098835079
 10
101.8380560726308
 20
-136.1071098835079
 10
101.613780356541
 20
-136.1071098835079
 10
101.613780356541
 20
-136.1071098835079
 10
101.6223930952541
 20
-135.9799858601022
 10
101.6330728912584
 20
-135.8680202568316
 10
101.7133436160647
 20
-135.749508972139
 10
101.8232421620442
 20
-135.5886230129778
 10
102.0096218277962
 20
-135.5548610772224
 10
102.1257215456491
 20
-135.5548610772224
 10
102.4030517322117
 20
-135.5548610772224
 10
102.6104464804238
 20
-135.7388291761347
 10
102.6104464804238
 20
-136.0116807385665
 10
102.6104464804238
 20
-136.2404350787871
 10
102.4940022530223
 20
-136.3396538287623
 10
102.1849771879954
 20
-136.5659966021432
 97
        0
 97
        0
 75
     2
 76
     1
 98
        0
  0
SPLINE
  5
67
330
61
100
AcDbEntity
  8
_U+30EC_U+30A4_U+30E4_U+30FC 1
370
     0
100
AcDbSpline
210
0.0
220
0.0
230
1.0
 70
    11
 71
     3
 72
    53
 73
    49
 74
     0
 42
0.0000000001
 43
0.0000000001
 12
1.0
 22
0.0
 32
0.0
 13
1.0
 23
0.0
 33
0.0
 40
0.0
 40
0.0
 40
0.0
 40
0.0
 40
1.0
 40
1.0
 40
1.0
 40
2.0
 40
2.0
 40
2.0
 40
3.0
 40
3.0
 40
3.0
 40
4.0
 40
4.0
 40
4.0
 40
5.0
 40
5.0
 40
5.0
 40
6.0
 40
6.0
 40
6.0
 40
7.0
 40
7.0
 40
7.0
 40
8.0
 40
8.0
 40
8.0
 40
9.0
 40
9.0
 40
9.0
 40
10.0
 40
10.0
 40
10.0
 40
11.0
 40
11.0
 40
11.0
 40
12.0
 40
12.0
 40
12.0
 40
13.0
 40
13.0
 40
13.0
 40
14.0
 40
14.0
 40
14.0
 40
15.0
 40
15.0
 40
15.0
 40
16.0
 40
16.0
 40
16.0
 40
16.0
 10
103.2498562024862
 20
-137.1985161332351
 30
0.0
 10
103.171652534971
 20
-137.1985161332351
 30
0.0
 10
103.0700222181561
 20
-137.1816351653574
 30
0.0
 10
102.9683919013412
 20
-137.1182454084288
 30
0.0
 10
102.7951035984332
 20
-137.0083468624493
 30
0.0
 10
102.7737440064246
 20
-136.8770887244613
 30
0.0
 10
102.7547959812558
 20
-136.769257235773
 30
0.0
 10
102.7547959812558
 20
-136.769257235773
 30
0.0
 10
102.9770046400544
 20
-136.769257235773
 30
0.0
 10
102.9770046400544
 20
-136.769257235773
 30
0.0
 10
103.0317816582698
 20
-136.9680392452719
 30
0.0
 10
103.1589056816756
 20
-136.997667066445
 30
0.0
 10
103.2519232597773
 20
-136.997667066445
 30
0.0
 10
103.3914496269299
 20
-136.997667066445
 30
0.0
 10
103.543722847378
 20
-136.8981038069213
 30
0.0
 10
103.543722847378
 20
-136.665559861667
 30
0.0
 10
103.543722847378
 20
-136.4095892671129
 30
0.0
 10
103.3638888630479
 20
-136.3396538287623
 30
0.0
 10
103.2433105210642
 20
-136.3396538287623
 30
0.0
 10
103.2116156425999
 20
-136.3396538287623
 30
0.0
 10
103.0700222181561
 20
-136.3396538287623
 30
0.0
 10
102.9811387546367
 20
-136.4688449094592
 30
0.0
 10
102.9811387546367
 20
-136.4688449094592
 30
0.0
 10
102.8054388848889
 20
-136.4498968842903
 30
0.0
 10
102.8054388848889
 20
-136.4498968842903
 30
0.0
 10
102.8054388848889
 20
-136.4498968842903
 30
0.0
 10
102.9260172268727
 20
-135.6034369235644
 30
0.0
 10
102.9260172268727
 20
-135.6034369235644
 30
0.0
 10
102.9260172268727
 20
-135.6034369235644
 30
0.0
 10
103.7046088065391
 20
-135.6034369235644
 30
0.0
 10
103.7046088065391
 20
-135.6034369235644
 30
0.0
 10
103.7046088065391
 20
-135.6034369235644
 30
0.0
 10
103.7046088065391
 20
-135.798084818481
 30
0.0
 10
103.7046088065391
 20
-135.798084818481
 30
0.0
 10
103.7046088065391
 20
-135.798084818481
 30
0.0
 10
103.088970243325
 20
-135.798084818481
 30
0.0
 10
103.088970243325
 20
-135.798084818481
 30
0.0
 10
103.088970243325
 20
-135.798084818481
 30
0.0
 10
103.0235134291052
 20
-136.2211425440697
 30
0.0
 10
103.0235134291052
 20
-136.2211425440697
 30
0.0
 10
103.0848361287427
 20
-136.1873806083143
 30
0.0
 10
103.1671739108402
 20
-136.1470729911368
 30
0.0
 10
103.2856851955327
 20
-136.1470729911368
 30
0.0
 10
103.5395887327957
 20
-136.1470729911368
 30
0.0
 10
103.7766113021809
 20
-136.3334526568889
 30
0.0
 10
103.7766113021809
 20
-136.6466118364981
 30
0.0
 10
103.7766113021809
 20
-136.9639051306896
 30
0.0
 10
103.5523355860911
 20
-137.1985161332351
 30
0.0
 10
103.2498562024862
 20
-137.1985161332351
 30
0.0
  0
HATCH
  5
68
330
61
100
AcDbEntity
  8
_U+30EC_U+30A4_U+30E4_U+30FC 1
 62
     7
420
 16777215
100
AcDbHatch
 10
0.0
 20
0.0
 30
0.0
210
0.0
220
0.0
230
1.0
  2
SOLID
 70
     1
 71
     0
 91
        1
 92
        1
 93
        1
 72
     4
 94
        3
 73
     0
 74
     1
 95
       53
 96
       49
 40
0.0
 40
0.0
 40
0.0
 40
0.0
 40
1.0
 40
1.0
 40
1.0
 40
2.0
 40
2.0
 40
2.0
 40
3.0
 40
3.0
 40
3.0
 40
4.0
 40
4.0
 40
4.0
 40
5.0
 40
5.0
 40
5.0
 40
6.0
 40
6.0
 40
6.0
 40
7.0
 40
7.0
 40
7.0
 40
8.0
 40
8.0
 40
8.0
 40
9.0
 40
9.0
 40
9.0
 40
10.0
 40
10.0
 40
10.0
 40
11.0
 40
11.0
 40
11.0
 40
12.0
 40
12.0
 40
12.0
 40
13.0
 40
13.0
 40
13.0
 40
14.0
 40
14.0
 40
14.0
 40
15.0
 40
15.0
 40
15.0
 40
16.0
 40
16.0
 40
16.0
 40
16.0
 10
103.2498562024862
 20
-137.1985161332351
 10
103.171652534971
 20
-137.1985161332351
 10
103.0700222181561
 20
-137.1816351653574
 10
102.9683919013412
 20
-137.1182454084288
 10
102.7951035984332
 20
-137.0083468624493
 10
102.7737440064246
 20
-136.8770887244613
 10
102.7547959812558
 20
-136.769257235773
 10
102.7547959812558
 20
-136.769257235773
 10
102.9770046400544
 20
-136.769257235773
 10
102.9770046400544
 20
-136.769257235773
 10
103.0317816582698
 20
-136.9680392452719
 10
103.1589056816756
 20
-136.997667066445
 10
103.2519232597773
 20
-136.997667066445
 10
103.3914496269299
 20
-136.997667066445
 10
103.543722847378
 20
-136.8981038069213
 10
103.543722847378
 20
-136.665559861667
 10
103.543722847378
 20
-136.4095892671129
 10
103.3638888630479
 20
-136.3396538287623
 10
103.2433105210642
 20
-136.3396538287623
 10
103.2116156425999
 20
-136.3396538287623
 10
103.0700222181561
 20
-136.3396538287623
 10
102.9811387546367
 20
-136.4688449094592
 10
102.9811387546367
 20
-136.4688449094592
 10
102.8054388848889
 20
-136.4498968842903
 10
102.8054388848889
 20
-136.4498968842903
 10
102.8054388848889
 20
-136.4498968842903
 10
102.9260172268727
 20
-135.6034369235644
 10
102.9260172268727
 20
-135.6034369235644
 10
102.9260172268727
 20
-135.6034369235644
 10
103.7046088065391
 20
-135.6034369235644
 10
103.7046088065391
 20
-135.6034369235644
 10
103.7046088065391
 20
-135.6034369235644
 10
103.7046088065391
 20
-135.798084818481
 10
103.7046088065391
 20
-135.798084818481
 10
103.7046088065391
 20
-135.798084818481
 10
103.088970243325
 20
-135.798084818481
 10
103.088970243325
 20
-135.798084818481
 10
103.088970243325
 20
-135.798084818481
 10
103.0235134291052
 20
-136.2211425440697
 10
103.0235134291052
 20
-136.2211425440697
 10
103.0848361287427
 20
-136.1873806083143
 10
103.1671739108402
 20
-136.1470729911368
 10
103.2856851955327
 20
-136.1470729911368
 10
103.5395887327957
 20
-136.1470729911368
 10
103.7766113021809
 20
-136.3334526568889
 10
103.7766113021809
 20
-136.6466118364981
 10
103.7766113021809
 20
-136.9639051306896
 10
103.5523355860911
 20
-137.1985161332351
 10
103.2498562024862
 20
-137.1985161332351
 97
        0
 97
        0
 75
     2
 76
     1
 98
        0
  0
ENDBLK
  5
64
330
61
100
AcDbEntity
  8
0
100
AcDbBlockEnd
  0
BLOCK
  5
77
330
75
100
AcDbEntity
  8
0
100
AcDbBlockBegin
  2
block 3
 70
     0
 10
0.0
 20
0.0
 30
0.0
  3
block 3
  1

  0
SPLINE
  5
79
330
75
100
AcDbEntity
  8
_U+30EC_U+30A4_U+30E4_U+30FC 1
370
     0
100
AcDbSpline
210
0.0
220
0.0
230
1.0
 70
    11
 71
     3
 72
    26
 73
    22
 74
     0
 42
0.0000000001
 43
0.0000000001
 12
1.0
 22
0.0
 32
0.0
 13
1.0
 23
0.0
 33
0.0
 40
0.0
 40
0.0
 40
0.0
 40
0.0
 40
1.0
 40
1.0
 40
1.0
 40
2.0
 40
2.0
 40
2.0
 40
3.0
 40
3.0
 40
3.0
 40
4.0
 40
4.0
 40
4.0
 40
5.0
 40
5.0
 40
5.0
 40
6.0
 40
6.0
 40
6.0
 40
7.0
 40
7.0
 40
7.0
 40
7.0
 10
94.54633922332522
 20
-160.1480197082269
 30
0.0
 10
94.54633922332522
 20
-160.1480197082269
 30
0.0
 10
94.54633922332522
 20
-159.0438666052043
 30
0.0
 10
94.54633922332522
 20
-159.0438666052043
 30
0.0
 10
94.54633922332522
 20
-159.0438666052043
 30
0.0
 10
94.2162990758383
 20
-159.0438666052043
 30
0.0
 10
94.2162990758383
 20
-159.0438666052043
 30
0.0
 10
94.2162990758383
 20
-159.0438666052043
 30
0.0
 10
94.2162990758383
 20
-158.8957274993386
 30
0.0
 10
94.2162990758383
 20
-158.8957274993386
 30
0.0
 10
94.54840628061638
 20
-158.880913588752
 30
0.0
 10
94.59491506966725
 20
-158.7179605722997
 30
0.0
 10
94.6245428908404
 20
-158.6035834021894
 30
0.0
 10
94.6245428908404
 20
-158.6035834021894
 30
0.0
 10
94.77044268464073
 20
-158.6035834021894
 30
0.0
 10
94.77044268464073
 20
-158.6035834021894
 30
0.0
 10
94.77044268464073
 20
-158.6035834021894
 30
0.0
 10
94.77044268464073
 20
-160.1480197082269
 30
0.0
 10
94.77044268464073
 20
-160.1480197082269
 30
0.0
 10
94.77044268464073
 20
-160.1480197082269
 30
0.0
 10
94.54633922332522
 20
-160.1480197082269
 30
0.0
 10
94.54633922332522
 20
-160.1480197082269
 30
0.0
  0
HATCH
  5
7A
330
75
100
AcDbEntity
  8
_U+30EC_U+30A4_U+30E4_U+30FC 1
 62
     7
420
 16777215
100
AcDbHatch
 10
0.0
 20
0.0
 30
0.0
210
0.0
220
0.0
230
1.0
  2
SOLID
 70
     1
 71
     0
 91
        1
 92
        1
 93
        1
 72
     4
 94
        3
 73
     0
 74
     1
 95
       26
 96
       22
 40
0.0
 40
0.0
 40
0.0
 40
0.0
 40
1.0
 40
1.0
 40
1.0
 40
2.0
 40
2.0
 40
2.0
 40
3.0
 40
3.0
 40
3.0
 40
4.0
 40
4.0
 40
4.0
 40
5.0
 40
5.0
 40
5.0
 40
6.0
 40
6.0
 40
6.0
 40
7.0
 40
7.0
 40
7.0
 40
7.0
 10
94.54633922332522
 20
-160.1480197082269
 10
94.54633922332522
 20
-160.1480197082269
 10
94.54633922332522
 20
-159.0438666052043
 10
94.54633922332522
 20
-159.0438666052043
 10
94.54633922332522
 20
-159.0438666052043
 10
94.2162990758383
 20
-159.0438666052043
 10
94.2162990758383
 20
-159.0438666052043
 10
94.2162990758383
 20
-159.0438666052043
 10
94.2162990758383
 20
-158.8957274993386
 10
94.2162990758383
 20
-158.8957274993386
 10
94.54840628061638
 20
-158.880913588752
 10
94.59491506966725
 20
-158.7179605722997
 10
94.6245428908404
 20
-158.6035834021894
 10
94.6245428908404
 20
-158.6035834021894
 10
94.77044268464073
 20
-158.6035834021894
 10
94.77044268464073
 20
-158.6035834021894
 10
94.77044268464073
 20
-158.6035834021894
 10
94.77044268464073
 20
-160.1480197082269
 10
94.77044268464073
 20
-160.1480197082269
 10
94.77044268464073
 20
-160.1480197082269
 10
94.54633922332522
 20
-160.1480197082269
 10
94.54633922332522
 20
-160.1480197082269
 97
        0
 97
        0
 75
     2
 76
     1
 98
        0
  0
SPLINE
  5
7B
330
75
100
AcDbEntity
  8
_U+30EC_U+30A4_U+30E4_U+30FC 1
370
     0
100
AcDbSpline
210
0.0
220
0.0
230
1.0
 70
    11
 71
     3
 72
    29
 73
    25
 74
     0
 42
0.0000000001
 43
0.0000000001
 12
1.0
 22
0.0
 32
0.0
 13
1.0
 23
0.0
 33
0.0
 40
0.0
 40
0.0
 40
0.0
 40
0.0
 40
1.0
 40
1.0
 40
1.0
 40
2.0
 40
2.0
 40
2.0
 40
3.0
 40
3.0
 40
3.0
 40
4.0
 40
4.0
 40
4.0
 40
5.0
 40
5.0
 40
5.0
 40
6.0
 40
6.0
 40
6.0
 40
7.0
 40
7.0
 40
7.0
 40
8.0
 40
8.0
 40
8.0
 40
8.0
 10
96.16949596120068
 20
-159.970252781188
 30
0.0
 10
96.06166447251236
 20
-160.1797145866912
 30
0.0
 10
95.88820391483004
 20
-160.1986626118601
 30
0.0
 10
95.7717596874286
 20
-160.1986626118601
 30
0.0
 10
95.61104598304169
 20
-160.1986626118601
 30
0.0
 10
95.46928030382365
 20
-160.1521538228092
 30
0.0
 10
95.3740234136565
 20
-159.970252781188
 30
0.0
 10
95.27049829432474
 20
-159.7756048862714
 30
0.0
 10
95.2513780143816
 20
-159.5389268264347
 30
0.0
 10
95.2513780143816
 20
-159.3759738099824
 30
0.0
 10
95.2513780143816
 20
-159.231968818699
 30
0.0
 10
95.26825898225933
 20
-158.9801323387272
 30
0.0
 10
95.3740234136565
 20
-158.7813503292283
 30
0.0
 10
95.48202715711908
 20
-158.5784342051471
 30
0.0
 10
95.64274086150598
 20
-158.5550075558474
 30
0.0
 10
95.7717596874286
 20
-158.5550075558474
 30
0.0
 10
95.93040633452435
 20
-158.5550075558474
 30
0.0
 10
96.07423907103353
 20
-158.5994492876071
 30
0.0
 10
96.16949596120068
 20
-158.7813503292283
 30
0.0
 10
96.26888696595014
 20
-158.9739311668538
 30
0.0
 10
96.29214136047558
 20
-159.2023409975258
 30
0.0
 10
96.29214136047558
 20
-159.3759738099824
 30
0.0
 10
96.29214136047558
 20
-159.5471950555993
 30
0.0
 10
96.27112627801556
 20
-159.7776719435625
 30
0.0
 10
96.16949596120068
 20
-159.970252781188
 30
0.0
  0
SPLINE
  5
7C
330
75
100
AcDbEntity
  8
_U+30EC_U+30A4_U+30E4_U+30FC 1
370
     0
100
AcDbSpline
210
0.0
220
0.0
230
1.0
 70
    11
 71
     3
 72
    17
 73
    13
 74
     0
 42
0.0000000001
 43
0.0000000001
 12
1.0
 22
0.0
 32
0.0
 13
1.0
 23
0.0
 33
0.0
 40
0.0
 40
0.0
 40
0.0
 40
0.0
 40
1.0
 40
1.0
 40
1.0
 40
2.0
 40
2.0
 40
2.0
 40
3.0
 40
3.0
 40
3.0
 40
4.0
 40
4.0
 40
4.0
 40
4.0
 10
95.7717596874286
 20
-158.7475883934728
 30
0.0
 10
95.52216251952224
 20
-158.7475883934728
 30
0.0
 10
95.47565373047136
 20
-159.0311197519089
 30
0.0
 10
95.47565373047136
 20
-159.3759738099824
 30
0.0
 10
95.47565373047136
 20
-159.6953341614651
 30
0.0
 10
95.51165497829223
 20
-160.0040147169435
 30
0.0
 10
95.7717596874286
 20
-160.0040147169435
 30
0.0
 10
96.01928979804379
 20
-160.0040147169435
 30
0.0
 10
96.06803789916007
 20
-159.722894925347
 30
0.0
 10
96.06803789916007
 20
-159.3759738099824
 30
0.0
 10
96.06803789916007
 20
-159.0562689489512
 30
0.0
 10
96.02996959404807
 20
-158.7475883934728
 30
0.0
 10
95.7717596874286
 20
-158.7475883934728
 30
0.0
  0
HATCH
  5
7D
330
75
100
AcDbEntity
  8
_U+30EC_U+30A4_U+30E4_U+30FC 1
 62
     7
420
 16777215
100
AcDbHatch
 10
0.0
 20
0.0
 30
0.0
210
0.0
220
0.0
230
1.0
  2
SOLID
 70
     1
 71
     0
 91
        2
 92
        1
 93
        1
 72
     4
 94
        3
 73
     0
 74
     1
 95
       29
 96
       25
 40
0.0
 40
0.0
 40
0.0
 40
0.0
 40
1.0
 40
1.0
 40
1.0
 40
2.0
 40
2.0
 40
2.0
 40
3.0
 40
3.0
 40
3.0
 40
4.0
 40
4.0
 40
4.0
 40
5.0
 40
5.0
 40
5.0
 40
6.0
 40
6.0
 40
6.0
 40
7.0
 40
7.0
 40
7.0
 40
8.0
 40
8.0
 40
8.0
 40
8.0
 10
96.16949596120068
 20
-159.970252781188
 10
96.06166447251236
 20
-160.1797145866912
 10
95.88820391483004
 20
-160.1986626118601
 10
95.7717596874286
 20
-160.1986626118601
 10
95.61104598304169
 20
-160.1986626118601
 10
95.46928030382365
 20
-160.1521538228092
 10
95.3740234136565
 20
-159.970252781188
 10
95.27049829432474
 20
-159.7756048862714
 10
95.2513780143816
 20
-159.5389268264347
 10
95.2513780143816
 20
-159.3759738099824
 10
95.2513780143816
 20
-159.231968818699
 10
95.26825898225933
 20
-158.9801323387272
 10
95.3740234136565
 20
-158.7813503292283
 10
95.48202715711908
 20
-158.5784342051471
 10
95.64274086150598
 20
-158.5550075558474
 10
95.7717596874286
 20
-158.5550075558474
 10
95.93040633452435
 20
-158.5550075558474
 10
96.07423907103353
 20
-158.5994492876071
 10
96.16949596120068
 20
-158.7813503292283
 10
96.26888696595014
 20
-158.9739311668538
 10
96.29214136047558
 20
-159.2023409975258
 10
96.29214136047558
 20
-159.3759738099824
 10
96.29214136047558
 20
-159.5471950555993
 10
96.27112627801556
 20
-159.7776719435625
 10
96.16949596120068
 20
-159.970252781188
 97
        0
 97
        0
 92
        1
 93
        1
 72
     4
 94
        3
 73
     0
 74
     1
 95
       17
 96
       13
 40
0.0
 40
0.0
 40
0.0
 40
0.0
 40
1.0
 40
1.0
 40
1.0
 40
2.0
 40
2.0
 40
2.0
 40
3.0
 40
3.0
 40
3.0
 40
4.0
 40
4.0
 40
4.0
 40
4.0
 10
95.7717596874286
 20
-158.7475883934728
 10
95.52216251952224
 20
-158.7475883934728
 10
95.47565373047136
 20
-159.0311197519089
 10
95.47565373047136
 20
-159.3759738099824
 10
95.47565373047136
 20
-159.6953341614651
 10
95.51165497829223
 20
-160.0040147169435
 10
95.7717596874286
 20
-160.0040147169435
 10
96.01928979804379
 20
-160.0040147169435
 10
96.06803789916007
 20
-159.722894925347
 10
96.06803789916007
 20
-159.3759738099824
 10
96.06803789916007
 20
-159.0562689489512
 10
96.02996959404807
 20
-158.7475883934728
 10
95.7717596874286
 20
-158.7475883934728
 97
        0
 97
        0
 75
     2
 76
     1
 98
        0
  0
ENDBLK
  5
78
330
75
100
AcDbEntity
  8
0
100
AcDbBlockEnd
  0
BLOCK
  5
9C
330
9A
100
AcDbEntity
  8
0
100
AcDbBlockBegin
  2
block 4
 70
     0
 10
0.0
 20
0.0
 30
0.0
  3
block 4
  1

  0
SPLINE
  5
9E
330
9A
100
AcDbEntity
  8
_U+30EC_U+30A4_U+30E4_U+30FC 1
370
     0
100
AcDbSpline
210
0.0
220
0.0
230
1.0
 70
    11
 71
     3
 72
    26
 73
    22
 74
     0
 42
0.0000000001
 43
0.0000000001
 12
1.0
 22
0.0
 32
0.0
 13
1.0
 23
0.0
 33
0.0
 40
0.0
 40
0.0
 40
0.0
 40
0.0
 40
1.0
 40
1.0
 40
1.0
 40
2.0
 40
2.0
 40
2.0
 40
3.0
 40
3.0
 40
3.0
 40
4.0
 40
4.0
 40
4.0
 40
5.0
 40
5.0
 40
5.0
 40
6.0
 40
6.0
 40
6.0
 40
7.0
 40
7.0
 40
7.0
 40
7.0
 10
118.5843207168817
 20
-140.7049343181224
 30
0.0
 10
118.5843207168817
 20
-140.7049343181224
 30
0.0
 10
117.4801676138591
 20
-140.7049343181224
 30
0.0
 10
117.4801676138591
 20
-140.7049343181224
 30
0.0
 10
117.4801676138591
 20
-140.7049343181224
 30
0.0
 10
117.4801676138591
 20
-141.0349744656093
 30
0.0
 10
117.4801676138591
 20
-141.0349744656093
 30
0.0
 10
117.4801676138591
 20
-141.0349744656093
 30
0.0
 10
117.3320285079934
 20
-141.0349744656093
 30
0.0
 10
117.3320285079934
 20
-141.0349744656093
 30
0.0
 10
117.3172145974068
 20
-140.7028672608312
 30
0.0
 10
117.1542615809545
 20
-140.6563584717804
 30
0.0
 10
117.0398844108442
 20
-140.6267306506072
 30
0.0
 10
117.0398844108442
 20
-140.6267306506072
 30
0.0
 10
117.0398844108442
 20
-140.4806586020326
 30
0.0
 10
117.0398844108442
 20
-140.4806586020326
 30
0.0
 10
117.0398844108442
 20
-140.4806586020326
 30
0.0
 10
118.5843207168817
 20
-140.4806586020326
 30
0.0
 10
118.5843207168817
 20
-140.4806586020326
 30
0.0
 10
118.5843207168817
 20
-140.4806586020326
 30
0.0
 10
118.5843207168817
 20
-140.7049343181224
 30
0.0
 10
118.5843207168817
 20
-140.7049343181224
 30
0.0
  0
HATCH
  5
9F
330
9A
100
AcDbEntity
  8
_U+30EC_U+30A4_U+30E4_U+30FC 1
 62
     7
420
 16777215
100
AcDbHatch
 10
0.0
 20
0.0
 30
0.0
210
0.0
220
0.0
230
1.0
  2
SOLID
 70
     1
 71
     0
 91
        1
 92
        1
 93
        1
 72
     4
 94
        3
 73
     0
 74
     1
 95
       26
 96
       22
 40
0.0
 40
0.0
 40
0.0
 40
0.0
 40
1.0
 40
1.0
 40
1.0
 40
2.0
 40
2.0
 40
2.0
 40
3.0
 40
3.0
 40
3.0
 40
4.0
 40
4.0
 40
4.0
 40
5.0
 40
5.0
 40
5.0
 40
6.0
 40
6.0
 40
6.0
 40
7.0
 40
7.0
 40
7.0
 40
7.0
 10
118.5843207168817
 20
-140.7049343181224
 10
118.5843207168817
 20
-140.7049343181224
 10
117.4801676138591
 20
-140.7049343181224
 10
117.4801676138591
 20
-140.7049343181224
 10
117.4801676138591
 20
-140.7049343181224
 10
117.4801676138591
 20
-141.0349744656093
 10
117.4801676138591
 20
-141.0349744656093
 10
117.4801676138591
 20
-141.0349744656093
 10
117.3320285079934
 20
-141.0349744656093
 10
117.3320285079934
 20
-141.0349744656093
 10
117.3172145974068
 20
-140.7028672608312
 10
117.1542615809545
 20
-140.6563584717804
 10
117.0398844108442
 20
-140.6267306506072
 10
117.0398844108442
 20
-140.6267306506072
 10
117.0398844108442
 20
-140.4806586020326
 10
117.0398844108442
 20
-140.4806586020326
 10
117.0398844108442
 20
-140.4806586020326
 10
118.5843207168817
 20
-140.4806586020326
 10
118.5843207168817
 20
-140.4806586020326
 10
118.5843207168817
 20
-140.4806586020326
 10
118.5843207168817
 20
-140.7049343181224
 10
118.5843207168817
 20
-140.7049343181224
 97
        0
 97
        0
 75
     2
 76
     1
 98
        0
  0
ENDBLK
  5
9D
330
9A
100
AcDbEntity
  8
0
100
AcDbBlockEnd
  0
BLOCK
  5
AE
330
AC
100
AcDbEntity
  8
0
100
AcDbBlockBegin
  2
block 5
 70
     0
 10
0.0
 20
0.0
 30
0.0
  3
block 5
  1

  0
SPLINE
  5
B0
330
AC
100
AcDbEntity
  8
_U+30EC_U+30A4_U+30E4_U+30FC 1
370
     0
100
AcDbSpline
210
0.0
220
0.0
230
1.0
 70
    11
 71
     3
 72
    26
 73
    22
 74
     0
 42
0.0000000001
 43
0.0000000001
 12
1.0
 22
0.0
 32
0.0
 13
1.0
 23
0.0
 33
0.0
 40
0.0
 40
0.0
 40
0.0
 40
0.0
 40
1.0
 40
1.0
 40
1.0
 40
2.0
 40
2.0
 40
2.0
 40
3.0
 40
3.0
 40
3.0
 40
4.0
 40
4.0
 40
4.0
 40
5.0
 40
5.0
 40
5.0
 40
6.0
 40
6.0
 40
6.0
 40
7.0
 40
7.0
 40
7.0
 40
7.0
 10
118.5846652264302
 20
-149.8819796717309
 30
0.0
 10
118.5846652264302
 20
-149.8819796717309
 30
0.0
 10
117.4805121234076
 20
-149.8819796717309
 30
0.0
 10
117.4805121234076
 20
-149.8819796717309
 30
0.0
 10
117.4805121234076
 20
-149.8819796717309
 30
0.0
 10
117.4805121234076
 20
-150.2120198192178
 30
0.0
 10
117.4805121234076
 20
-150.2120198192178
 30
0.0
 10
117.4805121234076
 20
-150.2120198192178
 30
0.0
 10
117.3323730175419
 20
-150.2120198192178
 30
0.0
 10
117.3323730175419
 20
-150.2120198192178
 30
0.0
 10
117.3175591069553
 20
-149.8799126144397
 30
0.0
 10
117.154606090503
 20
-149.8334038253889
 30
0.0
 10
117.0402289203927
 20
-149.8037760042157
 30
0.0
 10
117.0402289203927
 20
-149.8037760042157
 30
0.0
 10
117.0402289203927
 20
-149.6577039556411
 30
0.0
 10
117.0402289203927
 20
-149.6577039556411
 30
0.0
 10
117.0402289203927
 20
-149.6577039556411
 30
0.0
 10
118.5846652264302
 20
-149.6577039556411
 30
0.0
 10
118.5846652264302
 20
-149.6577039556411
 30
0.0
 10
118.5846652264302
 20
-149.6577039556411
 30
0.0
 10
118.5846652264302
 20
-149.8819796717309
 30
0.0
 10
118.5846652264302
 20
-149.8819796717309
 30
0.0
  0
HATCH
  5
B1
330
AC
100
AcDbEntity
  8
_U+30EC_U+30A4_U+30E4_U+30FC 1
 62
     7
420
 16777215
100
AcDbHatch
 10
0.0
 20
0.0
 30
0.0
210
0.0
220
0.0
230
1.0
  2
SOLID
 70
     1
 71
     0
 91
        1
 92
        1
 93
        1
 72
     4
 94
        3
 73
     0
 74
     1
 95
       26
 96
       22
 40
0.0
 40
0.0
 40
0.0
 40
0.0
 40
1.0
 40
1.0
 40
1.0
 40
2.0
 40
2.0
 40
2.0
 40
3.0
 40
3.0
 40
3.0
 40
4.0
 40
4.0
 40
4.0
 40
5.0
 40
5.0
 40
5.0
 40
6.0
 40
6.0
 40
6.0
 40
7.0
 40
7.0
 40
7.0
 40
7.0
 10
118.5846652264302
 20
-149.8819796717309
 10
118.5846652264302
 20
-149.8819796717309
 10
117.4805121234076
 20
-149.8819796717309
 10
117.4805121234076
 20
-149.8819796717309
 10
117.4805121234076
 20
-149.8819796717309
 10
117.4805121234076
 20
-150.2120198192178
 10
117.4805121234076
 20
-150.2120198192178
 10
117.4805121234076
 20
-150.2120198192178
 10
117.3323730175419
 20
-150.2120198192178
 10
117.3323730175419
 20
-150.2120198192178
 10
117.3175591069553
 20
-149.8799126144397
 10
117.154606090503
 20
-149.8334038253889
 10
117.0402289203927
 20
-149.8037760042157
 10
117.0402289203927
 20
-149.8037760042157
 10
117.0402289203927
 20
-149.6577039556411
 10
117.0402289203927
 20
-149.6577039556411
 10
117.0402289203927
 20
-149.6577039556411
 10
118.5846652264302
 20
-149.6577039556411
 10
118.5846652264302
 20
-149.6577039556411
 10
118.5846652264302
 20
-149.6577039556411
 10
118.5846652264302
 20
-149.8819796717309
 10
118.5846652264302
 20
-149.8819796717309
 97
        0
 97
        0
 75
     2
 76
     1
 98
        0
  0
SPLINE
  5
B2
330
AC
100
AcDbEntity
  8
_U+30EC_U+30A4_U+30E4_U+30FC 1
370
     0
100
AcDbSpline
210
0.0
220
0.0
230
1.0
 70
    11
 71
     3
 72
    62
 73
    58
 74
     0
 42
0.0000000001
 43
0.0000000001
 12
1.0
 22
0.0
 32
0.0
 13
1.0
 23
0.0
 33
0.0
 40
0.0
 40
0.0
 40
0.0
 40
0.0
 40
1.0
 40
1.0
 40
1.0
 40
2.0
 40
2.0
 40
2.0
 40
3.0
 40
3.0
 40
3.0
 40
4.0
 40
4.0
 40
4.0
 40
5.0
 40
5.0
 40
5.0
 40
6.0
 40
6.0
 40
6.0
 40
7.0
 40
7.0
 40
7.0
 40
8.0
 40
8.0
 40
8.0
 40
9.0
 40
9.0
 40
9.0
 40
10.0
 40
10.0
 40
10.0
 40
11.0
 40
11.0
 40
11.0
 40
12.0
 40
12.0
 40
12.0
 40
13.0
 40
13.0
 40
13.0
 40
14.0
 40
14.0
 40
14.0
 40
15.0
 40
15.0
 40
15.0
 40
16.0
 40
16.0
 40
16.0
 40
17.0
 40
17.0
 40
17.0
 40
18.0
 40
18.0
 40
18.0
 40
19.0
 40
19.0
 40
19.0
 40
19.0
 10
118.6353081300634
 20
-148.6648274367921
 30
0.0
 10
118.6353081300634
 20
-148.7602565817336
 30
0.0
 10
118.6142930476034
 20
-148.9779866164014
 30
0.0
 10
118.4282578913999
 20
-149.1030435825159
 30
0.0
 10
118.3159477785807
 20
-149.1767686259003
 30
0.0
 10
118.2167290286055
 20
-149.1812472500311
 30
0.0
 10
118.1319796796684
 20
-149.1853813646134
 30
0.0
 10
118.1319796796684
 20
-149.1853813646134
 30
0.0
 10
118.1319796796684
 20
-148.9652397631059
 30
0.0
 10
118.1319796796684
 20
-148.9652397631059
 30
0.0
 10
118.2060492326013
 20
-148.9631727058148
 30
0.0
 10
118.4406602351468
 20
-148.952837419359
 30
0.0
 10
118.4406602351468
 20
-148.669306060923
 30
0.0
 10
118.4406602351468
 20
-148.5318467510615
 30
0.0
 10
118.3710693063447
 20
-148.3792290210649
 30
0.0
 10
118.1426594756727
 20
-148.3792290210649
 30
0.0
 10
118.0262152482712
 20
-148.3792290210649
 30
0.0
 10
117.9776394019292
 20
-148.4174695809512
 30
0.0
 10
117.9459445234649
 20
-148.4491644594155
 30
0.0
 10
117.871874970532
 20
-148.5232340123484
 30
0.0
 10
117.8591281172366
 20
-148.6396782397498
 30
0.0
 10
117.8591281172366
 20
-148.6944552579653
 30
0.0
 10
117.8591281172366
 20
-148.7137477926827
 30
0.0
 10
117.8611951745278
 20
-148.7495767857293
 30
0.0
 10
117.8653292891101
 20
-148.7771375496113
 30
0.0
 10
117.8653292891101
 20
-148.7771375496113
 30
0.0
 10
117.6706813941935
 20
-148.7771375496113
 30
0.0
 10
117.6706813941935
 20
-148.7771375496113
 30
0.0
 10
117.6772270756154
 20
-148.738896989725
 30
0.0
 10
117.6792941329066
 20
-148.6968668248049
 30
0.0
 10
117.6792941329066
 20
-148.690321143383
 30
0.0
 10
117.6792941329066
 20
-148.6248643291632
 30
0.0
 10
117.657934540898
 20
-148.4260823196643
 30
0.0
 10
117.4212564810614
 20
-148.4260823196643
 30
0.0
 10
117.2434895540225
 20
-148.4260823196643
 30
0.0
 10
117.1883680262585
 20
-148.5569959481038
 30
0.0
 10
117.1883680262585
 20
-148.6672390036318
 30
0.0
 10
117.1883680262585
 20
-148.9314778273505
 30
0.0
 10
117.4212564810614
 20
-148.9400905660636
 30
0.0
 10
117.4929144671545
 20
-148.9442246806459
 30
0.0
 10
117.4929144671545
 20
-148.9442246806459
 30
0.0
 10
117.4929144671545
 20
-149.1474853142756
 30
0.0
 10
117.4929144671545
 20
-149.1474853142756
 30
0.0
 10
117.3682020105885
 20
-149.1388725755625
 30
0.0
 10
116.9916530740507
 20
-149.1113118116805
 30
0.0
 10
116.9916530740507
 20
-148.6544921503364
 30
0.0
 10
116.9916530740507
 20
-148.4302164342466
 30
0.0
 10
117.1187770974564
 20
-148.1890597502791
 30
0.0
 10
117.4147107996394
 20
-148.1890597502791
 30
0.0
 10
117.6010904653914
 20
-148.1890597502791
 30
0.0
 10
117.6834282474889
 20
-148.284144385672
 30
0.0
 10
117.7447509471263
 20
-148.3837076451958
 30
0.0
 10
117.7723117110083
 20
-148.3223849455583
 30
0.0
 10
117.8525824358146
 20
-148.1404839039371
 30
0.0
 10
118.1299126223772
 20
-148.1404839039371
 30
0.0
 10
118.4682209990288
 20
-148.1404839039371
 30
0.0
 10
118.6353081300634
 20
-148.387841759778
 30
0.0
 10
118.6353081300634
 20
-148.6648274367921
 30
0.0
  0
HATCH
  5
B3
330
AC
100
AcDbEntity
  8
_U+30EC_U+30A4_U+30E4_U+30FC 1
 62
     7
420
 16777215
100
AcDbHatch
 10
0.0
 20
0.0
 30
0.0
210
0.0
220
0.0
230
1.0
  2
SOLID
 70
     1
 71
     0
 91
        1
 92
        1
 93
        1
 72
     4
 94
        3
 73
     0
 74
     1
 95
       62
 96
       58
 40
0.0
 40
0.0
 40
0.0
 40
0.0
 40
1.0
 40
1.0
 40
1.0
 40
2.0
 40
2.0
 40
2.0
 40
3.0
 40
3.0
 40
3.0
 40
4.0
 40
4.0
 40
4.0
 40
5.0
 40
5.0
 40
5.0
 40
6.0
 40
6.0
 40
6.0
 40
7.0
 40
7.0
 40
7.0
 40
8.0
 40
8.0
 40
8.0
 40
9.0
 40
9.0
 40
9.0
 40
10.0
 40
10.0
 40
10.0
 40
11.0
 40
11.0
 40
11.0
 40
12.0
 40
12.0
 40
12.0
 40
13.0
 40
13.0
 40
13.0
 40
14.0
 40
14.0
 40
14.0
 40
15.0
 40
15.0
 40
15.0
 40
16.0
 40
16.0
 40
16.0
 40
17.0
 40
17.0
 40
17.0
 40
18.0
 40
18.0
 40
18.0
 40
19.0
 40
19.0
 40
19.0
 40
19.0
 10
118.6353081300634
 20
-148.6648274367921
 10
118.6353081300634
 20
-148.7602565817336
 10
118.6142930476034
 20
-148.9779866164014
 10
118.4282578913999
 20
-149.1030435825159
 10
118.3159477785807
 20
-149.1767686259003
 10
118.2167290286055
 20
-149.1812472500311
 10
118.1319796796684
 20
-149.1853813646134
 10
118.1319796796684
 20
-149.1853813646134
 10
118.1319796796684
 20
-148.9652397631059
 10
118.1319796796684
 20
-148.9652397631059
 10
118.2060492326013
 20
-148.9631727058148
 10
118.4406602351468
 20
-148.952837419359
 10
118.4406602351468
 20
-148.669306060923
 10
118.4406602351468
 20
-148.5318467510615
 10
118.3710693063447
 20
-148.3792290210649
 10
118.1426594756727
 20
-148.3792290210649
 10
118.0262152482712
 20
-148.3792290210649
 10
117.9776394019292
 20
-148.4174695809512
 10
117.9459445234649
 20
-148.4491644594155
 10
117.871874970532
 20
-148.5232340123484
 10
117.8591281172366
 20
-148.6396782397498
 10
117.8591281172366
 20
-148.6944552579653
 10
117.8591281172366
 20
-148.7137477926827
 10
117.8611951745278
 20
-148.7495767857293
 10
117.8653292891101
 20
-148.7771375496113
 10
117.8653292891101
 20
-148.7771375496113
 10
117.6706813941935
 20
-148.7771375496113
 10
117.6706813941935
 20
-148.7771375496113
 10
117.6772270756154
 20
-148.738896989725
 10
117.6792941329066
 20
-148.6968668248049
 10
117.6792941329066
 20
-148.690321143383
 10
117.6792941329066
 20
-148.6248643291632
 10
117.657934540898
 20
-148.4260823196643
 10
117.4212564810614
 20
-148.4260823196643
 10
117.2434895540225
 20
-148.4260823196643
 10
117.1883680262585
 20
-148.5569959481038
 10
117.1883680262585
 20
-148.6672390036318
 10
117.1883680262585
 20
-148.9314778273505
 10
117.4212564810614
 20
-148.9400905660636
 10
117.4929144671545
 20
-148.9442246806459
 10
117.4929144671545
 20
-148.9442246806459
 10
117.4929144671545
 20
-149.1474853142756
 10
117.4929144671545
 20
-149.1474853142756
 10
117.3682020105885
 20
-149.1388725755625
 10
116.9916530740507
 20
-149.1113118116805
 10
116.9916530740507
 20
-148.6544921503364
 10
116.9916530740507
 20
-148.4302164342466
 10
117.1187770974564
 20
-148.1890597502791
 10
117.4147107996394
 20
-148.1890597502791
 10
117.6010904653914
 20
-148.1890597502791
 10
117.6834282474889
 20
-148.284144385672
 10
117.7447509471263
 20
-148.3837076451958
 10
117.7723117110083
 20
-148.3223849455583
 10
117.8525824358146
 20
-148.1404839039371
 10
118.1299126223772
 20
-148.1404839039371
 10
118.4682209990288
 20
-148.1404839039371
 10
118.6353081300634
 20
-148.387841759778
 10
118.6353081300634
 20
-148.6648274367921
 97
        0
 97
        0
 75
     2
 76
     1
 98
        0
  0
ENDBLK
  5
AF
330
AC
100
AcDbEntity
  8
0
100
AcDbBlockEnd
  0
BLOCK
  5
BA
330
B8
100
AcDbEntity
  8
0
100
AcDbBlockBegin
  2
block 6
 70
     0
 10
0.0
 20
0.0
 30
0.0
  3
block 6
  1

  0
SPLINE
  5
BC
330
B8
100
AcDbEntity
  8
_U+30EC_U+30A4_U+30E4_U+30FC 1
370
     0
100
AcDbSpline
210
0.0
220
0.0
230
1.0
 70
    11
 71
     3
 72
    29
 73
    25
 74
     0
 42
0.0000000001
 43
0.0000000001
 12
1.0
 22
0.0
 32
0.0
 13
1.0
 23
0.0
 33
0.0
 40
0.0
 40
0.0
 40
0.0
 40
0.0
 40
1.0
 40
1.0
 40
1.0
 40
2.0
 40
2.0
 40
2.0
 40
3.0
 40
3.0
 40
3.0
 40
4.0
 40
4.0
 40
4.0
 40
5.0
 40
5.0
 40
5.0
 40
6.0
 40
6.0
 40
6.0
 40
7.0
 40
7.0
 40
7.0
 40
8.0
 40
8.0
 40
8.0
 40
8.0
 10
103.4119479450672
 20
-153.5982041716699
 30
0.0
 10
103.6214097505704
 20
-153.7063801699067
 30
0.0
 10
103.6403577757392
 20
-153.8796684728148
 30
0.0
 10
103.6403577757392
 20
-153.9961127002163
 30
0.0
 10
103.6403577757392
 20
-154.1569986593774
 30
0.0
 10
103.5938489866883
 20
-154.2985920838212
 30
0.0
 10
103.4119479450672
 20
-154.3936767192141
 30
0.0
 10
103.2173000501505
 20
-154.4973740933201
 30
0.0
 10
102.9806219903139
 20
-154.5166666280375
 30
0.0
 10
102.8176689738616
 20
-154.5166666280375
 30
0.0
 10
102.6736639825781
 20
-154.5166666280375
 30
0.0
 10
102.4218275026063
 20
-154.4994411506113
 30
0.0
 10
102.2230454931074
 20
-154.3936767192141
 30
0.0
 10
102.0201293690262
 20
-154.2858452305258
 30
0.0
 10
101.9967027197265
 20
-154.1249592713646
 30
0.0
 10
101.9967027197265
 20
-153.9961127002163
 30
0.0
 10
101.9967027197265
 20
-153.8372937983463
 30
0.0
 10
102.0411444514862
 20
-153.6936333166113
 30
0.0
 10
102.2230454931074
 20
-153.5982041716699
 30
0.0
 10
102.4156263307329
 20
-153.4989854216947
 30
0.0
 10
102.644036161405
 20
-153.475558772395
 30
0.0
 10
102.8176689738616
 20
-153.475558772395
 30
0.0
 10
102.9888902194785
 20
-153.475558772395
 30
0.0
 10
103.2193671074417
 20
-153.4969183644035
 30
0.0
 10
103.4119479450672
 20
-153.5982041716699
 30
0.0
  0
SPLINE
  5
BD
330
B8
100
AcDbEntity
  8
_U+30EC_U+30A4_U+30E4_U+30FC 1
370
     0
100
AcDbSpline
210
0.0
220
0.0
230
1.0
 70
    11
 71
     3
 72
    17
 73
    13
 74
     0
 42
0.0000000001
 43
0.0000000001
 12
1.0
 22
0.0
 32
0.0
 13
1.0
 23
0.0
 33
0.0
 40
0.0
 40
0.0
 40
0.0
 40
0.0
 40
1.0
 40
1.0
 40
1.0
 40
2.0
 40
2.0
 40
2.0
 40
3.0
 40
3.0
 40
3.0
 40
4.0
 40
4.0
 40
4.0
 40
4.0
 10
102.189283557352
 20
-153.9961127002163
 30
0.0
 10
102.189283557352
 20
-154.2458821228969
 30
0.0
 10
102.472814915788
 20
-154.2923909119477
 30
0.0
 10
102.8176689738616
 20
-154.2923909119477
 30
0.0
 10
103.1370293253442
 20
-154.2923909119477
 30
0.0
 10
103.4457098808226
 20
-154.2562174093526
 30
0.0
 10
103.4457098808226
 20
-153.9961127002163
 30
0.0
 10
103.4457098808226
 20
-153.7484103348268
 30
0.0
 10
103.1645900892262
 20
-153.6998344884848
 30
0.0
 10
102.8176689738616
 20
-153.6998344884848
 30
0.0
 10
102.4979641128304
 20
-153.6998344884848
 30
0.0
 10
102.189283557352
 20
-153.738075048371
 30
0.0
 10
102.189283557352
 20
-153.9961127002163
 30
0.0
  0
HATCH
  5
BE
330
B8
100
AcDbEntity
  8
_U+30EC_U+30A4_U+30E4_U+30FC 1
 62
     7
420
 16777215
100
AcDbHatch
 10
0.0
 20
0.0
 30
0.0
210
0.0
220
0.0
230
1.0
  2
SOLID
 70
     1
 71
     0
 91
        2
 92
        1
 93
        1
 72
     4
 94
        3
 73
     0
 74
     1
 95
       29
 96
       25
 40
0.0
 40
0.0
 40
0.0
 40
0.0
 40
1.0
 40
1.0
 40
1.0
 40
2.0
 40
2.0
 40
2.0
 40
3.0
 40
3.0
 40
3.0
 40
4.0
 40
4.0
 40
4.0
 40
5.0
 40
5.0
 40
5.0
 40
6.0
 40
6.0
 40
6.0
 40
7.0
 40
7.0
 40
7.0
 40
8.0
 40
8.0
 40
8.0
 40
8.0
 10
103.4119479450672
 20
-153.5982041716699
 10
103.6214097505704
 20
-153.7063801699067
 10
103.6403577757392
 20
-153.8796684728148
 10
103.6403577757392
 20
-153.9961127002163
 10
103.6403577757392
 20
-154.1569986593774
 10
103.5938489866883
 20
-154.2985920838212
 10
103.4119479450672
 20
-154.3936767192141
 10
103.2173000501505
 20
-154.4973740933201
 10
102.9806219903139
 20
-154.5166666280375
 10
102.8176689738616
 20
-154.5166666280375
 10
102.6736639825781
 20
-154.5166666280375
 10
102.4218275026063
 20
-154.4994411506113
 10
102.2230454931074
 20
-154.3936767192141
 10
102.0201293690262
 20
-154.2858452305258
 10
101.9967027197265
 20
-154.1249592713646
 10
101.9967027197265
 20
-153.9961127002163
 10
101.9967027197265
 20
-153.8372937983463
 10
102.0411444514862
 20
-153.6936333166113
 10
102.2230454931074
 20
-153.5982041716699
 10
102.4156263307329
 20
-153.4989854216947
 10
102.644036161405
 20
-153.475558772395
 10
102.8176689738616
 20
-153.475558772395
 10
102.9888902194785
 20
-153.475558772395
 10
103.2193671074417
 20
-153.4969183644035
 10
103.4119479450672
 20
-153.5982041716699
 97
        0
 97
        0
 92
        1
 93
        1
 72
     4
 94
        3
 73
     0
 74
     1
 95
       17
 96
       13
 40
0.0
 40
0.0
 40
0.0
 40
0.0
 40
1.0
 40
1.0
 40
1.0
 40
2.0
 40
2.0
 40
2.0
 40
3.0
 40
3.0
 40
3.0
 40
4.0
 40
4.0
 40
4.0
 40
4.0
 10
102.189283557352
 20
-153.9961127002163
 10
102.189283557352
 20
-154.2458821228969
 10
102.472814915788
 20
-154.2923909119477
 10
102.8176689738616
 20
-154.2923909119477
 10
103.1370293253442
 20
-154.2923909119477
 10
103.4457098808226
 20
-154.2562174093526
 10
103.4457098808226
 20
-153.9961127002163
 10
103.4457098808226
 20
-153.7484103348268
 10
103.1645900892262
 20
-153.6998344884848
 10
102.8176689738616
 20
-153.6998344884848
 10
102.4979641128304
 20
-153.6998344884848
 10
102.189283557352
 20
-153.738075048371
 10
102.189283557352
 20
-153.9961127002163
 97
        0
 97
        0
 75
     2
 76
     1
 98
        0
  0
POLYLINE
  5
BF
330
B8
100
AcDbEntity
  8
_U+30EC_U+30A4_U+30E4_U+30FC 1
370
     0
100
AcDb2dPolyline
 66
     1
 10
0.0
 20
0.0
 30
0.0
  0
VERTEX
  5
C0
330
BF
100
AcDbEntity
  8
_U+30EC_U+30A4_U+30E4_U+30FC 1
370
     0
100
AcDbVertex
100
AcDb2dVertex
 10
103.589714872106
 20
-153.2592067759213
 30
0.0
  0
VERTEX
  5
C1
330
BF
100
AcDbEntity
  8
_U+30EC_U+30A4_U+30E4_U+30FC 1
370
     0
100
AcDbVertex
100
AcDb2dVertex
 10
103.3378783921343
 20
-153.2592067759213
 30
0.0
  0
VERTEX
  5
C2
330
BF
100
AcDbEntity
  8
_U+30EC_U+30A4_U+30E4_U+30FC 1
370
     0
100
AcDbVertex
100
AcDb2dVertex
 10
103.3378783921343
 20
-153.0073702959496
 30
0.0
  0
VERTEX
  5
C3
330
BF
100
AcDbEntity
  8
_U+30EC_U+30A4_U+30E4_U+30FC 1
370
     0
100
AcDbVertex
100
AcDb2dVertex
 10
103.589714872106
 20
-153.0073702959496
 30
0.0
  0
VERTEX
  5
C4
330
BF
100
AcDbEntity
  8
_U+30EC_U+30A4_U+30E4_U+30FC 1
370
     0
100
AcDbVertex
100
AcDb2dVertex
 10
103.589714872106
 20
-153.2592067759213
 30
0.0
  0
SEQEND
  5
C5
330
BF
100
AcDbEntity
  8
_U+30EC_U+30A4_U+30E4_U+30FC 1
370
     0
  0
HATCH
  5
C6
330
B8
100
AcDbEntity
  8
_U+30EC_U+30A4_U+30E4_U+30FC 1
 62
     7
420
 16777215
100
AcDbHatch
 10
0.0
 20
0.0
 30
0.0
210
0.0
220
0.0
230
1.0
  2
SOLID
 70
     1
 71
     0
 91
        1
 92
        1
 93
        4
 72
     1
 10
103.589714872106
 20
-153.2592067759213
 11
103.3378783921343
 21
-153.2592067759213
 72
     1
 10
103.3378783921343
 20
-153.2592067759213
 11
103.3378783921343
 21
-153.0073702959496
 72
     1
 10
103.3378783921343
 20
-153.0073702959496
 11
103.589714872106
 21
-153.0073702959496
 72
     1
 10
103.589714872106
 20
-153.0073702959496
 11
103.589714872106
 21
-153.2592067759213
 97
        0
 75
     2
 76
     1
 98
        0
  0
SPLINE
  5
C7
330
B8
100
AcDbEntity
  8
_U+30EC_U+30A4_U+30E4_U+30FC 1
370
     0
100
AcDbSpline
210
0.0
220
0.0
230
1.0
 70
    11
 71
     3
 72
    53
 73
    49
 74
     0
 42
0.0000000001
 43
0.0000000001
 12
1.0
 22
0.0
 32
0.0
 13
1.0
 23
0.0
 33
0.0
 40
0.0
 40
0.0
 40
0.0
 40
0.0
 40
1.0
 40
1.0
 40
1.0
 40
2.0
 40
2.0
 40
2.0
 40
3.0
 40
3.0
 40
3.0
 40
4.0
 40
4.0
 40
4.0
 40
5.0
 40
5.0
 40
5.0
 40
6.0
 40
6.0
 40
6.0
 40
7.0
 40
7.0
 40
7.0
 40
8.0
 40
8.0
 40
8.0
 40
9.0
 40
9.0
 40
9.0
 40
10.0
 40
10.0
 40
10.0
 40
11.0
 40
11.0
 40
11.0
 40
12.0
 40
12.0
 40
12.0
 40
13.0
 40
13.0
 40
13.0
 40
14.0
 40
14.0
 40
14.0
 40
15.0
 40
15.0
 40
15.0
 40
16.0
 40
16.0
 40
16.0
 40
16.0
 10
103.6403577757392
 20
-152.2901014159205
 30
0.0
 10
103.6403577757392
 20
-152.3683050834357
 30
0.0
 10
103.6234768078615
 20
-152.4699354002506
 30
0.0
 10
103.5600870509329
 20
-152.5715657170655
 30
0.0
 10
103.4501885049534
 20
-152.7448540199735
 30
0.0
 10
103.3189303669654
 20
-152.7662136119821
 30
0.0
 10
103.2110988782771
 20
-152.7851616371509
 30
0.0
 10
103.2110988782771
 20
-152.7851616371509
 30
0.0
 10
103.2110988782771
 20
-152.5629529783523
 30
0.0
 10
103.2110988782771
 20
-152.5629529783523
 30
0.0
 10
103.409880887776
 20
-152.5081759601368
 30
0.0
 10
103.4395087089491
 20
-152.3810519367311
 30
0.0
 10
103.4395087089491
 20
-152.2880343586294
 30
0.0
 10
103.4395087089491
 20
-152.1485079914768
 30
0.0
 10
103.3399454494254
 20
-151.9962347710287
 30
0.0
 10
103.1074015041711
 20
-151.9962347710287
 30
0.0
 10
102.851430909617
 20
-151.9962347710287
 30
0.0
 10
102.7814954712664
 20
-152.1760687553588
 30
0.0
 10
102.7814954712664
 20
-152.2966470973425
 30
0.0
 10
102.7814954712664
 20
-152.3283419758068
 30
0.0
 10
102.7814954712664
 20
-152.4699354002506
 30
0.0
 10
102.9106865519633
 20
-152.55881886377
 30
0.0
 10
102.9106865519633
 20
-152.55881886377
 30
0.0
 10
102.8917385267944
 20
-152.7345187335178
 30
0.0
 10
102.8917385267944
 20
-152.7345187335178
 30
0.0
 10
102.8917385267944
 20
-152.7345187335178
 30
0.0
 10
102.0452785660685
 20
-152.613940391534
 30
0.0
 10
102.0452785660685
 20
-152.613940391534
 30
0.0
 10
102.0452785660685
 20
-152.613940391534
 30
0.0
 10
102.0452785660685
 20
-151.8353488118676
 30
0.0
 10
102.0452785660685
 20
-151.8353488118676
 30
0.0
 10
102.0452785660685
 20
-151.8353488118676
 30
0.0
 10
102.2399264609852
 20
-151.8353488118676
 30
0.0
 10
102.2399264609852
 20
-151.8353488118676
 30
0.0
 10
102.2399264609852
 20
-151.8353488118676
 30
0.0
 10
102.2399264609852
 20
-152.4509873750817
 30
0.0
 10
102.2399264609852
 20
-152.4509873750817
 30
0.0
 10
102.2399264609852
 20
-152.4509873750817
 30
0.0
 10
102.6629841865738
 20
-152.5164441893014
 30
0.0
 10
102.6629841865738
 20
-152.5164441893014
 30
0.0
 10
102.6292222508184
 20
-152.455121489664
 30
0.0
 10
102.588914633641
 20
-152.3727837075665
 30
0.0
 10
102.588914633641
 20
-152.254272422874
 30
0.0
 10
102.588914633641
 20
-152.000368885611
 30
0.0
 10
102.775294299393
 20
-151.7633463162258
 30
0.0
 10
103.0884534790022
 20
-151.7633463162258
 30
0.0
 10
103.4057467731937
 20
-151.7633463162258
 30
0.0
 10
103.6403577757392
 20
-151.9876220323156
 30
0.0
 10
103.6403577757392
 20
-152.2901014159205
 30
0.0
  0
HATCH
  5
C8
330
B8
100
AcDbEntity
  8
_U+30EC_U+30A4_U+30E4_U+30FC 1
 62
     7
420
 16777215
100
AcDbHatch
 10
0.0
 20
0.0
 30
0.0
210
0.0
220
0.0
230
1.0
  2
SOLID
 70
     1
 71
     0
 91
        1
 92
        1
 93
        1
 72
     4
 94
        3
 73
     0
 74
     1
 95
       53
 96
       49
 40
0.0
 40
0.0
 40
0.0
 40
0.0
 40
1.0
 40
1.0
 40
1.0
 40
2.0
 40
2.0
 40
2.0
 40
3.0
 40
3.0
 40
3.0
 40
4.0
 40
4.0
 40
4.0
 40
5.0
 40
5.0
 40
5.0
 40
6.0
 40
6.0
 40
6.0
 40
7.0
 40
7.0
 40
7.0
 40
8.0
 40
8.0
 40
8.0
 40
9.0
 40
9.0
 40
9.0
 40
10.0
 40
10.0
 40
10.0
 40
11.0
 40
11.0
 40
11.0
 40
12.0
 40
12.0
 40
12.0
 40
13.0
 40
13.0
 40
13.0
 40
14.0
 40
14.0
 40
14.0
 40
15.0
 40
15.0
 40
15.0
 40
16.0
 40
16.0
 40
16.0
 40
16.0
 10
103.6403577757392
 20
-152.2901014159205
 10
103.6403577757392
 20
-152.3683050834357
 10
103.6234768078615
 20
-152.4699354002506
 10
103.5600870509329
 20
-152.5715657170655
 10
103.4501885049534
 20
-152.7448540199735
 10
103.3189303669654
 20
-152.7662136119821
 10
103.2110988782771
 20
-152.7851616371509
 10
103.2110988782771
 20
-152.7851616371509
 10
103.2110988782771
 20
-152.5629529783523
 10
103.2110988782771
 20
-152.5629529783523
 10
103.409880887776
 20
-152.5081759601368
 10
103.4395087089491
 20
-152.3810519367311
 10
103.4395087089491
 20
-152.2880343586294
 10
103.4395087089491
 20
-152.1485079914768
 10
103.3399454494254
 20
-151.9962347710287
 10
103.1074015041711
 20
-151.9962347710287
 10
102.851430909617
 20
-151.9962347710287
 10
102.7814954712664
 20
-152.1760687553588
 10
102.7814954712664
 20
-152.2966470973425
 10
102.7814954712664
 20
-152.3283419758068
 10
102.7814954712664
 20
-152.4699354002506
 10
102.9106865519633
 20
-152.55881886377
 10
102.9106865519633
 20
-152.55881886377
 10
102.8917385267944
 20
-152.7345187335178
 10
102.8917385267944
 20
-152.7345187335178
 10
102.8917385267944
 20
-152.7345187335178
 10
102.0452785660685
 20
-152.613940391534
 10
102.0452785660685
 20
-152.613940391534
 10
102.0452785660685
 20
-152.613940391534
 10
102.0452785660685
 20
-151.8353488118676
 10
102.0452785660685
 20
-151.8353488118676
 10
102.0452785660685
 20
-151.8353488118676
 10
102.2399264609852
 20
-151.8353488118676
 10
102.2399264609852
 20
-151.8353488118676
 10
102.2399264609852
 20
-151.8353488118676
 10
102.2399264609852
 20
-152.4509873750817
 10
102.2399264609852
 20
-152.4509873750817
 10
102.2399264609852
 20
-152.4509873750817
 10
102.6629841865738
 20
-152.5164441893014
 10
102.6629841865738
 20
-152.5164441893014
 10
102.6292222508184
 20
-152.455121489664
 10
102.588914633641
 20
-152.3727837075665
 10
102.588914633641
 20
-152.254272422874
 10
102.588914633641
 20
-152.000368885611
 10
102.775294299393
 20
-151.7633463162258
 10
103.0884534790022
 20
-151.7633463162258
 10
103.4057467731937
 20
-151.7633463162258
 10
103.6403577757392
 20
-151.9876220323156
 10
103.6403577757392
 20
-152.2901014159205
 97
        0
 97
        0
 75
     2
 76
     1
 98
        0
  0
ENDBLK
  5
BB
330
B8
100
AcDbEntity
  8
0
100
AcDbBlockEnd
  0
ENDSEC
  0
SECTION
  2
ENTITIES
  0
POLYLINE
  5
41
330
1F
100
AcDbEntity
  8
_U+30EC_U+30A4_U+30E4_U+30FC 1
 62
     7
420
 16777215
370
    25
100
AcDb2dPolyline
 66
     1
 10
0.0
 20
0.0
 30
0.0
  0
VERTEX
  5
42
330
41
100
AcDbEntity
  8
_U+30EC_U+30A4_U+30E4_U+30FC 1
 62
     7
420
 16777215
370
    25
100
AcDbVertex
100
AcDb2dVertex
 10
115.1805656726101
 20
-141.7446646867861
 30
0.0
  0
VERTEX
  5
43
330
41
100
AcDbEntity
  8
_U+30EC_U+30A4_U+30E4_U+30FC 1
 62
     7
420
 16777215
370
    25
100
AcDbVertex
100
AcDb2dVertex
 10
90.18036936597377
 20
-141.7446646867861
 30
0.0
  0
VERTEX
  5
44
330
41
100
AcDbEntity
  8
_U+30EC_U+30A4_U+30E4_U+30FC 1
 62
     7
420
 16777215
370
    25
100
AcDbVertex
100
AcDb2dVertex
 10
90.18036936597377
 20
-156.7442819052585
 30
0.0
  0
VERTEX
  5
45
330
41
100
AcDbEntity
  8
_U+30EC_U+30A4_U+30E4_U+30FC 1
 62
     7
420
 16777215
370
    25
100
AcDbVertex
100
AcDb2dVertex
 10
100.1859582773766
 20
-156.2443957942719
 30
0.0
  0
VERTEX
  5
46
330
41
100
AcDbEntity
  8
_U+30EC_U+30A4_U+30E4_U+30FC 1
 62
     7
420
 16777215
370
    25
100
AcDbVertex
100
AcDb2dVertex
 10
100.1859582773766
 20
-155.744509683286
 30
0.0
  0
VERTEX
  5
47
330
41
100
AcDbEntity
  8
_U+30EC_U+30A4_U+30E4_U+30FC 1
 62
     7
420
 16777215
370
    25
100
AcDbVertex
100
AcDb2dVertex
 10
91.18049434045845
 20
-155.744509683286
 30
0.0
  0
VERTEX
  5
48
330
41
100
AcDbEntity
  8
_U+30EC_U+30A4_U+30E4_U+30FC 1
 62
     7
420
 16777215
370
    25
100
AcDbVertex
100
AcDb2dVertex
 10
91.18049434045845
 20
-142.7444369087583
 30
0.0
  0
VERTEX
  5
49
330
41
100
AcDbEntity
  8
_U+30EC_U+30A4_U+30E4_U+30FC 1
 62
     7
420
 16777215
370
    25
100
AcDbVertex
100
AcDb2dVertex
 10
115.1805656726101
 20
-142.7444369087583
 30
0.0
  0
VERTEX
  5
4A
330
41
100
AcDbEntity
  8
_U+30EC_U+30A4_U+30E4_U+30FC 1
 62
     7
420
 16777215
370
    25
100
AcDbVertex
100
AcDb2dVertex
 10
115.1805656726101
 20
-141.7446646867861
 30
0.0
  0
SEQEND
  5
4B
330
41
100
AcDbEntity
  8
_U+30EC_U+30A4_U+30E4_U+30FC 1
 62
     7
420
 16777215
370
    25
  0
SPLINE
  5
4C
330
1F
100
AcDbEntity
  8
_U+30EC_U+30A4_U+30E4_U+30FC 1
 62
     7
420
 16777215
370
     9
100
AcDbSpline
210
0.0
220
0.0
230
1.0
 70
    11
 71
     3
 72
    17
 73
    13
 74
     0
 42
0.0000000001
 43
0.0000000001
 12
1.0
 22
0.0
 32
0.0
 13
1.0
 23
0.0
 33
0.0
 40
0.0
 40
0.0
 40
0.0
 40
0.0
 40
1.0
 40
1.0
 40
1.0
 40
2.0
 40
2.0
 40
2.0
 40
3.0
 40
3.0
 40
3.0
 40
4.0
 40
4.0
 40
4.0
 40
4.0
 10
90.28027603009161
 20
-137.7442352433418
 30
0.0
 10
90.28027603009161
 20
-137.6890960766888
 30
0.0
 10
90.23547325345685
 20
-137.6443285766999
 30
0.0
 10
90.18036936597377
 20
-137.6443285766999
 30
0.0
 10
90.12523020071382
 20
-137.6443285766999
 30
0.0
 10
90.08046270185594
 20
-137.6890960766888
 30
0.0
 10
90.08046270185594
 20
-137.7442352433418
 30
0.0
 10
90.08046270185594
 20
-137.7996919099945
 30
0.0
 10
90.12523020071382
 20
-137.8444594099834
 30
0.0
 10
90.18036936597377
 20
-137.8444594099834
 30
0.0
 10
90.23547325345685
 20
-137.8444594099834
 30
0.0
 10
90.28027603009161
 20
-137.7996919099945
 30
0.0
 10
90.28027603009161
 20
-137.7442352433418
 30
0.0
  0
SPLINE
  5
4D
330
1F
100
AcDbEntity
  8
_U+30EC_U+30A4_U+30E4_U+30FC 1
 62
     7
420
 16777215
370
     9
100
AcDbSpline
210
0.0
220
0.0
230
1.0
 70
    11
 71
     3
 72
    17
 73
    13
 74
     0
 42
0.0000000001
 43
0.0000000001
 12
1.0
 22
0.0
 32
0.0
 13
1.0
 23
0.0
 33
0.0
 40
0.0
 40
0.0
 40
0.0
 40
0.0
 40
1.0
 40
1.0
 40
1.0
 40
2.0
 40
2.0
 40
2.0
 40
3.0
 40
3.0
 40
3.0
 40
4.0
 40
4.0
 40
4.0
 40
4.0
 10
115.2804723367279
 20
-137.7442352433418
 30
0.0
 10
115.2804723367279
 20
-137.6890960766888
 30
0.0
 10
115.2356695600931
 20
-137.6443285766999
 30
0.0
 10
115.1805656726101
 20
-137.6443285766999
 30
0.0
 10
115.1254265073501
 20
-137.6443285766999
 30
0.0
 10
115.0806590084922
 20
-137.6890960766888
 30
0.0
 10
115.0806590084922
 20
-137.7442352433418
 30
0.0
 10
115.0806590084922
 20
-137.7996919099945
 30
0.0
 10
115.1254265073501
 20
-137.8444594099834
 30
0.0
 10
115.1805656726101
 20
-137.8444594099834
 30
0.0
 10
115.2356695600931
 20
-137.8444594099834
 30
0.0
 10
115.2804723367279
 20
-137.7996919099945
 30
0.0
 10
115.2804723367279
 20
-137.7442352433418
 30
0.0
  0
SPLINE
  5
4E
330
1F
100
AcDbEntity
  8
_U+30EC_U+30A4_U+30E4_U+30FC 1
 62
     7
420
 16777215
370
     9
100
AcDbSpline
210
0.0
220
0.0
230
1.0
 70
    11
 71
     3
 72
    17
 73
    13
 74
     0
 42
0.0000000001
 43
0.0000000001
 12
1.0
 22
0.0
 32
0.0
 13
1.0
 23
0.0
 33
0.0
 40
0.0
 40
0.0
 40
0.0
 40
0.0
 40
1.0
 40
1.0
 40
1.0
 40
2.0
 40
2.0
 40
2.0
 40
3.0
 40
3.0
 40
3.0
 40
4.0
 40
4.0
 40
4.0
 40
4.0
 10
119.2802314013522
 20
-141.7446646867861
 30
0.0
 10
119.2802314013522
 20
-141.6892080201334
 30
0.0
 10
119.2354286247175
 20
-141.6444052423667
 30
0.0
 10
119.180327747983
 20
-141.6444052423667
 30
0.0
 10
119.1251855719744
 20
-141.6444052423667
 30
0.0
 10
119.0804180731165
 20
-141.6892080201334
 30
0.0
 10
119.0804180731165
 20
-141.7446646867861
 30
0.0
 10
119.0804180731165
 20
-141.7997685756613
 30
0.0
 10
119.1251855719744
 20
-141.8445713534277
 30
0.0
 10
119.180327747983
 20
-141.8445713534277
 30
0.0
 10
119.2354286247175
 20
-141.8445713534277
 30
0.0
 10
119.2802314013522
 20
-141.7997685756613
 30
0.0
 10
119.2802314013522
 20
-141.7446646867861
 30
0.0
  0
SPLINE
  5
4F
330
1F
100
AcDbEntity
  8
_U+30EC_U+30A4_U+30E4_U+30FC 1
 62
     7
420
 16777215
370
     9
100
AcDbSpline
210
0.0
220
0.0
230
1.0
 70
    11
 71
     3
 72
    17
 73
    13
 74
     0
 42
0.0000000001
 43
0.0000000001
 12
1.0
 22
0.0
 32
0.0
 13
1.0
 23
0.0
 33
0.0
 40
0.0
 40
0.0
 40
0.0
 40
0.0
 40
1.0
 40
1.0
 40
1.0
 40
2.0
 40
2.0
 40
2.0
 40
3.0
 40
3.0
 40
3.0
 40
4.0
 40
4.0
 40
4.0
 40
4.0
 10
119.2802314013522
 20
-142.7444369087583
 30
0.0
 10
119.2802314013522
 20
-142.6892977421055
 30
0.0
 10
119.2354286247175
 20
-142.6445302421167
 30
0.0
 10
119.180327747983
 20
-142.6445302421167
 30
0.0
 10
119.1251855719744
 20
-142.6445302421167
 30
0.0
 10
119.0804180731165
 20
-142.6892977421055
 30
0.0
 10
119.0804180731165
 20
-142.7444369087583
 30
0.0
 10
119.0804180731165
 20
-142.7995407976335
 30
0.0
 10
119.1251855719744
 20
-142.8443435753999
 30
0.0
 10
119.180327747983
 20
-142.8443435753999
 30
0.0
 10
119.2354286247175
 20
-142.8443435753999
 30
0.0
 10
119.2802314013522
 20
-142.7995407976335
 30
0.0
 10
119.2802314013522
 20
-142.7444369087583
 30
0.0
  0
SPLINE
  5
50
330
1F
100
AcDbEntity
  8
_U+30EC_U+30A4_U+30E4_U+30FC 1
 62
     7
420
 16777215
370
     9
100
AcDbSpline
210
0.0
220
0.0
230
1.0
 70
    11
 71
     3
 72
    17
 73
    13
 74
     0
 42
0.0000000001
 43
0.0000000001
 12
1.0
 22
0.0
 32
0.0
 13
1.0
 23
0.0
 33
0.0
 40
0.0
 40
0.0
 40
0.0
 40
0.0
 40
1.0
 40
1.0
 40
1.0
 40
2.0
 40
2.0
 40
2.0
 40
3.0
 40
3.0
 40
3.0
 40
4.0
 40
4.0
 40
4.0
 40
4.0
 10
119.2802314013522
 20
-155.744509683286
 30
0.0
 10
119.2802314013522
 20
-155.6890177388558
 30
0.0
 10
119.2354286247175
 20
-155.6442502388666
 30
0.0
 10
119.180327747983
 20
-155.6442502388666
 30
0.0
 10
119.1251855719744
 20
-155.6442502388666
 30
0.0
 10
119.0804180731165
 20
-155.6890177388558
 30
0.0
 10
119.0804180731165
 20
-155.744509683286
 30
0.0
 10
119.0804180731165
 20
-155.7996135721609
 30
0.0
 10
119.1251855719744
 20
-155.8444163499276
 30
0.0
 10
119.180327747983
 20
-155.8444163499276
 30
0.0
 10
119.2354286247175
 20
-155.8444163499276
 30
0.0
 10
119.2802314013522
 20
-155.7996135721609
 30
0.0
 10
119.2802314013522
 20
-155.744509683286
 30
0.0
  0
SPLINE
  5
51
330
1F
100
AcDbEntity
  8
_U+30EC_U+30A4_U+30E4_U+30FC 1
 62
     7
420
 16777215
370
     9
100
AcDbSpline
210
0.0
220
0.0
230
1.0
 70
    11
 71
     3
 72
    17
 73
    13
 74
     0
 42
0.0000000001
 43
0.0000000001
 12
1.0
 22
0.0
 32
0.0
 13
1.0
 23
0.0
 33
0.0
 40
0.0
 40
0.0
 40
0.0
 40
0.0
 40
1.0
 40
1.0
 40
1.0
 40
2.0
 40
2.0
 40
2.0
 40
3.0
 40
3.0
 40
3.0
 40
4.0
 40
4.0
 40
4.0
 40
4.0
 10
104.2859767838875
 20
-155.744509683286
 30
0.0
 10
104.2859767838875
 20
-155.6890177388558
 30
0.0
 10
104.2411740072528
 20
-155.6442502388666
 30
0.0
 10
104.1860701197697
 20
-155.6442502388666
 30
0.0
 10
104.1309309545097
 20
-155.6442502388666
 30
0.0
 10
104.0861634556519
 20
-155.6890177388558
 30
0.0
 10
104.0861634556519
 20
-155.744509683286
 30
0.0
 10
104.0861634556519
 20
-155.7996135721609
 30
0.0
 10
104.1309309545097
 20
-155.8444163499276
 30
0.0
 10
104.1860701197697
 20
-155.8444163499276
 30
0.0
 10
104.2411740072528
 20
-155.8444163499276
 30
0.0
 10
104.2859767838875
 20
-155.7996135721609
 30
0.0
 10
104.2859767838875
 20
-155.744509683286
 30
0.0
  0
SPLINE
  5
52
330
1F
100
AcDbEntity
  8
_U+30EC_U+30A4_U+30E4_U+30FC 1
 62
     7
420
 16777215
370
     9
100
AcDbSpline
210
0.0
220
0.0
230
1.0
 70
    11
 71
     3
 72
    17
 73
    13
 74
     0
 42
0.0000000001
 43
0.0000000001
 12
1.0
 22
0.0
 32
0.0
 13
1.0
 23
0.0
 33
0.0
 40
0.0
 40
0.0
 40
0.0
 40
0.0
 40
1.0
 40
1.0
 40
1.0
 40
2.0
 40
2.0
 40
2.0
 40
3.0
 40
3.0
 40
3.0
 40
4.0
 40
4.0
 40
4.0
 40
4.0
 10
104.2859767838875
 20
-156.2443957942719
 30
0.0
 10
104.2859767838875
 20
-156.1892566276195
 30
0.0
 10
104.2411740072528
 20
-156.1444891276303
 30
0.0
 10
104.1860701197697
 20
-156.1444891276303
 30
0.0
 10
104.1309309545097
 20
-156.1444891276303
 30
0.0
 10
104.0861634556519
 20
-156.1892566276195
 30
0.0
 10
104.0861634556519
 20
-156.2443957942719
 30
0.0
 10
104.0861634556519
 20
-156.2994996831475
 30
0.0
 10
104.1309309545097
 20
-156.3443024609142
 30
0.0
 10
104.1860701197697
 20
-156.3443024609142
 30
0.0
 10
104.2411740072528
 20
-156.3443024609142
 30
0.0
 10
104.2859767838875
 20
-156.2994996831475
 30
0.0
 10
104.2859767838875
 20
-156.2443957942719
 30
0.0
  0
SPLINE
  5
53
330
1F
100
AcDbEntity
  8
_U+30EC_U+30A4_U+30E4_U+30FC 1
 62
     7
420
 16777215
370
     9
100
AcDbSpline
210
0.0
220
0.0
230
1.0
 70
    11
 71
     3
 72
    17
 73
    13
 74
     0
 42
0.0000000001
 43
0.0000000001
 12
1.0
 22
0.0
 32
0.0
 13
1.0
 23
0.0
 33
0.0
 40
0.0
 40
0.0
 40
0.0
 40
0.0
 40
1.0
 40
1.0
 40
1.0
 40
2.0
 40
2.0
 40
2.0
 40
3.0
 40
3.0
 40
3.0
 40
4.0
 40
4.0
 40
4.0
 40
4.0
 10
100.286570497032
 20
-160.744358570925
 30
0.0
 10
100.286570497032
 20
-160.6892546820501
 30
0.0
 10
100.2417677203972
 20
-160.6444519042834
 30
0.0
 10
100.1859582773766
 20
-160.6444519042834
 30
0.0
 10
100.1308191121167
 20
-160.6444519042834
 30
0.0
 10
100.0860516132588
 20
-160.6892546820501
 30
0.0
 10
100.0860516132588
 20
-160.744358570925
 30
0.0
 10
100.0860516132588
 20
-160.7994977375781
 30
0.0
 10
100.1308191121167
 20
-160.8442652375666
 30
0.0
 10
100.1859582773766
 20
-160.8442652375666
 30
0.0
 10
100.2417677203972
 20
-160.8442652375666
 30
0.0
 10
100.286570497032
 20
-160.7994977375781
 30
0.0
 10
100.286570497032
 20
-160.744358570925
 30
0.0
  0
SPLINE
  5
54
330
1F
100
AcDbEntity
  8
_U+30EC_U+30A4_U+30E4_U+30FC 1
 62
     7
420
 16777215
370
     9
100
AcDbSpline
210
0.0
220
0.0
230
1.0
 70
    11
 71
     3
 72
    17
 73
    13
 74
     0
 42
0.0000000001
 43
0.0000000001
 12
1.0
 22
0.0
 32
0.0
 13
1.0
 23
0.0
 33
0.0
 40
0.0
 40
0.0
 40
0.0
 40
0.0
 40
1.0
 40
1.0
 40
1.0
 40
2.0
 40
2.0
 40
2.0
 40
3.0
 40
3.0
 40
3.0
 40
4.0
 40
4.0
 40
4.0
 40
4.0
 10
90.28027603009161
 20
-160.744358570925
 30
0.0
 10
90.28027603009161
 20
-160.6892546820501
 30
0.0
 10
90.23547325345685
 20
-160.6444519042834
 30
0.0
 10
90.18036936597377
 20
-160.6444519042834
 30
0.0
 10
90.12523020071382
 20
-160.6444519042834
 30
0.0
 10
90.08046270185594
 20
-160.6892546820501
 30
0.0
 10
90.08046270185594
 20
-160.744358570925
 30
0.0
 10
90.08046270185594
 20
-160.7994977375781
 30
0.0
 10
90.12523020071382
 20
-160.8442652375666
 30
0.0
 10
90.18036936597377
 20
-160.8442652375666
 30
0.0
 10
90.23547325345685
 20
-160.8442652375666
 30
0.0
 10
90.28027603009161
 20
-160.7994977375781
 30
0.0
 10
90.28027603009161
 20
-160.744358570925
 30
0.0
  0
POLYLINE
  5
55
330
1F
100
AcDbEntity
  8
_U+30EC_U+30A4_U+30E4_U+30FC 1
 62
     7
420
 16777215
370
     9
100
AcDb2dPolyline
 66
     1
 10
0.0
 20
0.0
 30
0.0
  0
VERTEX
  5
56
330
55
100
AcDbEntity
  8
_U+30EC_U+30A4_U+30E4_U+30FC 1
 62
     7
420
 16777215
370
     9
100
AcDbVertex
100
AcDb2dVertex
 10
90.18036936597377
 20
-137.7442352433418
 30
0.0
  0
VERTEX
  5
57
330
55
100
AcDbEntity
  8
_U+30EC_U+30A4_U+30E4_U+30FC 1
 62
     7
420
 16777215
370
     9
100
AcDbVertex
100
AcDb2dVertex
 10
115.1805656726101
 20
-137.7442352433418
 30
0.0
  0
SEQEND
  5
58
330
55
100
AcDbEntity
  8
_U+30EC_U+30A4_U+30E4_U+30FC 1
 62
     7
420
 16777215
370
     9
  0
POLYLINE
  5
59
330
1F
100
AcDbEntity
  8
_U+30EC_U+30A4_U+30E4_U+30FC 1
 62
     7
420
 16777215
370
     9
100
AcDb2dPolyline
 66
     1
 10
0.0
 20
0.0
 30
0.0
  0
VERTEX
  5
5A
330
59
100
AcDbEntity
  8
_U+30EC_U+30A4_U+30E4_U+30FC 1
 62
     7
420
 16777215
370
     9
100
AcDbVertex
100
AcDb2dVertex
 10
90.18036936597377
 20
-139.2042413540877
 30
0.0
  0
VERTEX
  5
5B
330
59
100
AcDbEntity
  8
_U+30EC_U+30A4_U+30E4_U+30FC 1
 62
     7
420
 16777215
370
     9
100
AcDbVertex
100
AcDb2dVertex
 10
90.18036936597377
 20
-136.7444630213696
 30
0.0
  0
SEQEND
  5
5C
330
59
100
AcDbEntity
  8
_U+30EC_U+30A4_U+30E4_U+30FC 1
 62
     7
420
 16777215
370
     9
  0
POLYLINE
  5
5D
330
1F
100
AcDbEntity
  8
_U+30EC_U+30A4_U+30E4_U+30FC 1
 62
     7
420
 16777215
370
     9
100
AcDb2dPolyline
 66
     1
 10
0.0
 20
0.0
 30
0.0
  0
VERTEX
  5
5E
330
5D
100
AcDbEntity
  8
_U+30EC_U+30A4_U+30E4_U+30FC 1
 62
     7
420
 16777215
370
     9
100
AcDbVertex
100
AcDb2dVertex
 10
115.1805656726101
 20
-139.2042413540877
 30
0.0
  0
VERTEX
  5
5F
330
5D
100
AcDbEntity
  8
_U+30EC_U+30A4_U+30E4_U+30FC 1
 62
     7
420
 16777215
370
     9
100
AcDbVertex
100
AcDb2dVertex
 10
115.1805656726101
 20
-136.7444630213696
 30
0.0
  0
SEQEND
  5
60
330
5D
100
AcDbEntity
  8
_U+30EC_U+30A4_U+30E4_U+30FC 1
 62
     7
420
 16777215
370
     9
  0
INSERT
  5
62
330
1F
100
AcDbEntity
  8
_U+30EC_U+30A4_U+30E4_U+30FC 1
100
AcDbBlockReference
  2
block 2
 10
0.0
 20
0.0
 30
0.0
  0
POLYLINE
  5
69
330
1F
100
AcDbEntity
  8
_U+30EC_U+30A4_U+30E4_U+30FC 1
 62
     7
420
 16777215
370
     9
100
AcDb2dPolyline
 66
     1
 10
0.0
 20
0.0
 30
0.0
  0
VERTEX
  5
6A
330
69
100
AcDbEntity
  8
_U+30EC_U+30A4_U+30E4_U+30FC 1
 62
     7
420
 16777215
370
     9
100
AcDbVertex
100
AcDb2dVertex
 10
90.18036936597377
 20
-160.744358570925
 30
0.0
  0
VERTEX
  5
6B
330
69
100
AcDbEntity
  8
_U+30EC_U+30A4_U+30E4_U+30FC 1
 62
     7
420
 16777215
370
     9
100
AcDbVertex
100
AcDb2dVertex
 10
100.1859582773766
 20
-160.744358570925
 30
0.0
  0
SEQEND
  5
6C
330
69
100
AcDbEntity
  8
_U+30EC_U+30A4_U+30E4_U+30FC 1
 62
     7
420
 16777215
370
     9
  0
POLYLINE
  5
6D
330
1F
100
AcDbEntity
  8
_U+30EC_U+30A4_U+30E4_U+30FC 1
 62
     7
420
 16777215
370
     9
100
AcDb2dPolyline
 66
     1
 10
0.0
 20
0.0
 30
0.0
  0
VERTEX
  5
6E
330
6D
100
AcDbEntity
  8
_U+30EC_U+30A4_U+30E4_U+30FC 1
 62
     7
420
 16777215
370
     9
100
AcDbVertex
100
AcDb2dVertex
 10
90.18036936597377
 20
-159.2843171824013
 30
0.0
  0
VERTEX
  5
6F
330
6D
100
AcDbEntity
  8
_U+30EC_U+30A4_U+30E4_U+30FC 1
 62
     7
420
 16777215
370
     9
100
AcDbVertex
100
AcDb2dVertex
 10
90.18036936597377
 20
-161.7444835706753
 30
0.0
  0
SEQEND
  5
70
330
6D
100
AcDbEntity
  8
_U+30EC_U+30A4_U+30E4_U+30FC 1
 62
     7
420
 16777215
370
     9
  0
POLYLINE
  5
71
330
1F
100
AcDbEntity
  8
_U+30EC_U+30A4_U+30E4_U+30FC 1
 62
     7
420
 16777215
370
     9
100
AcDb2dPolyline
 66
     1
 10
0.0
 20
0.0
 30
0.0
  0
VERTEX
  5
72
330
71
100
AcDbEntity
  8
_U+30EC_U+30A4_U+30E4_U+30FC 1
 62
     7
420
 16777215
370
     9
100
AcDbVertex
100
AcDb2dVertex
 10
100.1859582773766
 20
-158.7844663491929
 30
0.0
  0
VERTEX
  5
73
330
71
100
AcDbEntity
  8
_U+30EC_U+30A4_U+30E4_U+30FC 1
 62
     7
420
 16777215
370
     9
100
AcDbVertex
100
AcDb2dVertex
 10
100.1859582773766
 20
-161.7444835706753
 30
0.0
  0
SEQEND
  5
74
330
71
100
AcDbEntity
  8
_U+30EC_U+30A4_U+30E4_U+30FC 1
 62
     7
420
 16777215
370
     9
  0
INSERT
  5
76
330
1F
100
AcDbEntity
  8
_U+30EC_U+30A4_U+30E4_U+30FC 1
100
AcDbBlockReference
  2
block 3
 10
0.0
 20
0.0
 30
0.0
  0
POLYLINE
  5
7E
330
1F
100
AcDbEntity
  8
_U+30EC_U+30A4_U+30E4_U+30FC 1
 62
     7
420
 16777215
370
     9
100
AcDb2dPolyline
 66
     1
 10
0.0
 20
0.0
 30
0.0
  0
VERTEX
  5
7F
330
7E
100
AcDbEntity
  8
_U+30EC_U+30A4_U+30E4_U+30FC 1
 62
     7
420
 16777215
370
     9
100
AcDbVertex
100
AcDb2dVertex
 10
104.1860701197697
 20
-155.744509683286
 30
0.0
  0
VERTEX
  5
80
330
7E
100
AcDbEntity
  8
_U+30EC_U+30A4_U+30E4_U+30FC 1
 62
     7
420
 16777215
370
     9
100
AcDbVertex
100
AcDb2dVertex
 10
104.1860701197697
 20
-157.2444855162447
 30
0.0
  0
SEQEND
  5
81
330
7E
100
AcDbEntity
  8
_U+30EC_U+30A4_U+30E4_U+30FC 1
 62
     7
420
 16777215
370
     9
  0
POLYLINE
  5
82
330
1F
100
AcDbEntity
  8
_U+30EC_U+30A4_U+30E4_U+30FC 1
 62
     7
420
 16777215
370
     9
100
AcDb2dPolyline
 66
     1
 10
0.0
 20
0.0
 30
0.0
  0
VERTEX
  5
83
330
82
100
AcDbEntity
  8
_U+30EC_U+30A4_U+30E4_U+30FC 1
 62
     7
420
 16777215
370
     9
100
AcDbVertex
100
AcDb2dVertex
 10
102.7260287681296
 20
-155.744509683286
 30
0.0
  0
VERTEX
  5
84
330
82
100
AcDbEntity
  8
_U+30EC_U+30A4_U+30E4_U+30FC 1
 62
     7
420
 16777215
370
     9
100
AcDbVertex
100
AcDb2dVertex
 10
105.1858423164856
 20
-155.744509683286
 30
0.0
  0
SEQEND
  5
85
330
82
100
AcDbEntity
  8
_U+30EC_U+30A4_U+30E4_U+30FC 1
 62
     7
420
 16777215
370
     9
  0
POLYLINE
  5
86
330
1F
100
AcDbEntity
  8
_U+30EC_U+30A4_U+30E4_U+30FC 1
 62
     7
420
 16777215
370
     9
100
AcDb2dPolyline
 66
     1
 10
0.0
 20
0.0
 30
0.0
  0
VERTEX
  5
87
330
86
100
AcDbEntity
  8
_U+30EC_U+30A4_U+30E4_U+30FC 1
 62
     7
420
 16777215
370
     9
100
AcDbVertex
100
AcDb2dVertex
 10
102.7260287681296
 20
-156.2443957942719
 30
0.0
  0
VERTEX
  5
88
330
86
100
AcDbEntity
  8
_U+30EC_U+30A4_U+30E4_U+30FC 1
 62
     7
420
 16777215
370
     9
100
AcDbVertex
100
AcDb2dVertex
 10
105.1858423164856
 20
-156.2443957942719
 30
0.0
  0
SEQEND
  5
89
330
86
100
AcDbEntity
  8
_U+30EC_U+30A4_U+30E4_U+30FC 1
 62
     7
420
 16777215
370
     9
  0
POLYLINE
  5
8A
330
1F
100
AcDbEntity
  8
_U+30EC_U+30A4_U+30E4_U+30FC 1
 62
     7
420
 16777215
370
     9
100
AcDb2dPolyline
 66
     1
 10
0.0
 20
0.0
 30
0.0
  0
VERTEX
  5
8B
330
8A
100
AcDbEntity
  8
_U+30EC_U+30A4_U+30E4_U+30FC 1
 62
     7
420
 16777215
370
     9
100
AcDbVertex
100
AcDb2dVertex
 10
119.180327747983
 20
-141.7446646867861
 30
0.0
  0
VERTEX
  5
8C
330
8A
100
AcDbEntity
  8
_U+30EC_U+30A4_U+30E4_U+30FC 1
 62
     7
420
 16777215
370
     9
100
AcDbVertex
100
AcDb2dVertex
 10
119.180327747983
 20
-137.9743521877287
 30
0.0
  0
SEQEND
  5
8D
330
8A
100
AcDbEntity
  8
_U+30EC_U+30A4_U+30E4_U+30FC 1
 62
     7
420
 16777215
370
     9
  0
POLYLINE
  5
8E
330
1F
100
AcDbEntity
  8
_U+30EC_U+30A4_U+30E4_U+30FC 1
 62
     7
420
 16777215
370
     9
100
AcDb2dPolyline
 66
     1
 10
0.0
 20
0.0
 30
0.0
  0
VERTEX
  5
8F
330
8E
100
AcDbEntity
  8
_U+30EC_U+30A4_U+30E4_U+30FC 1
 62
     7
420
 16777215
370
     9
100
AcDbVertex
100
AcDb2dVertex
 10
119.180327747983
 20
-141.7446646867861
 30
0.0
  0
VERTEX
  5
90
330
8E
100
AcDbEntity
  8
_U+30EC_U+30A4_U+30E4_U+30FC 1
 62
     7
420
 16777215
370
     9
100
AcDbVertex
100
AcDb2dVertex
 10
119.180327747983
 20
-142.7444369087583
 30
0.0
  0
SEQEND
  5
91
330
8E
100
AcDbEntity
  8
_U+30EC_U+30A4_U+30E4_U+30FC 1
 62
     7
420
 16777215
370
     9
  0
POLYLINE
  5
92
330
1F
100
AcDbEntity
  8
_U+30EC_U+30A4_U+30E4_U+30FC 1
 62
     7
420
 16777215
370
     9
100
AcDb2dPolyline
 66
     1
 10
0.0
 20
0.0
 30
0.0
  0
VERTEX
  5
93
330
92
100
AcDbEntity
  8
_U+30EC_U+30A4_U+30E4_U+30FC 1
 62
     7
420
 16777215
370
     9
100
AcDbVertex
100
AcDb2dVertex
 10
117.7202833855943
 20
-141.7446646867861
 30
0.0
  0
VERTEX
  5
94
330
92
100
AcDbEntity
  8
_U+30EC_U+30A4_U+30E4_U+30FC 1
 62
     7
420
 16777215
370
     9
100
AcDbVertex
100
AcDb2dVertex
 10
120.1800999699549
 20
-141.7446646867861
 30
0.0
  0
SEQEND
  5
95
330
92
100
AcDbEntity
  8
_U+30EC_U+30A4_U+30E4_U+30FC 1
 62
     7
420
 16777215
370
     9
  0
POLYLINE
  5
96
330
1F
100
AcDbEntity
  8
_U+30EC_U+30A4_U+30E4_U+30FC 1
 62
     7
420
 16777215
370
     9
100
AcDb2dPolyline
 66
     1
 10
0.0
 20
0.0
 30
0.0
  0
VERTEX
  5
97
330
96
100
AcDbEntity
  8
_U+30EC_U+30A4_U+30E4_U+30FC 1
 62
     7
420
 16777215
370
     9
100
AcDbVertex
100
AcDb2dVertex
 10
117.7202833855943
 20
-142.7444369087583
 30
0.0
  0
VERTEX
  5
98
330
96
100
AcDbEntity
  8
_U+30EC_U+30A4_U+30E4_U+30FC 1
 62
     7
420
 16777215
370
     9
100
AcDbVertex
100
AcDb2dVertex
 10
120.1800999699549
 20
-142.7444369087583
 30
0.0
  0
SEQEND
  5
99
330
96
100
AcDbEntity
  8
_U+30EC_U+30A4_U+30E4_U+30FC 1
 62
     7
420
 16777215
370
     9
  0
INSERT
  5
9B
330
1F
100
AcDbEntity
  8
_U+30EC_U+30A4_U+30E4_U+30FC 1
100
AcDbBlockReference
  2
block 4
 10
0.0
 20
0.0
 30
0.0
  0
POLYLINE
  5
A0
330
1F
100
AcDbEntity
  8
_U+30EC_U+30A4_U+30E4_U+30FC 1
 62
     7
420
 16777215
370
     9
100
AcDb2dPolyline
 66
     1
 10
0.0
 20
0.0
 30
0.0
  0
VERTEX
  5
A1
330
A0
100
AcDbEntity
  8
_U+30EC_U+30A4_U+30E4_U+30FC 1
 62
     7
420
 16777215
370
     9
100
AcDbVertex
100
AcDb2dVertex
 10
119.180327747983
 20
-142.7444369087583
 30
0.0
  0
VERTEX
  5
A2
330
A0
100
AcDbEntity
  8
_U+30EC_U+30A4_U+30E4_U+30FC 1
 62
     7
420
 16777215
370
     9
100
AcDbVertex
100
AcDb2dVertex
 10
119.180327747983
 20
-155.744509683286
 30
0.0
  0
SEQEND
  5
A3
330
A0
100
AcDbEntity
  8
_U+30EC_U+30A4_U+30E4_U+30FC 1
 62
     7
420
 16777215
370
     9
  0
POLYLINE
  5
A4
330
1F
100
AcDbEntity
  8
_U+30EC_U+30A4_U+30E4_U+30FC 1
 62
     7
420
 16777215
370
     9
100
AcDb2dPolyline
 66
     1
 10
0.0
 20
0.0
 30
0.0
  0
VERTEX
  5
A5
330
A4
100
AcDbEntity
  8
_U+30EC_U+30A4_U+30E4_U+30FC 1
 62
     7
420
 16777215
370
     9
100
AcDbVertex
100
AcDb2dVertex
 10
117.7202833855943
 20
-142.7444369087583
 30
0.0
  0
VERTEX
  5
A6
330
A4
100
AcDbEntity
  8
_U+30EC_U+30A4_U+30E4_U+30FC 1
 62
     7
420
 16777215
370
     9
100
AcDbVertex
100
AcDb2dVertex
 10
120.1800999699549
 20
-142.7444369087583
 30
0.0
  0
SEQEND
  5
A7
330
A4
100
AcDbEntity
  8
_U+30EC_U+30A4_U+30E4_U+30FC 1
 62
     7
420
 16777215
370
     9
  0
POLYLINE
  5
A8
330
1F
100
AcDbEntity
  8
_U+30EC_U+30A4_U+30E4_U+30FC 1
 62
     7
420
 16777215
370
     9
100
AcDb2dPolyline
 66
     1
 10
0.0
 20
0.0
 30
0.0
  0
VERTEX
  5
A9
330
A8
100
AcDbEntity
  8
_U+30EC_U+30A4_U+30E4_U+30FC 1
 62
     7
420
 16777215
370
     9
100
AcDbVertex
100
AcDb2dVertex
 10
102.7260287681296
 20
-155.744509683286
 30
0.0
  0
VERTEX
  5
AA
330
A8
100
AcDbEntity
  8
_U+30EC_U+30A4_U+30E4_U+30FC 1
 62
     7
420
 16777215
370
     9
100
AcDbVertex
100
AcDb2dVertex
 10
120.1800999699549
 20
-155.744509683286
 30
0.0
  0
SEQEND
  5
AB
330
A8
100
AcDbEntity
  8
_U+30EC_U+30A4_U+30E4_U+30FC 1
 62
     7
420
 16777215
370
     9
  0
INSERT
  5
AD
330
1F
100
AcDbEntity
  8
_U+30EC_U+30A4_U+30E4_U+30FC 1
100
AcDbBlockReference
  2
block 5
 10
0.0
 20
0.0
 30
0.0
  0
POLYLINE
  5
B4
330
1F
100
AcDbEntity
  8
_U+30EC_U+30A4_U+30E4_U+30FC 1
 62
     7
420
 16777215
370
     9
100
AcDb2dPolyline
 66
     1
 10
0.0
 20
0.0
 30
0.0
  0
VERTEX
  5
B5
330
B4
100
AcDbEntity
  8
_U+30EC_U+30A4_U+30E4_U+30FC 1
 62
     7
420
 16777215
370
     9
100
AcDbVertex
100
AcDb2dVertex
 10
104.1860701197697
 20
-155.744509683286
 30
0.0
  0
VERTEX
  5
B6
330
B4
100
AcDbEntity
  8
_U+30EC_U+30A4_U+30E4_U+30FC 1
 62
     7
420
 16777215
370
     9
100
AcDbVertex
100
AcDb2dVertex
 10
104.1860701197697
 20
-151.2834582955122
 30
0.0
  0
SEQEND
  5
B7
330
B4
100
AcDbEntity
  8
_U+30EC_U+30A4_U+30E4_U+30FC 1
 62
     7
420
 16777215
370
     9
  0
INSERT
  5
B9
330
1F
100
AcDbEntity
  8
_U+30EC_U+30A4_U+30E4_U+30FC 1
100
AcDbBlockReference
  2
block 6
 10
0.0
 20
0.0
 30
0.0
  0
ENDSEC
  0
SECTION
  2
OBJECTS
  0
DICTIONARY
  5
C
330
0
100
AcDbDictionary
281
     1
  3
ACAD_GROUP
350
D
  3
ACAD_LAYOUT
350
1A
  3
ACAD_MATERIAL
350
3B
  3
ACAD_MLEADERSTYLE
350
CA
  3
ACAD_MLINESTYLE
350
17
  3
ACAD_PLOTSETTINGS
350
19
  3
ACAD_PLOTSTYLENAME
350
E
  3
ACAD_TABLESTYLE
350
C9
  3
ACAD_VISUALSTYLE
350
2A
  0
SUN
  5
3F
330
29
100
AcDbSun
 90
        1
290
     0
 63
     7
421
 16777215
 40
1.0
291
     1
 91
  2455826
 92
 54000000
292
     0
 70
     2
 71
   256
280
     1
  0
DICTIONARY
  5
D
102
{ACAD_REACTORS
330
C
102
}
330
C
100
AcDbDictionary
281
     1
  0
DICTIONARY
  5
1A
102
{ACAD_REACTORS
330
C
102
}
330
C
100
AcDbDictionary
281
     1
  3
Layout1
350
1E
  3
Layout2
350
26
  3
Model
350
22
  0
DICTIONARY
  5
3B
102
{ACAD_REACTORS
330
C
102
}
330
C
100
AcDbDictionary
281
     1
  3
ByBlock
350
3D
  3
ByLayer
350
3C
  3
Global
350
3E
  0
DICTIONARY
  5
CA
102
{ACAD_REACTORS
330
C
102
}
330
C
100
AcDbDictionary
281
     1
  0
DICTIONARY
  5
17
102
{ACAD_REACTORS
330
C
102
}
330
C
100
AcDbDictionary
281
     1
  3
Standard
350
18
  0
DICTIONARY
  5
19
102
{ACAD_REACTORS
330
C
102
}
330
C
100
AcDbDictionary
281
     1
  0
ACDBDICTIONARYWDFLT
  5
E
102
{ACAD_REACTORS
330
C
102
}
330
C
100
AcDbDictionary
281
     1
  3
Normal
350
F
100
AcDbDictionaryWithDefault
340
F
  0
DICTIONARY
  5
C9
102
{ACAD_REACTORS
330
C
102
}
330
C
100
AcDbDictionary
281
     1
  0
DICTIONARY
  5
2A
102
{ACAD_REACTORS
330
C
102
}
330
C
100
AcDbDictionary
281
     1
  3
2dWireframe
350
2F
  3
3D Hidden
350
31
  3
3dWireframe
350
30
  3
Basic
350
32
  3
Brighten
350
36
  3
ColorChange
350
3A
  3
Conceptual
350
34
  3
Dim
350
35
  3
Facepattern
350
39
  3
Flat
350
2B
  3
FlatWithEdges
350
2C
  3
Gouraud
350
2D
  3
GouraudWithEdges
350
2E
  3
Linepattern
350
38
  3
Realistic
350
33
  3
Thicken
350
37
  0
LAYOUT
  5
1E
102
{ACAD_REACTORS
330
1A
102
}
330
1A
100
AcDbPlotSettings
  1

  2
none_device
  4

  6

 40
0.0
 41
0.0
 42
0.0
 43
0.0
 44
0.0
 45
0.0
 46
0.0
 47
0.0
 48
0.0
 49
0.0
140
0.0
141
0.0
142
1.0
143
1.0
 70
   688
 72
     0
 73
     0
 74
     5
  7

 75
    16
 76
     0
 77
     2
 78
   300
147
1.0
148
0.0
149
0.0
100
AcDbLayout
  1
Layout1
 70
     1
 71
     1
 10
0.0
 20
0.0
 11
12.0
 21
9.0
 12
0.0
 22
0.0
 32
0.0
 14
1.000000000000000E+20
 24
1.000000000000000E+20
 34
1.000000000000000E+20
 15
-1.000000000000000E+20
 25
-1.000000000000000E+20
 35
-1.000000000000000E+20
146
0.0
 13
0.0
 23
0.0
 33
0.0
 16
1.0
 26
0.0
 36
0.0
 17
0.0
 27
1.0
 37
0.0
 76
     0
330
1B
  0
LAYOUT
  5
26
102
{ACAD_REACTORS
330
1A
102
}
330
1A
100
AcDbPlotSettings
  1

  2
none_device
  4

  6

 40
0.0
 41
0.0
 42
0.0
 43
0.0
 44
0.0
 45
0.0
 46
0.0
 47
0.0
 48
0.0
 49
0.0
140
0.0
141
0.0
142
1.0
143
1.0
 70
   688
 72
     0
 73
     0
 74
     5
  7

 75
    16
 76
     0
 77
     2
 78
   300
147
1.0
148
0.0
149
0.0
100
AcDbLayout
  1
Layout2
 70
     1
 71
     2
 10
0.0
 20
0.0
 11
0.0
 21
0.0
 12
0.0
 22
0.0
 32
0.0
 14
0.0
 24
0.0
 34
0.0
 15
0.0
 25
0.0
 35
0.0
146
0.0
 13
0.0
 23
0.0
 33
0.0
 16
1.0
 26
0.0
 36
0.0
 17
0.0
 27
1.0
 37
0.0
 76
     0
330
23
  0
LAYOUT
  5
22
102
{ACAD_REACTORS
330
1A
102
}
330
1A
100
AcDbPlotSettings
  1

  2
none_device
  4

  6

 40
0.0
 41
0.0
 42
0.0
 43
0.0
 44
0.0
 45
0.0
 46
0.0
 47
0.0
 48
0.0
 49
0.0
140
0.0
141
0.0
142
1.0
143
1.0
 70
  1712
 72
     0
 73
     0
 74
     0
  7

 75
     0
 76
     0
 77
     2
 78
   300
147
1.0
148
0.0
149
0.0
100
AcDbLayout
  1
Model
 70
     1
 71
     0
 10
0.0
 20
0.0
 11
12.0
 21
9.0
 12
0.0
 22
0.0
 32
0.0
 14
1.000000000000000E+20
 24
1.000000000000000E+20
 34
1.000000000000000E+20
 15
-1.000000000000000E+20
 25
-1.000000000000000E+20
 35
-1.000000000000000E+20
146
0.0
 13
0.0
 23
0.0
 33
0.0
 16
1.0
 26
0.0
 36
0.0
 17
0.0
 27
1.0
 37
0.0
 76
     0
330
1F
331
29
  0
MATERIAL
  5
3D
102
{ACAD_REACTORS
330
3B
102
}
330
3B
100
AcDbMaterial
  1
ByBlock
 72
     1
 94
      127
  0
MATERIAL
  5
3C
102
{ACAD_REACTORS
330
3B
102
}
330
3B
100
AcDbMaterial
  1
ByLayer
 72
     1
 94
      127
  0
MATERIAL
  5
3E
102
{ACAD_REACTORS
330
3B
102
}
330
3B
100
AcDbMaterial
  1
Global
 72
     1
 94
      127
  0
MLINESTYLE
  5
18
102
{ACAD_REACTORS
330
17
102
}
330
17
100
AcDbMlineStyle
  2
Standard
 70
     0
  3

 62
   256
 51
90.0
 52
90.0
 71
     2
 49
0.5
 62
   256
  6
BYLAYER
 49
-0.5
 62
   256
  6
BYLAYER
  0
ACDBPLACEHOLDER
  5
F
102
{ACAD_REACTORS
330
E
102
}
330
E
  0
VISUALSTYLE
  5
2F
102
{ACAD_REACTORS
330
2A
102
}
330
2A
100
AcDbVisualStyle
  2
2dWireframe
 70
     4
177
     2
291
     0
 71
     0
176
     1
 72
     2
176
     1
 73
     0
176
     1
 90
        0
176
     1
 40
-0.6
176
     1
 41
-30.0
176
     1
 62
     5
 63
     7
421
 16777215
176
     1
 74
     1
176
     1
 91
        4
176
     1
 64
     7
176
     1
 65
   257
176
     1
 75
     1
176
     1
175
     1
176
     1
 42
1.0
176
     1
 92
        0
176
     1
 66
   257
176
     1
 43
1.0
176
     1
 76
     1
176
     1
 77
     6
176
     1
 78
     2
176
     1
 67
     7
176
     1
 79
     5
176
     1
170
     0
176
     1
171
     0
176
     1
290
     0
176
     1
 93
        1
176
     1
 44
0.0
176
     1
173
     0
176
     1
  0
VISUALSTYLE
  5
31
102
{ACAD_REACTORS
330
2A
102
}
330
2A
100
AcDbVisualStyle
  2
3D Hidden
 70
     6
177
     2
291
     0
 71
     1
176
     1
 72
     2
176
     1
 73
     2
176
     1
 90
        0
176
     1
 40
-0.6
176
     1
 41
-30.0
176
     1
 62
     5
 63
     7
421
 16777215
176
     1
 74
     2
176
     1
 91
        2
176
     1
 64
     7
176
     1
 65
   257
176
     1
 75
     2
176
     1
175
     1
176
     1
 42
40.0
176
     1
 92
        0
176
     1
 66
   257
176
     1
 43
1.0
176
     1
 76
     1
176
     1
 77
     6
176
     1
 78
     2
176
     1
 67
     7
176
     1
 79
     3
176
     1
170
     0
176
     1
171
     0
176
     1
290
     0
176
     1
 93
        1
176
     1
 44
0.0
176
     1
173
     0
176
     1
  0
VISUALSTYLE
  5
30
102
{ACAD_REACTORS
330
2A
102
}
330
2A
100
AcDbVisualStyle
  2
3dWireframe
 70
     5
177
     2
291
     0
 71
     0
176
     1
 72
     2
176
     1
 73
     0
176
     1
 90
        0
176
     1
 40
-0.6
176
     1
 41
-30.0
176
     1
 62
     5
 63
     7
421
 16777215
176
     1
 74
     1
176
     1
 91
        4
176
     1
 64
     7
176
     1
 65
   257
176
     1
 75
     1
176
     1
175
     1
176
     1
 42
1.0
176
     1
 92
        0
176
     1
 66
   257
176
     1
 43
1.0
176
     1
 76
     1
176
     1
 77
     6
176
     1
 78
     2
176
     1
 67
     7
176
     1
 79
     5
176
     1
170
     0
176
     1
171
     0
176
     1
290
     0
176
     1
 93
        1
176
     1
 44
0.0
176
     1
173
     0
176
     1
  0
VISUALSTYLE
  5
32
102
{ACAD_REACTORS
330
2A
102
}
330
2A
100
AcDbVisualStyle
  2
Basic
 70
     7
177
     2
291
     1
 71
     1
176
     1
 72
     0
176
     1
 73
     1
176
     1
 90
        0
176
     1
 40
-0.6
176
     1
 41
-30.0
176
     1
 62
     5
 63
     7
421
 16777215
176
     1
 74
     0
176
     1
 91
        4
176
     1
 64
     7
176
     1
 65
   257
176
     1
 75
     1
176
     1
175
     1
176
     1
 42
1.0
176
     1
 92
        8
176
     1
 66
     7
176
     1
 43
1.0
176
     1
 76
     1
176
     1
 77
     6
176
     1
 78
     2
176
     1
 67
     7
176
     1
 79
     5
176
     1
170
     0
176
     1
171
     0
176
     1
290
     0
176
     1
 93
        1
176
     1
 44
0.0
176
     1
173
     0
176
     1
  0
VISUALSTYLE
  5
36
102
{ACAD_REACTORS
330
2A
102
}
330
2A
100
AcDbVisualStyle
  2
Brighten
 70
    12
177
     2
291
     1
 71
     2
176
     1
 72
     2
176
     1
 73
     0
176
     1
 90
        0
176
     1
 40
-0.6
176
     1
 41
-30.0
176
     1
 62
     5
 63
     7
421
 16777215
176
     1
 74
     1
176
     1
 91
        4
176
     1
 64
     7
176
     1
 65
   257
176
     1
 75
     1
176
     1
175
     1
176
     1
 42
1.0
176
     1
 92
        8
176
     1
 66
     7
176
     1
 43
1.0
176
     1
 76
     1
176
     1
 77
     6
176
     1
 78
     2
176
     1
 67
     7
176
     1
 79
     5
176
     1
170
     0
176
     1
171
     0
176
     1
290
     0
176
     1
 93
        1
176
     1
 44
50.0
176
     1
173
     0
176
     1
  0
VISUALSTYLE
  5
3A
102
{ACAD_REACTORS
330
2A
102
}
330
2A
100
AcDbVisualStyle
  2
ColorChange
 70
    16
177
     2
291
     1
 71
     2
176
     1
 72
     2
176
     1
 73
     3
176
     1
 90
        0
176
     1
 40
-0.6
176
     1
 41
-30.0
176
     1
 62
     5
 63
     8
421
  8421504
176
     1
 74
     1
176
     1
 91
        4
176
     1
 64
     7
176
     1
 65
   257
176
     1
 75
     1
176
     1
175
     1
176
     1
 42
1.0
176
     1
 92
        8
176
     1
 66
     8
424
  8421504
176
     1
 43
1.0
176
     1
 76
     1
176
     1
 77
     6
176
     1
 78
     2
176
     1
 67
     7
176
     1
 79
     5
176
     1
170
     0
176
     1
171
     0
176
     1
290
     0
176
     1
 93
        1
176
     1
 44
0.0
176
     1
173
     0
176
     1
  0
VISUALSTYLE
  5
34
102
{ACAD_REACTORS
330
2A
102
}
330
2A
100
AcDbVisualStyle
  2
Conceptual
 70
     9
177
     2
291
     0
 71
     3
176
     1
 72
     2
176
     1
 73
     0
176
     1
 90
        0
176
     1
 40
-0.6
176
     1
 41
-30.0
176
     1
 62
     5
 63
     7
421
 16777215
176
     1
 74
     2
176
     1
 91
        2
176
     1
 64
     7
176
     1
 65
   257
176
     1
 75
     1
176
     1
175
     1
176
     1
 42
40.0
176
     1
 92
        8
176
     1
 66
     7
176
     1
 43
1.0
176
     1
 76
     1
176
     1
 77
     6
176
     1
 78
     2
176
     1
 67
     7
176
     1
 79
     3
176
     1
170
     0
176
     1
171
     0
176
     1
290
     0
176
     1
 93
        1
176
     1
 44
0.0
176
     1
173
     0
176
     1
  0
VISUALSTYLE
  5
35
102
{ACAD_REACTORS
330
2A
102
}
330
2A
100
AcDbVisualStyle
  2
Dim
 70
    11
177
     2
291
     1
 71
     2
176
     1
 72
     2
176
     1
 73
     0
176
     1
 90
        0
176
     1
 40
-0.6
176
     1
 41
-30.0
176
     1
 62
     5
 63
     7
421
 16777215
176
     1
 74
     1
176
     1
 91
        4
176
     1
 64
     7
176
     1
 65
   257
176
     1
 75
     1
176
     1
175
     1
176
     1
 42
1.0
176
     1
 92
        8
176
     1
 66
     7
176
     1
 43
1.0
176
     1
 76
     1
176
     1
 77
     6
176
     1
 78
     2
176
     1
 67
     7
176
     1
 79
     5
176
     1
170
     0
176
     1
171
     0
176
     1
290
     0
176
     1
 93
        1
176
     1
 44
-50.0
176
     1
173
     0
176
     1
  0
VISUALSTYLE
  5
39
102
{ACAD_REACTORS
330
2A
102
}
330
2A
100
AcDbVisualStyle
  2
Facepattern
 70
    15
177
     2
291
     1
 71
     2
176
     1
 72
     2
176
     1
 73
     0
176
     1
 90
        0
176
     1
 40
-0.6
176
     1
 41
-30.0
176
     1
 62
     5
 63
     7
421
 16777215
176
     1
 74
     1
176
     1
 91
        4
176
     1
 64
     7
176
     1
 65
   257
176
     1
 75
     1
176
     1
175
     1
176
     1
 42
1.0
176
     1
 92
        8
176
     1
 66
     7
176
     1
 43
1.0
176
     1
 76
     1
176
     1
 77
     6
176
     1
 78
     2
176
     1
 67
     7
176
     1
 79
     5
176
     1
170
     0
176
     1
171
     0
176
     1
290
     0
176
     1
 93
        1
176
     1
 44
0.0
176
     1
173
     0
176
     1
  0
VISUALSTYLE
  5
2B
102
{ACAD_REACTORS
330
2A
102
}
330
2A
100
AcDbVisualStyle
  2
Flat
 70
     0
177
     2
291
     1
 71
     2
176
     1
 72
     1
176
     1
 73
     1
176
     1
 90
        2
176
     1
 40
-0.6
176
     1
 41
30.0
176
     1
 62
     5
 63
     7
421
 16777215
176
     1
 74
     0
176
     1
 91
        4
176
     1
 64
     7
176
     1
 65
   257
176
     1
 75
     1
176
     1
175
     1
176
     1
 42
1.0
176
     1
 92
        8
176
     1
 66
     7
176
     1
 43
1.0
176
     1
 76
     1
176
     1
 77
     6
176
     1
 78
     2
176
     1
 67
     7
176
     1
 79
     5
176
     1
170
     0
176
     1
171
     0
176
     1
290
     0
176
     1
 93
       13
176
     1
 44
0.0
176
     1
173
     0
176
     1
  0
VISUALSTYLE
  5
2C
102
{ACAD_REACTORS
330
2A
102
}
330
2A
100
AcDbVisualStyle
  2
FlatWithEdges
 70
     1
177
     2
291
     1
 71
     2
176
     1
 72
     1
176
     1
 73
     1
176
     1
 90
        2
176
     1
 40
-0.6
176
     1
 41
30.0
176
     1
 62
     5
 63
     7
421
 16777215
176
     1
 74
     1
176
     1
 91
        4
176
     1
 64
     7
176
     1
 65
   257
176
     1
 75
     1
176
     1
175
     1
176
     1
 42
1.0
176
     1
 92
        0
176
     1
 66
   257
176
     1
 43
1.0
176
     1
 76
     1
176
     1
 77
     6
176
     1
 78
     2
176
     1
 67
     7
176
     1
 79
     5
176
     1
170
     0
176
     1
171
     0
176
     1
290
     0
176
     1
 93
       13
176
     1
 44
0.0
176
     1
173
     0
176
     1
  0
VISUALSTYLE
  5
2D
102
{ACAD_REACTORS
330
2A
102
}
330
2A
100
AcDbVisualStyle
  2
Gouraud
 70
     2
177
     2
291
     1
 71
     2
176
     1
 72
     2
176
     1
 73
     1
176
     1
 90
        2
176
     1
 40
-0.6
176
     1
 41
30.0
176
     1
 62
     5
 63
     7
421
 16777215
176
     1
 74
     0
176
     1
 91
        4
176
     1
 64
     7
176
     1
 65
   257
176
     1
 75
     1
176
     1
175
     1
176
     1
 42
1.0
176
     1
 92
        0
176
     1
 66
     7
176
     1
 43
1.0
176
     1
 76
     1
176
     1
 77
     6
176
     1
 78
     2
176
     1
 67
     7
176
     1
 79
     5
176
     1
170
     0
176
     1
171
     0
176
     1
290
     0
176
     1
 93
       13
176
     1
 44
0.0
176
     1
173
     0
176
     1
  0
VISUALSTYLE
  5
2E
102
{ACAD_REACTORS
330
2A
102
}
330
2A
100
AcDbVisualStyle
  2
GouraudWithEdges
 70
     3
177
     2
291
     1
 71
     2
176
     1
 72
     2
176
     1
 73
     1
176
     1
 90
        2
176
     1
 40
-0.6
176
     1
 41
30.0
176
     1
 62
     5
 63
     7
421
 16777215
176
     1
 74
     1
176
     1
 91
        4
176
     1
 64
     7
176
     1
 65
   257
176
     1
 75
     1
176
     1
175
     1
176
     1
 42
1.0
176
     1
 92
        0
176
     1
 66
   257
176
     1
 43
1.0
176
     1
 76
     1
176
     1
 77
     6
176
     1
 78
     2
176
     1
 67
     7
176
     1
 79
     5
176
     1
170
     0
176
     1
171
     0
176
     1
290
     0
176
     1
 93
       13
176
     1
 44
0.0
176
     1
173
     0
176
     1
  0
VISUALSTYLE
  5
38
102
{ACAD_REACTORS
330
2A
102
}
330
2A
100
AcDbVisualStyle
  2
Linepattern
 70
    14
177
     2
291
     1
 71
     2
176
     1
 72
     2
176
     1
 73
     0
176
     1
 90
        0
176
     1
 40
-0.6
176
     1
 41
-30.0
176
     1
 62
     5
 63
     7
421
 16777215
176
     1
 74
     1
176
     1
 91
        4
176
     1
 64
     7
176
     1
 65
   257
176
     1
 75
     7
176
     1
175
     7
176
     1
 42
1.0
176
     1
 92
        8
176
     1
 66
     7
176
     1
 43
1.0
176
     1
 76
     1
176
     1
 77
     6
176
     1
 78
     2
176
     1
 67
     7
176
     1
 79
     5
176
     1
170
     0
176
     1
171
     0
176
     1
290
     0
176
     1
 93
        1
176
     1
 44
0.0
176
     1
173
     0
176
     1
  0
VISUALSTYLE
  5
33
102
{ACAD_REACTORS
330
2A
102
}
330
2A
100
AcDbVisualStyle
  2
Realistic
 70
     8
177
     2
291
     0
 71
     2
176
     1
 72
     2
176
     1
 73
     0
176
     1
 90
        0
176
     1
 40
-0.6
176
     1
 41
-30.0
176
     1
 62
     5
 63
     7
421
 16777215
176
     1
 74
     1
176
     1
 91
        0
176
     1
 64
     7
176
     1
 65
   257
176
     1
 75
     1
176
     1
175
     1
176
     1
 42
1.0
176
     1
 92
        8
176
     1
 66
     8
424
  7895160
176
     1
 43
1.0
176
     1
 76
     1
176
     1
 77
     6
176
     1
 78
     2
176
     1
 67
     7
176
     1
 79
     5
176
     1
170
     0
176
     1
171
     0
176
     1
290
     0
176
     1
 93
       13
176
     1
 44
0.0
176
     1
173
     0
176
     1
  0
VISUALSTYLE
  5
37
102
{ACAD_REACTORS
330
2A
102
}
330
2A
100
AcDbVisualStyle
  2
Thicken
 70
    13
177
     2
291
     1
 71
     2
176
     1
 72
     2
176
     1
 73
     0
176
     1
 90
        0
176
     1
 40
-0.6
176
     1
 41
-30.0
176
     1
 62
     5
 63
     7
421
 16777215
176
     1
 74
     1
176
     1
 91
        4
176
     1
 64
     7
176
     1
 65
   257
176
     1
 75
     1
176
     1
175
     1
176
     1
 42
1.0
176
     1
 92
       12
176
     1
 66
     7
176
     1
 43
1.0
176
     1
 76
     1
176
     1
 77
     6
176
     1
 78
     2
176
     1
 67
     7
176
     1
 79
     5
176
     1
170
     0
176
     1
171
     0
176
     1
290
     0
176
     1
 93
        1
176
     1
 44
0.0
176
     1
173
     0
176
     1
  0
ENDSEC
  0
EOF
