  0
SECTION
  2
HEADER
  9
$ACADVER
  1
AC1024
  9
$ACADMAINTVER
 70
     6
  9
$DWGCODEPAGE
  3
UNDEFINED
  9
$INSBASE
 10
0.0
 20
0.0
 30
0.0
  9
$EXTMIN
 10
1.000000000000000E+20
 20
1.000000000000000E+20
 30
1.000000000000000E+20
  9
$EXTMAX
 10
-1.000000000000000E+20
 20
-1.000000000000000E+20
 30
-1.000000000000000E+20
  9
$LIMMIN
 10
0.0
 20
0.0
  9
$LIMMAX
 10
12.0
 20
9.0
  9
$ORTHOMODE
 70
     0
  9
$REGENMODE
 70
     1
  9
$FILLMODE
 70
     1
  9
$QTEXTMODE
 70
     0
  9
$MIRRTEXT
 70
     1
  9
$LTSCALE
 40
1.0
  9
$ATTMODE
 70
     1
  9
$TEXTSIZE
 40
0.2
  9
$TRACEWID
 40
0.05
  9
$TEXTSTYLE
  7
Standard
  9
$CLAYER
  8
0
  9
$CELTYPE
  6
ByLayer
  9
$CECOLOR
 62
   256
  9
$CELTSCALE
 40
1.0
  9
$DISPSILH
 70
     0
  9
$DIMSCALE
 40
1.0
  9
$DIMASZ
 40
0.18
  9
$DIMEXO
 40
0.0625
  9
$DIMDLI
 40
0.38
  9
$DIMRND
 40
0.0
  9
$DIMDLE
 40
0.0
  9
$DIMEXE
 40
0.18
  9
$DIMTP
 40
0.0
  9
$DIMTM
 40
0.0
  9
$DIMTXT
 40
0.18
  9
$DIMCEN
 40
0.09
  9
$DIMTSZ
 40
0.0
  9
$DIMTOL
 70
     0
  9
$DIMLIM
 70
     0
  9
$DIMTIH
 70
     1
  9
$DIMTOH
 70
     1
  9
$DIMSE1
 70
     0
  9
$DIMSE2
 70
     0
  9
$DIMTAD
 70
     0
  9
$DIMZIN
 70
     0
  9
$DIMBLK
  1

  9
$DIMASO
 70
     1
  9
$DIMSHO
 70
     1
  9
$DIMPOST
  1

  9
$DIMAPOST
  1

  9
$DIMALT
 70
     0
  9
$DIMALTD
 70
     2
  9
$DIMALTF
 40
25.4
  9
$DIMLFAC
 40
1.0
  9
$DIMTOFL
 70
     0
  9
$DIMTVP
 40
0.0
  9
$DIMTIX
 70
     0
  9
$DIMSOXD
 70
     0
  9
$DIMSAH
 70
     0
  9
$DIMBLK1
  1

  9
$DIMBLK2
  1

  9
$DIMSTYLE
  2
Standard
  9
$DIMCLRD
 70
     0
  9
$DIMCLRE
 70
     0
  9
$DIMCLRT
 70
     0
  9
$DIMTFAC
 40
1.0
  9
$DIMGAP
 40
0.09
  9
$DIMJUST
 70
     0
  9
$DIMSD1
 70
     0
  9
$DIMSD2
 70
     0
  9
$DIMTOLJ
 70
     1
  9
$DIMTZIN
 70
     0
  9
$DIMALTZ
 70
     0
  9
$DIMALTTZ
 70
     0
  9
$DIMUPT
 70
     0
  9
$DIMDEC
 70
     4
  9
$DIMTDEC
 70
     4
  9
$DIMALTU
 70
     2
  9
$DIMALTTD
 70
     2
  9
$DIMTXSTY
  7
Standard
  9
$DIMAUNIT
 70
     0
  9
$DIMADEC
 70
     0
  9
$DIMALTRND
 40
0.0
  9
$DIMAZIN
 70
     0
  9
$DIMDSEP
 70
    46
  9
$DIMATFIT
 70
     3
  9
$DIMFRAC
 70
     0
  9
$DIMLDRBLK
  1

  9
$DIMLUNIT
 70
     2
  9
$DIMLWD
 70
    -2
  9
$DIMLWE
 70
    -2
  9
$DIMTMOVE
 70
     0
  9
$DIMFXL
 40
1.0
  9
$DIMFXLON
 70
     0
  9
$DIMJOGANG
 40
0.7853981633974483
  9
$DIMTFILL
 70
     0
  9
$DIMTFILLCLR
 70
     0
  9
$DIMARCSYM
 70
     0
  9
$DIMLTYPE
  6

  9
$DIMLTEX1
  6

  9
$DIMLTEX2
  6

  9
$DIMTXTDIRECTION
 70
     0
  9
$LUNITS
 70
     2
  9
$LUPREC
 70
     4
  9
$SKETCHINC
 40
0.1
  9
$FILLETRAD
 40
0.5
  9
$AUNITS
 70
     0
  9
$AUPREC
 70
     0
  9
$MENU
  1
.
  9
$ELEVATION
 40
0.0
  9
$PELEVATION
 40
0.0
  9
$THICKNESS
 40
0.0
  9
$LIMCHECK
 70
     0
  9
$CHAMFERA
 40
0.5
  9
$CHAMFERB
 40
0.5
  9
$CHAMFERC
 40
1.0
  9
$CHAMFERD
 40
0.0
  9
$SKPOLY
 70
     0
  9
$TDCREATE
 40
2457917.588194433
  9
$TDUCREATE
 40
2457917.213194444
  9
$TDUPDATE
 40
2457917.588194433
  9
$TDUUPDATE
 40
2457917.213194444
  9
$TDINDWG
 40
0.0000000116
  9
$TDUSRTIMER
 40
0.0000000116
  9
$USRTIMER
 70
     1
  9
$ANGBASE
 50
0.0
  9
$ANGDIR
 70
     0
  9
$PDMODE
 70
     0
  9
$PDSIZE
 40
0.0
  9
$PLINEWID
 40
0.0
  9
$SPLFRAME
 70
     0
  9
$SPLINETYPE
 70
     6
  9
$SPLINESEGS
 70
     8
  9
$HANDSEED
  5
EC
  9
$SURFTAB1
 70
     6
  9
$SURFTAB2
 70
     6
  9
$SURFTYPE
 70
     6
  9
$SURFU
 70
     6
  9
$SURFV
 70
     6
  9
$UCSBASE
  2

  9
$UCSNAME
  2

  9
$UCSORG
 10
0.0
 20
0.0
 30
0.0
  9
$UCSXDIR
 10
1.0
 20
0.0
 30
0.0
  9
$UCSYDIR
 10
0.0
 20
1.0
 30
0.0
  9
$UCSORTHOREF
  2

  9
$UCSORTHOVIEW
 70
     0
  9
$UCSORGTOP
 10
0.0
 20
0.0
 30
0.0
  9
$UCSORGBOTTOM
 10
0.0
 20
0.0
 30
0.0
  9
$UCSORGLEFT
 10
0.0
 20
0.0
 30
0.0
  9
$UCSORGRIGHT
 10
0.0
 20
0.0
 30
0.0
  9
$UCSORGFRONT
 10
0.0
 20
0.0
 30
0.0
  9
$UCSORGBACK
 10
0.0
 20
0.0
 30
0.0
  9
$PUCSBASE
  2

  9
$PUCSNAME
  2

  9
$PUCSORG
 10
0.0
 20
0.0
 30
0.0
  9
$PUCSXDIR
 10
1.0
 20
0.0
 30
0.0
  9
$PUCSYDIR
 10
0.0
 20
1.0
 30
0.0
  9
$PUCSORTHOREF
  2

  9
$PUCSORTHOVIEW
 70
     0
  9
$PUCSORGTOP
 10
0.0
 20
0.0
 30
0.0
  9
$PUCSORGBOTTOM
 10
0.0
 20
0.0
 30
0.0
  9
$PUCSORGLEFT
 10
0.0
 20
0.0
 30
0.0
  9
$PUCSORGRIGHT
 10
0.0
 20
0.0
 30
0.0
  9
$PUCSORGFRONT
 10
0.0
 20
0.0
 30
0.0
  9
$PUCSORGBACK
 10
0.0
 20
0.0
 30
0.0
  9
$USERI1
 70
     0
  9
$USERI2
 70
     0
  9
$USERI3
 70
     0
  9
$USERI4
 70
     0
  9
$USERI5
 70
     0
  9
$USERR1
 40
0.0
  9
$USERR2
 40
0.0
  9
$USERR3
 40
0.0
  9
$USERR4
 40
0.0
  9
$USERR5
 40
0.0
  9
$WORLDVIEW
 70
     1
  9
$SHADEDGE
 70
     3
  9
$SHADEDIF
 70
    70
  9
$TILEMODE
 70
     1
  9
$MAXACTVP
 70
    64
  9
$PINSBASE
 10
0.0
 20
0.0
 30
0.0
  9
$PLIMCHECK
 70
     0
  9
$PEXTMIN
 10
1.000000000000000E+20
 20
1.000000000000000E+20
 30
1.000000000000000E+20
  9
$PEXTMAX
 10
-1.000000000000000E+20
 20
-1.000000000000000E+20
 30
-1.000000000000000E+20
  9
$PLIMMIN
 10
0.0
 20
0.0
  9
$PLIMMAX
 10
12.0
 20
9.0
  9
$UNITMODE
 70
     0
  9
$VISRETAIN
 70
     1
  9
$PLINEGEN
 70
     0
  9
$PSLTSCALE
 70
     1
  9
$TREEDEPTH
 70
  3020
  9
$CMLSTYLE
  2
Standard
  9
$CMLJUST
 70
     0
  9
$CMLSCALE
 40
1.0
  9
$PROXYGRAPHICS
 70
     1
  9
$MEASUREMENT
 70
     0
  9
$CELWEIGHT
370
    -1
  9
$ENDCAPS
280
     0
  9
$JOINSTYLE
280
     0
  9
$LWDISPLAY
290
     1
  9
$INSUNITS
 70
     1
  9
$HYPERLINKBASE
  1

  9
$STYLESHEET
  1

  9
$XEDIT
290
     1
  9
$CEPSNTYPE
380
     0
  9
$PSTYLEMODE
290
     1
  9
$FINGERPRINTGUID
  2
{7E86B2C7-DD72-A8EE-7ADE-798699B1FCCA}
  9
$VERSIONGUID
  2
{FAEB1C32-E019-11D5-929B-00C0DF256EC4}
  9
$EXTNAMES
290
     1
  9
$PSVPSCALE
 40
0.0
  9
$OLESTARTUP
290
     0
  9
$SORTENTS
280
   127
  9
$INDEXCTL
280
     0
  9
$HIDETEXT
280
     1
  9
$XCLIPFRAME
280
     2
  9
$HALOGAP
280
     0
  9
$OBSCOLOR
 70
   257
  9
$OBSLTYPE
280
     0
  9
$INTERSECTIONDISPLAY
280
     0
  9
$INTERSECTIONCOLOR
 70
   257
  9
$DIMASSOC
280
     2
  9
$PROJECTNAME
  1

  9
$CAMERADISPLAY
290
     0
  9
$LENSLENGTH
 40
50.0
  9
$CAMERAHEIGHT
 40
0.0
  9
$STEPSPERSEC
 40
2.0
  9
$STEPSIZE
 40
6.0
  9
$3DDWFPREC
 40
2.0
  9
$PSOLWIDTH
 40
0.25
  9
$PSOLHEIGHT
 40
4.0
  9
$LOFTANG1
 40
1.570796326794897
  9
$LOFTANG2
 40
1.570796326794897
  9
$LOFTMAG1
 40
0.0
  9
$LOFTMAG2
 40
0.0
  9
$LOFTPARAM
 70
     7
  9
$LOFTNORMALS
280
     1
  9
$LATITUDE
 40
37.795
  9
$LONGITUDE
 40
-122.394
  9
$NORTHDIRECTION
 40
0.0
  9
$TIMEZONE
 70
 -8000
  9
$LIGHTGLYPHDISPLAY
280
     1
  9
$TILEMODELIGHTSYNCH
280
     1
  9
$CMATERIAL
347
3C
  9
$SOLIDHIST
280
     1
  9
$SHOWHIST
280
     1
  9
$DWFFRAME
280
     2
  9
$DGNFRAME
280
     2
  9
$REALWORLDSCALE
290
     1
  9
$INTERFERECOLOR
 62
   256
  9
$CSHADOW
280
     0
  9
$SHADOWPLANELOCATION
 40
0.0
  0
ENDSEC
  0
SECTION
  2
CLASSES
  0
CLASS
  1
ACDBDICTIONARYWDFLT
  2
AcDbDictionaryWithDefault
  3
ObjectDBX Classes
 90
        0
 91
        4
280
     0
281
     0
  0
CLASS
  1
VISUALSTYLE
  2
AcDbVisualStyle
  3
ObjectDBX Classes
 90
     4095
 91
        4
280
     0
281
     0
  0
CLASS
  1
MATERIAL
  2
AcDbMaterial
  3
ObjectDBX Classes
 90
     1153
 91
        4
280
     0
281
     0
  0
CLASS
  1
SUN
  2
AcDbSun
  3
SCENEOE
 90
     1024
 91
        4
280
     0
281
     0
  0
ENDSEC
  0
SECTION
  2
TABLES
  0
TABLE
  2
VPORT
  5
8
330
0
100
AcDbSymbolTable
 70
     1
  0
VPORT
  5
29
330
8
100
AcDbSymbolTableRecord
100
AcDbViewportTableRecord
  2
*Active
 70
     0
 10
0.0
 20
0.0
 11
1.0
 21
1.0
 12
0.0
 22
0.0
 13
0.0
 23
0.0
 14
0.5
 24
0.5
 15
0.5
 25
0.5
 16
0.0
 26
0.0
 36
1.0
 17
105.0008280156501
 27
-148.4999710739862
 37
0.0
 40
296.9999421479724
 41
0.7070764206636528
 42
50.0
 43
0.0
 44
0.0
 50
0.0
 51
0.0
 71
     0
 72
   100
 73
     1
 74
     3
 75
     0
 76
     0
 77
     0
 78
     0
281
     0
 65
     1
110
0.0
120
0.0
130
0.0
111
1.0
121
0.0
131
0.0
112
0.0
122
1.0
132
0.0
 79
     0
146
0.0
 60
     3
 61
     5
292
     1
282
     1
141
0.0
142
0.0
 63
   250
361
3F
  0
ENDTAB
  0
TABLE
  2
LTYPE
  5
5
330
0
100
AcDbSymbolTable
 70
     1
  0
LTYPE
  5
14
330
5
100
AcDbSymbolTableRecord
100
AcDbLinetypeTableRecord
  2
ByBlock
 70
     0
  3

 72
    65
 73
     0
 40
0.0
  0
LTYPE
  5
15
330
5
100
AcDbSymbolTableRecord
100
AcDbLinetypeTableRecord
  2
ByLayer
 70
     0
  3

 72
    65
 73
     0
 40
0.0
  0
LTYPE
  5
16
330
5
100
AcDbSymbolTableRecord
100
AcDbLinetypeTableRecord
  2
Continuous
 70
     0
  3
Solid line
 72
    65
 73
     0
 40
0.0
  0
ENDTAB
  0
TABLE
  2
LAYER
  5
2
330
0
100
AcDbSymbolTable
 70
     2
  0
LAYER
  5
10
330
2
100
AcDbSymbolTableRecord
100
AcDbLayerTableRecord
  2
0
 70
     0
 62
     7
  6
Continuous
370
    -3
390
F
347
3E
  0
LAYER
  5
40
330
2
100
AcDbSymbolTableRecord
100
AcDbLayerTableRecord
  2
_U+30EC_U+30A4_U+30E4_U+30FC 1
 70
     0
 62
     7
  6
Continuous
370
    -3
390
F
347
3E
  0
ENDTAB
  0
TABLE
  2
STYLE
  5
3
330
0
100
AcDbSymbolTable
 70
     1
  0
STYLE
  5
11
330
3
100
AcDbSymbolTableRecord
100
AcDbTextStyleTableRecord
  2
Standard
 70
     0
 40
0.0
 41
1.0
 50
0.0
 71
     0
 42
0.2
  3
txt
  4

  0
ENDTAB
  0
TABLE
  2
VIEW
  5
6
330
0
100
AcDbSymbolTable
 70
     0
  0
ENDTAB
  0
TABLE
  2
UCS
  5
7
330
0
100
AcDbSymbolTable
 70
     0
  0
ENDTAB
  0
TABLE
  2
APPID
  5
9
330
0
100
AcDbSymbolTable
 70
     1
  0
APPID
  5
12
330
9
100
AcDbSymbolTableRecord
100
AcDbRegAppTableRecord
  2
ACAD
 70
     0
  0
ENDTAB
  0
TABLE
  2
DIMSTYLE
  5
A
330
0
100
AcDbSymbolTable
 70
     1
100
AcDbDimStyleTable
  0
DIMSTYLE
105
27
330
A
100
AcDbSymbolTableRecord
100
AcDbDimStyleTableRecord
  2
Standard
 70
     0
178
     0
340
11
  0
ENDTAB
  0
TABLE
  2
BLOCK_RECORD
  5
1
330
0
100
AcDbSymbolTable
 70
     7
  0
BLOCK_RECORD
  5
1F
330
1
100
AcDbSymbolTableRecord
100
AcDbBlockTableRecord
  2
*Model_Space
340
22
 70
     0
280
     1
281
     0
  0
BLOCK_RECORD
  5
1B
330
1
100
AcDbSymbolTableRecord
100
AcDbBlockTableRecord
  2
*Paper_Space
340
1E
 70
     0
280
     1
281
     0
  0
BLOCK_RECORD
  5
23
330
1
100
AcDbSymbolTableRecord
100
AcDbBlockTableRecord
  2
*Paper_Space0
340
26
 70
     0
280
     1
281
     0
  0
BLOCK_RECORD
  5
41
330
1
100
AcDbSymbolTableRecord
100
AcDbBlockTableRecord
  2
block 2
340
0
102
{BLKREFS
331
42
102
}
 70
     0
280
     1
281
     0
  0
BLOCK_RECORD
  5
7A
330
1
100
AcDbSymbolTableRecord
100
AcDbBlockTableRecord
  2
block 3
340
0
102
{BLKREFS
331
7B
102
}
 70
     0
280
     1
281
     0
  0
BLOCK_RECORD
  5
8E
330
1
100
AcDbSymbolTableRecord
100
AcDbBlockTableRecord
  2
block 4
340
0
102
{BLKREFS
331
8F
102
}
 70
     0
280
     1
281
     0
  0
BLOCK_RECORD
  5
A7
330
1
100
AcDbSymbolTableRecord
100
AcDbBlockTableRecord
  2
block 5
340
0
102
{BLKREFS
331
A8
102
}
 70
     0
280
     1
281
     0
  0
BLOCK_RECORD
  5
C8
330
1
100
AcDbSymbolTableRecord
100
AcDbBlockTableRecord
  2
block 6
340
0
102
{BLKREFS
331
C9
102
}
 70
     0
280
     1
281
     0
  0
BLOCK_RECORD
  5
DA
330
1
100
AcDbSymbolTableRecord
100
AcDbBlockTableRecord
  2
block 7
340
0
102
{BLKREFS
331
DB
102
}
 70
     0
280
     1
281
     0
  0
ENDTAB
  0
ENDSEC
  0
SECTION
  2
BLOCKS
  0
BLOCK
  5
20
330
1F
100
AcDbEntity
  8
0
100
AcDbBlockBegin
  2
*Model_Space
 70
     0
 10
0.0
 20
0.0
 30
0.0
  3
*Model_Space
  1

  0
ENDBLK
  5
21
330
1F
100
AcDbEntity
  8
0
100
AcDbBlockEnd
  0
BLOCK
  5
1C
330
1B
100
AcDbEntity
 67
     1
  8
0
100
AcDbBlockBegin
  2
*Paper_Space
 70
     0
 10
0.0
 20
0.0
 30
0.0
  3
*Paper_Space
  1

  0
ENDBLK
  5
1D
330
1B
100
AcDbEntity
 67
     1
  8
0
100
AcDbBlockEnd
  0
BLOCK
  5
24
330
23
100
AcDbEntity
  8
0
100
AcDbBlockBegin
  2
*Paper_Space0
 70
     0
 10
0.0
 20
0.0
 30
0.0
  3
*Paper_Space0
  1

  0
ENDBLK
  5
25
330
23
100
AcDbEntity
  8
0
100
AcDbBlockEnd
  0
BLOCK
  5
43
330
41
100
AcDbEntity
  8
0
100
AcDbBlockBegin
  2
block 2
 70
     0
 10
0.0
 20
0.0
 30
0.0
  3
block 2
  1

  0
POLYLINE
  5
45
330
41
100
AcDbEntity
  8
_U+30EC_U+30A4_U+30E4_U+30FC 1
 62
   179
420
  2234388
370
    25
100
AcDb2dPolyline
 66
     1
 10
0.0
 20
0.0
 30
0.0
  0
VERTEX
  5
46
330
45
100
AcDbEntity
  8
_U+30EC_U+30A4_U+30E4_U+30FC 1
 62
   179
420
  2234388
370
    25
100
AcDbVertex
100
AcDb2dVertex
 10
90.03601270298995
 20
-145.647445241366
 30
0.0
  0
VERTEX
  5
47
330
45
100
AcDbEntity
  8
_U+30EC_U+30A4_U+30E4_U+30FC 1
 62
   179
420
  2234388
370
    25
100
AcDbVertex
100
AcDb2dVertex
 10
115.0358562318575
 20
-145.647445241366
 30
0.0
  0
SEQEND
  5
48
330
45
100
AcDbEntity
  8
_U+30EC_U+30A4_U+30E4_U+30FC 1
 62
   179
420
  2234388
370
    25
  0
POLYLINE
  5
49
330
41
100
AcDbEntity
  8
_U+30EC_U+30A4_U+30E4_U+30FC 1
 62
   179
420
  2234388
370
    25
100
AcDb2dPolyline
 66
     1
 10
0.0
 20
0.0
 30
0.0
  0
VERTEX
  5
4A
330
49
100
AcDbEntity
  8
_U+30EC_U+30A4_U+30E4_U+30FC 1
 62
   179
420
  2234388
370
    25
100
AcDbVertex
100
AcDb2dVertex
 10
90.03601270298995
 20
-145.647445241366
 30
0.0
  0
VERTEX
  5
4B
330
49
100
AcDbEntity
  8
_U+30EC_U+30A4_U+30E4_U+30FC 1
 62
   179
420
  2234388
370
    25
100
AcDbVertex
100
AcDb2dVertex
 10
90.03601270298995
 20
-153.0504516284043
 30
0.0
  0
SEQEND
  5
4C
330
49
100
AcDbEntity
  8
_U+30EC_U+30A4_U+30E4_U+30FC 1
 62
   179
420
  2234388
370
    25
  0
POLYLINE
  5
4D
330
41
100
AcDbEntity
  8
_U+30EC_U+30A4_U+30E4_U+30FC 1
 62
   179
420
  2234388
370
    25
100
AcDb2dPolyline
 66
     1
 10
0.0
 20
0.0
 30
0.0
  0
VERTEX
  5
4E
330
4D
100
AcDbEntity
  8
_U+30EC_U+30A4_U+30E4_U+30FC 1
 62
   179
420
  2234388
370
    25
100
AcDbVertex
100
AcDb2dVertex
 10
115.0358562318575
 20
-145.647445241366
 30
0.0
  0
VERTEX
  5
4F
330
4D
100
AcDbEntity
  8
_U+30EC_U+30A4_U+30E4_U+30FC 1
 62
   179
420
  2234388
370
    25
100
AcDbVertex
100
AcDb2dVertex
 10
115.0358562318575
 20
-146.6472174633382
 30
0.0
  0
SEQEND
  5
50
330
4D
100
AcDbEntity
  8
_U+30EC_U+30A4_U+30E4_U+30FC 1
 62
   179
420
  2234388
370
    25
  0
POLYLINE
  5
51
330
41
100
AcDbEntity
  8
_U+30EC_U+30A4_U+30E4_U+30FC 1
 62
   179
420
  2234388
370
    25
100
AcDb2dPolyline
 66
     1
 10
0.0
 20
0.0
 30
0.0
  0
VERTEX
  5
52
330
51
100
AcDbEntity
  8
_U+30EC_U+30A4_U+30E4_U+30FC 1
 62
   179
420
  2234388
370
    25
100
AcDbVertex
100
AcDb2dVertex
 10
91.03613767747464
 20
-146.6472174633382
 30
0.0
  0
VERTEX
  5
53
330
51
100
AcDbEntity
  8
_U+30EC_U+30A4_U+30E4_U+30FC 1
 62
   179
420
  2234388
370
    25
100
AcDbVertex
100
AcDb2dVertex
 10
115.0358562318575
 20
-146.6472174633382
 30
0.0
  0
SEQEND
  5
54
330
51
100
AcDbEntity
  8
_U+30EC_U+30A4_U+30E4_U+30FC 1
 62
   179
420
  2234388
370
    25
  0
POLYLINE
  5
55
330
41
100
AcDbEntity
  8
_U+30EC_U+30A4_U+30E4_U+30FC 1
 62
   179
420
  2234388
370
    25
100
AcDb2dPolyline
 66
     1
 10
0.0
 20
0.0
 30
0.0
  0
VERTEX
  5
56
330
55
100
AcDbEntity
  8
_U+30EC_U+30A4_U+30E4_U+30FC 1
 62
   179
420
  2234388
370
    25
100
AcDbVertex
100
AcDb2dVertex
 10
100.041780530545
 20
-152.0506794064317
 30
0.0
  0
VERTEX
  5
57
330
55
100
AcDbEntity
  8
_U+30EC_U+30A4_U+30E4_U+30FC 1
 62
   179
420
  2234388
370
    25
100
AcDbVertex
100
AcDb2dVertex
 10
100.041780530545
 20
-152.5502127396406
 30
0.0
  0
SEQEND
  5
58
330
55
100
AcDbEntity
  8
_U+30EC_U+30A4_U+30E4_U+30FC 1
 62
   179
420
  2234388
370
    25
  0
POLYLINE
  5
59
330
41
100
AcDbEntity
  8
_U+30EC_U+30A4_U+30E4_U+30FC 1
 62
   179
420
  2234388
370
    25
100
AcDb2dPolyline
 66
     1
 10
0.0
 20
0.0
 30
0.0
  0
VERTEX
  5
5A
330
59
100
AcDbEntity
  8
_U+30EC_U+30A4_U+30E4_U+30FC 1
 62
   179
420
  2234388
370
    25
100
AcDbVertex
100
AcDb2dVertex
 10
91.03613767747464
 20
-152.0506794064317
 30
0.0
  0
VERTEX
  5
5B
330
59
100
AcDbEntity
  8
_U+30EC_U+30A4_U+30E4_U+30FC 1
 62
   179
420
  2234388
370
    25
100
AcDbVertex
100
AcDb2dVertex
 10
100.041780530545
 20
-152.0506794064317
 30
0.0
  0
SEQEND
  5
5C
330
59
100
AcDbEntity
  8
_U+30EC_U+30A4_U+30E4_U+30FC 1
 62
   179
420
  2234388
370
    25
  0
POLYLINE
  5
5D
330
41
100
AcDbEntity
  8
_U+30EC_U+30A4_U+30E4_U+30FC 1
 62
   179
420
  2234388
370
    25
100
AcDb2dPolyline
 66
     1
 10
0.0
 20
0.0
 30
0.0
  0
VERTEX
  5
5E
330
5D
100
AcDbEntity
  8
_U+30EC_U+30A4_U+30E4_U+30FC 1
 62
   179
420
  2234388
370
    25
100
AcDbVertex
100
AcDb2dVertex
 10
90.03601270298995
 20
-153.0504516284043
 30
0.0
  0
VERTEX
  5
5F
330
5D
100
AcDbEntity
  8
_U+30EC_U+30A4_U+30E4_U+30FC 1
 62
   179
420
  2234388
370
    25
100
AcDbVertex
100
AcDb2dVertex
 10
100.041780530545
 20
-152.5502127396406
 30
0.0
  0
SEQEND
  5
60
330
5D
100
AcDbEntity
  8
_U+30EC_U+30A4_U+30E4_U+30FC 1
 62
   179
420
  2234388
370
    25
  0
POLYLINE
  5
61
330
41
100
AcDbEntity
  8
_U+30EC_U+30A4_U+30E4_U+30FC 1
 62
   179
420
  2234388
370
    25
100
AcDb2dPolyline
 66
     1
 10
0.0
 20
0.0
 30
0.0
  0
VERTEX
  5
62
330
61
100
AcDbEntity
  8
_U+30EC_U+30A4_U+30E4_U+30FC 1
 62
   179
420
  2234388
370
    25
100
AcDbVertex
100
AcDb2dVertex
 10
91.03613767747464
 20
-146.6472174633382
 30
0.0
  0
VERTEX
  5
63
330
61
100
AcDbEntity
  8
_U+30EC_U+30A4_U+30E4_U+30FC 1
 62
   179
420
  2234388
370
    25
100
AcDbVertex
100
AcDb2dVertex
 10
91.03613767747464
 20
-152.0506794064317
 30
0.0
  0
SEQEND
  5
64
330
61
100
AcDbEntity
  8
_U+30EC_U+30A4_U+30E4_U+30FC 1
 62
   179
420
  2234388
370
    25
  0
SPLINE
  5
65
330
41
100
AcDbEntity
  8
_U+30EC_U+30A4_U+30E4_U+30FC 1
 62
   179
420
  2234388
370
     9
100
AcDbSpline
210
0.0
220
0.0
230
1.0
 70
    11
 71
     3
 72
    17
 73
    13
 74
     0
 42
0.0000000001
 43
0.0000000001
 12
1.0
 22
0.0
 32
0.0
 13
1.0
 23
0.0
 33
0.0
 40
0.0
 40
0.0
 40
0.0
 40
0.0
 40
1.0
 40
1.0
 40
1.0
 40
2.0
 40
2.0
 40
2.0
 40
3.0
 40
3.0
 40
3.0
 40
4.0
 40
4.0
 40
4.0
 40
4.0
 10
90.13591936710779
 20
-141.6469805201439
 30
0.0
 10
90.13591936710779
 20
-141.5918766312687
 30
0.0
 10
90.0911518682499
 20
-141.5470738535023
 30
0.0
 10
90.03601270298995
 20
-141.5470738535023
 30
0.0
 10
89.980911088616
 20
-141.5470738535023
 30
0.0
 10
89.93610831084928
 20
-141.5918766312687
 30
0.0
 10
89.93610831084928
 20
-141.6469805201439
 30
0.0
 10
89.93610831084928
 20
-141.7024724645744
 30
0.0
 10
89.980911088616
 20
-141.7472399645633
 30
0.0
 10
90.03601270298995
 20
-141.7472399645633
 30
0.0
 10
90.0911518682499
 20
-141.7472399645633
 30
0.0
 10
90.13591936710779
 20
-141.7024724645744
 30
0.0
 10
90.13591936710779
 20
-141.6469805201439
 30
0.0
  0
SPLINE
  5
66
330
41
100
AcDbEntity
  8
_U+30EC_U+30A4_U+30E4_U+30FC 1
 62
   179
420
  2234388
370
     9
100
AcDbSpline
210
0.0
220
0.0
230
1.0
 70
    11
 71
     3
 72
    17
 73
    13
 74
     0
 42
0.0000000001
 43
0.0000000001
 12
1.0
 22
0.0
 32
0.0
 13
1.0
 23
0.0
 33
0.0
 40
0.0
 40
0.0
 40
0.0
 40
0.0
 40
1.0
 40
1.0
 40
1.0
 40
2.0
 40
2.0
 40
2.0
 40
3.0
 40
3.0
 40
3.0
 40
4.0
 40
4.0
 40
4.0
 40
4.0
 10
115.1357628959753
 20
-141.6469805201439
 30
0.0
 10
115.1357628959753
 20
-141.5918766312687
 30
0.0
 10
115.0909953971174
 20
-141.5470738535023
 30
0.0
 10
115.0358562318575
 20
-141.5470738535023
 30
0.0
 10
114.9807523443744
 20
-141.5470738535023
 30
0.0
 10
114.9359495677396
 20
-141.5918766312687
 30
0.0
 10
114.9359495677396
 20
-141.6469805201439
 30
0.0
 10
114.9359495677396
 20
-141.7024724645744
 30
0.0
 10
114.9807523443744
 20
-141.7472399645633
 30
0.0
 10
115.0358562318575
 20
-141.7472399645633
 30
0.0
 10
115.0909953971174
 20
-141.7472399645633
 30
0.0
 10
115.1357628959753
 20
-141.7024724645744
 30
0.0
 10
115.1357628959753
 20
-141.6469805201439
 30
0.0
  0
SPLINE
  5
67
330
41
100
AcDbEntity
  8
_U+30EC_U+30A4_U+30E4_U+30FC 1
 62
   179
420
  2234388
370
     9
100
AcDbSpline
210
0.0
220
0.0
230
1.0
 70
    11
 71
     3
 72
    17
 73
    13
 74
     0
 42
0.0000000001
 43
0.0000000001
 12
1.0
 22
0.0
 32
0.0
 13
1.0
 23
0.0
 33
0.0
 40
0.0
 40
0.0
 40
0.0
 40
0.0
 40
1.0
 40
1.0
 40
1.0
 40
2.0
 40
2.0
 40
2.0
 40
3.0
 40
3.0
 40
3.0
 40
4.0
 40
4.0
 40
4.0
 40
4.0
 10
119.1362305257718
 20
-145.647445241366
 30
0.0
 10
119.1362305257718
 20
-145.591988574713
 30
0.0
 10
119.091427748005
 20
-145.5471857969466
 30
0.0
 10
119.0363208520193
 20
-145.5471857969466
 30
0.0
 10
118.9805114089987
 20
-145.5471857969466
 30
0.0
 10
118.935708632364
 20
-145.591988574713
 30
0.0
 10
118.935708632364
 20
-145.647445241366
 30
0.0
 10
118.935708632364
 20
-145.7025491302409
 30
0.0
 10
118.9805114089987
 20
-145.7473519080076
 30
0.0
 10
119.0363208520193
 20
-145.7473519080076
 30
0.0
 10
119.091427748005
 20
-145.7473519080076
 30
0.0
 10
119.1362305257718
 20
-145.7025491302409
 30
0.0
 10
119.1362305257718
 20
-145.647445241366
 30
0.0
  0
SPLINE
  5
68
330
41
100
AcDbEntity
  8
_U+30EC_U+30A4_U+30E4_U+30FC 1
 62
   179
420
  2234388
370
     9
100
AcDbSpline
210
0.0
220
0.0
230
1.0
 70
    11
 71
     3
 72
    17
 73
    13
 74
     0
 42
0.0000000001
 43
0.0000000001
 12
1.0
 22
0.0
 32
0.0
 13
1.0
 23
0.0
 33
0.0
 40
0.0
 40
0.0
 40
0.0
 40
0.0
 40
1.0
 40
1.0
 40
1.0
 40
2.0
 40
2.0
 40
2.0
 40
3.0
 40
3.0
 40
3.0
 40
4.0
 40
4.0
 40
4.0
 40
4.0
 10
119.1362305257718
 20
-146.6472174633382
 30
0.0
 10
119.1362305257718
 20
-146.5920782966855
 30
0.0
 10
119.091427748005
 20
-146.5473107966966
 30
0.0
 10
119.0363208520193
 20
-146.5473107966966
 30
0.0
 10
118.9805114089987
 20
-146.5473107966966
 30
0.0
 10
118.935708632364
 20
-146.5920782966855
 30
0.0
 10
118.935708632364
 20
-146.6472174633382
 30
0.0
 10
118.935708632364
 20
-146.7023213522134
 30
0.0
 10
118.9805114089987
 20
-146.7471241299799
 30
0.0
 10
119.0363208520193
 20
-146.7471241299799
 30
0.0
 10
119.091427748005
 20
-146.7471241299799
 30
0.0
 10
119.1362305257718
 20
-146.7023213522134
 30
0.0
 10
119.1362305257718
 20
-146.6472174633382
 30
0.0
  0
SPLINE
  5
69
330
41
100
AcDbEntity
  8
_U+30EC_U+30A4_U+30E4_U+30FC 1
 62
   179
420
  2234388
370
     9
100
AcDbSpline
210
0.0
220
0.0
230
1.0
 70
    11
 71
     3
 72
    17
 73
    13
 74
     0
 42
0.0000000001
 43
0.0000000001
 12
1.0
 22
0.0
 32
0.0
 13
1.0
 23
0.0
 33
0.0
 40
0.0
 40
0.0
 40
0.0
 40
0.0
 40
1.0
 40
1.0
 40
1.0
 40
2.0
 40
2.0
 40
2.0
 40
3.0
 40
3.0
 40
3.0
 40
4.0
 40
4.0
 40
4.0
 40
4.0
 10
119.1362305257718
 20
-152.0506794064317
 30
0.0
 10
119.1362305257718
 20
-151.9948699620013
 30
0.0
 10
119.091427748005
 20
-151.9500671842345
 30
0.0
 10
119.0363208520193
 20
-151.9500671842345
 30
0.0
 10
118.9805114089987
 20
-151.9500671842345
 30
0.0
 10
118.935708632364
 20
-151.9948699620013
 30
0.0
 10
118.935708632364
 20
-152.0506794064317
 30
0.0
 10
118.935708632364
 20
-152.1057832953066
 30
0.0
 10
118.9805114089987
 20
-152.1505860730734
 30
0.0
 10
119.0363208520193
 20
-152.1505860730734
 30
0.0
 10
119.091427748005
 20
-152.1505860730734
 30
0.0
 10
119.1362305257718
 20
-152.1057832953066
 30
0.0
 10
119.1362305257718
 20
-152.0506794064317
 30
0.0
  0
SPLINE
  5
6A
330
41
100
AcDbEntity
  8
_U+30EC_U+30A4_U+30E4_U+30FC 1
 62
   179
420
  2234388
370
     9
100
AcDbSpline
210
0.0
220
0.0
230
1.0
 70
    11
 71
     3
 72
    17
 73
    13
 74
     0
 42
0.0000000001
 43
0.0000000001
 12
1.0
 22
0.0
 32
0.0
 13
1.0
 23
0.0
 33
0.0
 40
0.0
 40
0.0
 40
0.0
 40
0.0
 40
1.0
 40
1.0
 40
1.0
 40
2.0
 40
2.0
 40
2.0
 40
3.0
 40
3.0
 40
3.0
 40
4.0
 40
4.0
 40
4.0
 40
4.0
 10
104.1417965097881
 20
-152.0506794064317
 30
0.0
 10
104.1417965097881
 20
-151.9948699620013
 30
0.0
 10
104.0969937331533
 20
-151.9500671842345
 30
0.0
 10
104.0418898456703
 20
-151.9500671842345
 30
0.0
 10
103.9867506804103
 20
-151.9500671842345
 30
0.0
 10
103.9419831815524
 20
-151.9948699620013
 30
0.0
 10
103.9419831815524
 20
-152.0506794064317
 30
0.0
 10
103.9419831815524
 20
-152.1057832953066
 30
0.0
 10
103.9867506804103
 20
-152.1505860730734
 30
0.0
 10
104.0418898456703
 20
-152.1505860730734
 30
0.0
 10
104.0969937331533
 20
-152.1505860730734
 30
0.0
 10
104.1417965097881
 20
-152.1057832953066
 30
0.0
 10
104.1417965097881
 20
-152.0506794064317
 30
0.0
  0
SPLINE
  5
6B
330
41
100
AcDbEntity
  8
_U+30EC_U+30A4_U+30E4_U+30FC 1
 62
   179
420
  2234388
370
     9
100
AcDbSpline
210
0.0
220
0.0
230
1.0
 70
    11
 71
     3
 72
    17
 73
    13
 74
     0
 42
0.0000000001
 43
0.0000000001
 12
1.0
 22
0.0
 32
0.0
 13
1.0
 23
0.0
 33
0.0
 40
0.0
 40
0.0
 40
0.0
 40
0.0
 40
1.0
 40
1.0
 40
1.0
 40
2.0
 40
2.0
 40
2.0
 40
3.0
 40
3.0
 40
3.0
 40
4.0
 40
4.0
 40
4.0
 40
4.0
 10
104.1417965097881
 20
-152.5502127396406
 30
0.0
 10
104.1417965097881
 20
-152.4950735729875
 30
0.0
 10
104.0969937331533
 20
-152.4503060729983
 30
0.0
 10
104.0418898456703
 20
-152.4503060729983
 30
0.0
 10
103.9867506804103
 20
-152.4503060729983
 30
0.0
 10
103.9419831815524
 20
-152.4950735729875
 30
0.0
 10
103.9419831815524
 20
-152.5502127396406
 30
0.0
 10
103.9419831815524
 20
-152.6053166285155
 30
0.0
 10
103.9867506804103
 20
-152.6501194062822
 30
0.0
 10
104.0418898456703
 20
-152.6501194062822
 30
0.0
 10
104.0969937331533
 20
-152.6501194062822
 30
0.0
 10
104.1417965097881
 20
-152.6053166285155
 30
0.0
 10
104.1417965097881
 20
-152.5502127396406
 30
0.0
  0
SPLINE
  5
6C
330
41
100
AcDbEntity
  8
_U+30EC_U+30A4_U+30E4_U+30FC 1
 62
   179
420
  2234388
370
     9
100
AcDbSpline
210
0.0
220
0.0
230
1.0
 70
    11
 71
     3
 72
    17
 73
    13
 74
     0
 42
0.0000000001
 43
0.0000000001
 12
1.0
 22
0.0
 32
0.0
 13
1.0
 23
0.0
 33
0.0
 40
0.0
 40
0.0
 40
0.0
 40
0.0
 40
1.0
 40
1.0
 40
1.0
 40
2.0
 40
2.0
 40
2.0
 40
3.0
 40
3.0
 40
3.0
 40
4.0
 40
4.0
 40
4.0
 40
4.0
 10
100.1420374451638
 20
-157.050175516293
 30
0.0
 10
100.1420374451638
 20
-156.9950716274181
 30
0.0
 10
100.097234668529
 20
-156.9502688496513
 30
0.0
 10
100.041780530545
 20
-156.9502688496513
 30
0.0
 10
99.98632133802532
 20
-156.9502688496513
 30
0.0
 10
99.94187133915933
 20
-156.9950716274181
 30
0.0
 10
99.94187133915933
 20
-157.050175516293
 30
0.0
 10
99.94187133915933
 20
-157.105314682946
 30
0.0
 10
99.98632133802532
 20
-157.1500821829346
 30
0.0
 10
100.041780530545
 20
-157.1500821829346
 30
0.0
 10
100.097234668529
 20
-157.1500821829346
 30
0.0
 10
100.1420374451638
 20
-157.105314682946
 30
0.0
 10
100.1420374451638
 20
-157.050175516293
 30
0.0
  0
SPLINE
  5
6D
330
41
100
AcDbEntity
  8
_U+30EC_U+30A4_U+30E4_U+30FC 1
 62
   179
420
  2234388
370
     9
100
AcDbSpline
210
0.0
220
0.0
230
1.0
 70
    11
 71
     3
 72
    17
 73
    13
 74
     0
 42
0.0000000001
 43
0.0000000001
 12
1.0
 22
0.0
 32
0.0
 13
1.0
 23
0.0
 33
0.0
 40
0.0
 40
0.0
 40
0.0
 40
0.0
 40
1.0
 40
1.0
 40
1.0
 40
2.0
 40
2.0
 40
2.0
 40
3.0
 40
3.0
 40
3.0
 40
4.0
 40
4.0
 40
4.0
 40
4.0
 10
90.13591936710779
 20
-157.050175516293
 30
0.0
 10
90.13591936710779
 20
-156.9950716274181
 30
0.0
 10
90.0911518682499
 20
-156.9502688496513
 30
0.0
 10
90.03601270298995
 20
-156.9502688496513
 30
0.0
 10
89.980911088616
 20
-156.9502688496513
 30
0.0
 10
89.93610831084928
 20
-156.9950716274181
 30
0.0
 10
89.93610831084928
 20
-157.050175516293
 30
0.0
 10
89.93610831084928
 20
-157.105314682946
 30
0.0
 10
89.980911088616
 20
-157.1500821829346
 30
0.0
 10
90.03601270298995
 20
-157.1500821829346
 30
0.0
 10
90.0911518682499
 20
-157.1500821829346
 30
0.0
 10
90.13591936710779
 20
-157.105314682946
 30
0.0
 10
90.13591936710779
 20
-157.050175516293
 30
0.0
  0
POLYLINE
  5
6E
330
41
100
AcDbEntity
  8
_U+30EC_U+30A4_U+30E4_U+30FC 1
 62
   179
420
  2234388
370
     9
100
AcDb2dPolyline
 66
     1
 10
0.0
 20
0.0
 30
0.0
  0
VERTEX
  5
6F
330
6E
100
AcDbEntity
  8
_U+30EC_U+30A4_U+30E4_U+30FC 1
 62
   179
420
  2234388
370
     9
100
AcDbVertex
100
AcDb2dVertex
 10
90.03601270298995
 20
-141.6469805201439
 30
0.0
  0
VERTEX
  5
70
330
6E
100
AcDbEntity
  8
_U+30EC_U+30A4_U+30E4_U+30FC 1
 62
   179
420
  2234388
370
     9
100
AcDbVertex
100
AcDb2dVertex
 10
115.0358562318575
 20
-141.6469805201439
 30
0.0
  0
SEQEND
  5
71
330
6E
100
AcDbEntity
  8
_U+30EC_U+30A4_U+30E4_U+30FC 1
 62
   179
420
  2234388
370
     9
  0
POLYLINE
  5
72
330
41
100
AcDbEntity
  8
_U+30EC_U+30A4_U+30E4_U+30FC 1
 62
   179
420
  2234388
370
     9
100
AcDb2dPolyline
 66
     1
 10
0.0
 20
0.0
 30
0.0
  0
VERTEX
  5
73
330
72
100
AcDbEntity
  8
_U+30EC_U+30A4_U+30E4_U+30FC 1
 62
   179
420
  2234388
370
     9
100
AcDbVertex
100
AcDb2dVertex
 10
90.03601270298995
 20
-143.1070219086676
 30
0.0
  0
VERTEX
  5
74
330
72
100
AcDbEntity
  8
_U+30EC_U+30A4_U+30E4_U+30FC 1
 62
   179
420
  2234388
370
     9
100
AcDbVertex
100
AcDb2dVertex
 10
90.03601270298995
 20
-140.6472435759492
 30
0.0
  0
SEQEND
  5
75
330
72
100
AcDbEntity
  8
_U+30EC_U+30A4_U+30E4_U+30FC 1
 62
   179
420
  2234388
370
     9
  0
POLYLINE
  5
76
330
41
100
AcDbEntity
  8
_U+30EC_U+30A4_U+30E4_U+30FC 1
 62
   179
420
  2234388
370
     9
100
AcDb2dPolyline
 66
     1
 10
0.0
 20
0.0
 30
0.0
  0
VERTEX
  5
77
330
76
100
AcDbEntity
  8
_U+30EC_U+30A4_U+30E4_U+30FC 1
 62
   179
420
  2234388
370
     9
100
AcDbVertex
100
AcDb2dVertex
 10
115.0358562318575
 20
-143.1070219086676
 30
0.0
  0
VERTEX
  5
78
330
76
100
AcDbEntity
  8
_U+30EC_U+30A4_U+30E4_U+30FC 1
 62
   179
420
  2234388
370
     9
100
AcDbVertex
100
AcDb2dVertex
 10
115.0358562318575
 20
-140.6472435759492
 30
0.0
  0
SEQEND
  5
79
330
76
100
AcDbEntity
  8
_U+30EC_U+30A4_U+30E4_U+30FC 1
 62
   179
420
  2234388
370
     9
  0
INSERT
  5
7B
330
41
100
AcDbEntity
  8
_U+30EC_U+30A4_U+30E4_U+30FC 1
100
AcDbBlockReference
  2
block 3
 10
0.0
 20
0.0
 30
0.0
  0
POLYLINE
  5
82
330
41
100
AcDbEntity
  8
_U+30EC_U+30A4_U+30E4_U+30FC 1
 62
   179
420
  2234388
370
     9
100
AcDb2dPolyline
 66
     1
 10
0.0
 20
0.0
 30
0.0
  0
VERTEX
  5
83
330
82
100
AcDbEntity
  8
_U+30EC_U+30A4_U+30E4_U+30FC 1
 62
   179
420
  2234388
370
     9
100
AcDbVertex
100
AcDb2dVertex
 10
90.03601270298995
 20
-157.050175516293
 30
0.0
  0
VERTEX
  5
84
330
82
100
AcDbEntity
  8
_U+30EC_U+30A4_U+30E4_U+30FC 1
 62
   179
420
  2234388
370
     9
100
AcDbVertex
100
AcDb2dVertex
 10
100.041780530545
 20
-157.050175516293
 30
0.0
  0
SEQEND
  5
85
330
82
100
AcDbEntity
  8
_U+30EC_U+30A4_U+30E4_U+30FC 1
 62
   179
420
  2234388
370
     9
  0
POLYLINE
  5
86
330
41
100
AcDbEntity
  8
_U+30EC_U+30A4_U+30E4_U+30FC 1
 62
   179
420
  2234388
370
     9
100
AcDb2dPolyline
 66
     1
 10
0.0
 20
0.0
 30
0.0
  0
VERTEX
  5
87
330
86
100
AcDbEntity
  8
_U+30EC_U+30A4_U+30E4_U+30FC 1
 62
   179
420
  2234388
370
     9
100
AcDbVertex
100
AcDb2dVertex
 10
90.03601270298995
 20
-155.5901694055468
 30
0.0
  0
VERTEX
  5
88
330
86
100
AcDbEntity
  8
_U+30EC_U+30A4_U+30E4_U+30FC 1
 62
   179
420
  2234388
370
     9
100
AcDbVertex
100
AcDb2dVertex
 10
90.03601270298995
 20
-158.0506532938204
 30
0.0
  0
SEQEND
  5
89
330
86
100
AcDbEntity
  8
_U+30EC_U+30A4_U+30E4_U+30FC 1
 62
   179
420
  2234388
370
     9
  0
POLYLINE
  5
8A
330
41
100
AcDbEntity
  8
_U+30EC_U+30A4_U+30E4_U+30FC 1
 62
   179
420
  2234388
370
     9
100
AcDb2dPolyline
 66
     1
 10
0.0
 20
0.0
 30
0.0
  0
VERTEX
  5
8B
330
8A
100
AcDbEntity
  8
_U+30EC_U+30A4_U+30E4_U+30FC 1
 62
   179
420
  2234388
370
     9
100
AcDbVertex
100
AcDb2dVertex
 10
100.041780530545
 20
-155.0906360723386
 30
0.0
  0
VERTEX
  5
8C
330
8A
100
AcDbEntity
  8
_U+30EC_U+30A4_U+30E4_U+30FC 1
 62
   179
420
  2234388
370
     9
100
AcDbVertex
100
AcDb2dVertex
 10
100.041780530545
 20
-158.0506532938204
 30
0.0
  0
SEQEND
  5
8D
330
8A
100
AcDbEntity
  8
_U+30EC_U+30A4_U+30E4_U+30FC 1
 62
   179
420
  2234388
370
     9
  0
INSERT
  5
8F
330
41
100
AcDbEntity
  8
_U+30EC_U+30A4_U+30E4_U+30FC 1
100
AcDbBlockReference
  2
block 4
 10
0.0
 20
0.0
 30
0.0
  0
POLYLINE
  5
97
330
41
100
AcDbEntity
  8
_U+30EC_U+30A4_U+30E4_U+30FC 1
 62
   179
420
  2234388
370
     9
100
AcDb2dPolyline
 66
     1
 10
0.0
 20
0.0
 30
0.0
  0
VERTEX
  5
98
330
97
100
AcDbEntity
  8
_U+30EC_U+30A4_U+30E4_U+30FC 1
 62
   179
420
  2234388
370
     9
100
AcDbVertex
100
AcDb2dVertex
 10
104.0418898456703
 20
-152.0506794064317
 30
0.0
  0
VERTEX
  5
99
330
97
100
AcDbEntity
  8
_U+30EC_U+30A4_U+30E4_U+30FC 1
 62
   179
420
  2234388
370
     9
100
AcDbVertex
100
AcDb2dVertex
 10
104.0418898456703
 20
-147.5894516297693
 30
0.0
  0
SEQEND
  5
9A
330
97
100
AcDbEntity
  8
_U+30EC_U+30A4_U+30E4_U+30FC 1
 62
   179
420
  2234388
370
     9
  0
POLYLINE
  5
9B
330
41
100
AcDbEntity
  8
_U+30EC_U+30A4_U+30E4_U+30FC 1
 62
   179
420
  2234388
370
     9
100
AcDb2dPolyline
 66
     1
 10
0.0
 20
0.0
 30
0.0
  0
VERTEX
  5
9C
330
9B
100
AcDbEntity
  8
_U+30EC_U+30A4_U+30E4_U+30FC 1
 62
   179
420
  2234388
370
     9
100
AcDbVertex
100
AcDb2dVertex
 10
104.0418898456703
 20
-152.0506794064317
 30
0.0
  0
VERTEX
  5
9D
330
9B
100
AcDbEntity
  8
_U+30EC_U+30A4_U+30E4_U+30FC 1
 62
   179
420
  2234388
370
     9
100
AcDbVertex
100
AcDb2dVertex
 10
104.0418898456703
 20
-153.5506552393898
 30
0.0
  0
SEQEND
  5
9E
330
9B
100
AcDbEntity
  8
_U+30EC_U+30A4_U+30E4_U+30FC 1
 62
   179
420
  2234388
370
     9
  0
POLYLINE
  5
9F
330
41
100
AcDbEntity
  8
_U+30EC_U+30A4_U+30E4_U+30FC 1
 62
   179
420
  2234388
370
     9
100
AcDb2dPolyline
 66
     1
 10
0.0
 20
0.0
 30
0.0
  0
VERTEX
  5
A0
330
9F
100
AcDbEntity
  8
_U+30EC_U+30A4_U+30E4_U+30FC 1
 62
   179
420
  2234388
370
     9
100
AcDbVertex
100
AcDb2dVertex
 10
102.5818484940301
 20
-152.0506794064317
 30
0.0
  0
VERTEX
  5
A1
330
9F
100
AcDbEntity
  8
_U+30EC_U+30A4_U+30E4_U+30FC 1
 62
   179
420
  2234388
370
     9
100
AcDbVertex
100
AcDb2dVertex
 10
105.0416620423862
 20
-152.0506794064317
 30
0.0
  0
SEQEND
  5
A2
330
9F
100
AcDbEntity
  8
_U+30EC_U+30A4_U+30E4_U+30FC 1
 62
   179
420
  2234388
370
     9
  0
POLYLINE
  5
A3
330
41
100
AcDbEntity
  8
_U+30EC_U+30A4_U+30E4_U+30FC 1
 62
   179
420
  2234388
370
     9
100
AcDb2dPolyline
 66
     1
 10
0.0
 20
0.0
 30
0.0
  0
VERTEX
  5
A4
330
A3
100
AcDbEntity
  8
_U+30EC_U+30A4_U+30E4_U+30FC 1
 62
   179
420
  2234388
370
     9
100
AcDbVertex
100
AcDb2dVertex
 10
102.5818484940301
 20
-152.5502127396406
 30
0.0
  0
VERTEX
  5
A5
330
A3
100
AcDbEntity
  8
_U+30EC_U+30A4_U+30E4_U+30FC 1
 62
   179
420
  2234388
370
     9
100
AcDbVertex
100
AcDb2dVertex
 10
105.0416620423862
 20
-152.5502127396406
 30
0.0
  0
SEQEND
  5
A6
330
A3
100
AcDbEntity
  8
_U+30EC_U+30A4_U+30E4_U+30FC 1
 62
   179
420
  2234388
370
     9
  0
INSERT
  5
A8
330
41
100
AcDbEntity
  8
_U+30EC_U+30A4_U+30E4_U+30FC 1
100
AcDbBlockReference
  2
block 5
 10
0.0
 20
0.0
 30
0.0
  0
POLYLINE
  5
B8
330
41
100
AcDbEntity
  8
_U+30EC_U+30A4_U+30E4_U+30FC 1
 62
   179
420
  2234388
370
     9
100
AcDb2dPolyline
 66
     1
 10
0.0
 20
0.0
 30
0.0
  0
VERTEX
  5
B9
330
B8
100
AcDbEntity
  8
_U+30EC_U+30A4_U+30E4_U+30FC 1
 62
   179
420
  2234388
370
     9
100
AcDbVertex
100
AcDb2dVertex
 10
119.0363208520193
 20
-145.647445241366
 30
0.0
  0
VERTEX
  5
BA
330
B8
100
AcDbEntity
  8
_U+30EC_U+30A4_U+30E4_U+30FC 1
 62
   179
420
  2234388
370
     9
100
AcDbVertex
100
AcDb2dVertex
 10
119.0363208520193
 20
-141.8771327423086
 30
0.0
  0
SEQEND
  5
BB
330
B8
100
AcDbEntity
  8
_U+30EC_U+30A4_U+30E4_U+30FC 1
 62
   179
420
  2234388
370
     9
  0
POLYLINE
  5
BC
330
41
100
AcDbEntity
  8
_U+30EC_U+30A4_U+30E4_U+30FC 1
 62
   179
420
  2234388
370
     9
100
AcDb2dPolyline
 66
     1
 10
0.0
 20
0.0
 30
0.0
  0
VERTEX
  5
BD
330
BC
100
AcDbEntity
  8
_U+30EC_U+30A4_U+30E4_U+30FC 1
 62
   179
420
  2234388
370
     9
100
AcDbVertex
100
AcDb2dVertex
 10
119.0363208520193
 20
-145.647445241366
 30
0.0
  0
VERTEX
  5
BE
330
BC
100
AcDbEntity
  8
_U+30EC_U+30A4_U+30E4_U+30FC 1
 62
   179
420
  2234388
370
     9
100
AcDbVertex
100
AcDb2dVertex
 10
119.0363208520193
 20
-146.6472174633382
 30
0.0
  0
SEQEND
  5
BF
330
BC
100
AcDbEntity
  8
_U+30EC_U+30A4_U+30E4_U+30FC 1
 62
   179
420
  2234388
370
     9
  0
POLYLINE
  5
C0
330
41
100
AcDbEntity
  8
_U+30EC_U+30A4_U+30E4_U+30FC 1
 62
   179
420
  2234388
370
     9
100
AcDb2dPolyline
 66
     1
 10
0.0
 20
0.0
 30
0.0
  0
VERTEX
  5
C1
330
C0
100
AcDbEntity
  8
_U+30EC_U+30A4_U+30E4_U+30FC 1
 62
   179
420
  2234388
370
     9
100
AcDbVertex
100
AcDb2dVertex
 10
117.5762795003792
 20
-145.647445241366
 30
0.0
  0
VERTEX
  5
C2
330
C0
100
AcDbEntity
  8
_U+30EC_U+30A4_U+30E4_U+30FC 1
 62
   179
420
  2234388
370
     9
100
AcDbVertex
100
AcDb2dVertex
 10
120.0360930487353
 20
-145.647445241366
 30
0.0
  0
SEQEND
  5
C3
330
C0
100
AcDbEntity
  8
_U+30EC_U+30A4_U+30E4_U+30FC 1
 62
   179
420
  2234388
370
     9
  0
POLYLINE
  5
C4
330
41
100
AcDbEntity
  8
_U+30EC_U+30A4_U+30E4_U+30FC 1
 62
   179
420
  2234388
370
     9
100
AcDb2dPolyline
 66
     1
 10
0.0
 20
0.0
 30
0.0
  0
VERTEX
  5
C5
330
C4
100
AcDbEntity
  8
_U+30EC_U+30A4_U+30E4_U+30FC 1
 62
   179
420
  2234388
370
     9
100
AcDbVertex
100
AcDb2dVertex
 10
117.5762795003792
 20
-146.6472174633382
 30
0.0
  0
VERTEX
  5
C6
330
C4
100
AcDbEntity
  8
_U+30EC_U+30A4_U+30E4_U+30FC 1
 62
   179
420
  2234388
370
     9
100
AcDbVertex
100
AcDb2dVertex
 10
120.0360930487353
 20
-146.6472174633382
 30
0.0
  0
SEQEND
  5
C7
330
C4
100
AcDbEntity
  8
_U+30EC_U+30A4_U+30E4_U+30FC 1
 62
   179
420
  2234388
370
     9
  0
INSERT
  5
C9
330
41
100
AcDbEntity
  8
_U+30EC_U+30A4_U+30E4_U+30FC 1
100
AcDbBlockReference
  2
block 6
 10
0.0
 20
0.0
 30
0.0
  0
POLYLINE
  5
CE
330
41
100
AcDbEntity
  8
_U+30EC_U+30A4_U+30E4_U+30FC 1
 62
   179
420
  2234388
370
     9
100
AcDb2dPolyline
 66
     1
 10
0.0
 20
0.0
 30
0.0
  0
VERTEX
  5
CF
330
CE
100
AcDbEntity
  8
_U+30EC_U+30A4_U+30E4_U+30FC 1
 62
   179
420
  2234388
370
     9
100
AcDbVertex
100
AcDb2dVertex
 10
119.0363208520193
 20
-146.6472174633382
 30
0.0
  0
VERTEX
  5
D0
330
CE
100
AcDbEntity
  8
_U+30EC_U+30A4_U+30E4_U+30FC 1
 62
   179
420
  2234388
370
     9
100
AcDbVertex
100
AcDb2dVertex
 10
119.0363208520193
 20
-152.0506794064317
 30
0.0
  0
SEQEND
  5
D1
330
CE
100
AcDbEntity
  8
_U+30EC_U+30A4_U+30E4_U+30FC 1
 62
   179
420
  2234388
370
     9
  0
POLYLINE
  5
D2
330
41
100
AcDbEntity
  8
_U+30EC_U+30A4_U+30E4_U+30FC 1
 62
   179
420
  2234388
370
     9
100
AcDb2dPolyline
 66
     1
 10
0.0
 20
0.0
 30
0.0
  0
VERTEX
  5
D3
330
D2
100
AcDbEntity
  8
_U+30EC_U+30A4_U+30E4_U+30FC 1
 62
   179
420
  2234388
370
     9
100
AcDbVertex
100
AcDb2dVertex
 10
117.5762795003792
 20
-146.6472174633382
 30
0.0
  0
VERTEX
  5
D4
330
D2
100
AcDbEntity
  8
_U+30EC_U+30A4_U+30E4_U+30FC 1
 62
   179
420
  2234388
370
     9
100
AcDbVertex
100
AcDb2dVertex
 10
120.0360930487353
 20
-146.6472174633382
 30
0.0
  0
SEQEND
  5
D5
330
D2
100
AcDbEntity
  8
_U+30EC_U+30A4_U+30E4_U+30FC 1
 62
   179
420
  2234388
370
     9
  0
POLYLINE
  5
D6
330
41
100
AcDbEntity
  8
_U+30EC_U+30A4_U+30E4_U+30FC 1
 62
   179
420
  2234388
370
     9
100
AcDb2dPolyline
 66
     1
 10
0.0
 20
0.0
 30
0.0
  0
VERTEX
  5
D7
330
D6
100
AcDbEntity
  8
_U+30EC_U+30A4_U+30E4_U+30FC 1
 62
   179
420
  2234388
370
     9
100
AcDbVertex
100
AcDb2dVertex
 10
102.5818484940301
 20
-152.0506794064317
 30
0.0
  0
VERTEX
  5
D8
330
D6
100
AcDbEntity
  8
_U+30EC_U+30A4_U+30E4_U+30FC 1
 62
   179
420
  2234388
370
     9
100
AcDbVertex
100
AcDb2dVertex
 10
120.0360930487353
 20
-152.0506794064317
 30
0.0
  0
SEQEND
  5
D9
330
D6
100
AcDbEntity
  8
_U+30EC_U+30A4_U+30E4_U+30FC 1
 62
   179
420
  2234388
370
     9
  0
INSERT
  5
DB
330
41
100
AcDbEntity
  8
_U+30EC_U+30A4_U+30E4_U+30FC 1
100
AcDbBlockReference
  2
block 7
 10
0.0
 20
0.0
 30
0.0
  0
ENDBLK
  5
44
330
41
100
AcDbEntity
  8
0
100
AcDbBlockEnd
  0
BLOCK
  5
7C
330
7A
100
AcDbEntity
  8
0
100
AcDbBlockBegin
  2
block 3
 70
     0
 10
0.0
 20
0.0
 30
0.0
  3
block 3
  1

  0
SPLINE
  5
7E
330
7A
100
AcDbEntity
  8
_U+30EC_U+30A4_U+30E4_U+30FC 1
370
     0
100
AcDbSpline
210
0.0
220
0.0
230
1.0
 70
    11
 71
     3
 72
    44
 73
    40
 74
     0
 42
0.0000000001
 43
0.0000000001
 12
1.0
 22
0.0
 32
0.0
 13
1.0
 23
0.0
 33
0.0
 40
0.0
 40
0.0
 40
0.0
 40
0.0
 40
1.0
 40
1.0
 40
1.0
 40
2.0
 40
2.0
 40
2.0
 40
3.0
 40
3.0
 40
3.0
 40
4.0
 40
4.0
 40
4.0
 40
5.0
 40
5.0
 40
5.0
 40
6.0
 40
6.0
 40
6.0
 40
7.0
 40
7.0
 40
7.0
 40
8.0
 40
8.0
 40
8.0
 40
9.0
 40
9.0
 40
9.0
 40
10.0
 40
10.0
 40
10.0
 40
11.0
 40
11.0
 40
11.0
 40
12.0
 40
12.0
 40
12.0
 40
13.0
 40
13.0
 40
13.0
 40
13.0
 10
102.0406276871635
 20
-140.4692897869313
 30
0.0
 10
101.8228976524957
 20
-140.6281086888013
 30
0.0
 10
101.7298800743939
 20
-140.7021782417342
 30
0.0
 10
101.6809597185034
 20
-140.8458387234691
 30
0.0
 10
101.6809597185034
 20
-140.8458387234691
 30
0.0
 10
102.4595512981698
 20
-140.8458387234691
 30
0.0
 10
102.4595512981698
 20
-140.8458387234691
 30
0.0
 10
102.4595512981698
 20
-140.8458387234691
 30
0.0
 10
102.4595512981698
 20
-141.05116641439
 30
0.0
 10
102.4595512981698
 20
-141.05116641439
 30
0.0
 10
102.4595512981698
 20
-141.05116641439
 30
0.0
 10
101.4315348053713
 20
-141.05116641439
 30
0.0
 10
101.4315348053713
 20
-141.05116641439
 30
0.0
 10
101.4632296838356
 20
-140.6935655030211
 30
0.0
 10
101.5286864980553
 20
-140.6153618355059
 30
0.0
 10
101.9138481733063
 20
-140.3170165664833
 30
0.0
 10
102.1698187678603
 20
-140.1182345569843
 30
0.0
 10
102.2352755820801
 20
-140.0503661759249
 30
0.0
 10
102.2352755820801
 20
-139.9129068660635
 30
0.0
 10
102.2352755820801
 20
-139.7943955813708
 30
0.0
 10
102.1632730864384
 20
-139.6634819529314
 30
0.0
 10
101.9665581342306
 20
-139.6634819529314
 30
0.0
 10
101.7064534250942
 20
-139.6634819529314
 30
0.0
 10
101.6981851959296
 20
-139.8939588408946
 30
0.0
 10
101.6937065717988
 20
-140.010403068296
 30
0.0
 10
101.6937065717988
 20
-140.010403068296
 30
0.0
 10
101.469430855709
 20
-140.010403068296
 30
0.0
 10
101.469430855709
 20
-140.010403068296
 30
0.0
 10
101.4780435944222
 20
-139.8832790448903
 30
0.0
 10
101.4887233904264
 20
-139.7713134416197
 30
0.0
 10
101.5689941152328
 20
-139.6528021569271
 30
0.0
 10
101.6788926612122
 20
-139.4919161977659
 30
0.0
 10
101.8652723269642
 20
-139.4581542620105
 30
0.0
 10
101.9813720448172
 20
-139.4581542620105
 30
0.0
 10
102.2587022313798
 20
-139.4581542620105
 30
0.0
 10
102.4660969795918
 20
-139.6421223609228
 30
0.0
 10
102.4660969795918
 20
-139.9149739233546
 30
0.0
 10
102.4660969795918
 20
-140.1437282635752
 30
0.0
 10
102.3496527521904
 20
-140.2429470135504
 30
0.0
 10
102.0406276871635
 20
-140.4692897869313
 30
0.0
  0
HATCH
  5
7F
330
7A
100
AcDbEntity
  8
_U+30EC_U+30A4_U+30E4_U+30FC 1
 62
   179
420
  2234388
100
AcDbHatch
 10
0.0
 20
0.0
 30
0.0
210
0.0
220
0.0
230
1.0
  2
SOLID
 70
     1
 71
     0
 91
        1
 92
        1
 93
        1
 72
     4
 94
        3
 73
     0
 74
     1
 95
       44
 96
       40
 40
0.0
 40
0.0
 40
0.0
 40
0.0
 40
1.0
 40
1.0
 40
1.0
 40
2.0
 40
2.0
 40
2.0
 40
3.0
 40
3.0
 40
3.0
 40
4.0
 40
4.0
 40
4.0
 40
5.0
 40
5.0
 40
5.0
 40
6.0
 40
6.0
 40
6.0
 40
7.0
 40
7.0
 40
7.0
 40
8.0
 40
8.0
 40
8.0
 40
9.0
 40
9.0
 40
9.0
 40
10.0
 40
10.0
 40
10.0
 40
11.0
 40
11.0
 40
11.0
 40
12.0
 40
12.0
 40
12.0
 40
13.0
 40
13.0
 40
13.0
 40
13.0
 10
102.0406276871635
 20
-140.4692897869313
 10
101.8228976524957
 20
-140.6281086888013
 10
101.7298800743939
 20
-140.7021782417342
 10
101.6809597185034
 20
-140.8458387234691
 10
101.6809597185034
 20
-140.8458387234691
 10
102.4595512981698
 20
-140.8458387234691
 10
102.4595512981698
 20
-140.8458387234691
 10
102.4595512981698
 20
-140.8458387234691
 10
102.4595512981698
 20
-141.05116641439
 10
102.4595512981698
 20
-141.05116641439
 10
102.4595512981698
 20
-141.05116641439
 10
101.4315348053713
 20
-141.05116641439
 10
101.4315348053713
 20
-141.05116641439
 10
101.4632296838356
 20
-140.6935655030211
 10
101.5286864980553
 20
-140.6153618355059
 10
101.9138481733063
 20
-140.3170165664833
 10
102.1698187678603
 20
-140.1182345569843
 10
102.2352755820801
 20
-140.0503661759249
 10
102.2352755820801
 20
-139.9129068660635
 10
102.2352755820801
 20
-139.7943955813708
 10
102.1632730864384
 20
-139.6634819529314
 10
101.9665581342306
 20
-139.6634819529314
 10
101.7064534250942
 20
-139.6634819529314
 10
101.6981851959296
 20
-139.8939588408946
 10
101.6937065717988
 20
-140.010403068296
 10
101.6937065717988
 20
-140.010403068296
 10
101.469430855709
 20
-140.010403068296
 10
101.469430855709
 20
-140.010403068296
 10
101.4780435944222
 20
-139.8832790448903
 10
101.4887233904264
 20
-139.7713134416197
 10
101.5689941152328
 20
-139.6528021569271
 10
101.6788926612122
 20
-139.4919161977659
 10
101.8652723269642
 20
-139.4581542620105
 10
101.9813720448172
 20
-139.4581542620105
 10
102.2587022313798
 20
-139.4581542620105
 10
102.4660969795918
 20
-139.6421223609228
 10
102.4660969795918
 20
-139.9149739233546
 10
102.4660969795918
 20
-140.1437282635752
 10
102.3496527521904
 20
-140.2429470135504
 10
102.0406276871635
 20
-140.4692897869313
 97
        0
 97
        0
 75
     2
 76
     1
 98
        0
  0
SPLINE
  5
80
330
7A
100
AcDbEntity
  8
_U+30EC_U+30A4_U+30E4_U+30FC 1
370
     0
100
AcDbSpline
210
0.0
220
0.0
230
1.0
 70
    11
 71
     3
 72
    53
 73
    49
 74
     0
 42
0.0000000001
 43
0.0000000001
 12
1.0
 22
0.0
 32
0.0
 13
1.0
 23
0.0
 33
0.0
 40
0.0
 40
0.0
 40
0.0
 40
0.0
 40
1.0
 40
1.0
 40
1.0
 40
2.0
 40
2.0
 40
2.0
 40
3.0
 40
3.0
 40
3.0
 40
4.0
 40
4.0
 40
4.0
 40
5.0
 40
5.0
 40
5.0
 40
6.0
 40
6.0
 40
6.0
 40
7.0
 40
7.0
 40
7.0
 40
8.0
 40
8.0
 40
8.0
 40
9.0
 40
9.0
 40
9.0
 40
10.0
 40
10.0
 40
10.0
 40
11.0
 40
11.0
 40
11.0
 40
12.0
 40
12.0
 40
12.0
 40
13.0
 40
13.0
 40
13.0
 40
14.0
 40
14.0
 40
14.0
 40
15.0
 40
15.0
 40
15.0
 40
16.0
 40
16.0
 40
16.0
 40
16.0
 10
103.1055067016542
 20
-141.1018093180232
 30
0.0
 10
103.027303034139
 20
-141.1018093180232
 30
0.0
 10
102.9256727173241
 20
-141.0849283501454
 30
0.0
 10
102.8240424005093
 20
-141.0215385932168
 30
0.0
 10
102.6507540976012
 20
-140.9116400472374
 30
0.0
 10
102.6293945055927
 20
-140.7803819092493
 30
0.0
 10
102.6104464804238
 20
-140.672550420561
 30
0.0
 10
102.6104464804238
 20
-140.672550420561
 30
0.0
 10
102.8326551392224
 20
-140.672550420561
 30
0.0
 10
102.8326551392224
 20
-140.672550420561
 30
0.0
 10
102.8874321574379
 20
-140.87133243006
 30
0.0
 10
103.0145561808436
 20
-140.9009602512331
 30
0.0
 10
103.1075737589453
 20
-140.9009602512331
 30
0.0
 10
103.2471001260979
 20
-140.9009602512331
 30
0.0
 10
103.399373346546
 20
-140.8013969917094
 30
0.0
 10
103.399373346546
 20
-140.568853046455
 30
0.0
 10
103.399373346546
 20
-140.3128824519009
 30
0.0
 10
103.219539362216
 20
-140.2429470135504
 30
0.0
 10
103.0989610202322
 20
-140.2429470135504
 30
0.0
 10
103.0672661417679
 20
-140.2429470135504
 30
0.0
 10
102.9256727173241
 20
-140.2429470135504
 30
0.0
 10
102.8367892538047
 20
-140.3721380942472
 30
0.0
 10
102.8367892538047
 20
-140.3721380942472
 30
0.0
 10
102.661089384057
 20
-140.3531900690784
 30
0.0
 10
102.661089384057
 20
-140.3531900690784
 30
0.0
 10
102.661089384057
 20
-140.3531900690784
 30
0.0
 10
102.7816677260407
 20
-139.5067301083525
 30
0.0
 10
102.7816677260407
 20
-139.5067301083525
 30
0.0
 10
102.7816677260407
 20
-139.5067301083525
 30
0.0
 10
103.5602593057072
 20
-139.5067301083525
 30
0.0
 10
103.5602593057072
 20
-139.5067301083525
 30
0.0
 10
103.5602593057072
 20
-139.5067301083525
 30
0.0
 10
103.5602593057072
 20
-139.7013780032691
 30
0.0
 10
103.5602593057072
 20
-139.7013780032691
 30
0.0
 10
103.5602593057072
 20
-139.7013780032691
 30
0.0
 10
102.944620742493
 20
-139.7013780032691
 30
0.0
 10
102.944620742493
 20
-139.7013780032691
 30
0.0
 10
102.944620742493
 20
-139.7013780032691
 30
0.0
 10
102.8791639282733
 20
-140.1244357288578
 30
0.0
 10
102.8791639282733
 20
-140.1244357288578
 30
0.0
 10
102.9404866279107
 20
-140.0906737931023
 30
0.0
 10
103.0228244100082
 20
-140.0503661759249
 30
0.0
 10
103.1413356947008
 20
-140.0503661759249
 30
0.0
 10
103.3952392319637
 20
-140.0503661759249
 30
0.0
 10
103.6322618013489
 20
-140.2367458416769
 30
0.0
 10
103.6322618013489
 20
-140.5499050212862
 30
0.0
 10
103.6322618013489
 20
-140.8671983154777
 30
0.0
 10
103.4079860852591
 20
-141.1018093180232
 30
0.0
 10
103.1055067016542
 20
-141.1018093180232
 30
0.0
  0
HATCH
  5
81
330
7A
100
AcDbEntity
  8
_U+30EC_U+30A4_U+30E4_U+30FC 1
 62
   179
420
  2234388
100
AcDbHatch
 10
0.0
 20
0.0
 30
0.0
210
0.0
220
0.0
230
1.0
  2
SOLID
 70
     1
 71
     0
 91
        1
 92
        1
 93
        1
 72
     4
 94
        3
 73
     0
 74
     1
 95
       53
 96
       49
 40
0.0
 40
0.0
 40
0.0
 40
0.0
 40
1.0
 40
1.0
 40
1.0
 40
2.0
 40
2.0
 40
2.0
 40
3.0
 40
3.0
 40
3.0
 40
4.0
 40
4.0
 40
4.0
 40
5.0
 40
5.0
 40
5.0
 40
6.0
 40
6.0
 40
6.0
 40
7.0
 40
7.0
 40
7.0
 40
8.0
 40
8.0
 40
8.0
 40
9.0
 40
9.0
 40
9.0
 40
10.0
 40
10.0
 40
10.0
 40
11.0
 40
11.0
 40
11.0
 40
12.0
 40
12.0
 40
12.0
 40
13.0
 40
13.0
 40
13.0
 40
14.0
 40
14.0
 40
14.0
 40
15.0
 40
15.0
 40
15.0
 40
16.0
 40
16.0
 40
16.0
 40
16.0
 10
103.1055067016542
 20
-141.1018093180232
 10
103.027303034139
 20
-141.1018093180232
 10
102.9256727173241
 20
-141.0849283501454
 10
102.8240424005093
 20
-141.0215385932168
 10
102.6507540976012
 20
-140.9116400472374
 10
102.6293945055927
 20
-140.7803819092493
 10
102.6104464804238
 20
-140.672550420561
 10
102.6104464804238
 20
-140.672550420561
 10
102.8326551392224
 20
-140.672550420561
 10
102.8326551392224
 20
-140.672550420561
 10
102.8874321574379
 20
-140.87133243006
 10
103.0145561808436
 20
-140.9009602512331
 10
103.1075737589453
 20
-140.9009602512331
 10
103.2471001260979
 20
-140.9009602512331
 10
103.399373346546
 20
-140.8013969917094
 10
103.399373346546
 20
-140.568853046455
 10
103.399373346546
 20
-140.3128824519009
 10
103.219539362216
 20
-140.2429470135504
 10
103.0989610202322
 20
-140.2429470135504
 10
103.0672661417679
 20
-140.2429470135504
 10
102.9256727173241
 20
-140.2429470135504
 10
102.8367892538047
 20
-140.3721380942472
 10
102.8367892538047
 20
-140.3721380942472
 10
102.661089384057
 20
-140.3531900690784
 10
102.661089384057
 20
-140.3531900690784
 10
102.661089384057
 20
-140.3531900690784
 10
102.7816677260407
 20
-139.5067301083525
 10
102.7816677260407
 20
-139.5067301083525
 10
102.7816677260407
 20
-139.5067301083525
 10
103.5602593057072
 20
-139.5067301083525
 10
103.5602593057072
 20
-139.5067301083525
 10
103.5602593057072
 20
-139.5067301083525
 10
103.5602593057072
 20
-139.7013780032691
 10
103.5602593057072
 20
-139.7013780032691
 10
103.5602593057072
 20
-139.7013780032691
 10
102.944620742493
 20
-139.7013780032691
 10
102.944620742493
 20
-139.7013780032691
 10
102.944620742493
 20
-139.7013780032691
 10
102.8791639282733
 20
-140.1244357288578
 10
102.8791639282733
 20
-140.1244357288578
 10
102.9404866279107
 20
-140.0906737931023
 10
103.0228244100082
 20
-140.0503661759249
 10
103.1413356947008
 20
-140.0503661759249
 10
103.3952392319637
 20
-140.0503661759249
 10
103.6322618013489
 20
-140.2367458416769
 10
103.6322618013489
 20
-140.5499050212862
 10
103.6322618013489
 20
-140.8671983154777
 10
103.4079860852591
 20
-141.1018093180232
 10
103.1055067016542
 20
-141.1018093180232
 97
        0
 97
        0
 75
     2
 76
     1
 98
        0
  0
ENDBLK
  5
7D
330
7A
100
AcDbEntity
  8
0
100
AcDbBlockEnd
  0
BLOCK
  5
90
330
8E
100
AcDbEntity
  8
0
100
AcDbBlockBegin
  2
block 4
 70
     0
 10
0.0
 20
0.0
 30
0.0
  3
block 4
  1

  0
SPLINE
  5
92
330
8E
100
AcDbEntity
  8
_U+30EC_U+30A4_U+30E4_U+30FC 1
370
     0
100
AcDbSpline
210
0.0
220
0.0
230
1.0
 70
    11
 71
     3
 72
    26
 73
    22
 74
     0
 42
0.0000000001
 43
0.0000000001
 12
1.0
 22
0.0
 32
0.0
 13
1.0
 23
0.0
 33
0.0
 40
0.0
 40
0.0
 40
0.0
 40
0.0
 40
1.0
 40
1.0
 40
1.0
 40
2.0
 40
2.0
 40
2.0
 40
3.0
 40
3.0
 40
3.0
 40
4.0
 40
4.0
 40
4.0
 40
5.0
 40
5.0
 40
5.0
 40
6.0
 40
6.0
 40
6.0
 40
7.0
 40
7.0
 40
7.0
 40
7.0
 10
94.40198972249325
 20
-156.454188328942
 30
0.0
 10
94.40198972249325
 20
-156.454188328942
 30
0.0
 10
94.40198972249325
 20
-155.3500352259194
 30
0.0
 10
94.40198972249325
 20
-155.3500352259194
 30
0.0
 10
94.40198972249325
 20
-155.3500352259194
 30
0.0
 10
94.07194957500633
 20
-155.3500352259194
 30
0.0
 10
94.07194957500633
 20
-155.3500352259194
 30
0.0
 10
94.07194957500633
 20
-155.3500352259194
 30
0.0
 10
94.07194957500633
 20
-155.2018961200537
 30
0.0
 10
94.07194957500633
 20
-155.2018961200537
 30
0.0
 10
94.40405677978441
 20
-155.1870822094671
 30
0.0
 10
94.45056556883527
 20
-155.0241291930148
 30
0.0
 10
94.48019339000842
 20
-154.9097520229045
 30
0.0
 10
94.48019339000842
 20
-154.9097520229045
 30
0.0
 10
94.62609318380876
 20
-154.9097520229045
 30
0.0
 10
94.62609318380876
 20
-154.9097520229045
 30
0.0
 10
94.62609318380876
 20
-154.9097520229045
 30
0.0
 10
94.62609318380876
 20
-156.454188328942
 30
0.0
 10
94.62609318380876
 20
-156.454188328942
 30
0.0
 10
94.62609318380876
 20
-156.454188328942
 30
0.0
 10
94.40198972249325
 20
-156.454188328942
 30
0.0
 10
94.40198972249325
 20
-156.454188328942
 30
0.0
  0
HATCH
  5
93
330
8E
100
AcDbEntity
  8
_U+30EC_U+30A4_U+30E4_U+30FC 1
 62
   179
420
  2234388
100
AcDbHatch
 10
0.0
 20
0.0
 30
0.0
210
0.0
220
0.0
230
1.0
  2
SOLID
 70
     1
 71
     0
 91
        1
 92
        1
 93
        1
 72
     4
 94
        3
 73
     0
 74
     1
 95
       26
 96
       22
 40
0.0
 40
0.0
 40
0.0
 40
0.0
 40
1.0
 40
1.0
 40
1.0
 40
2.0
 40
2.0
 40
2.0
 40
3.0
 40
3.0
 40
3.0
 40
4.0
 40
4.0
 40
4.0
 40
5.0
 40
5.0
 40
5.0
 40
6.0
 40
6.0
 40
6.0
 40
7.0
 40
7.0
 40
7.0
 40
7.0
 10
94.40198972249325
 20
-156.454188328942
 10
94.40198972249325
 20
-156.454188328942
 10
94.40198972249325
 20
-155.3500352259194
 10
94.40198972249325
 20
-155.3500352259194
 10
94.40198972249325
 20
-155.3500352259194
 10
94.07194957500633
 20
-155.3500352259194
 10
94.07194957500633
 20
-155.3500352259194
 10
94.07194957500633
 20
-155.3500352259194
 10
94.07194957500633
 20
-155.2018961200537
 10
94.07194957500633
 20
-155.2018961200537
 10
94.40405677978441
 20
-155.1870822094671
 10
94.45056556883527
 20
-155.0241291930148
 10
94.48019339000842
 20
-154.9097520229045
 10
94.48019339000842
 20
-154.9097520229045
 10
94.62609318380876
 20
-154.9097520229045
 10
94.62609318380876
 20
-154.9097520229045
 10
94.62609318380876
 20
-154.9097520229045
 10
94.62609318380876
 20
-156.454188328942
 10
94.62609318380876
 20
-156.454188328942
 10
94.62609318380876
 20
-156.454188328942
 10
94.40198972249325
 20
-156.454188328942
 10
94.40198972249325
 20
-156.454188328942
 97
        0
 97
        0
 75
     2
 76
     1
 98
        0
  0
SPLINE
  5
94
330
8E
100
AcDbEntity
  8
_U+30EC_U+30A4_U+30E4_U+30FC 1
370
     0
100
AcDbSpline
210
0.0
220
0.0
230
1.0
 70
    11
 71
     3
 72
    29
 73
    25
 74
     0
 42
0.0000000001
 43
0.0000000001
 12
1.0
 22
0.0
 32
0.0
 13
1.0
 23
0.0
 33
0.0
 40
0.0
 40
0.0
 40
0.0
 40
0.0
 40
1.0
 40
1.0
 40
1.0
 40
2.0
 40
2.0
 40
2.0
 40
3.0
 40
3.0
 40
3.0
 40
4.0
 40
4.0
 40
4.0
 40
5.0
 40
5.0
 40
5.0
 40
6.0
 40
6.0
 40
6.0
 40
7.0
 40
7.0
 40
7.0
 40
8.0
 40
8.0
 40
8.0
 40
8.0
 10
96.02514646036872
 20
-156.2764214019031
 30
0.0
 10
95.9173149716804
 20
-156.4858832074063
 30
0.0
 10
95.74385441399806
 20
-156.5048312325752
 30
0.0
 10
95.62741018659662
 20
-156.5048312325752
 30
0.0
 10
95.46669648220971
 20
-156.5048312325752
 30
0.0
 10
95.32493080299169
 20
-156.4583224435243
 30
0.0
 10
95.22967391282452
 20
-156.2764214019031
 30
0.0
 10
95.12614879349277
 20
-156.0817735069865
 30
0.0
 10
95.10702851354964
 20
-155.8450954471498
 30
0.0
 10
95.10702851354964
 20
-155.6821424306975
 30
0.0
 10
95.10702851354964
 20
-155.5381374394141
 30
0.0
 10
95.12390948142736
 20
-155.2863009594423
 30
0.0
 10
95.22967391282452
 20
-155.0875189499434
 30
0.0
 10
95.33767765628711
 20
-154.8846028258622
 30
0.0
 10
95.49839136067402
 20
-154.8611761765625
 30
0.0
 10
95.62741018659662
 20
-154.8611761765625
 30
0.0
 10
95.78605683369238
 20
-154.8611761765625
 30
0.0
 10
95.92988957020155
 20
-154.9056179083222
 30
0.0
 10
96.02514646036872
 20
-155.0875189499434
 30
0.0
 10
96.12453746511818
 20
-155.2800997875689
 30
0.0
 10
96.14779185964362
 20
-155.5085096182409
 30
0.0
 10
96.14779185964362
 20
-155.6821424306975
 30
0.0
 10
96.14779185964362
 20
-155.8533636763144
 30
0.0
 10
96.1267767771836
 20
-156.0838405642777
 30
0.0
 10
96.02514646036872
 20
-156.2764214019031
 30
0.0
  0
SPLINE
  5
95
330
8E
100
AcDbEntity
  8
_U+30EC_U+30A4_U+30E4_U+30FC 1
370
     0
100
AcDbSpline
210
0.0
220
0.0
230
1.0
 70
    11
 71
     3
 72
    17
 73
    13
 74
     0
 42
0.0000000001
 43
0.0000000001
 12
1.0
 22
0.0
 32
0.0
 13
1.0
 23
0.0
 33
0.0
 40
0.0
 40
0.0
 40
0.0
 40
0.0
 40
1.0
 40
1.0
 40
1.0
 40
2.0
 40
2.0
 40
2.0
 40
3.0
 40
3.0
 40
3.0
 40
4.0
 40
4.0
 40
4.0
 40
4.0
 10
95.62741018659662
 20
-155.053757014188
 30
0.0
 10
95.37781301869028
 20
-155.053757014188
 30
0.0
 10
95.3313042296394
 20
-155.337288372624
 30
0.0
 10
95.3313042296394
 20
-155.6821424306975
 30
0.0
 10
95.3313042296394
 20
-156.0015027821802
 30
0.0
 10
95.36730547746026
 20
-156.3101833376586
 30
0.0
 10
95.62741018659662
 20
-156.3101833376586
 30
0.0
 10
95.87494029721182
 20
-156.3101833376586
 30
0.0
 10
95.92368839832811
 20
-156.0290635460622
 30
0.0
 10
95.92368839832811
 20
-155.6821424306975
 30
0.0
 10
95.92368839832811
 20
-155.3624375696664
 30
0.0
 10
95.8856200932161
 20
-155.053757014188
 30
0.0
 10
95.62741018659662
 20
-155.053757014188
 30
0.0
  0
HATCH
  5
96
330
8E
100
AcDbEntity
  8
_U+30EC_U+30A4_U+30E4_U+30FC 1
 62
   179
420
  2234388
100
AcDbHatch
 10
0.0
 20
0.0
 30
0.0
210
0.0
220
0.0
230
1.0
  2
SOLID
 70
     1
 71
     0
 91
        2
 92
        1
 93
        1
 72
     4
 94
        3
 73
     0
 74
     1
 95
       29
 96
       25
 40
0.0
 40
0.0
 40
0.0
 40
0.0
 40
1.0
 40
1.0
 40
1.0
 40
2.0
 40
2.0
 40
2.0
 40
3.0
 40
3.0
 40
3.0
 40
4.0
 40
4.0
 40
4.0
 40
5.0
 40
5.0
 40
5.0
 40
6.0
 40
6.0
 40
6.0
 40
7.0
 40
7.0
 40
7.0
 40
8.0
 40
8.0
 40
8.0
 40
8.0
 10
96.02514646036872
 20
-156.2764214019031
 10
95.9173149716804
 20
-156.4858832074063
 10
95.74385441399806
 20
-156.5048312325752
 10
95.62741018659662
 20
-156.5048312325752
 10
95.46669648220971
 20
-156.5048312325752
 10
95.32493080299169
 20
-156.4583224435243
 10
95.22967391282452
 20
-156.2764214019031
 10
95.12614879349277
 20
-156.0817735069865
 10
95.10702851354964
 20
-155.8450954471498
 10
95.10702851354964
 20
-155.6821424306975
 10
95.10702851354964
 20
-155.5381374394141
 10
95.12390948142736
 20
-155.2863009594423
 10
95.22967391282452
 20
-155.0875189499434
 10
95.33767765628711
 20
-154.8846028258622
 10
95.49839136067402
 20
-154.8611761765625
 10
95.62741018659662
 20
-154.8611761765625
 10
95.78605683369238
 20
-154.8611761765625
 10
95.92988957020155
 20
-154.9056179083222
 10
96.02514646036872
 20
-155.0875189499434
 10
96.12453746511818
 20
-155.2800997875689
 10
96.14779185964362
 20
-155.5085096182409
 10
96.14779185964362
 20
-155.6821424306975
 10
96.14779185964362
 20
-155.8533636763144
 10
96.1267767771836
 20
-156.0838405642777
 10
96.02514646036872
 20
-156.2764214019031
 97
        0
 97
        0
 92
        1
 93
        1
 72
     4
 94
        3
 73
     0
 74
     1
 95
       17
 96
       13
 40
0.0
 40
0.0
 40
0.0
 40
0.0
 40
1.0
 40
1.0
 40
1.0
 40
2.0
 40
2.0
 40
2.0
 40
3.0
 40
3.0
 40
3.0
 40
4.0
 40
4.0
 40
4.0
 40
4.0
 10
95.62741018659662
 20
-155.053757014188
 10
95.37781301869028
 20
-155.053757014188
 10
95.3313042296394
 20
-155.337288372624
 10
95.3313042296394
 20
-155.6821424306975
 10
95.3313042296394
 20
-156.0015027821802
 10
95.36730547746026
 20
-156.3101833376586
 10
95.62741018659662
 20
-156.3101833376586
 10
95.87494029721182
 20
-156.3101833376586
 10
95.92368839832811
 20
-156.0290635460622
 10
95.92368839832811
 20
-155.6821424306975
 10
95.92368839832811
 20
-155.3624375696664
 10
95.8856200932161
 20
-155.053757014188
 10
95.62741018659662
 20
-155.053757014188
 97
        0
 97
        0
 75
     2
 76
     1
 98
        0
  0
ENDBLK
  5
91
330
8E
100
AcDbEntity
  8
0
100
AcDbBlockEnd
  0
BLOCK
  5
A9
330
A7
100
AcDbEntity
  8
0
100
AcDbBlockBegin
  2
block 5
 70
     0
 10
0.0
 20
0.0
 30
0.0
  3
block 5
  1

  0
SPLINE
  5
AB
330
A7
100
AcDbEntity
  8
_U+30EC_U+30A4_U+30E4_U+30FC 1
370
     0
100
AcDbSpline
210
0.0
220
0.0
230
1.0
 70
    11
 71
     3
 72
    29
 73
    25
 74
     0
 42
0.0000000001
 43
0.0000000001
 12
1.0
 22
0.0
 32
0.0
 13
1.0
 23
0.0
 33
0.0
 40
0.0
 40
0.0
 40
0.0
 40
0.0
 40
1.0
 40
1.0
 40
1.0
 40
2.0
 40
2.0
 40
2.0
 40
3.0
 40
3.0
 40
3.0
 40
4.0
 40
4.0
 40
4.0
 40
5.0
 40
5.0
 40
5.0
 40
6.0
 40
6.0
 40
6.0
 40
7.0
 40
7.0
 40
7.0
 40
8.0
 40
8.0
 40
8.0
 40
8.0
 10
103.2677706990094
 20
-149.904372792385
 30
0.0
 10
103.4772325045126
 20
-150.0125487906219
 30
0.0
 10
103.4961805296815
 20
-150.1858370935299
 30
0.0
 10
103.4961805296815
 20
-150.3022813209314
 30
0.0
 10
103.4961805296815
 20
-150.4631672800925
 30
0.0
 10
103.4496717406306
 20
-150.6047607045363
 30
0.0
 10
103.2677706990094
 20
-150.6998453399292
 30
0.0
 10
103.0731228040928
 20
-150.8035427140352
 30
0.0
 10
102.8364447442562
 20
-150.8228352487526
 30
0.0
 10
102.6734917278038
 20
-150.8228352487526
 30
0.0
 10
102.5294867365204
 20
-150.8228352487526
 30
0.0
 10
102.2776502565487
 20
-150.8056097713264
 30
0.0
 10
102.0788682470497
 20
-150.6998453399292
 30
0.0
 10
101.8759521229685
 20
-150.5920138512409
 30
0.0
 10
101.8525254736688
 20
-150.4311278920797
 30
0.0
 10
101.8525254736688
 20
-150.3022813209314
 30
0.0
 10
101.8525254736688
 20
-150.1434624190614
 30
0.0
 10
101.8969672054285
 20
-149.9998019373265
 30
0.0
 10
102.0788682470497
 20
-149.904372792385
 30
0.0
 10
102.2714490846752
 20
-149.8051540424098
 30
0.0
 10
102.4998589153473
 20
-149.7817273931101
 30
0.0
 10
102.6734917278038
 20
-149.7817273931101
 30
0.0
 10
102.8447129734208
 20
-149.7817273931101
 30
0.0
 10
103.075189861384
 20
-149.8030869851187
 30
0.0
 10
103.2677706990094
 20
-149.904372792385
 30
0.0
  0
SPLINE
  5
AC
330
A7
100
AcDbEntity
  8
_U+30EC_U+30A4_U+30E4_U+30FC 1
370
     0
100
AcDbSpline
210
0.0
220
0.0
230
1.0
 70
    11
 71
     3
 72
    17
 73
    13
 74
     0
 42
0.0000000001
 43
0.0000000001
 12
1.0
 22
0.0
 32
0.0
 13
1.0
 23
0.0
 33
0.0
 40
0.0
 40
0.0
 40
0.0
 40
0.0
 40
1.0
 40
1.0
 40
1.0
 40
2.0
 40
2.0
 40
2.0
 40
3.0
 40
3.0
 40
3.0
 40
4.0
 40
4.0
 40
4.0
 40
4.0
 10
102.0451063112943
 20
-150.3022813209314
 30
0.0
 10
102.0451063112943
 20
-150.552050743612
 30
0.0
 10
102.3286376697303
 20
-150.5985595326629
 30
0.0
 10
102.6734917278038
 20
-150.5985595326629
 30
0.0
 10
102.9928520792865
 20
-150.5985595326629
 30
0.0
 10
103.3015326347649
 20
-150.5623860300678
 30
0.0
 10
103.3015326347649
 20
-150.3022813209314
 30
0.0
 10
103.3015326347649
 20
-150.0545789555419
 30
0.0
 10
103.0204128431685
 20
-150.0060031091999
 30
0.0
 10
102.6734917278038
 20
-150.0060031091999
 30
0.0
 10
102.3537868667727
 20
-150.0060031091999
 30
0.0
 10
102.0451063112943
 20
-150.0442436690862
 30
0.0
 10
102.0451063112943
 20
-150.3022813209314
 30
0.0
  0
HATCH
  5
AD
330
A7
100
AcDbEntity
  8
_U+30EC_U+30A4_U+30E4_U+30FC 1
 62
   179
420
  2234388
100
AcDbHatch
 10
0.0
 20
0.0
 30
0.0
210
0.0
220
0.0
230
1.0
  2
SOLID
 70
     1
 71
     0
 91
        2
 92
        1
 93
        1
 72
     4
 94
        3
 73
     0
 74
     1
 95
       29
 96
       25
 40
0.0
 40
0.0
 40
0.0
 40
0.0
 40
1.0
 40
1.0
 40
1.0
 40
2.0
 40
2.0
 40
2.0
 40
3.0
 40
3.0
 40
3.0
 40
4.0
 40
4.0
 40
4.0
 40
5.0
 40
5.0
 40
5.0
 40
6.0
 40
6.0
 40
6.0
 40
7.0
 40
7.0
 40
7.0
 40
8.0
 40
8.0
 40
8.0
 40
8.0
 10
103.2677706990094
 20
-149.904372792385
 10
103.4772325045126
 20
-150.0125487906219
 10
103.4961805296815
 20
-150.1858370935299
 10
103.4961805296815
 20
-150.3022813209314
 10
103.4961805296815
 20
-150.4631672800925
 10
103.4496717406306
 20
-150.6047607045363
 10
103.2677706990094
 20
-150.6998453399292
 10
103.0731228040928
 20
-150.8035427140352
 10
102.8364447442562
 20
-150.8228352487526
 10
102.6734917278038
 20
-150.8228352487526
 10
102.5294867365204
 20
-150.8228352487526
 10
102.2776502565487
 20
-150.8056097713264
 10
102.0788682470497
 20
-150.6998453399292
 10
101.8759521229685
 20
-150.5920138512409
 10
101.8525254736688
 20
-150.4311278920797
 10
101.8525254736688
 20
-150.3022813209314
 10
101.8525254736688
 20
-150.1434624190614
 10
101.8969672054285
 20
-149.9998019373265
 10
102.0788682470497
 20
-149.904372792385
 10
102.2714490846752
 20
-149.8051540424098
 10
102.4998589153473
 20
-149.7817273931101
 10
102.6734917278038
 20
-149.7817273931101
 10
102.8447129734208
 20
-149.7817273931101
 10
103.075189861384
 20
-149.8030869851187
 10
103.2677706990094
 20
-149.904372792385
 97
        0
 97
        0
 92
        1
 93
        1
 72
     4
 94
        3
 73
     0
 74
     1
 95
       17
 96
       13
 40
0.0
 40
0.0
 40
0.0
 40
0.0
 40
1.0
 40
1.0
 40
1.0
 40
2.0
 40
2.0
 40
2.0
 40
3.0
 40
3.0
 40
3.0
 40
4.0
 40
4.0
 40
4.0
 40
4.0
 10
102.0451063112943
 20
-150.3022813209314
 10
102.0451063112943
 20
-150.552050743612
 10
102.3286376697303
 20
-150.5985595326629
 10
102.6734917278038
 20
-150.5985595326629
 10
102.9928520792865
 20
-150.5985595326629
 10
103.3015326347649
 20
-150.5623860300678
 10
103.3015326347649
 20
-150.3022813209314
 10
103.3015326347649
 20
-150.0545789555419
 10
103.0204128431685
 20
-150.0060031091999
 10
102.6734917278038
 20
-150.0060031091999
 10
102.3537868667727
 20
-150.0060031091999
 10
102.0451063112943
 20
-150.0442436690862
 10
102.0451063112943
 20
-150.3022813209314
 97
        0
 97
        0
 75
     2
 76
     1
 98
        0
  0
POLYLINE
  5
AE
330
A7
100
AcDbEntity
  8
_U+30EC_U+30A4_U+30E4_U+30FC 1
370
     0
100
AcDb2dPolyline
 66
     1
 10
0.0
 20
0.0
 30
0.0
  0
VERTEX
  5
AF
330
AE
100
AcDbEntity
  8
_U+30EC_U+30A4_U+30E4_U+30FC 1
370
     0
100
AcDbVertex
100
AcDb2dVertex
 10
103.4455376260483
 20
-149.5653753966365
 30
0.0
  0
VERTEX
  5
B0
330
AE
100
AcDbEntity
  8
_U+30EC_U+30A4_U+30E4_U+30FC 1
370
     0
100
AcDbVertex
100
AcDb2dVertex
 10
103.1937011460766
 20
-149.5653753966365
 30
0.0
  0
VERTEX
  5
B1
330
AE
100
AcDbEntity
  8
_U+30EC_U+30A4_U+30E4_U+30FC 1
370
     0
100
AcDbVertex
100
AcDb2dVertex
 10
103.1937011460766
 20
-149.3135389166647
 30
0.0
  0
VERTEX
  5
B2
330
AE
100
AcDbEntity
  8
_U+30EC_U+30A4_U+30E4_U+30FC 1
370
     0
100
AcDbVertex
100
AcDb2dVertex
 10
103.4455376260483
 20
-149.3135389166647
 30
0.0
  0
VERTEX
  5
B3
330
AE
100
AcDbEntity
  8
_U+30EC_U+30A4_U+30E4_U+30FC 1
370
     0
100
AcDbVertex
100
AcDb2dVertex
 10
103.4455376260483
 20
-149.5653753966365
 30
0.0
  0
SEQEND
  5
B4
330
AE
100
AcDbEntity
  8
_U+30EC_U+30A4_U+30E4_U+30FC 1
370
     0
  0
HATCH
  5
B5
330
A7
100
AcDbEntity
  8
_U+30EC_U+30A4_U+30E4_U+30FC 1
 62
   179
420
  2234388
100
AcDbHatch
 10
0.0
 20
0.0
 30
0.0
210
0.0
220
0.0
230
1.0
  2
SOLID
 70
     1
 71
     0
 91
        1
 92
        1
 93
        4
 72
     1
 10
103.4455376260483
 20
-149.5653753966365
 11
103.1937011460766
 21
-149.5653753966365
 72
     1
 10
103.1937011460766
 20
-149.5653753966365
 11
103.1937011460766
 21
-149.3135389166647
 72
     1
 10
103.1937011460766
 20
-149.3135389166647
 11
103.4455376260483
 21
-149.3135389166647
 72
     1
 10
103.4455376260483
 20
-149.3135389166647
 11
103.4455376260483
 21
-149.5653753966365
 97
        0
 75
     2
 76
     1
 98
        0
  0
SPLINE
  5
B6
330
A7
100
AcDbEntity
  8
_U+30EC_U+30A4_U+30E4_U+30FC 1
370
     0
100
AcDbSpline
210
0.0
220
0.0
230
1.0
 70
    11
 71
     3
 72
    53
 73
    49
 74
     0
 42
0.0000000001
 43
0.0000000001
 12
1.0
 22
0.0
 32
0.0
 13
1.0
 23
0.0
 33
0.0
 40
0.0
 40
0.0
 40
0.0
 40
0.0
 40
1.0
 40
1.0
 40
1.0
 40
2.0
 40
2.0
 40
2.0
 40
3.0
 40
3.0
 40
3.0
 40
4.0
 40
4.0
 40
4.0
 40
5.0
 40
5.0
 40
5.0
 40
6.0
 40
6.0
 40
6.0
 40
7.0
 40
7.0
 40
7.0
 40
8.0
 40
8.0
 40
8.0
 40
9.0
 40
9.0
 40
9.0
 40
10.0
 40
10.0
 40
10.0
 40
11.0
 40
11.0
 40
11.0
 40
12.0
 40
12.0
 40
12.0
 40
13.0
 40
13.0
 40
13.0
 40
14.0
 40
14.0
 40
14.0
 40
15.0
 40
15.0
 40
15.0
 40
16.0
 40
16.0
 40
16.0
 40
16.0
 10
103.4961805296815
 20
-148.5962700366357
 30
0.0
 10
103.4961805296815
 20
-148.6744737041508
 30
0.0
 10
103.4792995618038
 20
-148.7761040209657
 30
0.0
 10
103.4159098048752
 20
-148.8777343377806
 30
0.0
 10
103.3060112588957
 20
-149.0510226406886
 30
0.0
 10
103.1747531209077
 20
-149.0723822326972
 30
0.0
 10
103.0669216322194
 20
-149.0913302578661
 30
0.0
 10
103.0669216322194
 20
-149.0913302578661
 30
0.0
 10
103.0669216322194
 20
-148.8691215990675
 30
0.0
 10
103.0669216322194
 20
-148.8691215990675
 30
0.0
 10
103.2657036417183
 20
-148.814344580852
 30
0.0
 10
103.2953314628915
 20
-148.6872205574463
 30
0.0
 10
103.2953314628915
 20
-148.5942029793445
 30
0.0
 10
103.2953314628915
 20
-148.4546766121919
 30
0.0
 10
103.1957682033677
 20
-148.3024033917438
 30
0.0
 10
102.9632242581134
 20
-148.3024033917438
 30
0.0
 10
102.7072536635593
 20
-148.3024033917438
 30
0.0
 10
102.6373182252087
 20
-148.4822373760739
 30
0.0
 10
102.6373182252087
 20
-148.6028157180576
 30
0.0
 10
102.6373182252087
 20
-148.6345105965219
 30
0.0
 10
102.6373182252087
 20
-148.7761040209657
 30
0.0
 10
102.7665093059056
 20
-148.8649874844851
 30
0.0
 10
102.7665093059056
 20
-148.8649874844851
 30
0.0
 10
102.7475612807367
 20
-149.0406873542329
 30
0.0
 10
102.7475612807367
 20
-149.0406873542329
 30
0.0
 10
102.7475612807367
 20
-149.0406873542329
 30
0.0
 10
101.9011013200108
 20
-148.9201090122492
 30
0.0
 10
101.9011013200108
 20
-148.9201090122492
 30
0.0
 10
101.9011013200108
 20
-148.9201090122492
 30
0.0
 10
101.9011013200108
 20
-148.1415174325827
 30
0.0
 10
101.9011013200108
 20
-148.1415174325827
 30
0.0
 10
101.9011013200108
 20
-148.1415174325827
 30
0.0
 10
102.0957492149275
 20
-148.1415174325827
 30
0.0
 10
102.0957492149275
 20
-148.1415174325827
 30
0.0
 10
102.0957492149275
 20
-148.1415174325827
 30
0.0
 10
102.0957492149275
 20
-148.7571559957968
 30
0.0
 10
102.0957492149275
 20
-148.7571559957968
 30
0.0
 10
102.0957492149275
 20
-148.7571559957968
 30
0.0
 10
102.5188069405161
 20
-148.8226128100166
 30
0.0
 10
102.5188069405161
 20
-148.8226128100166
 30
0.0
 10
102.4850450047607
 20
-148.7612901103791
 30
0.0
 10
102.4447373875833
 20
-148.6789523282817
 30
0.0
 10
102.4447373875833
 20
-148.5604410435891
 30
0.0
 10
102.4447373875833
 20
-148.3065375063262
 30
0.0
 10
102.6311170533353
 20
-148.0695149369409
 30
0.0
 10
102.9442762329445
 20
-148.0695149369409
 30
0.0
 10
103.261569527136
 20
-148.0695149369409
 30
0.0
 10
103.4961805296815
 20
-148.2937906530307
 30
0.0
 10
103.4961805296815
 20
-148.5962700366357
 30
0.0
  0
HATCH
  5
B7
330
A7
100
AcDbEntity
  8
_U+30EC_U+30A4_U+30E4_U+30FC 1
 62
   179
420
  2234388
100
AcDbHatch
 10
0.0
 20
0.0
 30
0.0
210
0.0
220
0.0
230
1.0
  2
SOLID
 70
     1
 71
     0
 91
        1
 92
        1
 93
        1
 72
     4
 94
        3
 73
     0
 74
     1
 95
       53
 96
       49
 40
0.0
 40
0.0
 40
0.0
 40
0.0
 40
1.0
 40
1.0
 40
1.0
 40
2.0
 40
2.0
 40
2.0
 40
3.0
 40
3.0
 40
3.0
 40
4.0
 40
4.0
 40
4.0
 40
5.0
 40
5.0
 40
5.0
 40
6.0
 40
6.0
 40
6.0
 40
7.0
 40
7.0
 40
7.0
 40
8.0
 40
8.0
 40
8.0
 40
9.0
 40
9.0
 40
9.0
 40
10.0
 40
10.0
 40
10.0
 40
11.0
 40
11.0
 40
11.0
 40
12.0
 40
12.0
 40
12.0
 40
13.0
 40
13.0
 40
13.0
 40
14.0
 40
14.0
 40
14.0
 40
15.0
 40
15.0
 40
15.0
 40
16.0
 40
16.0
 40
16.0
 40
16.0
 10
103.4961805296815
 20
-148.5962700366357
 10
103.4961805296815
 20
-148.6744737041508
 10
103.4792995618038
 20
-148.7761040209657
 10
103.4159098048752
 20
-148.8777343377806
 10
103.3060112588957
 20
-149.0510226406886
 10
103.1747531209077
 20
-149.0723822326972
 10
103.0669216322194
 20
-149.0913302578661
 10
103.0669216322194
 20
-149.0913302578661
 10
103.0669216322194
 20
-148.8691215990675
 10
103.0669216322194
 20
-148.8691215990675
 10
103.2657036417183
 20
-148.814344580852
 10
103.2953314628915
 20
-148.6872205574463
 10
103.2953314628915
 20
-148.5942029793445
 10
103.2953314628915
 20
-148.4546766121919
 10
103.1957682033677
 20
-148.3024033917438
 10
102.9632242581134
 20
-148.3024033917438
 10
102.7072536635593
 20
-148.3024033917438
 10
102.6373182252087
 20
-148.4822373760739
 10
102.6373182252087
 20
-148.6028157180576
 10
102.6373182252087
 20
-148.6345105965219
 10
102.6373182252087
 20
-148.7761040209657
 10
102.7665093059056
 20
-148.8649874844851
 10
102.7665093059056
 20
-148.8649874844851
 10
102.7475612807367
 20
-149.0406873542329
 10
102.7475612807367
 20
-149.0406873542329
 10
102.7475612807367
 20
-149.0406873542329
 10
101.9011013200108
 20
-148.9201090122492
 10
101.9011013200108
 20
-148.9201090122492
 10
101.9011013200108
 20
-148.9201090122492
 10
101.9011013200108
 20
-148.1415174325827
 10
101.9011013200108
 20
-148.1415174325827
 10
101.9011013200108
 20
-148.1415174325827
 10
102.0957492149275
 20
-148.1415174325827
 10
102.0957492149275
 20
-148.1415174325827
 10
102.0957492149275
 20
-148.1415174325827
 10
102.0957492149275
 20
-148.7571559957968
 10
102.0957492149275
 20
-148.7571559957968
 10
102.0957492149275
 20
-148.7571559957968
 10
102.5188069405161
 20
-148.8226128100166
 10
102.5188069405161
 20
-148.8226128100166
 10
102.4850450047607
 20
-148.7612901103791
 10
102.4447373875833
 20
-148.6789523282817
 10
102.4447373875833
 20
-148.5604410435891
 10
102.4447373875833
 20
-148.3065375063262
 10
102.6311170533353
 20
-148.0695149369409
 10
102.9442762329445
 20
-148.0695149369409
 10
103.261569527136
 20
-148.0695149369409
 10
103.4961805296815
 20
-148.2937906530307
 10
103.4961805296815
 20
-148.5962700366357
 97
        0
 97
        0
 75
     2
 76
     1
 98
        0
  0
ENDBLK
  5
AA
330
A7
100
AcDbEntity
  8
0
100
AcDbBlockEnd
  0
BLOCK
  5
CA
330
C8
100
AcDbEntity
  8
0
100
AcDbBlockBegin
  2
block 6
 70
     0
 10
0.0
 20
0.0
 30
0.0
  3
block 6
  1

  0
SPLINE
  5
CC
330
C8
100
AcDbEntity
  8
_U+30EC_U+30A4_U+30E4_U+30FC 1
370
     0
100
AcDbSpline
210
0.0
220
0.0
230
1.0
 70
    11
 71
     3
 72
    26
 73
    22
 74
     0
 42
0.0000000001
 43
0.0000000001
 12
1.0
 22
0.0
 32
0.0
 13
1.0
 23
0.0
 33
0.0
 40
0.0
 40
0.0
 40
0.0
 40
0.0
 40
1.0
 40
1.0
 40
1.0
 40
2.0
 40
2.0
 40
2.0
 40
3.0
 40
3.0
 40
3.0
 40
4.0
 40
4.0
 40
4.0
 40
5.0
 40
5.0
 40
5.0
 40
6.0
 40
6.0
 40
6.0
 40
7.0
 40
7.0
 40
7.0
 40
7.0
 10
118.4403157255983
 20
-144.6108113245244
 30
0.0
 10
118.4403157255983
 20
-144.6108113245244
 30
0.0
 10
117.3361626225757
 20
-144.6108113245244
 30
0.0
 10
117.3361626225757
 20
-144.6108113245244
 30
0.0
 10
117.3361626225757
 20
-144.6108113245244
 30
0.0
 10
117.3361626225757
 20
-144.9408514720113
 30
0.0
 10
117.3361626225757
 20
-144.9408514720113
 30
0.0
 10
117.3361626225757
 20
-144.9408514720113
 30
0.0
 10
117.1880235167099
 20
-144.9408514720113
 30
0.0
 10
117.1880235167099
 20
-144.9408514720113
 30
0.0
 10
117.1732096061234
 20
-144.6087442672332
 30
0.0
 10
117.0102565896711
 20
-144.5622354781824
 30
0.0
 10
116.8958794195608
 20
-144.5326076570092
 30
0.0
 10
116.8958794195608
 20
-144.5326076570092
 30
0.0
 10
116.8958794195608
 20
-144.3865356084346
 30
0.0
 10
116.8958794195608
 20
-144.3865356084346
 30
0.0
 10
116.8958794195608
 20
-144.3865356084346
 30
0.0
 10
118.4403157255983
 20
-144.3865356084346
 30
0.0
 10
118.4403157255983
 20
-144.3865356084346
 30
0.0
 10
118.4403157255983
 20
-144.3865356084346
 30
0.0
 10
118.4403157255983
 20
-144.6108113245244
 30
0.0
 10
118.4403157255983
 20
-144.6108113245244
 30
0.0
  0
HATCH
  5
CD
330
C8
100
AcDbEntity
  8
_U+30EC_U+30A4_U+30E4_U+30FC 1
 62
   179
420
  2234388
100
AcDbHatch
 10
0.0
 20
0.0
 30
0.0
210
0.0
220
0.0
230
1.0
  2
SOLID
 70
     1
 71
     0
 91
        1
 92
        1
 93
        1
 72
     4
 94
        3
 73
     0
 74
     1
 95
       26
 96
       22
 40
0.0
 40
0.0
 40
0.0
 40
0.0
 40
1.0
 40
1.0
 40
1.0
 40
2.0
 40
2.0
 40
2.0
 40
3.0
 40
3.0
 40
3.0
 40
4.0
 40
4.0
 40
4.0
 40
5.0
 40
5.0
 40
5.0
 40
6.0
 40
6.0
 40
6.0
 40
7.0
 40
7.0
 40
7.0
 40
7.0
 10
118.4403157255983
 20
-144.6108113245244
 10
118.4403157255983
 20
-144.6108113245244
 10
117.3361626225757
 20
-144.6108113245244
 10
117.3361626225757
 20
-144.6108113245244
 10
117.3361626225757
 20
-144.6108113245244
 10
117.3361626225757
 20
-144.9408514720113
 10
117.3361626225757
 20
-144.9408514720113
 10
117.3361626225757
 20
-144.9408514720113
 10
117.1880235167099
 20
-144.9408514720113
 10
117.1880235167099
 20
-144.9408514720113
 10
117.1732096061234
 20
-144.6087442672332
 10
117.0102565896711
 20
-144.5622354781824
 10
116.8958794195608
 20
-144.5326076570092
 10
116.8958794195608
 20
-144.5326076570092
 10
116.8958794195608
 20
-144.3865356084346
 10
116.8958794195608
 20
-144.3865356084346
 10
116.8958794195608
 20
-144.3865356084346
 10
118.4403157255983
 20
-144.3865356084346
 10
118.4403157255983
 20
-144.3865356084346
 10
118.4403157255983
 20
-144.3865356084346
 10
118.4403157255983
 20
-144.6108113245244
 10
118.4403157255983
 20
-144.6108113245244
 97
        0
 97
        0
 75
     2
 76
     1
 98
        0
  0
ENDBLK
  5
CB
330
C8
100
AcDbEntity
  8
0
100
AcDbBlockEnd
  0
BLOCK
  5
DC
330
DA
100
AcDbEntity
  8
0
100
AcDbBlockBegin
  2
block 7
 70
     0
 10
0.0
 20
0.0
 30
0.0
  3
block 7
  1

  0
SPLINE
  5
DE
330
DA
100
AcDbEntity
  8
_U+30EC_U+30A4_U+30E4_U+30FC 1
370
     0
100
AcDbSpline
210
0.0
220
0.0
230
1.0
 70
    11
 71
     3
 72
    53
 73
    49
 74
     0
 42
0.0000000001
 43
0.0000000001
 12
1.0
 22
0.0
 32
0.0
 13
1.0
 23
0.0
 33
0.0
 40
0.0
 40
0.0
 40
0.0
 40
0.0
 40
1.0
 40
1.0
 40
1.0
 40
2.0
 40
2.0
 40
2.0
 40
3.0
 40
3.0
 40
3.0
 40
4.0
 40
4.0
 40
4.0
 40
5.0
 40
5.0
 40
5.0
 40
6.0
 40
6.0
 40
6.0
 40
7.0
 40
7.0
 40
7.0
 40
8.0
 40
8.0
 40
8.0
 40
9.0
 40
9.0
 40
9.0
 40
10.0
 40
10.0
 40
10.0
 40
11.0
 40
11.0
 40
11.0
 40
12.0
 40
12.0
 40
12.0
 40
13.0
 40
13.0
 40
13.0
 40
14.0
 40
14.0
 40
14.0
 40
15.0
 40
15.0
 40
15.0
 40
16.0
 40
16.0
 40
16.0
 40
16.0
 10
118.4909586292314
 20
-150.1810139598506
 30
0.0
 10
118.4909586292314
 20
-150.2592176273658
 30
0.0
 10
118.4740776613537
 20
-150.3608479441806
 30
0.0
 10
118.4106879044251
 20
-150.4624782609955
 30
0.0
 10
118.3007893584456
 20
-150.6357665639036
 30
0.0
 10
118.1695312204576
 20
-150.6571261559121
 30
0.0
 10
118.0616997317693
 20
-150.676074181081
 30
0.0
 10
118.0616997317693
 20
-150.676074181081
 30
0.0
 10
118.0616997317693
 20
-150.4538655222824
 30
0.0
 10
118.0616997317693
 20
-150.4538655222824
 30
0.0
 10
118.2604817412682
 20
-150.3990885040669
 30
0.0
 10
118.2901095624414
 20
-150.2719644806612
 30
0.0
 10
118.2901095624414
 20
-150.1789469025594
 30
0.0
 10
118.2901095624414
 20
-150.0394205354068
 30
0.0
 10
118.1905463029177
 20
-149.8871473149588
 30
0.0
 10
117.9580023576633
 20
-149.8871473149588
 30
0.0
 10
117.7020317631092
 20
-149.8871473149588
 30
0.0
 10
117.6320963247586
 20
-150.0669812992888
 30
0.0
 10
117.6320963247586
 20
-150.1875596412726
 30
0.0
 10
117.6320963247586
 20
-150.2192545197369
 30
0.0
 10
117.6320963247586
 20
-150.3608479441806
 30
0.0
 10
117.7612874054555
 20
-150.4497314077001
 30
0.0
 10
117.7612874054555
 20
-150.4497314077001
 30
0.0
 10
117.7423393802866
 20
-150.6254312774478
 30
0.0
 10
117.7423393802866
 20
-150.6254312774478
 30
0.0
 10
117.7423393802866
 20
-150.6254312774478
 30
0.0
 10
116.8958794195608
 20
-150.5048529354641
 30
0.0
 10
116.8958794195608
 20
-150.5048529354641
 30
0.0
 10
116.8958794195608
 20
-150.5048529354641
 30
0.0
 10
116.8958794195608
 20
-149.7262613557976
 30
0.0
 10
116.8958794195608
 20
-149.7262613557976
 30
0.0
 10
116.8958794195608
 20
-149.7262613557976
 30
0.0
 10
117.0905273144774
 20
-149.7262613557976
 30
0.0
 10
117.0905273144774
 20
-149.7262613557976
 30
0.0
 10
117.0905273144774
 20
-149.7262613557976
 30
0.0
 10
117.0905273144774
 20
-150.3418999190118
 30
0.0
 10
117.0905273144774
 20
-150.3418999190118
 30
0.0
 10
117.0905273144774
 20
-150.3418999190118
 30
0.0
 10
117.513585040066
 20
-150.4073567332315
 30
0.0
 10
117.513585040066
 20
-150.4073567332315
 30
0.0
 10
117.4798231043106
 20
-150.3460340335941
 30
0.0
 10
117.4395154871332
 20
-150.2636962514966
 30
0.0
 10
117.4395154871332
 20
-150.145184966804
 30
0.0
 10
117.4395154871332
 20
-149.8912814295411
 30
0.0
 10
117.6258951528852
 20
-149.6542588601559
 30
0.0
 10
117.9390543324944
 20
-149.6542588601559
 30
0.0
 10
118.2563476266859
 20
-149.6542588601559
 30
0.0
 10
118.4909586292314
 20
-149.8785345762456
 30
0.0
 10
118.4909586292314
 20
-150.1810139598506
 30
0.0
  0
HATCH
  5
DF
330
DA
100
AcDbEntity
  8
_U+30EC_U+30A4_U+30E4_U+30FC 1
 62
   179
420
  2234388
100
AcDbHatch
 10
0.0
 20
0.0
 30
0.0
210
0.0
220
0.0
230
1.0
  2
SOLID
 70
     1
 71
     0
 91
        1
 92
        1
 93
        1
 72
     4
 94
        3
 73
     0
 74
     1
 95
       53
 96
       49
 40
0.0
 40
0.0
 40
0.0
 40
0.0
 40
1.0
 40
1.0
 40
1.0
 40
2.0
 40
2.0
 40
2.0
 40
3.0
 40
3.0
 40
3.0
 40
4.0
 40
4.0
 40
4.0
 40
5.0
 40
5.0
 40
5.0
 40
6.0
 40
6.0
 40
6.0
 40
7.0
 40
7.0
 40
7.0
 40
8.0
 40
8.0
 40
8.0
 40
9.0
 40
9.0
 40
9.0
 40
10.0
 40
10.0
 40
10.0
 40
11.0
 40
11.0
 40
11.0
 40
12.0
 40
12.0
 40
12.0
 40
13.0
 40
13.0
 40
13.0
 40
14.0
 40
14.0
 40
14.0
 40
15.0
 40
15.0
 40
15.0
 40
16.0
 40
16.0
 40
16.0
 40
16.0
 10
118.4909586292314
 20
-150.1810139598506
 10
118.4909586292314
 20
-150.2592176273658
 10
118.4740776613537
 20
-150.3608479441806
 10
118.4106879044251
 20
-150.4624782609955
 10
118.3007893584456
 20
-150.6357665639036
 10
118.1695312204576
 20
-150.6571261559121
 10
118.0616997317693
 20
-150.676074181081
 10
118.0616997317693
 20
-150.676074181081
 10
118.0616997317693
 20
-150.4538655222824
 10
118.0616997317693
 20
-150.4538655222824
 10
118.2604817412682
 20
-150.3990885040669
 10
118.2901095624414
 20
-150.2719644806612
 10
118.2901095624414
 20
-150.1789469025594
 10
118.2901095624414
 20
-150.0394205354068
 10
118.1905463029177
 20
-149.8871473149588
 10
117.9580023576633
 20
-149.8871473149588
 10
117.7020317631092
 20
-149.8871473149588
 10
117.6320963247586
 20
-150.0669812992888
 10
117.6320963247586
 20
-150.1875596412726
 10
117.6320963247586
 20
-150.2192545197369
 10
117.6320963247586
 20
-150.3608479441806
 10
117.7612874054555
 20
-150.4497314077001
 10
117.7612874054555
 20
-150.4497314077001
 10
117.7423393802866
 20
-150.6254312774478
 10
117.7423393802866
 20
-150.6254312774478
 10
117.7423393802866
 20
-150.6254312774478
 10
116.8958794195608
 20
-150.5048529354641
 10
116.8958794195608
 20
-150.5048529354641
 10
116.8958794195608
 20
-150.5048529354641
 10
116.8958794195608
 20
-149.7262613557976
 10
116.8958794195608
 20
-149.7262613557976
 10
116.8958794195608
 20
-149.7262613557976
 10
117.0905273144774
 20
-149.7262613557976
 10
117.0905273144774
 20
-149.7262613557976
 10
117.0905273144774
 20
-149.7262613557976
 10
117.0905273144774
 20
-150.3418999190118
 10
117.0905273144774
 20
-150.3418999190118
 10
117.0905273144774
 20
-150.3418999190118
 10
117.513585040066
 20
-150.4073567332315
 10
117.513585040066
 20
-150.4073567332315
 10
117.4798231043106
 20
-150.3460340335941
 10
117.4395154871332
 20
-150.2636962514966
 10
117.4395154871332
 20
-150.145184966804
 10
117.4395154871332
 20
-149.8912814295411
 10
117.6258951528852
 20
-149.6542588601559
 10
117.9390543324944
 20
-149.6542588601559
 10
118.2563476266859
 20
-149.6542588601559
 10
118.4909586292314
 20
-149.8785345762456
 10
118.4909586292314
 20
-150.1810139598506
 97
        0
 97
        0
 75
     2
 76
     1
 98
        0
  0
POLYLINE
  5
E0
330
DA
100
AcDbEntity
  8
_U+30EC_U+30A4_U+30E4_U+30FC 1
370
     0
100
AcDb2dPolyline
 66
     1
 10
0.0
 20
0.0
 30
0.0
  0
VERTEX
  5
E1
330
E0
100
AcDbEntity
  8
_U+30EC_U+30A4_U+30E4_U+30FC 1
370
     0
100
AcDbVertex
100
AcDb2dVertex
 10
118.4403157255983
 20
-149.4251600103868
 30
0.0
  0
VERTEX
  5
E2
330
E0
100
AcDbEntity
  8
_U+30EC_U+30A4_U+30E4_U+30FC 1
370
     0
100
AcDbVertex
100
AcDb2dVertex
 10
118.1884792456265
 20
-149.4251600103868
 30
0.0
  0
VERTEX
  5
E3
330
E0
100
AcDbEntity
  8
_U+30EC_U+30A4_U+30E4_U+30FC 1
370
     0
100
AcDbVertex
100
AcDb2dVertex
 10
118.1884792456265
 20
-149.173323530415
 30
0.0
  0
VERTEX
  5
E4
330
E0
100
AcDbEntity
  8
_U+30EC_U+30A4_U+30E4_U+30FC 1
370
     0
100
AcDbVertex
100
AcDb2dVertex
 10
118.4403157255983
 20
-149.173323530415
 30
0.0
  0
VERTEX
  5
E5
330
E0
100
AcDbEntity
  8
_U+30EC_U+30A4_U+30E4_U+30FC 1
370
     0
100
AcDbVertex
100
AcDb2dVertex
 10
118.4403157255983
 20
-149.4251600103868
 30
0.0
  0
SEQEND
  5
E6
330
E0
100
AcDbEntity
  8
_U+30EC_U+30A4_U+30E4_U+30FC 1
370
     0
  0
HATCH
  5
E7
330
DA
100
AcDbEntity
  8
_U+30EC_U+30A4_U+30E4_U+30FC 1
 62
   179
420
  2234388
100
AcDbHatch
 10
0.0
 20
0.0
 30
0.0
210
0.0
220
0.0
230
1.0
  2
SOLID
 70
     1
 71
     0
 91
        1
 92
        1
 93
        4
 72
     1
 10
118.4403157255983
 20
-149.4251600103868
 11
118.1884792456265
 21
-149.4251600103868
 72
     1
 10
118.1884792456265
 20
-149.4251600103868
 11
118.1884792456265
 21
-149.173323530415
 72
     1
 10
118.1884792456265
 20
-149.173323530415
 11
118.4403157255983
 21
-149.173323530415
 72
     1
 10
118.4403157255983
 20
-149.173323530415
 11
118.4403157255983
 21
-149.4251600103868
 97
        0
 75
     2
 76
     1
 98
        0
  0
SPLINE
  5
E8
330
DA
100
AcDbEntity
  8
_U+30EC_U+30A4_U+30E4_U+30FC 1
370
     0
100
AcDbSpline
210
0.0
220
0.0
230
1.0
 70
    11
 71
     3
 72
    53
 73
    49
 74
     0
 42
0.0000000001
 43
0.0000000001
 12
1.0
 22
0.0
 32
0.0
 13
1.0
 23
0.0
 33
0.0
 40
0.0
 40
0.0
 40
0.0
 40
0.0
 40
1.0
 40
1.0
 40
1.0
 40
2.0
 40
2.0
 40
2.0
 40
3.0
 40
3.0
 40
3.0
 40
4.0
 40
4.0
 40
4.0
 40
5.0
 40
5.0
 40
5.0
 40
6.0
 40
6.0
 40
6.0
 40
7.0
 40
7.0
 40
7.0
 40
8.0
 40
8.0
 40
8.0
 40
9.0
 40
9.0
 40
9.0
 40
10.0
 40
10.0
 40
10.0
 40
11.0
 40
11.0
 40
11.0
 40
12.0
 40
12.0
 40
12.0
 40
13.0
 40
13.0
 40
13.0
 40
14.0
 40
14.0
 40
14.0
 40
15.0
 40
15.0
 40
15.0
 40
16.0
 40
16.0
 40
16.0
 40
16.0
 10
118.4909586292314
 20
-148.456054650386
 30
0.0
 10
118.4909586292314
 20
-148.5342583179012
 30
0.0
 10
118.4740776613537
 20
-148.635888634716
 30
0.0
 10
118.4106879044251
 20
-148.7375189515309
 30
0.0
 10
118.3007893584456
 20
-148.910807254439
 30
0.0
 10
118.1695312204576
 20
-148.9321668464475
 30
0.0
 10
118.0616997317693
 20
-148.9511148716164
 30
0.0
 10
118.0616997317693
 20
-148.9511148716164
 30
0.0
 10
118.0616997317693
 20
-148.7289062128178
 30
0.0
 10
118.0616997317693
 20
-148.7289062128178
 30
0.0
 10
118.2604817412682
 20
-148.6741291946023
 30
0.0
 10
118.2901095624414
 20
-148.5470051711966
 30
0.0
 10
118.2901095624414
 20
-148.4539875930948
 30
0.0
 10
118.2901095624414
 20
-148.3144612259422
 30
0.0
 10
118.1905463029177
 20
-148.1621880054942
 30
0.0
 10
117.9580023576633
 20
-148.1621880054942
 30
0.0
 10
117.7020317631092
 20
-148.1621880054942
 30
0.0
 10
117.6320963247586
 20
-148.3420219898242
 30
0.0
 10
117.6320963247586
 20
-148.462600331808
 30
0.0
 10
117.6320963247586
 20
-148.4942952102723
 30
0.0
 10
117.6320963247586
 20
-148.635888634716
 30
0.0
 10
117.7612874054555
 20
-148.7247720982355
 30
0.0
 10
117.7612874054555
 20
-148.7247720982355
 30
0.0
 10
117.7423393802866
 20
-148.9004719679832
 30
0.0
 10
117.7423393802866
 20
-148.9004719679832
 30
0.0
 10
117.7423393802866
 20
-148.9004719679832
 30
0.0
 10
116.8958794195608
 20
-148.7798936259995
 30
0.0
 10
116.8958794195608
 20
-148.7798936259995
 30
0.0
 10
116.8958794195608
 20
-148.7798936259995
 30
0.0
 10
116.8958794195608
 20
-148.001302046333
 30
0.0
 10
116.8958794195608
 20
-148.001302046333
 30
0.0
 10
116.8958794195608
 20
-148.001302046333
 30
0.0
 10
117.0905273144774
 20
-148.001302046333
 30
0.0
 10
117.0905273144774
 20
-148.001302046333
 30
0.0
 10
117.0905273144774
 20
-148.001302046333
 30
0.0
 10
117.0905273144774
 20
-148.6169406095472
 30
0.0
 10
117.0905273144774
 20
-148.6169406095472
 30
0.0
 10
117.0905273144774
 20
-148.6169406095472
 30
0.0
 10
117.513585040066
 20
-148.6823974237669
 30
0.0
 10
117.513585040066
 20
-148.6823974237669
 30
0.0
 10
117.4798231043106
 20
-148.6210747241295
 30
0.0
 10
117.4395154871332
 20
-148.538736942032
 30
0.0
 10
117.4395154871332
 20
-148.4202256573394
 30
0.0
 10
117.4395154871332
 20
-148.1663221200765
 30
0.0
 10
117.6258951528852
 20
-147.9292995506913
 30
0.0
 10
117.9390543324944
 20
-147.9292995506913
 30
0.0
 10
118.2563476266859
 20
-147.9292995506913
 30
0.0
 10
118.4909586292314
 20
-148.153575266781
 30
0.0
 10
118.4909586292314
 20
-148.456054650386
 30
0.0
  0
HATCH
  5
E9
330
DA
100
AcDbEntity
  8
_U+30EC_U+30A4_U+30E4_U+30FC 1
 62
   179
420
  2234388
100
AcDbHatch
 10
0.0
 20
0.0
 30
0.0
210
0.0
220
0.0
230
1.0
  2
SOLID
 70
     1
 71
     0
 91
        1
 92
        1
 93
        1
 72
     4
 94
        3
 73
     0
 74
     1
 95
       53
 96
       49
 40
0.0
 40
0.0
 40
0.0
 40
0.0
 40
1.0
 40
1.0
 40
1.0
 40
2.0
 40
2.0
 40
2.0
 40
3.0
 40
3.0
 40
3.0
 40
4.0
 40
4.0
 40
4.0
 40
5.0
 40
5.0
 40
5.0
 40
6.0
 40
6.0
 40
6.0
 40
7.0
 40
7.0
 40
7.0
 40
8.0
 40
8.0
 40
8.0
 40
9.0
 40
9.0
 40
9.0
 40
10.0
 40
10.0
 40
10.0
 40
11.0
 40
11.0
 40
11.0
 40
12.0
 40
12.0
 40
12.0
 40
13.0
 40
13.0
 40
13.0
 40
14.0
 40
14.0
 40
14.0
 40
15.0
 40
15.0
 40
15.0
 40
16.0
 40
16.0
 40
16.0
 40
16.0
 10
118.4909586292314
 20
-148.456054650386
 10
118.4909586292314
 20
-148.5342583179012
 10
118.4740776613537
 20
-148.635888634716
 10
118.4106879044251
 20
-148.7375189515309
 10
118.3007893584456
 20
-148.910807254439
 10
118.1695312204576
 20
-148.9321668464475
 10
118.0616997317693
 20
-148.9511148716164
 10
118.0616997317693
 20
-148.9511148716164
 10
118.0616997317693
 20
-148.7289062128178
 10
118.0616997317693
 20
-148.7289062128178
 10
118.2604817412682
 20
-148.6741291946023
 10
118.2901095624414
 20
-148.5470051711966
 10
118.2901095624414
 20
-148.4539875930948
 10
118.2901095624414
 20
-148.3144612259422
 10
118.1905463029177
 20
-148.1621880054942
 10
117.9580023576633
 20
-148.1621880054942
 10
117.7020317631092
 20
-148.1621880054942
 10
117.6320963247586
 20
-148.3420219898242
 10
117.6320963247586
 20
-148.462600331808
 10
117.6320963247586
 20
-148.4942952102723
 10
117.6320963247586
 20
-148.635888634716
 10
117.7612874054555
 20
-148.7247720982355
 10
117.7612874054555
 20
-148.7247720982355
 10
117.7423393802866
 20
-148.9004719679832
 10
117.7423393802866
 20
-148.9004719679832
 10
117.7423393802866
 20
-148.9004719679832
 10
116.8958794195608
 20
-148.7798936259995
 10
116.8958794195608
 20
-148.7798936259995
 10
116.8958794195608
 20
-148.7798936259995
 10
116.8958794195608
 20
-148.001302046333
 10
116.8958794195608
 20
-148.001302046333
 10
116.8958794195608
 20
-148.001302046333
 10
117.0905273144774
 20
-148.001302046333
 10
117.0905273144774
 20
-148.001302046333
 10
117.0905273144774
 20
-148.001302046333
 10
117.0905273144774
 20
-148.6169406095472
 10
117.0905273144774
 20
-148.6169406095472
 10
117.0905273144774
 20
-148.6169406095472
 10
117.513585040066
 20
-148.6823974237669
 10
117.513585040066
 20
-148.6823974237669
 10
117.4798231043106
 20
-148.6210747241295
 10
117.4395154871332
 20
-148.538736942032
 10
117.4395154871332
 20
-148.4202256573394
 10
117.4395154871332
 20
-148.1663221200765
 10
117.6258951528852
 20
-147.9292995506913
 10
117.9390543324944
 20
-147.9292995506913
 10
118.2563476266859
 20
-147.9292995506913
 10
118.4909586292314
 20
-148.153575266781
 10
118.4909586292314
 20
-148.456054650386
 97
        0
 97
        0
 75
     2
 76
     1
 98
        0
  0
ENDBLK
  5
DD
330
DA
100
AcDbEntity
  8
0
100
AcDbBlockEnd
  0
ENDSEC
  0
SECTION
  2
ENTITIES
  0
INSERT
  5
42
330
1F
100
AcDbEntity
  8
_U+30EC_U+30A4_U+30E4_U+30FC 1
100
AcDbBlockReference
  2
block 2
 10
0.0
 20
0.0
 30
0.0
  0
ENDSEC
  0
SECTION
  2
OBJECTS
  0
DICTIONARY
  5
C
330
0
100
AcDbDictionary
281
     1
  3
ACAD_GROUP
350
D
  3
ACAD_LAYOUT
350
1A
  3
ACAD_MATERIAL
350
3B
  3
ACAD_MLEADERSTYLE
350
EB
  3
ACAD_MLINESTYLE
350
17
  3
ACAD_PLOTSETTINGS
350
19
  3
ACAD_PLOTSTYLENAME
350
E
  3
ACAD_TABLESTYLE
350
EA
  3
ACAD_VISUALSTYLE
350
2A
  0
SUN
  5
3F
330
29
100
AcDbSun
 90
        1
290
     0
 63
     7
421
 16777215
 40
1.0
291
     1
 91
  2455826
 92
 54000000
292
     0
 70
     2
 71
   256
280
     1
  0
DICTIONARY
  5
D
102
{ACAD_REACTORS
330
C
102
}
330
C
100
AcDbDictionary
281
     1
  0
DICTIONARY
  5
1A
102
{ACAD_REACTORS
330
C
102
}
330
C
100
AcDbDictionary
281
     1
  3
Layout1
350
1E
  3
Layout2
350
26
  3
Model
350
22
  0
DICTIONARY
  5
3B
102
{ACAD_REACTORS
330
C
102
}
330
C
100
AcDbDictionary
281
     1
  3
ByBlock
350
3D
  3
ByLayer
350
3C
  3
Global
350
3E
  0
DICTIONARY
  5
EB
102
{ACAD_REACTORS
330
C
102
}
330
C
100
AcDbDictionary
281
     1
  0
DICTIONARY
  5
17
102
{ACAD_REACTORS
330
C
102
}
330
C
100
AcDbDictionary
281
     1
  3
Standard
350
18
  0
DICTIONARY
  5
19
102
{ACAD_REACTORS
330
C
102
}
330
C
100
AcDbDictionary
281
     1
  0
ACDBDICTIONARYWDFLT
  5
E
102
{ACAD_REACTORS
330
C
102
}
330
C
100
AcDbDictionary
281
     1
  3
Normal
350
F
100
AcDbDictionaryWithDefault
340
F
  0
DICTIONARY
  5
EA
102
{ACAD_REACTORS
330
C
102
}
330
C
100
AcDbDictionary
281
     1
  0
DICTIONARY
  5
2A
102
{ACAD_REACTORS
330
C
102
}
330
C
100
AcDbDictionary
281
     1
  3
2dWireframe
350
2F
  3
3D Hidden
350
31
  3
3dWireframe
350
30
  3
Basic
350
32
  3
Brighten
350
36
  3
ColorChange
350
3A
  3
Conceptual
350
34
  3
Dim
350
35
  3
Facepattern
350
39
  3
Flat
350
2B
  3
FlatWithEdges
350
2C
  3
Gouraud
350
2D
  3
GouraudWithEdges
350
2E
  3
Linepattern
350
38
  3
Realistic
350
33
  3
Thicken
350
37
  0
LAYOUT
  5
1E
102
{ACAD_REACTORS
330
1A
102
}
330
1A
100
AcDbPlotSettings
  1

  2
none_device
  4

  6

 40
0.0
 41
0.0
 42
0.0
 43
0.0
 44
0.0
 45
0.0
 46
0.0
 47
0.0
 48
0.0
 49
0.0
140
0.0
141
0.0
142
1.0
143
1.0
 70
   688
 72
     0
 73
     0
 74
     5
  7

 75
    16
 76
     0
 77
     2
 78
   300
147
1.0
148
0.0
149
0.0
100
AcDbLayout
  1
Layout1
 70
     1
 71
     1
 10
0.0
 20
0.0
 11
12.0
 21
9.0
 12
0.0
 22
0.0
 32
0.0
 14
1.000000000000000E+20
 24
1.000000000000000E+20
 34
1.000000000000000E+20
 15
-1.000000000000000E+20
 25
-1.000000000000000E+20
 35
-1.000000000000000E+20
146
0.0
 13
0.0
 23
0.0
 33
0.0
 16
1.0
 26
0.0
 36
0.0
 17
0.0
 27
1.0
 37
0.0
 76
     0
330
1B
  0
LAYOUT
  5
26
102
{ACAD_REACTORS
330
1A
102
}
330
1A
100
AcDbPlotSettings
  1

  2
none_device
  4

  6

 40
0.0
 41
0.0
 42
0.0
 43
0.0
 44
0.0
 45
0.0
 46
0.0
 47
0.0
 48
0.0
 49
0.0
140
0.0
141
0.0
142
1.0
143
1.0
 70
   688
 72
     0
 73
     0
 74
     5
  7

 75
    16
 76
     0
 77
     2
 78
   300
147
1.0
148
0.0
149
0.0
100
AcDbLayout
  1
Layout2
 70
     1
 71
     2
 10
0.0
 20
0.0
 11
0.0
 21
0.0
 12
0.0
 22
0.0
 32
0.0
 14
0.0
 24
0.0
 34
0.0
 15
0.0
 25
0.0
 35
0.0
146
0.0
 13
0.0
 23
0.0
 33
0.0
 16
1.0
 26
0.0
 36
0.0
 17
0.0
 27
1.0
 37
0.0
 76
     0
330
23
  0
LAYOUT
  5
22
102
{ACAD_REACTORS
330
1A
102
}
330
1A
100
AcDbPlotSettings
  1

  2
none_device
  4

  6

 40
0.0
 41
0.0
 42
0.0
 43
0.0
 44
0.0
 45
0.0
 46
0.0
 47
0.0
 48
0.0
 49
0.0
140
0.0
141
0.0
142
1.0
143
1.0
 70
  1712
 72
     0
 73
     0
 74
     0
  7

 75
     0
 76
     0
 77
     2
 78
   300
147
1.0
148
0.0
149
0.0
100
AcDbLayout
  1
Model
 70
     1
 71
     0
 10
0.0
 20
0.0
 11
12.0
 21
9.0
 12
0.0
 22
0.0
 32
0.0
 14
1.000000000000000E+20
 24
1.000000000000000E+20
 34
1.000000000000000E+20
 15
-1.000000000000000E+20
 25
-1.000000000000000E+20
 35
-1.000000000000000E+20
146
0.0
 13
0.0
 23
0.0
 33
0.0
 16
1.0
 26
0.0
 36
0.0
 17
0.0
 27
1.0
 37
0.0
 76
     0
330
1F
331
29
  0
MATERIAL
  5
3D
102
{ACAD_REACTORS
330
3B
102
}
330
3B
100
AcDbMaterial
  1
ByBlock
 72
     1
 94
      127
  0
MATERIAL
  5
3C
102
{ACAD_REACTORS
330
3B
102
}
330
3B
100
AcDbMaterial
  1
ByLayer
 72
     1
 94
      127
  0
MATERIAL
  5
3E
102
{ACAD_REACTORS
330
3B
102
}
330
3B
100
AcDbMaterial
  1
Global
 72
     1
 94
      127
  0
MLINESTYLE
  5
18
102
{ACAD_REACTORS
330
17
102
}
330
17
100
AcDbMlineStyle
  2
Standard
 70
     0
  3

 62
   256
 51
90.0
 52
90.0
 71
     2
 49
0.5
 62
   256
  6
BYLAYER
 49
-0.5
 62
   256
  6
BYLAYER
  0
ACDBPLACEHOLDER
  5
F
102
{ACAD_REACTORS
330
E
102
}
330
E
  0
VISUALSTYLE
  5
2F
102
{ACAD_REACTORS
330
2A
102
}
330
2A
100
AcDbVisualStyle
  2
2dWireframe
 70
     4
177
     2
291
     0
 71
     0
176
     1
 72
     2
176
     1
 73
     0
176
     1
 90
        0
176
     1
 40
-0.6
176
     1
 41
-30.0
176
     1
 62
     5
 63
     7
421
 16777215
176
     1
 74
     1
176
     1
 91
        4
176
     1
 64
     7
176
     1
 65
   257
176
     1
 75
     1
176
     1
175
     1
176
     1
 42
1.0
176
     1
 92
        0
176
     1
 66
   257
176
     1
 43
1.0
176
     1
 76
     1
176
     1
 77
     6
176
     1
 78
     2
176
     1
 67
     7
176
     1
 79
     5
176
     1
170
     0
176
     1
171
     0
176
     1
290
     0
176
     1
 93
        1
176
     1
 44
0.0
176
     1
173
     0
176
     1
  0
VISUALSTYLE
  5
31
102
{ACAD_REACTORS
330
2A
102
}
330
2A
100
AcDbVisualStyle
  2
3D Hidden
 70
     6
177
     2
291
     0
 71
     1
176
     1
 72
     2
176
     1
 73
     2
176
     1
 90
        0
176
     1
 40
-0.6
176
     1
 41
-30.0
176
     1
 62
     5
 63
     7
421
 16777215
176
     1
 74
     2
176
     1
 91
        2
176
     1
 64
     7
176
     1
 65
   257
176
     1
 75
     2
176
     1
175
     1
176
     1
 42
40.0
176
     1
 92
        0
176
     1
 66
   257
176
     1
 43
1.0
176
     1
 76
     1
176
     1
 77
     6
176
     1
 78
     2
176
     1
 67
     7
176
     1
 79
     3
176
     1
170
     0
176
     1
171
     0
176
     1
290
     0
176
     1
 93
        1
176
     1
 44
0.0
176
     1
173
     0
176
     1
  0
VISUALSTYLE
  5
30
102
{ACAD_REACTORS
330
2A
102
}
330
2A
100
AcDbVisualStyle
  2
3dWireframe
 70
     5
177
     2
291
     0
 71
     0
176
     1
 72
     2
176
     1
 73
     0
176
     1
 90
        0
176
     1
 40
-0.6
176
     1
 41
-30.0
176
     1
 62
     5
 63
     7
421
 16777215
176
     1
 74
     1
176
     1
 91
        4
176
     1
 64
     7
176
     1
 65
   257
176
     1
 75
     1
176
     1
175
     1
176
     1
 42
1.0
176
     1
 92
        0
176
     1
 66
   257
176
     1
 43
1.0
176
     1
 76
     1
176
     1
 77
     6
176
     1
 78
     2
176
     1
 67
     7
176
     1
 79
     5
176
     1
170
     0
176
     1
171
     0
176
     1
290
     0
176
     1
 93
        1
176
     1
 44
0.0
176
     1
173
     0
176
     1
  0
VISUALSTYLE
  5
32
102
{ACAD_REACTORS
330
2A
102
}
330
2A
100
AcDbVisualStyle
  2
Basic
 70
     7
177
     2
291
     1
 71
     1
176
     1
 72
     0
176
     1
 73
     1
176
     1
 90
        0
176
     1
 40
-0.6
176
     1
 41
-30.0
176
     1
 62
     5
 63
     7
421
 16777215
176
     1
 74
     0
176
     1
 91
        4
176
     1
 64
     7
176
     1
 65
   257
176
     1
 75
     1
176
     1
175
     1
176
     1
 42
1.0
176
     1
 92
        8
176
     1
 66
     7
176
     1
 43
1.0
176
     1
 76
     1
176
     1
 77
     6
176
     1
 78
     2
176
     1
 67
     7
176
     1
 79
     5
176
     1
170
     0
176
     1
171
     0
176
     1
290
     0
176
     1
 93
        1
176
     1
 44
0.0
176
     1
173
     0
176
     1
  0
VISUALSTYLE
  5
36
102
{ACAD_REACTORS
330
2A
102
}
330
2A
100
AcDbVisualStyle
  2
Brighten
 70
    12
177
     2
291
     1
 71
     2
176
     1
 72
     2
176
     1
 73
     0
176
     1
 90
        0
176
     1
 40
-0.6
176
     1
 41
-30.0
176
     1
 62
     5
 63
     7
421
 16777215
176
     1
 74
     1
176
     1
 91
        4
176
     1
 64
     7
176
     1
 65
   257
176
     1
 75
     1
176
     1
175
     1
176
     1
 42
1.0
176
     1
 92
        8
176
     1
 66
     7
176
     1
 43
1.0
176
     1
 76
     1
176
     1
 77
     6
176
     1
 78
     2
176
     1
 67
     7
176
     1
 79
     5
176
     1
170
     0
176
     1
171
     0
176
     1
290
     0
176
     1
 93
        1
176
     1
 44
50.0
176
     1
173
     0
176
     1
  0
VISUALSTYLE
  5
3A
102
{ACAD_REACTORS
330
2A
102
}
330
2A
100
AcDbVisualStyle
  2
ColorChange
 70
    16
177
     2
291
     1
 71
     2
176
     1
 72
     2
176
     1
 73
     3
176
     1
 90
        0
176
     1
 40
-0.6
176
     1
 41
-30.0
176
     1
 62
     5
 63
     8
421
  8421504
176
     1
 74
     1
176
     1
 91
        4
176
     1
 64
     7
176
     1
 65
   257
176
     1
 75
     1
176
     1
175
     1
176
     1
 42
1.0
176
     1
 92
        8
176
     1
 66
     8
424
  8421504
176
     1
 43
1.0
176
     1
 76
     1
176
     1
 77
     6
176
     1
 78
     2
176
     1
 67
     7
176
     1
 79
     5
176
     1
170
     0
176
     1
171
     0
176
     1
290
     0
176
     1
 93
        1
176
     1
 44
0.0
176
     1
173
     0
176
     1
  0
VISUALSTYLE
  5
34
102
{ACAD_REACTORS
330
2A
102
}
330
2A
100
AcDbVisualStyle
  2
Conceptual
 70
     9
177
     2
291
     0
 71
     3
176
     1
 72
     2
176
     1
 73
     0
176
     1
 90
        0
176
     1
 40
-0.6
176
     1
 41
-30.0
176
     1
 62
     5
 63
     7
421
 16777215
176
     1
 74
     2
176
     1
 91
        2
176
     1
 64
     7
176
     1
 65
   257
176
     1
 75
     1
176
     1
175
     1
176
     1
 42
40.0
176
     1
 92
        8
176
     1
 66
     7
176
     1
 43
1.0
176
     1
 76
     1
176
     1
 77
     6
176
     1
 78
     2
176
     1
 67
     7
176
     1
 79
     3
176
     1
170
     0
176
     1
171
     0
176
     1
290
     0
176
     1
 93
        1
176
     1
 44
0.0
176
     1
173
     0
176
     1
  0
VISUALSTYLE
  5
35
102
{ACAD_REACTORS
330
2A
102
}
330
2A
100
AcDbVisualStyle
  2
Dim
 70
    11
177
     2
291
     1
 71
     2
176
     1
 72
     2
176
     1
 73
     0
176
     1
 90
        0
176
     1
 40
-0.6
176
     1
 41
-30.0
176
     1
 62
     5
 63
     7
421
 16777215
176
     1
 74
     1
176
     1
 91
        4
176
     1
 64
     7
176
     1
 65
   257
176
     1
 75
     1
176
     1
175
     1
176
     1
 42
1.0
176
     1
 92
        8
176
     1
 66
     7
176
     1
 43
1.0
176
     1
 76
     1
176
     1
 77
     6
176
     1
 78
     2
176
     1
 67
     7
176
     1
 79
     5
176
     1
170
     0
176
     1
171
     0
176
     1
290
     0
176
     1
 93
        1
176
     1
 44
-50.0
176
     1
173
     0
176
     1
  0
VISUALSTYLE
  5
39
102
{ACAD_REACTORS
330
2A
102
}
330
2A
100
AcDbVisualStyle
  2
Facepattern
 70
    15
177
     2
291
     1
 71
     2
176
     1
 72
     2
176
     1
 73
     0
176
     1
 90
        0
176
     1
 40
-0.6
176
     1
 41
-30.0
176
     1
 62
     5
 63
     7
421
 16777215
176
     1
 74
     1
176
     1
 91
        4
176
     1
 64
     7
176
     1
 65
   257
176
     1
 75
     1
176
     1
175
     1
176
     1
 42
1.0
176
     1
 92
        8
176
     1
 66
     7
176
     1
 43
1.0
176
     1
 76
     1
176
     1
 77
     6
176
     1
 78
     2
176
     1
 67
     7
176
     1
 79
     5
176
     1
170
     0
176
     1
171
     0
176
     1
290
     0
176
     1
 93
        1
176
     1
 44
0.0
176
     1
173
     0
176
     1
  0
VISUALSTYLE
  5
2B
102
{ACAD_REACTORS
330
2A
102
}
330
2A
100
AcDbVisualStyle
  2
Flat
 70
     0
177
     2
291
     1
 71
     2
176
     1
 72
     1
176
     1
 73
     1
176
     1
 90
        2
176
     1
 40
-0.6
176
     1
 41
30.0
176
     1
 62
     5
 63
     7
421
 16777215
176
     1
 74
     0
176
     1
 91
        4
176
     1
 64
     7
176
     1
 65
   257
176
     1
 75
     1
176
     1
175
     1
176
     1
 42
1.0
176
     1
 92
        8
176
     1
 66
     7
176
     1
 43
1.0
176
     1
 76
     1
176
     1
 77
     6
176
     1
 78
     2
176
     1
 67
     7
176
     1
 79
     5
176
     1
170
     0
176
     1
171
     0
176
     1
290
     0
176
     1
 93
       13
176
     1
 44
0.0
176
     1
173
     0
176
     1
  0
VISUALSTYLE
  5
2C
102
{ACAD_REACTORS
330
2A
102
}
330
2A
100
AcDbVisualStyle
  2
FlatWithEdges
 70
     1
177
     2
291
     1
 71
     2
176
     1
 72
     1
176
     1
 73
     1
176
     1
 90
        2
176
     1
 40
-0.6
176
     1
 41
30.0
176
     1
 62
     5
 63
     7
421
 16777215
176
     1
 74
     1
176
     1
 91
        4
176
     1
 64
     7
176
     1
 65
   257
176
     1
 75
     1
176
     1
175
     1
176
     1
 42
1.0
176
     1
 92
        0
176
     1
 66
   257
176
     1
 43
1.0
176
     1
 76
     1
176
     1
 77
     6
176
     1
 78
     2
176
     1
 67
     7
176
     1
 79
     5
176
     1
170
     0
176
     1
171
     0
176
     1
290
     0
176
     1
 93
       13
176
     1
 44
0.0
176
     1
173
     0
176
     1
  0
VISUALSTYLE
  5
2D
102
{ACAD_REACTORS
330
2A
102
}
330
2A
100
AcDbVisualStyle
  2
Gouraud
 70
     2
177
     2
291
     1
 71
     2
176
     1
 72
     2
176
     1
 73
     1
176
     1
 90
        2
176
     1
 40
-0.6
176
     1
 41
30.0
176
     1
 62
     5
 63
     7
421
 16777215
176
     1
 74
     0
176
     1
 91
        4
176
     1
 64
     7
176
     1
 65
   257
176
     1
 75
     1
176
     1
175
     1
176
     1
 42
1.0
176
     1
 92
        0
176
     1
 66
     7
176
     1
 43
1.0
176
     1
 76
     1
176
     1
 77
     6
176
     1
 78
     2
176
     1
 67
     7
176
     1
 79
     5
176
     1
170
     0
176
     1
171
     0
176
     1
290
     0
176
     1
 93
       13
176
     1
 44
0.0
176
     1
173
     0
176
     1
  0
VISUALSTYLE
  5
2E
102
{ACAD_REACTORS
330
2A
102
}
330
2A
100
AcDbVisualStyle
  2
GouraudWithEdges
 70
     3
177
     2
291
     1
 71
     2
176
     1
 72
     2
176
     1
 73
     1
176
     1
 90
        2
176
     1
 40
-0.6
176
     1
 41
30.0
176
     1
 62
     5
 63
     7
421
 16777215
176
     1
 74
     1
176
     1
 91
        4
176
     1
 64
     7
176
     1
 65
   257
176
     1
 75
     1
176
     1
175
     1
176
     1
 42
1.0
176
     1
 92
        0
176
     1
 66
   257
176
     1
 43
1.0
176
     1
 76
     1
176
     1
 77
     6
176
     1
 78
     2
176
     1
 67
     7
176
     1
 79
     5
176
     1
170
     0
176
     1
171
     0
176
     1
290
     0
176
     1
 93
       13
176
     1
 44
0.0
176
     1
173
     0
176
     1
  0
VISUALSTYLE
  5
38
102
{ACAD_REACTORS
330
2A
102
}
330
2A
100
AcDbVisualStyle
  2
Linepattern
 70
    14
177
     2
291
     1
 71
     2
176
     1
 72
     2
176
     1
 73
     0
176
     1
 90
        0
176
     1
 40
-0.6
176
     1
 41
-30.0
176
     1
 62
     5
 63
     7
421
 16777215
176
     1
 74
     1
176
     1
 91
        4
176
     1
 64
     7
176
     1
 65
   257
176
     1
 75
     7
176
     1
175
     7
176
     1
 42
1.0
176
     1
 92
        8
176
     1
 66
     7
176
     1
 43
1.0
176
     1
 76
     1
176
     1
 77
     6
176
     1
 78
     2
176
     1
 67
     7
176
     1
 79
     5
176
     1
170
     0
176
     1
171
     0
176
     1
290
     0
176
     1
 93
        1
176
     1
 44
0.0
176
     1
173
     0
176
     1
  0
VISUALSTYLE
  5
33
102
{ACAD_REACTORS
330
2A
102
}
330
2A
100
AcDbVisualStyle
  2
Realistic
 70
     8
177
     2
291
     0
 71
     2
176
     1
 72
     2
176
     1
 73
     0
176
     1
 90
        0
176
     1
 40
-0.6
176
     1
 41
-30.0
176
     1
 62
     5
 63
     7
421
 16777215
176
     1
 74
     1
176
     1
 91
        0
176
     1
 64
     7
176
     1
 65
   257
176
     1
 75
     1
176
     1
175
     1
176
     1
 42
1.0
176
     1
 92
        8
176
     1
 66
     8
424
  7895160
176
     1
 43
1.0
176
     1
 76
     1
176
     1
 77
     6
176
     1
 78
     2
176
     1
 67
     7
176
     1
 79
     5
176
     1
170
     0
176
     1
171
     0
176
     1
290
     0
176
     1
 93
       13
176
     1
 44
0.0
176
     1
173
     0
176
     1
  0
VISUALSTYLE
  5
37
102
{ACAD_REACTORS
330
2A
102
}
330
2A
100
AcDbVisualStyle
  2
Thicken
 70
    13
177
     2
291
     1
 71
     2
176
     1
 72
     2
176
     1
 73
     0
176
     1
 90
        0
176
     1
 40
-0.6
176
     1
 41
-30.0
176
     1
 62
     5
 63
     7
421
 16777215
176
     1
 74
     1
176
     1
 91
        4
176
     1
 64
     7
176
     1
 65
   257
176
     1
 75
     1
176
     1
175
     1
176
     1
 42
1.0
176
     1
 92
       12
176
     1
 66
     7
176
     1
 43
1.0
176
     1
 76
     1
176
     1
 77
     6
176
     1
 78
     2
176
     1
 67
     7
176
     1
 79
     5
176
     1
170
     0
176
     1
171
     0
176
     1
290
     0
176
     1
 93
        1
176
     1
 44
0.0
176
     1
173
     0
176
     1
  0
ENDSEC
  0
EOF
