  0
SECTION
  2
HEADER
  9
$ACADVER
  1
AC1024
  9
$ACADMAINTVER
 70
     6
  9
$DWGCODEPAGE
  3
UNDEFINED
  9
$INSBASE
 10
0.0
 20
0.0
 30
0.0
  9
$EXTMIN
 10
1.000000000000000E+20
 20
1.000000000000000E+20
 30
1.000000000000000E+20
  9
$EXTMAX
 10
-1.000000000000000E+20
 20
-1.000000000000000E+20
 30
-1.000000000000000E+20
  9
$LIMMIN
 10
0.0
 20
0.0
  9
$LIMMAX
 10
12.0
 20
9.0
  9
$ORTHOMODE
 70
     0
  9
$REGENMODE
 70
     1
  9
$FILLMODE
 70
     1
  9
$QTEXTMODE
 70
     0
  9
$MIRRTEXT
 70
     1
  9
$LTSCALE
 40
1.0
  9
$ATTMODE
 70
     1
  9
$TEXTSIZE
 40
0.2
  9
$TRACEWID
 40
0.05
  9
$TEXTSTYLE
  7
Standard
  9
$CLAYER
  8
0
  9
$CELTYPE
  6
ByLayer
  9
$CECOLOR
 62
   256
  9
$CELTSCALE
 40
1.0
  9
$DISPSILH
 70
     0
  9
$DIMSCALE
 40
1.0
  9
$DIMASZ
 40
0.18
  9
$DIMEXO
 40
0.0625
  9
$DIMDLI
 40
0.38
  9
$DIMRND
 40
0.0
  9
$DIMDLE
 40
0.0
  9
$DIMEXE
 40
0.18
  9
$DIMTP
 40
0.0
  9
$DIMTM
 40
0.0
  9
$DIMTXT
 40
0.18
  9
$DIMCEN
 40
0.09
  9
$DIMTSZ
 40
0.0
  9
$DIMTOL
 70
     0
  9
$DIMLIM
 70
     0
  9
$DIMTIH
 70
     1
  9
$DIMTOH
 70
     1
  9
$DIMSE1
 70
     0
  9
$DIMSE2
 70
     0
  9
$DIMTAD
 70
     0
  9
$DIMZIN
 70
     0
  9
$DIMBLK
  1

  9
$DIMASO
 70
     1
  9
$DIMSHO
 70
     1
  9
$DIMPOST
  1

  9
$DIMAPOST
  1

  9
$DIMALT
 70
     0
  9
$DIMALTD
 70
     2
  9
$DIMALTF
 40
25.4
  9
$DIMLFAC
 40
1.0
  9
$DIMTOFL
 70
     0
  9
$DIMTVP
 40
0.0
  9
$DIMTIX
 70
     0
  9
$DIMSOXD
 70
     0
  9
$DIMSAH
 70
     0
  9
$DIMBLK1
  1

  9
$DIMBLK2
  1

  9
$DIMSTYLE
  2
Standard
  9
$DIMCLRD
 70
     0
  9
$DIMCLRE
 70
     0
  9
$DIMCLRT
 70
     0
  9
$DIMTFAC
 40
1.0
  9
$DIMGAP
 40
0.09
  9
$DIMJUST
 70
     0
  9
$DIMSD1
 70
     0
  9
$DIMSD2
 70
     0
  9
$DIMTOLJ
 70
     1
  9
$DIMTZIN
 70
     0
  9
$DIMALTZ
 70
     0
  9
$DIMALTTZ
 70
     0
  9
$DIMUPT
 70
     0
  9
$DIMDEC
 70
     4
  9
$DIMTDEC
 70
     4
  9
$DIMALTU
 70
     2
  9
$DIMALTTD
 70
     2
  9
$DIMTXSTY
  7
Standard
  9
$DIMAUNIT
 70
     0
  9
$DIMADEC
 70
     0
  9
$DIMALTRND
 40
0.0
  9
$DIMAZIN
 70
     0
  9
$DIMDSEP
 70
    46
  9
$DIMATFIT
 70
     3
  9
$DIMFRAC
 70
     0
  9
$DIMLDRBLK
  1

  9
$DIMLUNIT
 70
     2
  9
$DIMLWD
 70
    -2
  9
$DIMLWE
 70
    -2
  9
$DIMTMOVE
 70
     0
  9
$DIMFXL
 40
1.0
  9
$DIMFXLON
 70
     0
  9
$DIMJOGANG
 40
0.7853981633974483
  9
$DIMTFILL
 70
     0
  9
$DIMTFILLCLR
 70
     0
  9
$DIMARCSYM
 70
     0
  9
$DIMLTYPE
  6

  9
$DIMLTEX1
  6

  9
$DIMLTEX2
  6

  9
$DIMTXTDIRECTION
 70
     0
  9
$LUNITS
 70
     2
  9
$LUPREC
 70
     4
  9
$SKETCHINC
 40
0.1
  9
$FILLETRAD
 40
0.5
  9
$AUNITS
 70
     0
  9
$AUPREC
 70
     0
  9
$MENU
  1
.
  9
$ELEVATION
 40
0.0
  9
$PELEVATION
 40
0.0
  9
$THICKNESS
 40
0.0
  9
$LIMCHECK
 70
     0
  9
$CHAMFERA
 40
0.5
  9
$CHAMFERB
 40
0.5
  9
$CHAMFERC
 40
1.0
  9
$CHAMFERD
 40
0.0
  9
$SKPOLY
 70
     0
  9
$TDCREATE
 40
2457917.588171285
  9
$TDUCREATE
 40
2457917.213171296
  9
$TDUPDATE
 40
2457917.588171285
  9
$TDUUPDATE
 40
2457917.213171296
  9
$TDINDWG
 40
0.0000000116
  9
$TDUSRTIMER
 40
0.0000000116
  9
$USRTIMER
 70
     1
  9
$ANGBASE
 50
0.0
  9
$ANGDIR
 70
     0
  9
$PDMODE
 70
     0
  9
$PDSIZE
 40
0.0
  9
$PLINEWID
 40
0.0
  9
$SPLFRAME
 70
     0
  9
$SPLINETYPE
 70
     6
  9
$SPLINESEGS
 70
     8
  9
$HANDSEED
  5
F4
  9
$SURFTAB1
 70
     6
  9
$SURFTAB2
 70
     6
  9
$SURFTYPE
 70
     6
  9
$SURFU
 70
     6
  9
$SURFV
 70
     6
  9
$UCSBASE
  2

  9
$UCSNAME
  2

  9
$UCSORG
 10
0.0
 20
0.0
 30
0.0
  9
$UCSXDIR
 10
1.0
 20
0.0
 30
0.0
  9
$UCSYDIR
 10
0.0
 20
1.0
 30
0.0
  9
$UCSORTHOREF
  2

  9
$UCSORTHOVIEW
 70
     0
  9
$UCSORGTOP
 10
0.0
 20
0.0
 30
0.0
  9
$UCSORGBOTTOM
 10
0.0
 20
0.0
 30
0.0
  9
$UCSORGLEFT
 10
0.0
 20
0.0
 30
0.0
  9
$UCSORGRIGHT
 10
0.0
 20
0.0
 30
0.0
  9
$UCSORGFRONT
 10
0.0
 20
0.0
 30
0.0
  9
$UCSORGBACK
 10
0.0
 20
0.0
 30
0.0
  9
$PUCSBASE
  2

  9
$PUCSNAME
  2

  9
$PUCSORG
 10
0.0
 20
0.0
 30
0.0
  9
$PUCSXDIR
 10
1.0
 20
0.0
 30
0.0
  9
$PUCSYDIR
 10
0.0
 20
1.0
 30
0.0
  9
$PUCSORTHOREF
  2

  9
$PUCSORTHOVIEW
 70
     0
  9
$PUCSORGTOP
 10
0.0
 20
0.0
 30
0.0
  9
$PUCSORGBOTTOM
 10
0.0
 20
0.0
 30
0.0
  9
$PUCSORGLEFT
 10
0.0
 20
0.0
 30
0.0
  9
$PUCSORGRIGHT
 10
0.0
 20
0.0
 30
0.0
  9
$PUCSORGFRONT
 10
0.0
 20
0.0
 30
0.0
  9
$PUCSORGBACK
 10
0.0
 20
0.0
 30
0.0
  9
$USERI1
 70
     0
  9
$USERI2
 70
     0
  9
$USERI3
 70
     0
  9
$USERI4
 70
     0
  9
$USERI5
 70
     0
  9
$USERR1
 40
0.0
  9
$USERR2
 40
0.0
  9
$USERR3
 40
0.0
  9
$USERR4
 40
0.0
  9
$USERR5
 40
0.0
  9
$WORLDVIEW
 70
     1
  9
$SHADEDGE
 70
     3
  9
$SHADEDIF
 70
    70
  9
$TILEMODE
 70
     1
  9
$MAXACTVP
 70
    64
  9
$PINSBASE
 10
0.0
 20
0.0
 30
0.0
  9
$PLIMCHECK
 70
     0
  9
$PEXTMIN
 10
1.000000000000000E+20
 20
1.000000000000000E+20
 30
1.000000000000000E+20
  9
$PEXTMAX
 10
-1.000000000000000E+20
 20
-1.000000000000000E+20
 30
-1.000000000000000E+20
  9
$PLIMMIN
 10
0.0
 20
0.0
  9
$PLIMMAX
 10
12.0
 20
9.0
  9
$UNITMODE
 70
     0
  9
$VISRETAIN
 70
     1
  9
$PLINEGEN
 70
     0
  9
$PSLTSCALE
 70
     1
  9
$TREEDEPTH
 70
  3020
  9
$CMLSTYLE
  2
Standard
  9
$CMLJUST
 70
     0
  9
$CMLSCALE
 40
1.0
  9
$PROXYGRAPHICS
 70
     1
  9
$MEASUREMENT
 70
     0
  9
$CELWEIGHT
370
    -1
  9
$ENDCAPS
280
     0
  9
$JOINSTYLE
280
     0
  9
$LWDISPLAY
290
     1
  9
$INSUNITS
 70
     1
  9
$HYPERLINKBASE
  1

  9
$STYLESHEET
  1

  9
$XEDIT
290
     1
  9
$CEPSNTYPE
380
     0
  9
$PSTYLEMODE
290
     1
  9
$FINGERPRINTGUID
  2
{63069081-493D-1230-DF8D-8D0A7DBE7D0B}
  9
$VERSIONGUID
  2
{FAEB1C32-E019-11D5-929B-00C0DF256EC4}
  9
$EXTNAMES
290
     1
  9
$PSVPSCALE
 40
0.0
  9
$OLESTARTUP
290
     0
  9
$SORTENTS
280
   127
  9
$INDEXCTL
280
     0
  9
$HIDETEXT
280
     1
  9
$XCLIPFRAME
280
     2
  9
$HALOGAP
280
     0
  9
$OBSCOLOR
 70
   257
  9
$OBSLTYPE
280
     0
  9
$INTERSECTIONDISPLAY
280
     0
  9
$INTERSECTIONCOLOR
 70
   257
  9
$DIMASSOC
280
     2
  9
$PROJECTNAME
  1

  9
$CAMERADISPLAY
290
     0
  9
$LENSLENGTH
 40
50.0
  9
$CAMERAHEIGHT
 40
0.0
  9
$STEPSPERSEC
 40
2.0
  9
$STEPSIZE
 40
6.0
  9
$3DDWFPREC
 40
2.0
  9
$PSOLWIDTH
 40
0.25
  9
$PSOLHEIGHT
 40
4.0
  9
$LOFTANG1
 40
1.570796326794897
  9
$LOFTANG2
 40
1.570796326794897
  9
$LOFTMAG1
 40
0.0
  9
$LOFTMAG2
 40
0.0
  9
$LOFTPARAM
 70
     7
  9
$LOFTNORMALS
280
     1
  9
$LATITUDE
 40
37.795
  9
$LONGITUDE
 40
-122.394
  9
$NORTHDIRECTION
 40
0.0
  9
$TIMEZONE
 70
 -8000
  9
$LIGHTGLYPHDISPLAY
280
     1
  9
$TILEMODELIGHTSYNCH
280
     1
  9
$CMATERIAL
347
3C
  9
$SOLIDHIST
280
     1
  9
$SHOWHIST
280
     1
  9
$DWFFRAME
280
     2
  9
$DGNFRAME
280
     2
  9
$REALWORLDSCALE
290
     1
  9
$INTERFERECOLOR
 62
   256
  9
$CSHADOW
280
     0
  9
$SHADOWPLANELOCATION
 40
0.0
  0
ENDSEC
  0
SECTION
  2
CLASSES
  0
CLASS
  1
ACDBDICTIONARYWDFLT
  2
AcDbDictionaryWithDefault
  3
ObjectDBX Classes
 90
        0
 91
        4
280
     0
281
     0
  0
CLASS
  1
VISUALSTYLE
  2
AcDbVisualStyle
  3
ObjectDBX Classes
 90
     4095
 91
        4
280
     0
281
     0
  0
CLASS
  1
MATERIAL
  2
AcDbMaterial
  3
ObjectDBX Classes
 90
     1153
 91
        4
280
     0
281
     0
  0
CLASS
  1
SUN
  2
AcDbSun
  3
SCENEOE
 90
     1024
 91
        4
280
     0
281
     0
  0
ENDSEC
  0
SECTION
  2
TABLES
  0
TABLE
  2
VPORT
  5
8
330
0
100
AcDbSymbolTable
 70
     1
  0
VPORT
  5
29
330
8
100
AcDbSymbolTableRecord
100
AcDbViewportTableRecord
  2
*Active
 70
     0
 10
0.0
 20
0.0
 11
1.0
 21
1.0
 12
0.0
 22
0.0
 13
0.0
 23
0.0
 14
0.5
 24
0.5
 15
0.5
 25
0.5
 16
0.0
 26
0.0
 36
1.0
 17
63.499999984125
 27
-89.00059456108309
 37
0.0
 40
178.0011891221662
 41
0.7134783795241226
 42
50.0
 43
0.0
 44
0.0
 50
0.0
 51
0.0
 71
     0
 72
   100
 73
     1
 74
     3
 75
     0
 76
     0
 77
     0
 78
     0
281
     0
 65
     1
110
0.0
120
0.0
130
0.0
111
1.0
121
0.0
131
0.0
112
0.0
122
1.0
132
0.0
 79
     0
146
0.0
 60
     3
 61
     5
292
     1
282
     1
141
0.0
142
0.0
 63
   250
361
3F
  0
ENDTAB
  0
TABLE
  2
LTYPE
  5
5
330
0
100
AcDbSymbolTable
 70
     1
  0
LTYPE
  5
14
330
5
100
AcDbSymbolTableRecord
100
AcDbLinetypeTableRecord
  2
ByBlock
 70
     0
  3

 72
    65
 73
     0
 40
0.0
  0
LTYPE
  5
15
330
5
100
AcDbSymbolTableRecord
100
AcDbLinetypeTableRecord
  2
ByLayer
 70
     0
  3

 72
    65
 73
     0
 40
0.0
  0
LTYPE
  5
16
330
5
100
AcDbSymbolTableRecord
100
AcDbLinetypeTableRecord
  2
Continuous
 70
     0
  3
Solid line
 72
    65
 73
     0
 40
0.0
  0
ENDTAB
  0
TABLE
  2
LAYER
  5
2
330
0
100
AcDbSymbolTable
 70
     2
  0
LAYER
  5
10
330
2
100
AcDbSymbolTableRecord
100
AcDbLayerTableRecord
  2
0
 70
     0
 62
     7
  6
Continuous
370
    -3
390
F
347
3E
  0
LAYER
  5
40
330
2
100
AcDbSymbolTableRecord
100
AcDbLayerTableRecord
  2
_U+30EC_U+30A4_U+30E4_U+30FC 1
 70
     0
 62
     7
  6
Continuous
370
    -3
390
F
347
3E
  0
ENDTAB
  0
TABLE
  2
STYLE
  5
3
330
0
100
AcDbSymbolTable
 70
     1
  0
STYLE
  5
11
330
3
100
AcDbSymbolTableRecord
100
AcDbTextStyleTableRecord
  2
Standard
 70
     0
 40
0.0
 41
1.0
 50
0.0
 71
     0
 42
0.2
  3
txt
  4

  0
ENDTAB
  0
TABLE
  2
VIEW
  5
6
330
0
100
AcDbSymbolTable
 70
     0
  0
ENDTAB
  0
TABLE
  2
UCS
  5
7
330
0
100
AcDbSymbolTable
 70
     0
  0
ENDTAB
  0
TABLE
  2
APPID
  5
9
330
0
100
AcDbSymbolTable
 70
     1
  0
APPID
  5
12
330
9
100
AcDbSymbolTableRecord
100
AcDbRegAppTableRecord
  2
ACAD
 70
     0
  0
ENDTAB
  0
TABLE
  2
DIMSTYLE
  5
A
330
0
100
AcDbSymbolTable
 70
     1
100
AcDbDimStyleTable
  0
DIMSTYLE
105
27
330
A
100
AcDbSymbolTableRecord
100
AcDbDimStyleTableRecord
  2
Standard
 70
     0
178
     0
340
11
  0
ENDTAB
  0
TABLE
  2
BLOCK_RECORD
  5
1
330
0
100
AcDbSymbolTable
 70
     7
  0
BLOCK_RECORD
  5
1F
330
1
100
AcDbSymbolTableRecord
100
AcDbBlockTableRecord
  2
*Model_Space
340
22
 70
     0
280
     1
281
     0
  0
BLOCK_RECORD
  5
1B
330
1
100
AcDbSymbolTableRecord
100
AcDbBlockTableRecord
  2
*Paper_Space
340
1E
 70
     0
280
     1
281
     0
  0
BLOCK_RECORD
  5
23
330
1
100
AcDbSymbolTableRecord
100
AcDbBlockTableRecord
  2
*Paper_Space0
340
26
 70
     0
280
     1
281
     0
  0
BLOCK_RECORD
  5
41
330
1
100
AcDbSymbolTableRecord
100
AcDbBlockTableRecord
  2
block 2
340
0
102
{BLKREFS
331
42
102
}
 70
     0
280
     1
281
     0
  0
BLOCK_RECORD
  5
91
330
1
100
AcDbSymbolTableRecord
100
AcDbBlockTableRecord
  2
block 3
340
0
102
{BLKREFS
331
92
102
}
 70
     0
280
     1
281
     0
  0
BLOCK_RECORD
  5
A6
330
1
100
AcDbSymbolTableRecord
100
AcDbBlockTableRecord
  2
block 4
340
0
102
{BLKREFS
331
A7
102
}
 70
     0
280
     1
281
     0
  0
BLOCK_RECORD
  5
B4
330
1
100
AcDbSymbolTableRecord
100
AcDbBlockTableRecord
  2
block 5
340
0
102
{BLKREFS
331
B5
102
}
 70
     0
280
     1
281
     0
  0
BLOCK_RECORD
  5
C6
330
1
100
AcDbSymbolTableRecord
100
AcDbBlockTableRecord
  2
block 6
340
0
102
{BLKREFS
331
C7
102
}
 70
     0
280
     1
281
     0
  0
BLOCK_RECORD
  5
EA
330
1
100
AcDbSymbolTableRecord
100
AcDbBlockTableRecord
  2
block 7
340
0
102
{BLKREFS
331
EB
102
}
 70
     0
280
     1
281
     0
  0
ENDTAB
  0
ENDSEC
  0
SECTION
  2
BLOCKS
  0
BLOCK
  5
20
330
1F
100
AcDbEntity
  8
0
100
AcDbBlockBegin
  2
*Model_Space
 70
     0
 10
0.0
 20
0.0
 30
0.0
  3
*Model_Space
  1

  0
ENDBLK
  5
21
330
1F
100
AcDbEntity
  8
0
100
AcDbBlockEnd
  0
BLOCK
  5
1C
330
1B
100
AcDbEntity
 67
     1
  8
0
100
AcDbBlockBegin
  2
*Paper_Space
 70
     0
 10
0.0
 20
0.0
 30
0.0
  3
*Paper_Space
  1

  0
ENDBLK
  5
1D
330
1B
100
AcDbEntity
 67
     1
  8
0
100
AcDbBlockEnd
  0
BLOCK
  5
24
330
23
100
AcDbEntity
  8
0
100
AcDbBlockBegin
  2
*Paper_Space0
 70
     0
 10
0.0
 20
0.0
 30
0.0
  3
*Paper_Space0
  1

  0
ENDBLK
  5
25
330
23
100
AcDbEntity
  8
0
100
AcDbBlockEnd
  0
BLOCK
  5
43
330
41
100
AcDbEntity
  8
0
100
AcDbBlockBegin
  2
block 2
 70
     0
 10
0.0
 20
0.0
 30
0.0
  3
block 2
  1

  0
POLYLINE
  5
45
330
41
100
AcDbEntity
  8
_U+30EC_U+30A4_U+30E4_U+30FC 1
 62
     7
420
 16777215
370
    25
100
AcDb2dPolyline
 66
     1
 10
0.0
 20
0.0
 30
0.0
  0
VERTEX
  5
46
330
45
100
AcDbEntity
  8
_U+30EC_U+30A4_U+30E4_U+30FC 1
 62
     7
420
 16777215
370
    25
100
AcDbVertex
100
AcDb2dVertex
 10
66.54545830228392
 20
-95.81292747604672
 30
0.0
  0
VERTEX
  5
47
330
45
100
AcDbEntity
  8
_U+30EC_U+30A4_U+30E4_U+30FC 1
 62
     7
420
 16777215
370
    25
100
AcDbVertex
100
AcDb2dVertex
 10
69.54544517019232
 20
-95.81292747604672
 30
0.0
  0
SEQEND
  5
48
330
45
100
AcDbEntity
  8
_U+30EC_U+30A4_U+30E4_U+30FC 1
 62
     7
420
 16777215
370
    25
  0
POLYLINE
  5
49
330
41
100
AcDbEntity
  8
_U+30EC_U+30A4_U+30E4_U+30FC 1
 62
     7
420
 16777215
370
    25
100
AcDb2dPolyline
 66
     1
 10
0.0
 20
0.0
 30
0.0
  0
VERTEX
  5
4A
330
49
100
AcDbEntity
  8
_U+30EC_U+30A4_U+30E4_U+30FC 1
 62
     7
420
 16777215
370
    25
100
AcDbVertex
100
AcDb2dVertex
 10
39.54557649110829
 20
-99.01272775302434
 30
0.0
  0
VERTEX
  5
4B
330
49
100
AcDbEntity
  8
_U+30EC_U+30A4_U+30E4_U+30FC 1
 62
     7
420
 16777215
370
    25
100
AcDbVertex
100
AcDb2dVertex
 10
69.54544517019232
 20
-99.01272775302434
 30
0.0
  0
SEQEND
  5
4C
330
49
100
AcDbEntity
  8
_U+30EC_U+30A4_U+30E4_U+30FC 1
 62
     7
420
 16777215
370
    25
  0
POLYLINE
  5
4D
330
41
100
AcDbEntity
  8
_U+30EC_U+30A4_U+30E4_U+30FC 1
 62
     7
420
 16777215
370
    25
100
AcDb2dPolyline
 66
     1
 10
0.0
 20
0.0
 30
0.0
  0
VERTEX
  5
4E
330
4D
100
AcDbEntity
  8
_U+30EC_U+30A4_U+30E4_U+30FC 1
 62
     7
420
 16777215
370
    25
100
AcDbVertex
100
AcDb2dVertex
 10
69.54544517019232
 20
-95.81292747604672
 30
0.0
  0
VERTEX
  5
4F
330
4D
100
AcDbEntity
  8
_U+30EC_U+30A4_U+30E4_U+30FC 1
 62
     7
420
 16777215
370
    25
100
AcDbVertex
100
AcDb2dVertex
 10
69.54544517019232
 20
-99.01272775302434
 30
0.0
  0
SEQEND
  5
50
330
4D
100
AcDbEntity
  8
_U+30EC_U+30A4_U+30E4_U+30FC 1
 62
     7
420
 16777215
370
    25
  0
POLYLINE
  5
51
330
41
100
AcDbEntity
  8
_U+30EC_U+30A4_U+30E4_U+30FC 1
 62
     7
420
 16777215
370
    25
100
AcDb2dPolyline
 66
     1
 10
0.0
 20
0.0
 30
0.0
  0
VERTEX
  5
52
330
51
100
AcDbEntity
  8
_U+30EC_U+30A4_U+30E4_U+30FC 1
 62
     7
420
 16777215
370
    25
100
AcDbVertex
100
AcDb2dVertex
 10
66.54545830228392
 20
-96.81305247579702
 30
0.0
  0
VERTEX
  5
53
330
51
100
AcDbEntity
  8
_U+30EC_U+30A4_U+30E4_U+30FC 1
 62
     7
420
 16777215
370
    25
100
AcDbVertex
100
AcDb2dVertex
 10
68.54567297347641
 20
-96.81305247579702
 30
0.0
  0
SEQEND
  5
54
330
51
100
AcDbEntity
  8
_U+30EC_U+30A4_U+30E4_U+30FC 1
 62
     7
420
 16777215
370
    25
  0
POLYLINE
  5
55
330
41
100
AcDbEntity
  8
_U+30EC_U+30A4_U+30E4_U+30FC 1
 62
     7
420
 16777215
370
    25
100
AcDb2dPolyline
 66
     1
 10
0.0
 20
0.0
 30
0.0
  0
VERTEX
  5
56
330
55
100
AcDbEntity
  8
_U+30EC_U+30A4_U+30E4_U+30FC 1
 62
     7
420
 16777215
370
    25
100
AcDbVertex
100
AcDb2dVertex
 10
66.54545830228392
 20
-95.81292747604672
 30
0.0
  0
VERTEX
  5
57
330
55
100
AcDbEntity
  8
_U+30EC_U+30A4_U+30E4_U+30FC 1
 62
     7
420
 16777215
370
    25
100
AcDbVertex
100
AcDb2dVertex
 10
66.54545830228392
 20
-96.81305247579702
 30
0.0
  0
SEQEND
  5
58
330
55
100
AcDbEntity
  8
_U+30EC_U+30A4_U+30E4_U+30FC 1
 62
     7
420
 16777215
370
    25
  0
POLYLINE
  5
59
330
41
100
AcDbEntity
  8
_U+30EC_U+30A4_U+30E4_U+30FC 1
 62
     7
420
 16777215
370
    25
100
AcDb2dPolyline
 66
     1
 10
0.0
 20
0.0
 30
0.0
  0
VERTEX
  5
5A
330
59
100
AcDbEntity
  8
_U+30EC_U+30A4_U+30E4_U+30FC 1
 62
     7
420
 16777215
370
    25
100
AcDbVertex
100
AcDb2dVertex
 10
39.54557649110829
 20
-98.01295553105244
 30
0.0
  0
VERTEX
  5
5B
330
59
100
AcDbEntity
  8
_U+30EC_U+30A4_U+30E4_U+30FC 1
 62
     7
420
 16777215
370
    25
100
AcDbVertex
100
AcDb2dVertex
 10
39.54557649110829
 20
-99.01272775302434
 30
0.0
  0
SEQEND
  5
5C
330
59
100
AcDbEntity
  8
_U+30EC_U+30A4_U+30E4_U+30FC 1
 62
     7
420
 16777215
370
    25
  0
POLYLINE
  5
5D
330
41
100
AcDbEntity
  8
_U+30EC_U+30A4_U+30E4_U+30FC 1
 62
     7
420
 16777215
370
    25
100
AcDb2dPolyline
 66
     1
 10
0.0
 20
0.0
 30
0.0
  0
VERTEX
  5
5E
330
5D
100
AcDbEntity
  8
_U+30EC_U+30A4_U+30E4_U+30FC 1
 62
     7
420
 16777215
370
    25
100
AcDbVertex
100
AcDb2dVertex
 10
39.54557649110829
 20
-98.01295553105244
 30
0.0
  0
VERTEX
  5
5F
330
5D
100
AcDbEntity
  8
_U+30EC_U+30A4_U+30E4_U+30FC 1
 62
     7
420
 16777215
370
    25
100
AcDbVertex
100
AcDb2dVertex
 10
40.04578008945815
 20
-98.01295553105244
 30
0.0
  0
SEQEND
  5
60
330
5D
100
AcDbEntity
  8
_U+30EC_U+30A4_U+30E4_U+30FC 1
 62
     7
420
 16777215
370
    25
  0
POLYLINE
  5
61
330
41
100
AcDbEntity
  8
_U+30EC_U+30A4_U+30E4_U+30FC 1
 62
     7
420
 16777215
370
    25
100
AcDb2dPolyline
 66
     1
 10
0.0
 20
0.0
 30
0.0
  0
VERTEX
  5
62
330
61
100
AcDbEntity
  8
_U+30EC_U+30A4_U+30E4_U+30FC 1
 62
     7
420
 16777215
370
    25
100
AcDbVertex
100
AcDb2dVertex
 10
41.05003256383753
 20
-98.01295553105244
 30
0.0
  0
VERTEX
  5
63
330
61
100
AcDbEntity
  8
_U+30EC_U+30A4_U+30E4_U+30FC 1
 62
     7
420
 16777215
370
    25
100
AcDbVertex
100
AcDb2dVertex
 10
68.5460257512452
 20
-98.01295553105244
 30
0.0
  0
SEQEND
  5
64
330
61
100
AcDbEntity
  8
_U+30EC_U+30A4_U+30E4_U+30FC 1
 62
     7
420
 16777215
370
    25
  0
POLYLINE
  5
65
330
41
100
AcDbEntity
  8
_U+30EC_U+30A4_U+30E4_U+30FC 1
 62
     7
420
 16777215
370
    25
100
AcDb2dPolyline
 66
     1
 10
0.0
 20
0.0
 30
0.0
  0
VERTEX
  5
66
330
65
100
AcDbEntity
  8
_U+30EC_U+30A4_U+30E4_U+30FC 1
 62
     7
420
 16777215
370
    25
100
AcDbVertex
100
AcDb2dVertex
 10
68.54567297347641
 20
-96.81305247579702
 30
0.0
  0
VERTEX
  5
67
330
65
100
AcDbEntity
  8
_U+30EC_U+30A4_U+30E4_U+30FC 1
 62
     7
420
 16777215
370
    25
100
AcDbVertex
100
AcDb2dVertex
 10
68.54567297347641
 20
-98.01295553105244
 30
0.0
  0
SEQEND
  5
68
330
65
100
AcDbEntity
  8
_U+30EC_U+30A4_U+30E4_U+30FC 1
 62
     7
420
 16777215
370
    25
  0
POLYLINE
  5
69
330
41
100
AcDbEntity
  8
_U+30EC_U+30A4_U+30E4_U+30FC 1
 62
     7
420
 16777215
370
    25
100
AcDb2dPolyline
 66
     1
 10
0.0
 20
0.0
 30
0.0
  0
VERTEX
  5
6A
330
69
100
AcDbEntity
  8
_U+30EC_U+30A4_U+30E4_U+30FC 1
 62
     7
420
 16777215
370
    25
100
AcDbVertex
100
AcDb2dVertex
 10
42.45736891682228
 20
-82.81285470151904
 30
0.0
  0
VERTEX
  5
6B
330
69
100
AcDbEntity
  8
_U+30EC_U+30A4_U+30E4_U+30FC 1
 62
     7
420
 16777215
370
    25
100
AcDbVertex
100
AcDb2dVertex
 10
81.54574541959471
 20
-82.81285470151904
 30
0.0
  0
SEQEND
  5
6C
330
69
100
AcDbEntity
  8
_U+30EC_U+30A4_U+30E4_U+30FC 1
 62
     7
420
 16777215
370
    25
  0
POLYLINE
  5
6D
330
41
100
AcDbEntity
  8
_U+30EC_U+30A4_U+30E4_U+30FC 1
 62
     7
420
 16777215
370
    25
100
AcDb2dPolyline
 66
     1
 10
0.0
 20
0.0
 30
0.0
  0
VERTEX
  5
6E
330
6D
100
AcDbEntity
  8
_U+30EC_U+30A4_U+30E4_U+30FC 1
 62
     7
420
 16777215
370
    25
100
AcDbVertex
100
AcDb2dVertex
 10
81.54574541959471
 20
-81.8127649795469
 30
0.0
  0
VERTEX
  5
6F
330
6D
100
AcDbEntity
  8
_U+30EC_U+30A4_U+30E4_U+30FC 1
 62
     7
420
 16777215
370
    25
100
AcDbVertex
100
AcDb2dVertex
 10
81.54574541959471
 20
-82.81285470151904
 30
0.0
  0
SEQEND
  5
70
330
6D
100
AcDbEntity
  8
_U+30EC_U+30A4_U+30E4_U+30FC 1
 62
     7
420
 16777215
370
    25
  0
POLYLINE
  5
71
330
41
100
AcDbEntity
  8
_U+30EC_U+30A4_U+30E4_U+30FC 1
 62
     7
420
 16777215
370
    25
100
AcDb2dPolyline
 66
     1
 10
0.0
 20
0.0
 30
0.0
  0
VERTEX
  5
72
330
71
100
AcDbEntity
  8
_U+30EC_U+30A4_U+30E4_U+30FC 1
 62
     7
420
 16777215
370
    25
100
AcDbVertex
100
AcDb2dVertex
 10
41.54579116230079
 20
-81.8127649795469
 30
0.0
  0
VERTEX
  5
73
330
71
100
AcDbEntity
  8
_U+30EC_U+30A4_U+30E4_U+30FC 1
 62
     7
420
 16777215
370
    25
100
AcDbVertex
100
AcDb2dVertex
 10
81.54574541959471
 20
-81.8127649795469
 30
0.0
  0
SEQEND
  5
74
330
71
100
AcDbEntity
  8
_U+30EC_U+30A4_U+30E4_U+30FC 1
 62
     7
420
 16777215
370
    25
  0
POLYLINE
  5
75
330
41
100
AcDbEntity
  8
_U+30EC_U+30A4_U+30E4_U+30FC 1
 62
     7
420
 16777215
370
    25
100
AcDb2dPolyline
 66
     1
 10
0.0
 20
0.0
 30
0.0
  0
VERTEX
  5
76
330
75
100
AcDbEntity
  8
_U+30EC_U+30A4_U+30E4_U+30FC 1
 62
     7
420
 16777215
370
    25
100
AcDbVertex
100
AcDb2dVertex
 10
41.54579116230079
 20
-81.8127649795469
 30
0.0
  0
VERTEX
  5
77
330
75
100
AcDbEntity
  8
_U+30EC_U+30A4_U+30E4_U+30FC 1
 62
     7
420
 16777215
370
    25
100
AcDbVertex
100
AcDb2dVertex
 10
40.04578008945815
 20
-98.01295553105244
 30
0.0
  0
SEQEND
  5
78
330
75
100
AcDbEntity
  8
_U+30EC_U+30A4_U+30E4_U+30FC 1
 62
     7
420
 16777215
370
    25
  0
POLYLINE
  5
79
330
41
100
AcDbEntity
  8
_U+30EC_U+30A4_U+30E4_U+30FC 1
 62
     7
420
 16777215
370
    25
100
AcDb2dPolyline
 66
     1
 10
0.0
 20
0.0
 30
0.0
  0
VERTEX
  5
7A
330
79
100
AcDbEntity
  8
_U+30EC_U+30A4_U+30E4_U+30FC 1
 62
     7
420
 16777215
370
    25
100
AcDbVertex
100
AcDb2dVertex
 10
42.45736891682228
 20
-82.81285470151904
 30
0.0
  0
VERTEX
  5
7B
330
79
100
AcDbEntity
  8
_U+30EC_U+30A4_U+30E4_U+30FC 1
 62
     7
420
 16777215
370
    25
100
AcDbVertex
100
AcDb2dVertex
 10
41.05003256383753
 20
-98.01295553105244
 30
0.0
  0
SEQEND
  5
7C
330
79
100
AcDbEntity
  8
_U+30EC_U+30A4_U+30E4_U+30FC 1
 62
     7
420
 16777215
370
    25
  0
ENDBLK
  5
44
330
41
100
AcDbEntity
  8
0
100
AcDbBlockEnd
  0
BLOCK
  5
93
330
91
100
AcDbEntity
  8
0
100
AcDbBlockBegin
  2
block 3
 70
     0
 10
0.0
 20
0.0
 30
0.0
  3
block 3
  1

  0
SPLINE
  5
95
330
91
100
AcDbEntity
  8
_U+30EC_U+30A4_U+30E4_U+30FC 1
370
     0
100
AcDbSpline
210
0.0
220
0.0
230
1.0
 70
    11
 71
     3
 72
    62
 73
    58
 74
     0
 42
0.0000000001
 43
0.0000000001
 12
1.0
 22
0.0
 32
0.0
 13
1.0
 23
0.0
 33
0.0
 40
0.0
 40
0.0
 40
0.0
 40
0.0
 40
1.0
 40
1.0
 40
1.0
 40
2.0
 40
2.0
 40
2.0
 40
3.0
 40
3.0
 40
3.0
 40
4.0
 40
4.0
 40
4.0
 40
5.0
 40
5.0
 40
5.0
 40
6.0
 40
6.0
 40
6.0
 40
7.0
 40
7.0
 40
7.0
 40
8.0
 40
8.0
 40
8.0
 40
9.0
 40
9.0
 40
9.0
 40
10.0
 40
10.0
 40
10.0
 40
11.0
 40
11.0
 40
11.0
 40
12.0
 40
12.0
 40
12.0
 40
13.0
 40
13.0
 40
13.0
 40
14.0
 40
14.0
 40
14.0
 40
15.0
 40
15.0
 40
15.0
 40
16.0
 40
16.0
 40
16.0
 40
17.0
 40
17.0
 40
17.0
 40
18.0
 40
18.0
 40
18.0
 40
19.0
 40
19.0
 40
19.0
 40
19.0
 10
53.95174559198082
 20
-102.4171766237013
 30
0.0
 10
53.85666095658792
 20
-102.4171766237013
 30
0.0
 10
53.63927543146865
 20
-102.3961615412412
 30
0.0
 10
53.51490748445114
 20
-102.2101263850378
 30
0.0
 10
53.44101018629253
 20
-102.0978162722186
 30
0.0
 10
53.43670381693597
 20
-101.9985975222434
 30
0.0
 10
53.43256970235367
 20
-101.9138481733063
 30
0.0
 10
53.43256970235367
 20
-101.9138481733063
 30
0.0
 10
53.65202228476408
 20
-101.9138481733063
 30
0.0
 10
53.65202228476408
 20
-101.9138481733063
 30
0.0
 10
53.65408934205523
 20
-101.9879177262391
 30
0.0
 10
53.6647691380595
 20
-102.2225287287847
 30
0.0
 10
53.94743922262425
 20
-102.2225287287847
 30
0.0
 10
54.0845540229372
 20
-102.2225287287847
 30
0.0
 10
54.23648273383672
 20
-102.1529377999826
 30
0.0
 10
54.23648273383672
 20
-101.9245279693105
 30
0.0
 10
54.23648273383672
 20
-101.8080837419091
 30
0.0
 10
54.19858668349897
 20
-101.7595078955671
 30
0.0
 10
54.16689180503467
 20
-101.7278130171028
 30
0.0
 10
54.09299450687606
 20
-101.6537434641699
 30
0.0
 10
53.97689478902314
 20
-101.6409966108745
 30
0.0
 10
53.92211777080767
 20
-101.6409966108745
 30
0.0
 10
53.90316974563879
 20
-101.6409966108745
 30
0.0
 10
53.86734075259219
 20
-101.6430636681656
 30
0.0
 10
53.8397799887102
 20
-101.6471977827479
 30
0.0
 10
53.8397799887102
 20
-101.6471977827479
 30
0.0
 10
53.8397799887102
 20
-101.4525498878313
 30
0.0
 10
53.8397799887102
 20
-101.4525498878313
 30
0.0
 10
53.8778482938222
 20
-101.4590955692533
 30
0.0
 10
53.92005071351652
 20
-101.4611626265444
 30
0.0
 10
53.92625188538997
 20
-101.4611626265444
 30
0.0
 10
53.99170869960972
 20
-101.4611626265444
 30
0.0
 10
54.1901461995601
 20
-101.4398030345359
 30
0.0
 10
54.1901461995601
 20
-101.2031249746992
 30
0.0
 10
54.1901461995601
 20
-101.0253580476603
 30
0.0
 10
54.05923257112061
 20
-100.9702365198963
 30
0.0
 10
53.9495062799154
 20
-100.9702365198963
 30
0.0
 10
53.68578422051953
 20
-100.9702365198963
 30
0.0
 10
53.67734373658067
 20
-101.2031249746992
 30
0.0
 10
53.6730373672241
 20
-101.2747829607924
 30
0.0
 10
53.6730373672241
 20
-101.2747829607924
 30
0.0
 10
53.47046575269141
 20
-101.2747829607924
 30
0.0
 10
53.47046575269141
 20
-101.2747829607924
 30
0.0
 10
53.47907849140454
 20
-101.1500705042264
 30
0.0
 10
53.50646700051227
 20
-100.7735215676886
 30
0.0
 10
53.96225313321083
 20
-100.7735215676886
 30
0.0
 10
54.18583983020354
 20
-100.7735215676886
 30
0.0
 10
54.42647974984824
 20
-100.9006455910943
 30
0.0
 10
54.42647974984824
 20
-101.1965792932773
 30
0.0
 10
54.42647974984824
 20
-101.3829589590293
 30
0.0
 10
54.33139511445535
 20
-101.4652967411267
 30
0.0
 10
54.23234861925442
 20
-101.5266194407642
 30
0.0
 10
54.2934990641176
 20
-101.5541802046462
 30
0.0
 10
54.47505559619027
 20
-101.6344509294525
 30
0.0
 10
54.47505559619027
 20
-101.9117811160151
 30
0.0
 10
54.47505559619027
 20
-102.2500894926666
 30
0.0
 10
54.22804224989785
 20
-102.4171766237013
 30
0.0
 10
53.95174559198082
 20
-102.4171766237013
 30
0.0
  0
HATCH
  5
96
330
91
100
AcDbEntity
  8
_U+30EC_U+30A4_U+30E4_U+30FC 1
 62
     7
420
 16777215
100
AcDbHatch
 10
0.0
 20
0.0
 30
0.0
210
0.0
220
0.0
230
1.0
  2
SOLID
 70
     1
 71
     0
 91
        1
 92
        1
 93
        1
 72
     4
 94
        3
 73
     0
 74
     1
 95
       62
 96
       58
 40
0.0
 40
0.0
 40
0.0
 40
0.0
 40
1.0
 40
1.0
 40
1.0
 40
2.0
 40
2.0
 40
2.0
 40
3.0
 40
3.0
 40
3.0
 40
4.0
 40
4.0
 40
4.0
 40
5.0
 40
5.0
 40
5.0
 40
6.0
 40
6.0
 40
6.0
 40
7.0
 40
7.0
 40
7.0
 40
8.0
 40
8.0
 40
8.0
 40
9.0
 40
9.0
 40
9.0
 40
10.0
 40
10.0
 40
10.0
 40
11.0
 40
11.0
 40
11.0
 40
12.0
 40
12.0
 40
12.0
 40
13.0
 40
13.0
 40
13.0
 40
14.0
 40
14.0
 40
14.0
 40
15.0
 40
15.0
 40
15.0
 40
16.0
 40
16.0
 40
16.0
 40
17.0
 40
17.0
 40
17.0
 40
18.0
 40
18.0
 40
18.0
 40
19.0
 40
19.0
 40
19.0
 40
19.0
 10
53.95174559198082
 20
-102.4171766237013
 10
53.85666095658792
 20
-102.4171766237013
 10
53.63927543146865
 20
-102.3961615412412
 10
53.51490748445114
 20
-102.2101263850378
 10
53.44101018629253
 20
-102.0978162722186
 10
53.43670381693597
 20
-101.9985975222434
 10
53.43256970235367
 20
-101.9138481733063
 10
53.43256970235367
 20
-101.9138481733063
 10
53.65202228476408
 20
-101.9138481733063
 10
53.65202228476408
 20
-101.9138481733063
 10
53.65408934205523
 20
-101.9879177262391
 10
53.6647691380595
 20
-102.2225287287847
 10
53.94743922262425
 20
-102.2225287287847
 10
54.0845540229372
 20
-102.2225287287847
 10
54.23648273383672
 20
-102.1529377999826
 10
54.23648273383672
 20
-101.9245279693105
 10
54.23648273383672
 20
-101.8080837419091
 10
54.19858668349897
 20
-101.7595078955671
 10
54.16689180503467
 20
-101.7278130171028
 10
54.09299450687606
 20
-101.6537434641699
 10
53.97689478902314
 20
-101.6409966108745
 10
53.92211777080767
 20
-101.6409966108745
 10
53.90316974563879
 20
-101.6409966108745
 10
53.86734075259219
 20
-101.6430636681656
 10
53.8397799887102
 20
-101.6471977827479
 10
53.8397799887102
 20
-101.6471977827479
 10
53.8397799887102
 20
-101.4525498878313
 10
53.8397799887102
 20
-101.4525498878313
 10
53.8778482938222
 20
-101.4590955692533
 10
53.92005071351652
 20
-101.4611626265444
 10
53.92625188538997
 20
-101.4611626265444
 10
53.99170869960972
 20
-101.4611626265444
 10
54.1901461995601
 20
-101.4398030345359
 10
54.1901461995601
 20
-101.2031249746992
 10
54.1901461995601
 20
-101.0253580476603
 10
54.05923257112061
 20
-100.9702365198963
 10
53.9495062799154
 20
-100.9702365198963
 10
53.68578422051953
 20
-100.9702365198963
 10
53.67734373658067
 20
-101.2031249746992
 10
53.6730373672241
 20
-101.2747829607924
 10
53.6730373672241
 20
-101.2747829607924
 10
53.47046575269141
 20
-101.2747829607924
 10
53.47046575269141
 20
-101.2747829607924
 10
53.47907849140454
 20
-101.1500705042264
 10
53.50646700051227
 20
-100.7735215676886
 10
53.96225313321083
 20
-100.7735215676886
 10
54.18583983020354
 20
-100.7735215676886
 10
54.42647974984824
 20
-100.9006455910943
 10
54.42647974984824
 20
-101.1965792932773
 10
54.42647974984824
 20
-101.3829589590293
 10
54.33139511445535
 20
-101.4652967411267
 10
54.23234861925442
 20
-101.5266194407642
 10
54.2934990641176
 20
-101.5541802046462
 10
54.47505559619027
 20
-101.6344509294525
 10
54.47505559619027
 20
-101.9117811160151
 10
54.47505559619027
 20
-102.2500894926666
 10
54.22804224989785
 20
-102.4171766237013
 10
53.95174559198082
 20
-102.4171766237013
 97
        0
 97
        0
 75
     2
 76
     1
 98
        0
  0
SPLINE
  5
97
330
91
100
AcDbEntity
  8
_U+30EC_U+30A4_U+30E4_U+30FC 1
370
     0
100
AcDbSpline
210
0.0
220
0.0
230
1.0
 70
    11
 71
     3
 72
    29
 73
    25
 74
     0
 42
0.0000000001
 43
0.0000000001
 12
1.0
 22
0.0
 32
0.0
 13
1.0
 23
0.0
 33
0.0
 40
0.0
 40
0.0
 40
0.0
 40
0.0
 40
1.0
 40
1.0
 40
1.0
 40
2.0
 40
2.0
 40
2.0
 40
3.0
 40
3.0
 40
3.0
 40
4.0
 40
4.0
 40
4.0
 40
5.0
 40
5.0
 40
5.0
 40
6.0
 40
6.0
 40
6.0
 40
7.0
 40
7.0
 40
7.0
 40
8.0
 40
8.0
 40
8.0
 40
8.0
 10
55.52891030512819
 20
-102.1887667930292
 30
0.0
 10
55.4214233259884
 20
-102.3982285985324
 30
0.0
 10
55.24830727785459
 20
-102.4171766237013
 30
0.0
 10
55.13237981477594
 20
-102.4171766237013
 30
0.0
 10
54.97183836516329
 20
-102.4171766237013
 30
0.0
 10
54.83058945026805
 20
-102.3706678346504
 30
0.0
 10
54.73550481487516
 20
-102.1887667930292
 30
0.0
 10
54.63215195031766
 20
-101.9941188981126
 30
0.0
 10
54.61320392514879
 20
-101.7570963287274
 30
0.0
 10
54.61320392514879
 20
-101.5944878218236
 30
0.0
 10
54.61320392514879
 20
-101.4504828305402
 30
0.0
 10
54.63008489302651
 20
-101.1986463505684
 30
0.0
 10
54.73550481487516
 20
-100.9998643410695
 30
0.0
 10
54.84316404878921
 20
-100.7969482169883
 30
0.0
 10
55.00353324362759
 20
-100.7735215676886
 30
0.0
 10
55.13237981477594
 20
-100.7735215676886
 30
0.0
 10
55.29050969754891
 20
-100.7735215676886
 30
0.0
 10
55.43399792450956
 20
-100.8179632994483
 30
0.0
 10
55.52891030512819
 20
-100.9998643410695
 30
0.0
 10
55.62812905510339
 20
-101.192445178695
 30
0.0
 10
55.65138344962882
 20
-101.420855009367
 30
0.0
 10
55.65138344962882
 20
-101.5944878218236
 30
0.0
 10
55.65138344962882
 20
-101.7657090674405
 30
0.0
 10
55.63019611239454
 20
-101.9961859554037
 30
0.0
 10
55.52891030512819
 20
-102.1887667930292
 30
0.0
  0
SPLINE
  5
98
330
91
100
AcDbEntity
  8
_U+30EC_U+30A4_U+30E4_U+30FC 1
370
     0
100
AcDbSpline
210
0.0
220
0.0
230
1.0
 70
    11
 71
     3
 72
    17
 73
    13
 74
     0
 42
0.0000000001
 43
0.0000000001
 12
1.0
 22
0.0
 32
0.0
 13
1.0
 23
0.0
 33
0.0
 40
0.0
 40
0.0
 40
0.0
 40
0.0
 40
1.0
 40
1.0
 40
1.0
 40
2.0
 40
2.0
 40
2.0
 40
3.0
 40
3.0
 40
3.0
 40
4.0
 40
4.0
 40
4.0
 40
4.0
 10
55.13237981477594
 20
-100.966102405314
 30
0.0
 10
54.88329941119238
 20
-100.966102405314
 30
0.0
 10
54.8367906221415
 20
-101.2496337637501
 30
0.0
 10
54.8367906221415
 20
-101.5944878218236
 30
0.0
 10
54.8367906221415
 20
-101.9138481733063
 30
0.0
 10
54.87279186996236
 20
-102.2225287287847
 30
0.0
 10
55.13237981477594
 20
-102.2225287287847
 30
0.0
 10
55.37922090629409
 20
-102.2225287287847
 30
0.0
 10
55.42762449786185
 20
-101.9414089371883
 30
0.0
 10
55.42762449786185
 20
-101.5944878218236
 30
0.0
 10
55.42762449786185
 20
-101.2747829607924
 30
0.0
 10
55.3897284475241
 20
-100.966102405314
 30
0.0
 10
55.13237981477594
 20
-100.966102405314
 30
0.0
  0
HATCH
  5
99
330
91
100
AcDbEntity
  8
_U+30EC_U+30A4_U+30E4_U+30FC 1
 62
     7
420
 16777215
100
AcDbHatch
 10
0.0
 20
0.0
 30
0.0
210
0.0
220
0.0
230
1.0
  2
SOLID
 70
     1
 71
     0
 91
        2
 92
        1
 93
        1
 72
     4
 94
        3
 73
     0
 74
     1
 95
       29
 96
       25
 40
0.0
 40
0.0
 40
0.0
 40
0.0
 40
1.0
 40
1.0
 40
1.0
 40
2.0
 40
2.0
 40
2.0
 40
3.0
 40
3.0
 40
3.0
 40
4.0
 40
4.0
 40
4.0
 40
5.0
 40
5.0
 40
5.0
 40
6.0
 40
6.0
 40
6.0
 40
7.0
 40
7.0
 40
7.0
 40
8.0
 40
8.0
 40
8.0
 40
8.0
 10
55.52891030512819
 20
-102.1887667930292
 10
55.4214233259884
 20
-102.3982285985324
 10
55.24830727785459
 20
-102.4171766237013
 10
55.13237981477594
 20
-102.4171766237013
 10
54.97183836516329
 20
-102.4171766237013
 10
54.83058945026805
 20
-102.3706678346504
 10
54.73550481487516
 20
-102.1887667930292
 10
54.63215195031766
 20
-101.9941188981126
 10
54.61320392514879
 20
-101.7570963287274
 10
54.61320392514879
 20
-101.5944878218236
 10
54.61320392514879
 20
-101.4504828305402
 10
54.63008489302651
 20
-101.1986463505684
 10
54.73550481487516
 20
-100.9998643410695
 10
54.84316404878921
 20
-100.7969482169883
 10
55.00353324362759
 20
-100.7735215676886
 10
55.13237981477594
 20
-100.7735215676886
 10
55.29050969754891
 20
-100.7735215676886
 10
55.43399792450956
 20
-100.8179632994483
 10
55.52891030512819
 20
-100.9998643410695
 10
55.62812905510339
 20
-101.192445178695
 10
55.65138344962882
 20
-101.420855009367
 10
55.65138344962882
 20
-101.5944878218236
 10
55.65138344962882
 20
-101.7657090674405
 10
55.63019611239454
 20
-101.9961859554037
 10
55.52891030512819
 20
-102.1887667930292
 97
        0
 97
        0
 92
        1
 93
        1
 72
     4
 94
        3
 73
     0
 74
     1
 95
       17
 96
       13
 40
0.0
 40
0.0
 40
0.0
 40
0.0
 40
1.0
 40
1.0
 40
1.0
 40
2.0
 40
2.0
 40
2.0
 40
3.0
 40
3.0
 40
3.0
 40
4.0
 40
4.0
 40
4.0
 40
4.0
 10
55.13237981477594
 20
-100.966102405314
 10
54.88329941119238
 20
-100.966102405314
 10
54.8367906221415
 20
-101.2496337637501
 10
54.8367906221415
 20
-101.5944878218236
 10
54.8367906221415
 20
-101.9138481733063
 10
54.87279186996236
 20
-102.2225287287847
 10
55.13237981477594
 20
-102.2225287287847
 10
55.37922090629409
 20
-102.2225287287847
 10
55.42762449786185
 20
-101.9414089371883
 10
55.42762449786185
 20
-101.5944878218236
 10
55.42762449786185
 20
-101.2747829607924
 10
55.3897284475241
 20
-100.966102405314
 10
55.13237981477594
 20
-100.966102405314
 97
        0
 97
        0
 75
     2
 76
     1
 98
        0
  0
ENDBLK
  5
94
330
91
100
AcDbEntity
  8
0
100
AcDbBlockEnd
  0
BLOCK
  5
A8
330
A6
100
AcDbEntity
  8
0
100
AcDbBlockBegin
  2
block 4
 70
     0
 10
0.0
 20
0.0
 30
0.0
  3
block 4
  1

  0
SPLINE
  5
AA
330
A6
100
AcDbEntity
  8
_U+30EC_U+30A4_U+30E4_U+30FC 1
370
     0
100
AcDbSpline
210
0.0
220
0.0
230
1.0
 70
    11
 71
     3
 72
    62
 73
    58
 74
     0
 42
0.0000000001
 43
0.0000000001
 12
1.0
 22
0.0
 32
0.0
 13
1.0
 23
0.0
 33
0.0
 40
0.0
 40
0.0
 40
0.0
 40
0.0
 40
1.0
 40
1.0
 40
1.0
 40
2.0
 40
2.0
 40
2.0
 40
3.0
 40
3.0
 40
3.0
 40
4.0
 40
4.0
 40
4.0
 40
5.0
 40
5.0
 40
5.0
 40
6.0
 40
6.0
 40
6.0
 40
7.0
 40
7.0
 40
7.0
 40
8.0
 40
8.0
 40
8.0
 40
9.0
 40
9.0
 40
9.0
 40
10.0
 40
10.0
 40
10.0
 40
11.0
 40
11.0
 40
11.0
 40
12.0
 40
12.0
 40
12.0
 40
13.0
 40
13.0
 40
13.0
 40
14.0
 40
14.0
 40
14.0
 40
15.0
 40
15.0
 40
15.0
 40
16.0
 40
16.0
 40
16.0
 40
17.0
 40
17.0
 40
17.0
 40
18.0
 40
18.0
 40
18.0
 40
19.0
 40
19.0
 40
19.0
 40
19.0
 10
84.21639266557786
 20
-97.52066241051567
 30
0.0
 10
84.21639266557786
 20
-97.61540253636004
 30
0.0
 10
84.19537758311783
 20
-97.8327880614793
 30
0.0
 10
84.00934242691433
 20
-97.95750051804535
 30
0.0
 10
83.89703231409518
 20
-98.0312255614297
 30
0.0
 10
83.79781356411999
 20
-98.03535967601199
 30
0.0
 10
83.71306421518285
 20
-98.03983830014282
 30
0.0
 10
83.71306421518285
 20
-98.03983830014282
 30
0.0
 10
83.71306421518285
 20
-97.82004120818388
 30
0.0
 10
83.71306421518285
 20
-97.82004120818388
 30
0.0
 10
83.78713376811572
 20
-97.81797415089274
 30
0.0
 10
84.02174477066123
 20
-97.80763886443698
 30
0.0
 10
84.02174477066123
 20
-97.52479652509797
 30
0.0
 10
84.02174477066123
 20
-97.38768172478503
 30
0.0
 10
83.95215384185919
 20
-97.23575301388551
 30
0.0
 10
83.72374401118712
 20
-97.23575301388551
 30
0.0
 10
83.60729978378568
 20
-97.23575301388551
 30
0.0
 10
83.55872393744366
 20
-97.27364906422326
 30
0.0
 10
83.52702905897935
 20
-97.30534394268756
 30
0.0
 10
83.45295950604648
 20
-97.3790689860719
 30
0.0
 10
83.44021265275106
 20
-97.49516870392482
 30
0.0
 10
83.44021265275106
 20
-97.5499457221403
 30
0.0
 10
83.44021265275106
 20
-97.5692382568577
 30
0.0
 10
83.44227971004221
 20
-97.6050672499043
 30
0.0
 10
83.44641382462451
 20
-97.63228350423776
 30
0.0
 10
83.44641382462451
 20
-97.63228350423776
 30
0.0
 10
83.2517659297079
 20
-97.63228350423776
 30
0.0
 10
83.2517659297079
 20
-97.63228350423776
 30
0.0
 10
83.25831161112987
 20
-97.59438745390001
 30
0.0
 10
83.26037866842103
 20
-97.55235728897998
 30
0.0
 10
83.26037866842103
 20
-97.545811607558
 30
0.0
 10
83.26037866842103
 20
-97.48035479333825
 30
0.0
 10
83.23901907641248
 20
-97.28226180293639
 30
0.0
 10
83.00234101657581
 20
-97.28226180293639
 30
0.0
 10
82.82457408953691
 20
-97.28226180293639
 30
0.0
 10
82.76945256177292
 20
-97.41283092182735
 30
0.0
 10
82.76945256177292
 20
-97.52272946780683
 30
0.0
 10
82.76945256177292
 20
-97.78627927242843
 30
0.0
 10
83.00234101657581
 20
-97.79489201114156
 30
0.0
 10
83.073999002669
 20
-97.79902612572386
 30
0.0
 10
83.073999002669
 20
-97.79902612572386
 30
0.0
 10
83.073999002669
 20
-98.00159774025654
 30
0.0
 10
83.073999002669
 20
-98.00159774025654
 30
0.0
 10
82.94928654610295
 20
-97.99332951109194
 30
0.0
 10
82.57273760956515
 20
-97.96576874720995
 30
0.0
 10
82.57273760956515
 20
-97.5099826145114
 30
0.0
 10
82.57273760956515
 20
-97.28639591751869
 30
0.0
 10
82.69986163297087
 20
-97.04592825264824
 30
0.0
 10
82.99579533515383
 20
-97.04592825264824
 30
0.0
 10
83.18217500090584
 20
-97.04592825264824
 30
0.0
 10
83.26451278300333
 20
-97.14066837849262
 30
0.0
 10
83.32583548264077
 20
-97.23988712846781
 30
0.0
 10
83.35339624652276
 20
-97.17856442883037
 30
0.0
 10
83.43366697132909
 20
-96.99735240630622
 30
0.0
 10
83.7109971578917
 20
-96.99735240630622
 30
0.0
 10
84.04930553454324
 20
-96.99735240630622
 30
0.0
 10
84.21639266557786
 20
-97.24402124305011
 30
0.0
 10
84.21639266557786
 20
-97.52066241051567
 30
0.0
  0
HATCH
  5
AB
330
A6
100
AcDbEntity
  8
_U+30EC_U+30A4_U+30E4_U+30FC 1
 62
     7
420
 16777215
100
AcDbHatch
 10
0.0
 20
0.0
 30
0.0
210
0.0
220
0.0
230
1.0
  2
SOLID
 70
     1
 71
     0
 91
        1
 92
        1
 93
        1
 72
     4
 94
        3
 73
     0
 74
     1
 95
       62
 96
       58
 40
0.0
 40
0.0
 40
0.0
 40
0.0
 40
1.0
 40
1.0
 40
1.0
 40
2.0
 40
2.0
 40
2.0
 40
3.0
 40
3.0
 40
3.0
 40
4.0
 40
4.0
 40
4.0
 40
5.0
 40
5.0
 40
5.0
 40
6.0
 40
6.0
 40
6.0
 40
7.0
 40
7.0
 40
7.0
 40
8.0
 40
8.0
 40
8.0
 40
9.0
 40
9.0
 40
9.0
 40
10.0
 40
10.0
 40
10.0
 40
11.0
 40
11.0
 40
11.0
 40
12.0
 40
12.0
 40
12.0
 40
13.0
 40
13.0
 40
13.0
 40
14.0
 40
14.0
 40
14.0
 40
15.0
 40
15.0
 40
15.0
 40
16.0
 40
16.0
 40
16.0
 40
17.0
 40
17.0
 40
17.0
 40
18.0
 40
18.0
 40
18.0
 40
19.0
 40
19.0
 40
19.0
 40
19.0
 10
84.21639266557786
 20
-97.52066241051567
 10
84.21639266557786
 20
-97.61540253636004
 10
84.19537758311783
 20
-97.8327880614793
 10
84.00934242691433
 20
-97.95750051804535
 10
83.89703231409518
 20
-98.0312255614297
 10
83.79781356411999
 20
-98.03535967601199
 10
83.71306421518285
 20
-98.03983830014282
 10
83.71306421518285
 20
-98.03983830014282
 10
83.71306421518285
 20
-97.82004120818388
 10
83.71306421518285
 20
-97.82004120818388
 10
83.78713376811572
 20
-97.81797415089274
 10
84.02174477066123
 20
-97.80763886443698
 10
84.02174477066123
 20
-97.52479652509797
 10
84.02174477066123
 20
-97.38768172478503
 10
83.95215384185919
 20
-97.23575301388551
 10
83.72374401118712
 20
-97.23575301388551
 10
83.60729978378568
 20
-97.23575301388551
 10
83.55872393744366
 20
-97.27364906422326
 10
83.52702905897935
 20
-97.30534394268756
 10
83.45295950604648
 20
-97.3790689860719
 10
83.44021265275106
 20
-97.49516870392482
 10
83.44021265275106
 20
-97.5499457221403
 10
83.44021265275106
 20
-97.5692382568577
 10
83.44227971004221
 20
-97.6050672499043
 10
83.44641382462451
 20
-97.63228350423776
 10
83.44641382462451
 20
-97.63228350423776
 10
83.2517659297079
 20
-97.63228350423776
 10
83.2517659297079
 20
-97.63228350423776
 10
83.25831161112987
 20
-97.59438745390001
 10
83.26037866842103
 20
-97.55235728897998
 10
83.26037866842103
 20
-97.545811607558
 10
83.26037866842103
 20
-97.48035479333825
 10
83.23901907641248
 20
-97.28226180293639
 10
83.00234101657581
 20
-97.28226180293639
 10
82.82457408953691
 20
-97.28226180293639
 10
82.76945256177292
 20
-97.41283092182735
 10
82.76945256177292
 20
-97.52272946780683
 10
82.76945256177292
 20
-97.78627927242843
 10
83.00234101657581
 20
-97.79489201114156
 10
83.073999002669
 20
-97.79902612572386
 10
83.073999002669
 20
-97.79902612572386
 10
83.073999002669
 20
-98.00159774025654
 10
83.073999002669
 20
-98.00159774025654
 10
82.94928654610295
 20
-97.99332951109194
 10
82.57273760956515
 20
-97.96576874720995
 10
82.57273760956515
 20
-97.5099826145114
 10
82.57273760956515
 20
-97.28639591751869
 10
82.69986163297087
 20
-97.04592825264824
 10
82.99579533515383
 20
-97.04592825264824
 10
83.18217500090584
 20
-97.04592825264824
 10
83.26451278300333
 20
-97.14066837849262
 10
83.32583548264077
 20
-97.23988712846781
 10
83.35339624652276
 20
-97.17856442883037
 10
83.43366697132909
 20
-96.99735240630622
 10
83.7109971578917
 20
-96.99735240630622
 10
84.04930553454324
 20
-96.99735240630622
 10
84.21639266557786
 20
-97.24402124305011
 10
84.21639266557786
 20
-97.52066241051567
 97
        0
 97
        0
 75
     2
 76
     1
 98
        0
  0
ENDBLK
  5
A9
330
A6
100
AcDbEntity
  8
0
100
AcDbBlockEnd
  0
BLOCK
  5
B6
330
B4
100
AcDbEntity
  8
0
100
AcDbBlockBegin
  2
block 5
 70
     0
 10
0.0
 20
0.0
 30
0.0
  3
block 5
  1

  0
SPLINE
  5
B8
330
B4
100
AcDbEntity
  8
_U+30EC_U+30A4_U+30E4_U+30FC 1
370
     0
100
AcDbSpline
210
0.0
220
0.0
230
1.0
 70
    11
 71
     3
 72
    26
 73
    22
 74
     0
 42
0.0000000001
 43
0.0000000001
 12
1.0
 22
0.0
 32
0.0
 13
1.0
 23
0.0
 33
0.0
 40
0.0
 40
0.0
 40
0.0
 40
0.0
 40
1.0
 40
1.0
 40
1.0
 40
2.0
 40
2.0
 40
2.0
 40
3.0
 40
3.0
 40
3.0
 40
4.0
 40
4.0
 40
4.0
 40
5.0
 40
5.0
 40
5.0
 40
6.0
 40
6.0
 40
6.0
 40
7.0
 40
7.0
 40
7.0
 40
7.0
 10
84.79413517845425
 20
-79.99408363885566
 30
0.0
 10
84.79413517845425
 20
-79.99408363885566
 30
0.0
 10
83.68998207543167
 20
-79.99408363885566
 30
0.0
 10
83.68998207543167
 20
-79.99408363885566
 30
0.0
 10
83.68998207543167
 20
-79.99408363885566
 30
0.0
 10
83.68998207543167
 20
-80.32343476724553
 30
0.0
 10
83.68998207543167
 20
-80.32343476724553
 30
0.0
 10
83.68998207543167
 20
-80.32343476724553
 30
0.0
 10
83.54184296956593
 20
-80.32343476724553
 30
0.0
 10
83.54184296956593
 20
-80.32343476724553
 30
0.0
 10
83.52702905897935
 20
-79.9920165815645
 30
0.0
 10
83.36407604252705
 20
-79.94550779251362
 30
0.0
 10
83.24969887241674
 20
-79.91587997134047
 30
0.0
 10
83.24969887241674
 20
-79.91587997134047
 30
0.0
 10
83.24969887241674
 20
-79.77049694186293
 30
0.0
 10
83.24969887241674
 20
-79.77049694186293
 30
0.0
 10
83.24969887241674
 20
-79.77049694186293
 30
0.0
 10
84.79413517845425
 20
-79.77049694186293
 30
0.0
 10
84.79413517845425
 20
-79.77049694186293
 30
0.0
 10
84.79413517845425
 20
-79.77049694186293
 30
0.0
 10
84.79413517845425
 20
-79.99408363885566
 30
0.0
 10
84.79413517845425
 20
-79.99408363885566
 30
0.0
  0
HATCH
  5
B9
330
B4
100
AcDbEntity
  8
_U+30EC_U+30A4_U+30E4_U+30FC 1
 62
     7
420
 16777215
100
AcDbHatch
 10
0.0
 20
0.0
 30
0.0
210
0.0
220
0.0
230
1.0
  2
SOLID
 70
     1
 71
     0
 91
        1
 92
        1
 93
        1
 72
     4
 94
        3
 73
     0
 74
     1
 95
       26
 96
       22
 40
0.0
 40
0.0
 40
0.0
 40
0.0
 40
1.0
 40
1.0
 40
1.0
 40
2.0
 40
2.0
 40
2.0
 40
3.0
 40
3.0
 40
3.0
 40
4.0
 40
4.0
 40
4.0
 40
5.0
 40
5.0
 40
5.0
 40
6.0
 40
6.0
 40
6.0
 40
7.0
 40
7.0
 40
7.0
 40
7.0
 10
84.79413517845425
 20
-79.99408363885566
 10
84.79413517845425
 20
-79.99408363885566
 10
83.68998207543167
 20
-79.99408363885566
 10
83.68998207543167
 20
-79.99408363885566
 10
83.68998207543167
 20
-79.99408363885566
 10
83.68998207543167
 20
-80.32343476724553
 10
83.68998207543167
 20
-80.32343476724553
 10
83.68998207543167
 20
-80.32343476724553
 10
83.54184296956593
 20
-80.32343476724553
 10
83.54184296956593
 20
-80.32343476724553
 10
83.52702905897935
 20
-79.9920165815645
 10
83.36407604252705
 20
-79.94550779251362
 10
83.24969887241674
 20
-79.91587997134047
 10
83.24969887241674
 20
-79.91587997134047
 10
83.24969887241674
 20
-79.77049694186293
 10
83.24969887241674
 20
-79.77049694186293
 10
83.24969887241674
 20
-79.77049694186293
 10
84.79413517845425
 20
-79.77049694186293
 10
84.79413517845425
 20
-79.77049694186293
 10
84.79413517845425
 20
-79.77049694186293
 10
84.79413517845425
 20
-79.99408363885566
 10
84.79413517845425
 20
-79.99408363885566
 97
        0
 97
        0
 75
     2
 76
     1
 98
        0
  0
ENDBLK
  5
B7
330
B4
100
AcDbEntity
  8
0
100
AcDbBlockEnd
  0
BLOCK
  5
C8
330
C6
100
AcDbEntity
  8
0
100
AcDbBlockBegin
  2
block 6
 70
     0
 10
0.0
 20
0.0
 30
0.0
  3
block 6
  1

  0
POLYLINE
  5
CA
330
C6
100
AcDbEntity
  8
_U+30EC_U+30A4_U+30E4_U+30FC 1
370
     0
100
AcDb2dPolyline
 66
     1
 10
0.0
 20
0.0
 30
0.0
  0
VERTEX
  5
CB
330
CA
100
AcDbEntity
  8
_U+30EC_U+30A4_U+30E4_U+30FC 1
370
     0
100
AcDbVertex
100
AcDb2dVertex
 10
61.2915215233056
 20
-76.81977265874644
 30
0.0
  0
VERTEX
  5
CC
330
CA
100
AcDbEntity
  8
_U+30EC_U+30A4_U+30E4_U+30FC 1
370
     0
100
AcDbVertex
100
AcDb2dVertex
 10
61.2915215233056
 20
-77.16669377411111
 30
0.0
  0
VERTEX
  5
CD
330
CA
100
AcDbEntity
  8
_U+30EC_U+30A4_U+30E4_U+30FC 1
370
     0
100
AcDbVertex
100
AcDb2dVertex
 10
61.07413599818633
 20
-77.16669377411111
 30
0.0
  0
VERTEX
  5
CE
330
CA
100
AcDbEntity
  8
_U+30EC_U+30A4_U+30E4_U+30FC 1
370
     0
100
AcDbVertex
100
AcDb2dVertex
 10
61.07413599818633
 20
-76.81977265874644
 30
0.0
  0
VERTEX
  5
CF
330
CA
100
AcDbEntity
  8
_U+30EC_U+30A4_U+30E4_U+30FC 1
370
     0
100
AcDbVertex
100
AcDb2dVertex
 10
60.41991236553739
 20
-76.81977265874644
 30
0.0
  0
VERTEX
  5
D0
330
CA
100
AcDbEntity
  8
_U+30EC_U+30A4_U+30E4_U+30FC 1
370
     0
100
AcDbVertex
100
AcDb2dVertex
 10
60.41991236553739
 20
-76.59549694265668
 30
0.0
  0
VERTEX
  5
D1
330
CA
100
AcDbEntity
  8
_U+30EC_U+30A4_U+30E4_U+30FC 1
370
     0
100
AcDbVertex
100
AcDb2dVertex
 10
61.09739039271177
 20
-75.62242972284787
 30
0.0
  0
VERTEX
  5
D2
330
CA
100
AcDbEntity
  8
_U+30EC_U+30A4_U+30E4_U+30FC 1
370
     0
100
AcDbVertex
100
AcDb2dVertex
 10
61.2915215233056
 20
-75.62242972284787
 30
0.0
  0
VERTEX
  5
D3
330
CA
100
AcDbEntity
  8
_U+30EC_U+30A4_U+30E4_U+30FC 1
370
     0
100
AcDbVertex
100
AcDb2dVertex
 10
61.2915215233056
 20
-76.62081839447328
 30
0.0
  0
VERTEX
  5
D4
330
CA
100
AcDbEntity
  8
_U+30EC_U+30A4_U+30E4_U+30FC 1
370
     0
100
AcDbVertex
100
AcDb2dVertex
 10
61.49822725242058
 20
-76.62081839447328
 30
0.0
  0
VERTEX
  5
D5
330
CA
100
AcDbEntity
  8
_U+30EC_U+30A4_U+30E4_U+30FC 1
370
     0
100
AcDbVertex
100
AcDb2dVertex
 10
61.49822725242058
 20
-76.81977265874644
 30
0.0
  0
VERTEX
  5
D6
330
CA
100
AcDbEntity
  8
_U+30EC_U+30A4_U+30E4_U+30FC 1
370
     0
100
AcDbVertex
100
AcDb2dVertex
 10
61.2915215233056
 20
-76.81977265874644
 30
0.0
  0
SEQEND
  5
D7
330
CA
100
AcDbEntity
  8
_U+30EC_U+30A4_U+30E4_U+30FC 1
370
     0
  0
POLYLINE
  5
D8
330
C6
100
AcDbEntity
  8
_U+30EC_U+30A4_U+30E4_U+30FC 1
370
     0
100
AcDb2dPolyline
 66
     1
 10
0.0
 20
0.0
 30
0.0
  0
VERTEX
  5
D9
330
D8
100
AcDbEntity
  8
_U+30EC_U+30A4_U+30E4_U+30FC 1
370
     0
100
AcDbVertex
100
AcDb2dVertex
 10
61.07413599818633
 20
-75.96504446885596
 30
0.0
  0
VERTEX
  5
DA
330
D8
100
AcDbEntity
  8
_U+30EC_U+30A4_U+30E4_U+30FC 1
370
     0
100
AcDbVertex
100
AcDb2dVertex
 10
60.61834986548778
 20
-76.62081839447328
 30
0.0
  0
VERTEX
  5
DB
330
D8
100
AcDbEntity
  8
_U+30EC_U+30A4_U+30E4_U+30FC 1
370
     0
100
AcDbVertex
100
AcDb2dVertex
 10
61.07413599818633
 20
-76.62081839447328
 30
0.0
  0
VERTEX
  5
DC
330
D8
100
AcDbEntity
  8
_U+30EC_U+30A4_U+30E4_U+30FC 1
370
     0
100
AcDbVertex
100
AcDb2dVertex
 10
61.07413599818633
 20
-75.96504446885596
 30
0.0
  0
SEQEND
  5
DD
330
D8
100
AcDbEntity
  8
_U+30EC_U+30A4_U+30E4_U+30FC 1
370
     0
  0
HATCH
  5
DE
330
C6
100
AcDbEntity
  8
_U+30EC_U+30A4_U+30E4_U+30FC 1
 62
     7
420
 16777215
100
AcDbHatch
 10
0.0
 20
0.0
 30
0.0
210
0.0
220
0.0
230
1.0
  2
SOLID
 70
     1
 71
     0
 91
        2
 92
        1
 93
       11
 72
     1
 10
61.2915215233056
 20
-76.81977265874644
 11
61.2915215233056
 21
-77.16669377411111
 72
     1
 10
61.2915215233056
 20
-77.16669377411111
 11
61.07413599818633
 21
-77.16669377411111
 72
     1
 10
61.07413599818633
 20
-77.16669377411111
 11
61.07413599818633
 21
-76.81977265874644
 72
     1
 10
61.07413599818633
 20
-76.81977265874644
 11
60.41991236553739
 21
-76.81977265874644
 72
     1
 10
60.41991236553739
 20
-76.81977265874644
 11
60.41991236553739
 21
-76.59549694265668
 72
     1
 10
60.41991236553739
 20
-76.59549694265668
 11
61.09739039271177
 21
-75.62242972284787
 72
     1
 10
61.09739039271177
 20
-75.62242972284787
 11
61.2915215233056
 21
-75.62242972284787
 72
     1
 10
61.2915215233056
 20
-75.62242972284787
 11
61.2915215233056
 21
-76.62081839447328
 72
     1
 10
61.2915215233056
 20
-76.62081839447328
 11
61.49822725242058
 21
-76.62081839447328
 72
     1
 10
61.49822725242058
 20
-76.62081839447328
 11
61.49822725242058
 21
-76.81977265874644
 72
     1
 10
61.49822725242058
 20
-76.81977265874644
 11
61.2915215233056
 21
-76.81977265874644
 97
        0
 92
        1
 93
        3
 72
     1
 10
61.07413599818633
 20
-75.96504446885596
 11
60.61834986548778
 21
-76.62081839447328
 72
     1
 10
60.61834986548778
 20
-76.62081839447328
 11
61.07413599818633
 21
-76.62081839447328
 72
     1
 10
61.07413599818633
 20
-76.62081839447328
 11
61.07413599818633
 21
-75.96504446885596
 97
        0
 75
     2
 76
     1
 98
        0
  0
SPLINE
  5
DF
330
C6
100
AcDbEntity
  8
_U+30EC_U+30A4_U+30E4_U+30FC 1
370
     0
100
AcDbSpline
210
0.0
220
0.0
230
1.0
 70
    11
 71
     3
 72
    29
 73
    25
 74
     0
 42
0.0000000001
 43
0.0000000001
 12
1.0
 22
0.0
 32
0.0
 13
1.0
 23
0.0
 33
0.0
 40
0.0
 40
0.0
 40
0.0
 40
0.0
 40
1.0
 40
1.0
 40
1.0
 40
2.0
 40
2.0
 40
2.0
 40
3.0
 40
3.0
 40
3.0
 40
4.0
 40
4.0
 40
4.0
 40
5.0
 40
5.0
 40
5.0
 40
6.0
 40
6.0
 40
6.0
 40
7.0
 40
7.0
 40
7.0
 40
8.0
 40
8.0
 40
8.0
 40
8.0
 10
62.52899982160734
 20
-76.98892684707222
 30
0.0
 10
62.42151284246754
 20
-77.1983886525754
 30
0.0
 10
62.248569049108
 20
-77.21750893251854
 30
0.0
 10
62.13246933125508
 20
-77.21750893251854
 30
0.0
 10
61.97192788164244
 20
-77.21750893251854
 30
0.0
 10
61.83067896674719
 20
-77.17100014346767
 30
0.0
 10
61.7355943313543
 20
-76.98892684707222
 30
0.0
 10
61.63224146679681
 20
-76.7942789521556
 30
0.0
 10
61.61329344162793
 20
-76.55742863754467
 30
0.0
 10
61.61329344162793
 20
-76.39447562109235
 30
0.0
 10
61.61329344162793
 20
-76.25064288458317
 30
0.0
 10
61.63017440950566
 20
-75.99897865938567
 30
0.0
 10
61.7355943313543
 20
-75.8000243951125
 30
0.0
 10
61.84342582004262
 20
-75.59693601625702
 30
0.0
 10
62.00362276010674
 20
-75.57368162173158
 30
0.0
 10
62.13246933125508
 20
-75.57368162173158
 30
0.0
 10
62.29059921402805
 20
-75.57368162173158
 30
0.0
 10
62.43425969576297
 20
-75.6181233534913
 30
0.0
 10
62.52899982160734
 20
-75.8000243951125
 30
0.0
 10
62.62821857158253
 20
-75.99260523273796
 30
0.0
 10
62.65164522088223
 20
-76.22101506341002
 30
0.0
 10
62.65164522088223
 20
-76.39447562109235
 30
0.0
 10
62.65164522088223
 20
-76.56586912148353
 30
0.0
 10
62.63028562887368
 20
-76.796518264221
 30
0.0
 10
62.52899982160734
 20
-76.98892684707222
 30
0.0
  0
SPLINE
  5
E0
330
C6
100
AcDbEntity
  8
_U+30EC_U+30A4_U+30E4_U+30FC 1
370
     0
100
AcDbSpline
210
0.0
220
0.0
230
1.0
 70
    11
 71
     3
 72
    17
 73
    13
 74
     0
 42
0.0000000001
 43
0.0000000001
 12
1.0
 22
0.0
 32
0.0
 13
1.0
 23
0.0
 33
0.0
 40
0.0
 40
0.0
 40
0.0
 40
0.0
 40
1.0
 40
1.0
 40
1.0
 40
2.0
 40
2.0
 40
2.0
 40
3.0
 40
3.0
 40
3.0
 40
4.0
 40
4.0
 40
4.0
 40
4.0
 10
62.13246933125508
 20
-75.76626245935705
 30
0.0
 10
61.88338892767152
 20
-75.76626245935705
 30
0.0
 10
61.83688013862064
 20
-76.04979381779312
 30
0.0
 10
61.83688013862064
 20
-76.39447562109235
 30
0.0
 10
61.83688013862064
 20
-76.71400822734928
 30
0.0
 10
61.87270913166724
 20
-77.02286103760193
 30
0.0
 10
62.13246933125508
 20
-77.02286103760193
 30
0.0
 10
62.37913816799897
 20
-77.02286103760193
 30
0.0
 10
62.42771401434099
 20
-76.74139673645702
 30
0.0
 10
62.42771401434099
 20
-76.39447562109235
 30
0.0
 10
62.42771401434099
 20
-76.0751152696097
 30
0.0
 10
62.38981796400324
 20
-75.76626245935705
 30
0.0
 10
62.13246933125508
 20
-75.76626245935705
 30
0.0
  0
HATCH
  5
E1
330
C6
100
AcDbEntity
  8
_U+30EC_U+30A4_U+30E4_U+30FC 1
 62
     7
420
 16777215
100
AcDbHatch
 10
0.0
 20
0.0
 30
0.0
210
0.0
220
0.0
230
1.0
  2
SOLID
 70
     1
 71
     0
 91
        2
 92
        1
 93
        1
 72
     4
 94
        3
 73
     0
 74
     1
 95
       29
 96
       25
 40
0.0
 40
0.0
 40
0.0
 40
0.0
 40
1.0
 40
1.0
 40
1.0
 40
2.0
 40
2.0
 40
2.0
 40
3.0
 40
3.0
 40
3.0
 40
4.0
 40
4.0
 40
4.0
 40
5.0
 40
5.0
 40
5.0
 40
6.0
 40
6.0
 40
6.0
 40
7.0
 40
7.0
 40
7.0
 40
8.0
 40
8.0
 40
8.0
 40
8.0
 10
62.52899982160734
 20
-76.98892684707222
 10
62.42151284246754
 20
-77.1983886525754
 10
62.248569049108
 20
-77.21750893251854
 10
62.13246933125508
 20
-77.21750893251854
 10
61.97192788164244
 20
-77.21750893251854
 10
61.83067896674719
 20
-77.17100014346767
 10
61.7355943313543
 20
-76.98892684707222
 10
61.63224146679681
 20
-76.7942789521556
 10
61.61329344162793
 20
-76.55742863754467
 10
61.61329344162793
 20
-76.39447562109235
 10
61.61329344162793
 20
-76.25064288458317
 10
61.63017440950566
 20
-75.99897865938567
 10
61.7355943313543
 20
-75.8000243951125
 10
61.84342582004262
 20
-75.59693601625702
 10
62.00362276010674
 20
-75.57368162173158
 10
62.13246933125508
 20
-75.57368162173158
 10
62.29059921402805
 20
-75.57368162173158
 10
62.43425969576297
 20
-75.6181233534913
 10
62.52899982160734
 20
-75.8000243951125
 10
62.62821857158253
 20
-75.99260523273796
 10
62.65164522088223
 20
-76.22101506341002
 10
62.65164522088223
 20
-76.39447562109235
 10
62.65164522088223
 20
-76.56586912148353
 10
62.63028562887368
 20
-76.796518264221
 10
62.52899982160734
 20
-76.98892684707222
 97
        0
 97
        0
 92
        1
 93
        1
 72
     4
 94
        3
 73
     0
 74
     1
 95
       17
 96
       13
 40
0.0
 40
0.0
 40
0.0
 40
0.0
 40
1.0
 40
1.0
 40
1.0
 40
2.0
 40
2.0
 40
2.0
 40
3.0
 40
3.0
 40
3.0
 40
4.0
 40
4.0
 40
4.0
 40
4.0
 10
62.13246933125508
 20
-75.76626245935705
 10
61.88338892767152
 20
-75.76626245935705
 10
61.83688013862064
 20
-76.04979381779312
 10
61.83688013862064
 20
-76.39447562109235
 10
61.83688013862064
 20
-76.71400822734928
 10
61.87270913166724
 20
-77.02286103760193
 10
62.13246933125508
 20
-77.02286103760193
 10
62.37913816799897
 20
-77.02286103760193
 10
62.42771401434099
 20
-76.74139673645702
 10
62.42771401434099
 20
-76.39447562109235
 10
62.42771401434099
 20
-76.0751152696097
 10
62.38981796400324
 20
-75.76626245935705
 10
62.13246933125508
 20
-75.76626245935705
 97
        0
 97
        0
 75
     2
 76
     1
 98
        0
  0
ENDBLK
  5
C9
330
C6
100
AcDbEntity
  8
0
100
AcDbBlockEnd
  0
BLOCK
  5
EC
330
EA
100
AcDbEntity
  8
0
100
AcDbBlockBegin
  2
block 7
 70
     0
 10
0.0
 20
0.0
 30
0.0
  3
block 7
  1

  0
SPLINE
  5
EE
330
EA
100
AcDbEntity
  8
_U+30EC_U+30A4_U+30E4_U+30FC 1
370
     0
100
AcDbSpline
210
0.0
220
0.0
230
1.0
 70
    11
 71
     3
 72
    26
 73
    22
 74
     0
 42
0.0000000001
 43
0.0000000001
 12
1.0
 22
0.0
 32
0.0
 13
1.0
 23
0.0
 33
0.0
 40
0.0
 40
0.0
 40
0.0
 40
0.0
 40
1.0
 40
1.0
 40
1.0
 40
2.0
 40
2.0
 40
2.0
 40
3.0
 40
3.0
 40
3.0
 40
4.0
 40
4.0
 40
4.0
 40
5.0
 40
5.0
 40
5.0
 40
6.0
 40
6.0
 40
6.0
 40
7.0
 40
7.0
 40
7.0
 40
7.0
 10
84.16574976194468
 20
-90.04652775526615
 30
0.0
 10
84.16574976194468
 20
-90.04652775526615
 30
0.0
 10
83.0615966589221
 20
-90.04652775526615
 30
0.0
 10
83.0615966589221
 20
-90.04652775526615
 30
0.0
 10
83.0615966589221
 20
-90.04652775526615
 30
0.0
 10
83.0615966589221
 20
-90.37587888365603
 30
0.0
 10
83.0615966589221
 20
-90.37587888365603
 30
0.0
 10
83.0615966589221
 20
-90.37587888365603
 30
0.0
 10
82.91345755305636
 20
-90.37587888365603
 30
0.0
 10
82.91345755305636
 20
-90.37587888365603
 30
0.0
 10
82.89864364246979
 20
-90.044460697975
 30
0.0
 10
82.73569062601747
 20
-89.99795190892412
 30
0.0
 10
82.62131345590717
 20
-89.9686685972995
 30
0.0
 10
82.62131345590717
 20
-89.9686685972995
 30
0.0
 10
82.62131345590717
 20
-89.82294105827343
 30
0.0
 10
82.62131345590717
 20
-89.82294105827343
 30
0.0
 10
82.62131345590717
 20
-89.82294105827343
 30
0.0
 10
84.16574976194468
 20
-89.82294105827343
 30
0.0
 10
84.16574976194468
 20
-89.82294105827343
 30
0.0
 10
84.16574976194468
 20
-89.82294105827343
 30
0.0
 10
84.16574976194468
 20
-90.04652775526615
 30
0.0
 10
84.16574976194468
 20
-90.04652775526615
 30
0.0
  0
HATCH
  5
EF
330
EA
100
AcDbEntity
  8
_U+30EC_U+30A4_U+30E4_U+30FC 1
 62
     7
420
 16777215
100
AcDbHatch
 10
0.0
 20
0.0
 30
0.0
210
0.0
220
0.0
230
1.0
  2
SOLID
 70
     1
 71
     0
 91
        1
 92
        1
 93
        1
 72
     4
 94
        3
 73
     0
 74
     1
 95
       26
 96
       22
 40
0.0
 40
0.0
 40
0.0
 40
0.0
 40
1.0
 40
1.0
 40
1.0
 40
2.0
 40
2.0
 40
2.0
 40
3.0
 40
3.0
 40
3.0
 40
4.0
 40
4.0
 40
4.0
 40
5.0
 40
5.0
 40
5.0
 40
6.0
 40
6.0
 40
6.0
 40
7.0
 40
7.0
 40
7.0
 40
7.0
 10
84.16574976194468
 20
-90.04652775526615
 10
84.16574976194468
 20
-90.04652775526615
 10
83.0615966589221
 20
-90.04652775526615
 10
83.0615966589221
 20
-90.04652775526615
 10
83.0615966589221
 20
-90.04652775526615
 10
83.0615966589221
 20
-90.37587888365603
 10
83.0615966589221
 20
-90.37587888365603
 10
83.0615966589221
 20
-90.37587888365603
 10
82.91345755305636
 20
-90.37587888365603
 10
82.91345755305636
 20
-90.37587888365603
 10
82.89864364246979
 20
-90.044460697975
 10
82.73569062601747
 20
-89.99795190892412
 10
82.62131345590717
 20
-89.9686685972995
 10
82.62131345590717
 20
-89.9686685972995
 10
82.62131345590717
 20
-89.82294105827343
 10
82.62131345590717
 20
-89.82294105827343
 10
82.62131345590717
 20
-89.82294105827343
 10
84.16574976194468
 20
-89.82294105827343
 10
84.16574976194468
 20
-89.82294105827343
 10
84.16574976194468
 20
-89.82294105827343
 10
84.16574976194468
 20
-90.04652775526615
 10
84.16574976194468
 20
-90.04652775526615
 97
        0
 97
        0
 75
     2
 76
     1
 98
        0
  0
SPLINE
  5
F0
330
EA
100
AcDbEntity
  8
_U+30EC_U+30A4_U+30E4_U+30FC 1
370
     0
100
AcDbSpline
210
0.0
220
0.0
230
1.0
 70
    11
 71
     3
 72
    62
 73
    58
 74
     0
 42
0.0000000001
 43
0.0000000001
 12
1.0
 22
0.0
 32
0.0
 13
1.0
 23
0.0
 33
0.0
 40
0.0
 40
0.0
 40
0.0
 40
0.0
 40
1.0
 40
1.0
 40
1.0
 40
2.0
 40
2.0
 40
2.0
 40
3.0
 40
3.0
 40
3.0
 40
4.0
 40
4.0
 40
4.0
 40
5.0
 40
5.0
 40
5.0
 40
6.0
 40
6.0
 40
6.0
 40
7.0
 40
7.0
 40
7.0
 40
8.0
 40
8.0
 40
8.0
 40
9.0
 40
9.0
 40
9.0
 40
10.0
 40
10.0
 40
10.0
 40
11.0
 40
11.0
 40
11.0
 40
12.0
 40
12.0
 40
12.0
 40
13.0
 40
13.0
 40
13.0
 40
14.0
 40
14.0
 40
14.0
 40
15.0
 40
15.0
 40
15.0
 40
16.0
 40
16.0
 40
16.0
 40
17.0
 40
17.0
 40
17.0
 40
18.0
 40
18.0
 40
18.0
 40
19.0
 40
19.0
 40
19.0
 40
19.0
 10
84.21639266557786
 20
-88.83419865400673
 30
0.0
 10
84.21639266557786
 20
-88.92893877985111
 30
0.0
 10
84.19537758311783
 20
-89.14632430497036
 30
0.0
 10
84.00934242691433
 20
-89.27103676153641
 30
0.0
 10
83.89703231409518
 20
-89.34476180492076
 30
0.0
 10
83.79781356411999
 20
-89.34889591950306
 30
0.0
 10
83.71306421518285
 20
-89.35337454363388
 30
0.0
 10
83.71306421518285
 20
-89.35337454363388
 30
0.0
 10
83.71306421518285
 20
-89.13357745167494
 30
0.0
 10
83.71306421518285
 20
-89.13357745167494
 30
0.0
 10
83.78713376811572
 20
-89.1315103943838
 30
0.0
 10
84.02174477066123
 20
-89.12117510792804
 30
0.0
 10
84.02174477066123
 20
-88.83833276858903
 30
0.0
 10
84.02174477066123
 20
-88.70121796827608
 30
0.0
 10
83.95215384185919
 20
-88.54928925737657
 30
0.0
 10
83.72374401118712
 20
-88.54928925737657
 30
0.0
 10
83.60729978378568
 20
-88.54928925737657
 30
0.0
 10
83.55872393744366
 20
-88.58718530771432
 30
0.0
 10
83.52702905897935
 20
-88.61888018617861
 30
0.0
 10
83.45295950604648
 20
-88.69260522956296
 30
0.0
 10
83.44021265275106
 20
-88.80870494741589
 30
0.0
 10
83.44021265275106
 20
-88.86348196563135
 30
0.0
 10
83.44021265275106
 20
-88.88277450034876
 30
0.0
 10
83.44227971004221
 20
-88.91860349339535
 30
0.0
 10
83.44641382462451
 20
-88.94581974772883
 30
0.0
 10
83.44641382462451
 20
-88.94581974772883
 30
0.0
 10
83.2517659297079
 20
-88.94581974772883
 30
0.0
 10
83.2517659297079
 20
-88.94581974772883
 30
0.0
 10
83.25831161112987
 20
-88.90792369739108
 30
0.0
 10
83.26037866842103
 20
-88.86589353247103
 30
0.0
 10
83.26037866842103
 20
-88.85934785104905
 30
0.0
 10
83.26037866842103
 20
-88.79389103682931
 30
0.0
 10
83.23901907641248
 20
-88.59579804642745
 30
0.0
 10
83.00234101657581
 20
-88.59579804642745
 30
0.0
 10
82.82457408953691
 20
-88.59579804642745
 30
0.0
 10
82.76945256177292
 20
-88.72636716531841
 30
0.0
 10
82.76945256177292
 20
-88.83626571129788
 30
0.0
 10
82.76945256177292
 20
-89.09981551591949
 30
0.0
 10
83.00234101657581
 20
-89.10842825463261
 30
0.0
 10
83.073999002669
 20
-89.11256236921491
 30
0.0
 10
83.073999002669
 20
-89.11256236921491
 30
0.0
 10
83.073999002669
 20
-89.31513398374761
 30
0.0
 10
83.073999002669
 20
-89.31513398374761
 30
0.0
 10
82.94928654610295
 20
-89.30686575458301
 30
0.0
 10
82.57273760956515
 20
-89.27930499070101
 30
0.0
 10
82.57273760956515
 20
-88.82351885800246
 30
0.0
 10
82.57273760956515
 20
-88.59993216100975
 30
0.0
 10
82.69986163297087
 20
-88.35946449613931
 30
0.0
 10
82.99579533515383
 20
-88.35946449613931
 30
0.0
 10
83.18217500090584
 20
-88.35946449613931
 30
0.0
 10
83.26451278300333
 20
-88.45420462198368
 30
0.0
 10
83.32583548264077
 20
-88.55342337195887
 30
0.0
 10
83.35339624652276
 20
-88.49210067232143
 30
0.0
 10
83.43366697132909
 20
-88.31088864979728
 30
0.0
 10
83.7109971578917
 20
-88.31088864979728
 30
0.0
 10
84.04930553454324
 20
-88.31088864979728
 30
0.0
 10
84.21639266557786
 20
-88.55755748654117
 30
0.0
 10
84.21639266557786
 20
-88.83419865400673
 30
0.0
  0
HATCH
  5
F1
330
EA
100
AcDbEntity
  8
_U+30EC_U+30A4_U+30E4_U+30FC 1
 62
     7
420
 16777215
100
AcDbHatch
 10
0.0
 20
0.0
 30
0.0
210
0.0
220
0.0
230
1.0
  2
SOLID
 70
     1
 71
     0
 91
        1
 92
        1
 93
        1
 72
     4
 94
        3
 73
     0
 74
     1
 95
       62
 96
       58
 40
0.0
 40
0.0
 40
0.0
 40
0.0
 40
1.0
 40
1.0
 40
1.0
 40
2.0
 40
2.0
 40
2.0
 40
3.0
 40
3.0
 40
3.0
 40
4.0
 40
4.0
 40
4.0
 40
5.0
 40
5.0
 40
5.0
 40
6.0
 40
6.0
 40
6.0
 40
7.0
 40
7.0
 40
7.0
 40
8.0
 40
8.0
 40
8.0
 40
9.0
 40
9.0
 40
9.0
 40
10.0
 40
10.0
 40
10.0
 40
11.0
 40
11.0
 40
11.0
 40
12.0
 40
12.0
 40
12.0
 40
13.0
 40
13.0
 40
13.0
 40
14.0
 40
14.0
 40
14.0
 40
15.0
 40
15.0
 40
15.0
 40
16.0
 40
16.0
 40
16.0
 40
17.0
 40
17.0
 40
17.0
 40
18.0
 40
18.0
 40
18.0
 40
19.0
 40
19.0
 40
19.0
 40
19.0
 10
84.21639266557786
 20
-88.83419865400673
 10
84.21639266557786
 20
-88.92893877985111
 10
84.19537758311783
 20
-89.14632430497036
 10
84.00934242691433
 20
-89.27103676153641
 10
83.89703231409518
 20
-89.34476180492076
 10
83.79781356411999
 20
-89.34889591950306
 10
83.71306421518285
 20
-89.35337454363388
 10
83.71306421518285
 20
-89.35337454363388
 10
83.71306421518285
 20
-89.13357745167494
 10
83.71306421518285
 20
-89.13357745167494
 10
83.78713376811572
 20
-89.1315103943838
 10
84.02174477066123
 20
-89.12117510792804
 10
84.02174477066123
 20
-88.83833276858903
 10
84.02174477066123
 20
-88.70121796827608
 10
83.95215384185919
 20
-88.54928925737657
 10
83.72374401118712
 20
-88.54928925737657
 10
83.60729978378568
 20
-88.54928925737657
 10
83.55872393744366
 20
-88.58718530771432
 10
83.52702905897935
 20
-88.61888018617861
 10
83.45295950604648
 20
-88.69260522956296
 10
83.44021265275106
 20
-88.80870494741589
 10
83.44021265275106
 20
-88.86348196563135
 10
83.44021265275106
 20
-88.88277450034876
 10
83.44227971004221
 20
-88.91860349339535
 10
83.44641382462451
 20
-88.94581974772883
 10
83.44641382462451
 20
-88.94581974772883
 10
83.2517659297079
 20
-88.94581974772883
 10
83.2517659297079
 20
-88.94581974772883
 10
83.25831161112987
 20
-88.90792369739108
 10
83.26037866842103
 20
-88.86589353247103
 10
83.26037866842103
 20
-88.85934785104905
 10
83.26037866842103
 20
-88.79389103682931
 10
83.23901907641248
 20
-88.59579804642745
 10
83.00234101657581
 20
-88.59579804642745
 10
82.82457408953691
 20
-88.59579804642745
 10
82.76945256177292
 20
-88.72636716531841
 10
82.76945256177292
 20
-88.83626571129788
 10
82.76945256177292
 20
-89.09981551591949
 10
83.00234101657581
 20
-89.10842825463261
 10
83.073999002669
 20
-89.11256236921491
 10
83.073999002669
 20
-89.11256236921491
 10
83.073999002669
 20
-89.31513398374761
 10
83.073999002669
 20
-89.31513398374761
 10
82.94928654610295
 20
-89.30686575458301
 10
82.57273760956515
 20
-89.27930499070101
 10
82.57273760956515
 20
-88.82351885800246
 10
82.57273760956515
 20
-88.59993216100975
 10
82.69986163297087
 20
-88.35946449613931
 10
82.99579533515383
 20
-88.35946449613931
 10
83.18217500090584
 20
-88.35946449613931
 10
83.26451278300333
 20
-88.45420462198368
 10
83.32583548264077
 20
-88.55342337195887
 10
83.35339624652276
 20
-88.49210067232143
 10
83.43366697132909
 20
-88.31088864979728
 10
83.7109971578917
 20
-88.31088864979728
 10
84.04930553454324
 20
-88.31088864979728
 10
84.21639266557786
 20
-88.55755748654117
 10
84.21639266557786
 20
-88.83419865400673
 97
        0
 97
        0
 75
     2
 76
     1
 98
        0
  0
ENDBLK
  5
ED
330
EA
100
AcDbEntity
  8
0
100
AcDbBlockEnd
  0
ENDSEC
  0
SECTION
  2
ENTITIES
  0
INSERT
  5
42
330
1F
100
AcDbEntity
  8
_U+30EC_U+30A4_U+30E4_U+30FC 1
100
AcDbBlockReference
  2
block 2
 10
0.0
 20
0.0
 30
0.0
  0
SPLINE
  5
7D
330
1F
100
AcDbEntity
  8
_U+30EC_U+30A4_U+30E4_U+30FC 1
 62
     7
420
 16777215
370
     9
100
AcDbSpline
210
0.0
220
0.0
230
1.0
 70
    11
 71
     3
 72
    17
 73
    13
 74
     0
 42
0.0000000001
 43
0.0000000001
 12
1.0
 22
0.0
 32
0.0
 13
1.0
 23
0.0
 33
0.0
 40
0.0
 40
0.0
 40
0.0
 40
0.0
 40
1.0
 40
1.0
 40
1.0
 40
2.0
 40
2.0
 40
2.0
 40
3.0
 40
3.0
 40
3.0
 40
4.0
 40
4.0
 40
4.0
 40
4.0
 10
69.745258498428
 20
-103.012839696469
 30
0.0
 10
69.745258498428
 20
-102.9577005298159
 30
0.0
 10
69.7004909995701
 20
-102.9129330298273
 30
0.0
 10
69.64535183431016
 20
-102.9129330298273
 30
0.0
 10
69.59024794682709
 20
-102.9129330298273
 30
0.0
 10
69.54544517019232
 20
-102.9577005298159
 30
0.0
 10
69.54544517019232
 20
-103.012839696469
 30
0.0
 10
69.54544517019232
 20
-103.0679435853439
 30
0.0
 10
69.59024794682709
 20
-103.1127463631106
 30
0.0
 10
69.64535183431016
 20
-103.1127463631106
 30
0.0
 10
69.7004909995701
 20
-103.1127463631106
 30
0.0
 10
69.745258498428
 20
-103.0679435853439
 30
0.0
 10
69.745258498428
 20
-103.012839696469
 30
0.0
  0
SPLINE
  5
7E
330
1F
100
AcDbEntity
  8
_U+30EC_U+30A4_U+30E4_U+30FC 1
 62
     7
420
 16777215
370
     9
100
AcDbSpline
210
0.0
220
0.0
230
1.0
 70
    11
 71
     3
 72
    17
 73
    13
 74
     0
 42
0.0000000001
 43
0.0000000001
 12
1.0
 22
0.0
 32
0.0
 13
1.0
 23
0.0
 33
0.0
 40
0.0
 40
0.0
 40
0.0
 40
0.0
 40
1.0
 40
1.0
 40
1.0
 40
2.0
 40
2.0
 40
2.0
 40
3.0
 40
3.0
 40
3.0
 40
4.0
 40
4.0
 40
4.0
 40
4.0
 10
39.64580065521803
 20
-103.012839696469
 30
0.0
 10
39.64580065521803
 20
-102.9577005298159
 30
0.0
 10
39.60103315636014
 20
-102.9129330298273
 30
0.0
 10
39.54557649110829
 20
-102.9129330298273
 30
0.0
 10
39.49043732584834
 20
-102.9129330298273
 30
0.0
 10
39.44566982699045
 20
-102.9577005298159
 30
0.0
 10
39.44566982699045
 20
-103.012839696469
 30
0.0
 10
39.44566982699045
 20
-103.0679435853439
 30
0.0
 10
39.49043732584834
 20
-103.1127463631106
 30
0.0
 10
39.54557649110829
 20
-103.1127463631106
 30
0.0
 10
39.60103315636014
 20
-103.1127463631106
 30
0.0
 10
39.64580065521803
 20
-103.0679435853439
 30
0.0
 10
39.64580065521803
 20
-103.012839696469
 30
0.0
  0
SPLINE
  5
7F
330
1F
100
AcDbEntity
  8
_U+30EC_U+30A4_U+30E4_U+30FC 1
 62
     7
420
 16777215
370
     9
100
AcDbSpline
210
0.0
220
0.0
230
1.0
 70
    11
 71
     3
 72
    17
 73
    13
 74
     0
 42
0.0000000001
 43
0.0000000001
 12
1.0
 22
0.0
 32
0.0
 13
1.0
 23
0.0
 33
0.0
 40
0.0
 40
0.0
 40
0.0
 40
0.0
 40
1.0
 40
1.0
 40
1.0
 40
2.0
 40
2.0
 40
2.0
 40
3.0
 40
3.0
 40
3.0
 40
4.0
 40
4.0
 40
4.0
 40
4.0
 10
85.64576392610564
 20
-81.91267164618854
 30
0.0
 10
85.64576392610564
 20
-81.85753247953546
 30
0.0
 10
85.60096114947088
 20
-81.8127649795469
 30
0.0
 10
85.5458572619878
 20
-81.8127649795469
 30
0.0
 10
85.49040275640488
 20
-81.8127649795469
 30
0.0
 10
85.4455999786388
 20
-81.85753247953546
 30
0.0
 10
85.4455999786388
 20
-81.91267164618854
 30
0.0
 10
85.4455999786388
 20
-81.96777553506345
 30
0.0
 10
85.49040275640488
 20
-82.01257831283019
 30
0.0
 10
85.5458572619878
 20
-82.01257831283019
 30
0.0
 10
85.60096114947088
 20
-82.01257831283019
 30
0.0
 10
85.64576392610564
 20
-81.96777553506345
 30
0.0
 10
85.64576392610564
 20
-81.91267164618854
 30
0.0
  0
SPLINE
  5
80
330
1F
100
AcDbEntity
  8
_U+30EC_U+30A4_U+30E4_U+30FC 1
 62
     7
420
 16777215
370
     9
100
AcDbSpline
210
0.0
220
0.0
230
1.0
 70
    11
 71
     3
 72
    17
 73
    13
 74
     0
 42
0.0000000001
 43
0.0000000001
 12
1.0
 22
0.0
 32
0.0
 13
1.0
 23
0.0
 33
0.0
 40
0.0
 40
0.0
 40
0.0
 40
0.0
 40
1.0
 40
1.0
 40
1.0
 40
2.0
 40
2.0
 40
2.0
 40
3.0
 40
3.0
 40
3.0
 40
4.0
 40
4.0
 40
4.0
 40
4.0
 10
85.64576392610564
 20
-82.91276136816069
 30
0.0
 10
85.64576392610564
 20
-82.85765747928545
 30
0.0
 10
85.60096114947088
 20
-82.81285470151904
 30
0.0
 10
85.5458572619878
 20
-82.81285470151904
 30
0.0
 10
85.49040275640488
 20
-82.81285470151904
 30
0.0
 10
85.4455999786388
 20
-82.85765747928545
 30
0.0
 10
85.4455999786388
 20
-82.91276136816069
 30
0.0
 10
85.4455999786388
 20
-82.96821803481336
 30
0.0
 10
85.49040275640488
 20
-83.01302081258008
 30
0.0
 10
85.5458572619878
 20
-83.01302081258008
 30
0.0
 10
85.60096114947088
 20
-83.01302081258008
 30
0.0
 10
85.64576392610564
 20
-82.96821803481336
 30
0.0
 10
85.64576392610564
 20
-82.91276136816069
 30
0.0
  0
SPLINE
  5
81
330
1F
100
AcDbEntity
  8
_U+30EC_U+30A4_U+30E4_U+30FC 1
 62
     7
420
 16777215
370
     9
100
AcDbSpline
210
0.0
220
0.0
230
1.0
 70
    11
 71
     3
 72
    17
 73
    13
 74
     0
 42
0.0000000001
 43
0.0000000001
 12
1.0
 22
0.0
 32
0.0
 13
1.0
 23
0.0
 33
0.0
 40
0.0
 40
0.0
 40
0.0
 40
0.0
 40
1.0
 40
1.0
 40
1.0
 40
2.0
 40
2.0
 40
2.0
 40
3.0
 40
3.0
 40
3.0
 40
4.0
 40
4.0
 40
4.0
 40
4.0
 10
85.64576392610564
 20
-95.91283414268835
 30
0.0
 10
85.64576392610564
 20
-95.85773025381344
 30
0.0
 10
85.60096114947088
 20
-95.81292747604672
 30
0.0
 10
85.5458572619878
 20
-95.81292747604672
 30
0.0
 10
85.49040275640488
 20
-95.81292747604672
 30
0.0
 10
85.4455999786388
 20
-95.85773025381344
 30
0.0
 10
85.4455999786388
 20
-95.91283414268835
 30
0.0
 10
85.4455999786388
 20
-95.96797330934143
 30
0.0
 10
85.49040275640488
 20
-96.01274080933
 30
0.0
 10
85.5458572619878
 20
-96.01274080933
 30
0.0
 10
85.60096114947088
 20
-96.01274080933
 30
0.0
 10
85.64576392610564
 20
-95.96797330934143
 30
0.0
 10
85.64576392610564
 20
-95.91283414268835
 30
0.0
  0
SPLINE
  5
82
330
1F
100
AcDbEntity
  8
_U+30EC_U+30A4_U+30E4_U+30FC 1
 62
     7
420
 16777215
370
     9
100
AcDbSpline
210
0.0
220
0.0
230
1.0
 70
    11
 71
     3
 72
    17
 73
    13
 74
     0
 42
0.0000000001
 43
0.0000000001
 12
1.0
 22
0.0
 32
0.0
 13
1.0
 23
0.0
 33
0.0
 40
0.0
 40
0.0
 40
0.0
 40
0.0
 40
1.0
 40
1.0
 40
1.0
 40
2.0
 40
2.0
 40
2.0
 40
3.0
 40
3.0
 40
3.0
 40
4.0
 40
4.0
 40
4.0
 40
4.0
 10
85.64576392610564
 20
-99.01272775302434
 30
0.0
 10
85.64576392610564
 20
-98.95762386414943
 30
0.0
 10
85.60096114947088
 20
-98.9128210863827
 30
0.0
 10
85.5458572619878
 20
-98.9128210863827
 30
0.0
 10
85.49040275640488
 20
-98.9128210863827
 30
0.0
 10
85.4455999786388
 20
-98.95762386414943
 30
0.0
 10
85.4455999786388
 20
-99.01272775302434
 30
0.0
 10
85.4455999786388
 20
-99.06818441967766
 30
0.0
 10
85.49040275640488
 20
-99.11298719744374
 30
0.0
 10
85.5458572619878
 20
-99.11298719744374
 30
0.0
 10
85.60096114947088
 20
-99.11298719744374
 30
0.0
 10
85.64576392610564
 20
-99.06818441967766
 30
0.0
 10
85.64576392610564
 20
-99.01272775302434
 30
0.0
  0
SPLINE
  5
83
330
1F
100
AcDbEntity
  8
_U+30EC_U+30A4_U+30E4_U+30FC 1
 62
     7
420
 16777215
370
     9
100
AcDbSpline
210
0.0
220
0.0
230
1.0
 70
    11
 71
     3
 72
    17
 73
    13
 74
     0
 42
0.0000000001
 43
0.0000000001
 12
1.0
 22
0.0
 32
0.0
 13
1.0
 23
0.0
 33
0.0
 40
0.0
 40
0.0
 40
0.0
 40
0.0
 40
1.0
 40
1.0
 40
1.0
 40
2.0
 40
2.0
 40
2.0
 40
3.0
 40
3.0
 40
3.0
 40
4.0
 40
4.0
 40
4.0
 40
4.0
 10
81.64565208371255
 20
-77.81265303610226
 30
0.0
 10
81.64565208371255
 20
-77.7575138694495
 30
0.0
 10
81.60088458485467
 20
-77.71274636946062
 30
0.0
 10
81.54574541959471
 20
-77.71274636946062
 30
0.0
 10
81.49064153211164
 20
-77.71274636946062
 30
0.0
 10
81.44583875547688
 20
-77.7575138694495
 30
0.0
 10
81.44583875547688
 20
-77.81265303610226
 30
0.0
 10
81.44583875547688
 20
-77.86810970275526
 30
0.0
 10
81.49064153211164
 20
-77.91291248052165
 30
0.0
 10
81.54574541959471
 20
-77.91291248052165
 30
0.0
 10
81.60088458485467
 20
-77.91291248052165
 30
0.0
 10
81.64565208371255
 20
-77.86810970275526
 30
0.0
 10
81.64565208371255
 20
-77.81265303610226
 30
0.0
  0
SPLINE
  5
84
330
1F
100
AcDbEntity
  8
_U+30EC_U+30A4_U+30E4_U+30FC 1
 62
     7
420
 16777215
370
     9
100
AcDbSpline
210
0.0
220
0.0
230
1.0
 70
    11
 71
     3
 72
    17
 73
    13
 74
     0
 42
0.0000000001
 43
0.0000000001
 12
1.0
 22
0.0
 32
0.0
 13
1.0
 23
0.0
 33
0.0
 40
0.0
 40
0.0
 40
0.0
 40
0.0
 40
1.0
 40
1.0
 40
1.0
 40
2.0
 40
2.0
 40
2.0
 40
3.0
 40
3.0
 40
3.0
 40
4.0
 40
4.0
 40
4.0
 40
4.0
 10
41.64569782641862
 20
-77.81265303610226
 30
0.0
 10
41.64569782641862
 20
-77.7575138694495
 30
0.0
 10
41.60089504978386
 20
-77.71274636946062
 30
0.0
 10
41.54579116230079
 20
-77.71274636946062
 30
0.0
 10
41.49065199704084
 20
-77.71274636946062
 30
0.0
 10
41.44588449818295
 20
-77.7575138694495
 30
0.0
 10
41.44588449818295
 20
-77.81265303610226
 30
0.0
 10
41.44588449818295
 20
-77.86810970275526
 30
0.0
 10
41.49065199704084
 20
-77.91291248052165
 30
0.0
 10
41.54579116230079
 20
-77.91291248052165
 30
0.0
 10
41.60089504978386
 20
-77.91291248052165
 30
0.0
 10
41.64569782641862
 20
-77.86810970275526
 30
0.0
 10
41.64569782641862
 20
-77.81265303610226
 30
0.0
  0
POLYLINE
  5
85
330
1F
100
AcDbEntity
  8
_U+30EC_U+30A4_U+30E4_U+30FC 1
 62
     7
420
 16777215
370
     9
100
AcDb2dPolyline
 66
     1
 10
0.0
 20
0.0
 30
0.0
  0
VERTEX
  5
86
330
85
100
AcDbEntity
  8
_U+30EC_U+30A4_U+30E4_U+30FC 1
 62
     7
420
 16777215
370
     9
100
AcDbVertex
100
AcDb2dVertex
 10
39.54557649110829
 20
-103.012839696469
 30
0.0
  0
VERTEX
  5
87
330
85
100
AcDbEntity
  8
_U+30EC_U+30A4_U+30E4_U+30FC 1
 62
     7
420
 16777215
370
     9
100
AcDbVertex
100
AcDb2dVertex
 10
69.54544517019232
 20
-103.012839696469
 30
0.0
  0
SEQEND
  5
88
330
85
100
AcDbEntity
  8
_U+30EC_U+30A4_U+30E4_U+30FC 1
 62
     7
420
 16777215
370
     9
  0
POLYLINE
  5
89
330
1F
100
AcDbEntity
  8
_U+30EC_U+30A4_U+30E4_U+30FC 1
 62
     7
420
 16777215
370
     9
100
AcDb2dPolyline
 66
     1
 10
0.0
 20
0.0
 30
0.0
  0
VERTEX
  5
8A
330
89
100
AcDbEntity
  8
_U+30EC_U+30A4_U+30E4_U+30FC 1
 62
     7
420
 16777215
370
     9
100
AcDbVertex
100
AcDb2dVertex
 10
39.54557649110829
 20
-101.5527983079453
 30
0.0
  0
VERTEX
  5
8B
330
89
100
AcDbEntity
  8
_U+30EC_U+30A4_U+30E4_U+30FC 1
 62
     7
420
 16777215
370
     9
100
AcDbVertex
100
AcDb2dVertex
 10
39.54557649110829
 20
-104.0129294184411
 30
0.0
  0
SEQEND
  5
8C
330
89
100
AcDbEntity
  8
_U+30EC_U+30A4_U+30E4_U+30FC 1
 62
     7
420
 16777215
370
     9
  0
POLYLINE
  5
8D
330
1F
100
AcDbEntity
  8
_U+30EC_U+30A4_U+30E4_U+30FC 1
 62
     7
420
 16777215
370
     9
100
AcDb2dPolyline
 66
     1
 10
0.0
 20
0.0
 30
0.0
  0
VERTEX
  5
8E
330
8D
100
AcDbEntity
  8
_U+30EC_U+30A4_U+30E4_U+30FC 1
 62
     7
420
 16777215
370
     9
100
AcDbVertex
100
AcDb2dVertex
 10
69.64535183431016
 20
-101.5527983079453
 30
0.0
  0
VERTEX
  5
8F
330
8D
100
AcDbEntity
  8
_U+30EC_U+30A4_U+30E4_U+30FC 1
 62
     7
420
 16777215
370
     9
100
AcDbVertex
100
AcDb2dVertex
 10
69.64535183431016
 20
-104.0129294184411
 30
0.0
  0
SEQEND
  5
90
330
8D
100
AcDbEntity
  8
_U+30EC_U+30A4_U+30E4_U+30FC 1
 62
     7
420
 16777215
370
     9
  0
INSERT
  5
92
330
1F
100
AcDbEntity
  8
_U+30EC_U+30A4_U+30E4_U+30FC 1
100
AcDbBlockReference
  2
block 3
 10
0.0
 20
0.0
 30
0.0
  0
POLYLINE
  5
9A
330
1F
100
AcDbEntity
  8
_U+30EC_U+30A4_U+30E4_U+30FC 1
 62
     7
420
 16777215
370
     9
100
AcDb2dPolyline
 66
     1
 10
0.0
 20
0.0
 30
0.0
  0
VERTEX
  5
9B
330
9A
100
AcDbEntity
  8
_U+30EC_U+30A4_U+30E4_U+30FC 1
 62
     7
420
 16777215
370
     9
100
AcDbVertex
100
AcDb2dVertex
 10
85.5458572619878
 20
-96.01274080933
 30
0.0
  0
VERTEX
  5
9C
330
9A
100
AcDbEntity
  8
_U+30EC_U+30A4_U+30E4_U+30FC 1
 62
     7
420
 16777215
370
     9
100
AcDbVertex
100
AcDb2dVertex
 10
85.5458572619878
 20
-99.01272775302434
 30
0.0
  0
SEQEND
  5
9D
330
9A
100
AcDbEntity
  8
_U+30EC_U+30A4_U+30E4_U+30FC 1
 62
     7
420
 16777215
370
     9
  0
POLYLINE
  5
9E
330
1F
100
AcDbEntity
  8
_U+30EC_U+30A4_U+30E4_U+30FC 1
 62
     7
420
 16777215
370
     9
100
AcDb2dPolyline
 66
     1
 10
0.0
 20
0.0
 30
0.0
  0
VERTEX
  5
9F
330
9E
100
AcDbEntity
  8
_U+30EC_U+30A4_U+30E4_U+30FC 1
 62
     7
420
 16777215
370
     9
100
AcDbVertex
100
AcDb2dVertex
 10
72.04554593974277
 20
-95.91283414268835
 30
0.0
  0
VERTEX
  5
A0
330
9E
100
AcDbEntity
  8
_U+30EC_U+30A4_U+30E4_U+30FC 1
 62
     7
420
 16777215
370
     9
100
AcDbVertex
100
AcDb2dVertex
 10
86.54562945870371
 20
-95.91283414268835
 30
0.0
  0
SEQEND
  5
A1
330
9E
100
AcDbEntity
  8
_U+30EC_U+30A4_U+30E4_U+30FC 1
 62
     7
420
 16777215
370
     9
  0
POLYLINE
  5
A2
330
1F
100
AcDbEntity
  8
_U+30EC_U+30A4_U+30E4_U+30FC 1
 62
     7
420
 16777215
370
     9
100
AcDb2dPolyline
 66
     1
 10
0.0
 20
0.0
 30
0.0
  0
VERTEX
  5
A3
330
A2
100
AcDbEntity
  8
_U+30EC_U+30A4_U+30E4_U+30FC 1
 62
     7
420
 16777215
370
     9
100
AcDbVertex
100
AcDb2dVertex
 10
72.04554593974277
 20
-99.01272775302434
 30
0.0
  0
VERTEX
  5
A4
330
A2
100
AcDbEntity
  8
_U+30EC_U+30A4_U+30E4_U+30FC 1
 62
     7
420
 16777215
370
     9
100
AcDbVertex
100
AcDb2dVertex
 10
86.54562945870371
 20
-99.01272775302434
 30
0.0
  0
SEQEND
  5
A5
330
A2
100
AcDbEntity
  8
_U+30EC_U+30A4_U+30E4_U+30FC 1
 62
     7
420
 16777215
370
     9
  0
INSERT
  5
A7
330
1F
100
AcDbEntity
  8
_U+30EC_U+30A4_U+30E4_U+30FC 1
100
AcDbBlockReference
  2
block 4
 10
0.0
 20
0.0
 30
0.0
  0
POLYLINE
  5
AC
330
1F
100
AcDbEntity
  8
_U+30EC_U+30A4_U+30E4_U+30FC 1
 62
     7
420
 16777215
370
     9
100
AcDb2dPolyline
 66
     1
 10
0.0
 20
0.0
 30
0.0
  0
VERTEX
  5
AD
330
AC
100
AcDbEntity
  8
_U+30EC_U+30A4_U+30E4_U+30FC 1
 62
     7
420
 16777215
370
     9
100
AcDbVertex
100
AcDb2dVertex
 10
85.5458572619878
 20
-82.91276136816069
 30
0.0
  0
VERTEX
  5
AE
330
AC
100
AcDbEntity
  8
_U+30EC_U+30A4_U+30E4_U+30FC 1
 62
     7
420
 16777215
370
     9
100
AcDbVertex
100
AcDb2dVertex
 10
85.5458572619878
 20
-77.91291248052165
 30
0.0
  0
SEQEND
  5
AF
330
AC
100
AcDbEntity
  8
_U+30EC_U+30A4_U+30E4_U+30FC 1
 62
     7
420
 16777215
370
     9
  0
POLYLINE
  5
B0
330
1F
100
AcDbEntity
  8
_U+30EC_U+30A4_U+30E4_U+30FC 1
 62
     7
420
 16777215
370
     9
100
AcDb2dPolyline
 66
     1
 10
0.0
 20
0.0
 30
0.0
  0
VERTEX
  5
B1
330
B0
100
AcDbEntity
  8
_U+30EC_U+30A4_U+30E4_U+30FC 1
 62
     7
420
 16777215
370
     9
100
AcDbVertex
100
AcDb2dVertex
 10
84.08581591034768
 20
-81.91267164618854
 30
0.0
  0
VERTEX
  5
B2
330
B0
100
AcDbEntity
  8
_U+30EC_U+30A4_U+30E4_U+30FC 1
 62
     7
420
 16777215
370
     9
100
AcDbVertex
100
AcDb2dVertex
 10
86.54562945870371
 20
-81.91267164618854
 30
0.0
  0
SEQEND
  5
B3
330
B0
100
AcDbEntity
  8
_U+30EC_U+30A4_U+30E4_U+30FC 1
 62
     7
420
 16777215
370
     9
  0
INSERT
  5
B5
330
1F
100
AcDbEntity
  8
_U+30EC_U+30A4_U+30E4_U+30FC 1
100
AcDbBlockReference
  2
block 5
 10
0.0
 20
0.0
 30
0.0
  0
POLYLINE
  5
BA
330
1F
100
AcDbEntity
  8
_U+30EC_U+30A4_U+30E4_U+30FC 1
 62
     7
420
 16777215
370
     9
100
AcDb2dPolyline
 66
     1
 10
0.0
 20
0.0
 30
0.0
  0
VERTEX
  5
BB
330
BA
100
AcDbEntity
  8
_U+30EC_U+30A4_U+30E4_U+30FC 1
 62
     7
420
 16777215
370
     9
100
AcDbVertex
100
AcDb2dVertex
 10
41.54579116230079
 20
-77.81265303610226
 30
0.0
  0
VERTEX
  5
BC
330
BA
100
AcDbEntity
  8
_U+30EC_U+30A4_U+30E4_U+30FC 1
 62
     7
420
 16777215
370
     9
100
AcDbVertex
100
AcDb2dVertex
 10
81.54574541959471
 20
-77.81265303610226
 30
0.0
  0
SEQEND
  5
BD
330
BA
100
AcDbEntity
  8
_U+30EC_U+30A4_U+30E4_U+30FC 1
 62
     7
420
 16777215
370
     9
  0
POLYLINE
  5
BE
330
1F
100
AcDbEntity
  8
_U+30EC_U+30A4_U+30E4_U+30FC 1
 62
     7
420
 16777215
370
     9
100
AcDb2dPolyline
 66
     1
 10
0.0
 20
0.0
 30
0.0
  0
VERTEX
  5
BF
330
BE
100
AcDbEntity
  8
_U+30EC_U+30A4_U+30E4_U+30FC 1
 62
     7
420
 16777215
370
     9
100
AcDbVertex
100
AcDb2dVertex
 10
41.54579116230079
 20
-79.27269442462628
 30
0.0
  0
VERTEX
  5
C0
330
BE
100
AcDbEntity
  8
_U+30EC_U+30A4_U+30E4_U+30FC 1
 62
     7
420
 16777215
370
     9
100
AcDbVertex
100
AcDb2dVertex
 10
41.54579116230079
 20
-76.81288081413004
 30
0.0
  0
SEQEND
  5
C1
330
BE
100
AcDbEntity
  8
_U+30EC_U+30A4_U+30E4_U+30FC 1
 62
     7
420
 16777215
370
     9
  0
POLYLINE
  5
C2
330
1F
100
AcDbEntity
  8
_U+30EC_U+30A4_U+30E4_U+30FC 1
 62
     7
420
 16777215
370
     9
100
AcDb2dPolyline
 66
     1
 10
0.0
 20
0.0
 30
0.0
  0
VERTEX
  5
C3
330
C2
100
AcDbEntity
  8
_U+30EC_U+30A4_U+30E4_U+30FC 1
 62
     7
420
 16777215
370
     9
100
AcDbVertex
100
AcDb2dVertex
 10
81.54574541959471
 20
-79.27269442462628
 30
0.0
  0
VERTEX
  5
C4
330
C2
100
AcDbEntity
  8
_U+30EC_U+30A4_U+30E4_U+30FC 1
 62
     7
420
 16777215
370
     9
100
AcDbVertex
100
AcDb2dVertex
 10
81.54574541959471
 20
-76.81288081413004
 30
0.0
  0
SEQEND
  5
C5
330
C2
100
AcDbEntity
  8
_U+30EC_U+30A4_U+30E4_U+30FC 1
 62
     7
420
 16777215
370
     9
  0
INSERT
  5
C7
330
1F
100
AcDbEntity
  8
_U+30EC_U+30A4_U+30E4_U+30FC 1
100
AcDbBlockReference
  2
block 6
 10
0.0
 20
0.0
 30
0.0
  0
POLYLINE
  5
E2
330
1F
100
AcDbEntity
  8
_U+30EC_U+30A4_U+30E4_U+30FC 1
 62
     7
420
 16777215
370
     9
100
AcDb2dPolyline
 66
     1
 10
0.0
 20
0.0
 30
0.0
  0
VERTEX
  5
E3
330
E2
100
AcDbEntity
  8
_U+30EC_U+30A4_U+30E4_U+30FC 1
 62
     7
420
 16777215
370
     9
100
AcDbVertex
100
AcDb2dVertex
 10
85.5458572619878
 20
-95.91283414268835
 30
0.0
  0
VERTEX
  5
E4
330
E2
100
AcDbEntity
  8
_U+30EC_U+30A4_U+30E4_U+30FC 1
 62
     7
420
 16777215
370
     9
100
AcDbVertex
100
AcDb2dVertex
 10
85.5458572619878
 20
-82.91276136816069
 30
0.0
  0
SEQEND
  5
E5
330
E2
100
AcDbEntity
  8
_U+30EC_U+30A4_U+30E4_U+30FC 1
 62
     7
420
 16777215
370
     9
  0
POLYLINE
  5
E6
330
1F
100
AcDbEntity
  8
_U+30EC_U+30A4_U+30E4_U+30FC 1
 62
     7
420
 16777215
370
     9
100
AcDb2dPolyline
 66
     1
 10
0.0
 20
0.0
 30
0.0
  0
VERTEX
  5
E7
330
E6
100
AcDbEntity
  8
_U+30EC_U+30A4_U+30E4_U+30FC 1
 62
     7
420
 16777215
370
     9
100
AcDbVertex
100
AcDb2dVertex
 10
84.08581591034768
 20
-82.91276136816069
 30
0.0
  0
VERTEX
  5
E8
330
E6
100
AcDbEntity
  8
_U+30EC_U+30A4_U+30E4_U+30FC 1
 62
     7
420
 16777215
370
     9
100
AcDbVertex
100
AcDb2dVertex
 10
86.54562945870371
 20
-82.91276136816069
 30
0.0
  0
SEQEND
  5
E9
330
E6
100
AcDbEntity
  8
_U+30EC_U+30A4_U+30E4_U+30FC 1
 62
     7
420
 16777215
370
     9
  0
INSERT
  5
EB
330
1F
100
AcDbEntity
  8
_U+30EC_U+30A4_U+30E4_U+30FC 1
100
AcDbBlockReference
  2
block 7
 10
0.0
 20
0.0
 30
0.0
  0
ENDSEC
  0
SECTION
  2
OBJECTS
  0
DICTIONARY
  5
C
330
0
100
AcDbDictionary
281
     1
  3
ACAD_GROUP
350
D
  3
ACAD_LAYOUT
350
1A
  3
ACAD_MATERIAL
350
3B
  3
ACAD_MLEADERSTYLE
350
F3
  3
ACAD_MLINESTYLE
350
17
  3
ACAD_PLOTSETTINGS
350
19
  3
ACAD_PLOTSTYLENAME
350
E
  3
ACAD_TABLESTYLE
350
F2
  3
ACAD_VISUALSTYLE
350
2A
  0
SUN
  5
3F
330
29
100
AcDbSun
 90
        1
290
     0
 63
     7
421
 16777215
 40
1.0
291
     1
 91
  2455826
 92
 54000000
292
     0
 70
     2
 71
   256
280
     1
  0
DICTIONARY
  5
D
102
{ACAD_REACTORS
330
C
102
}
330
C
100
AcDbDictionary
281
     1
  0
DICTIONARY
  5
1A
102
{ACAD_REACTORS
330
C
102
}
330
C
100
AcDbDictionary
281
     1
  3
Layout1
350
1E
  3
Layout2
350
26
  3
Model
350
22
  0
DICTIONARY
  5
3B
102
{ACAD_REACTORS
330
C
102
}
330
C
100
AcDbDictionary
281
     1
  3
ByBlock
350
3D
  3
ByLayer
350
3C
  3
Global
350
3E
  0
DICTIONARY
  5
F3
102
{ACAD_REACTORS
330
C
102
}
330
C
100
AcDbDictionary
281
     1
  0
DICTIONARY
  5
17
102
{ACAD_REACTORS
330
C
102
}
330
C
100
AcDbDictionary
281
     1
  3
Standard
350
18
  0
DICTIONARY
  5
19
102
{ACAD_REACTORS
330
C
102
}
330
C
100
AcDbDictionary
281
     1
  0
ACDBDICTIONARYWDFLT
  5
E
102
{ACAD_REACTORS
330
C
102
}
330
C
100
AcDbDictionary
281
     1
  3
Normal
350
F
100
AcDbDictionaryWithDefault
340
F
  0
DICTIONARY
  5
F2
102
{ACAD_REACTORS
330
C
102
}
330
C
100
AcDbDictionary
281
     1
  0
DICTIONARY
  5
2A
102
{ACAD_REACTORS
330
C
102
}
330
C
100
AcDbDictionary
281
     1
  3
2dWireframe
350
2F
  3
3D Hidden
350
31
  3
3dWireframe
350
30
  3
Basic
350
32
  3
Brighten
350
36
  3
ColorChange
350
3A
  3
Conceptual
350
34
  3
Dim
350
35
  3
Facepattern
350
39
  3
Flat
350
2B
  3
FlatWithEdges
350
2C
  3
Gouraud
350
2D
  3
GouraudWithEdges
350
2E
  3
Linepattern
350
38
  3
Realistic
350
33
  3
Thicken
350
37
  0
LAYOUT
  5
1E
102
{ACAD_REACTORS
330
1A
102
}
330
1A
100
AcDbPlotSettings
  1

  2
none_device
  4

  6

 40
0.0
 41
0.0
 42
0.0
 43
0.0
 44
0.0
 45
0.0
 46
0.0
 47
0.0
 48
0.0
 49
0.0
140
0.0
141
0.0
142
1.0
143
1.0
 70
   688
 72
     0
 73
     0
 74
     5
  7

 75
    16
 76
     0
 77
     2
 78
   300
147
1.0
148
0.0
149
0.0
100
AcDbLayout
  1
Layout1
 70
     1
 71
     1
 10
0.0
 20
0.0
 11
12.0
 21
9.0
 12
0.0
 22
0.0
 32
0.0
 14
1.000000000000000E+20
 24
1.000000000000000E+20
 34
1.000000000000000E+20
 15
-1.000000000000000E+20
 25
-1.000000000000000E+20
 35
-1.000000000000000E+20
146
0.0
 13
0.0
 23
0.0
 33
0.0
 16
1.0
 26
0.0
 36
0.0
 17
0.0
 27
1.0
 37
0.0
 76
     0
330
1B
  0
LAYOUT
  5
26
102
{ACAD_REACTORS
330
1A
102
}
330
1A
100
AcDbPlotSettings
  1

  2
none_device
  4

  6

 40
0.0
 41
0.0
 42
0.0
 43
0.0
 44
0.0
 45
0.0
 46
0.0
 47
0.0
 48
0.0
 49
0.0
140
0.0
141
0.0
142
1.0
143
1.0
 70
   688
 72
     0
 73
     0
 74
     5
  7

 75
    16
 76
     0
 77
     2
 78
   300
147
1.0
148
0.0
149
0.0
100
AcDbLayout
  1
Layout2
 70
     1
 71
     2
 10
0.0
 20
0.0
 11
0.0
 21
0.0
 12
0.0
 22
0.0
 32
0.0
 14
0.0
 24
0.0
 34
0.0
 15
0.0
 25
0.0
 35
0.0
146
0.0
 13
0.0
 23
0.0
 33
0.0
 16
1.0
 26
0.0
 36
0.0
 17
0.0
 27
1.0
 37
0.0
 76
     0
330
23
  0
LAYOUT
  5
22
102
{ACAD_REACTORS
330
1A
102
}
330
1A
100
AcDbPlotSettings
  1

  2
none_device
  4

  6

 40
0.0
 41
0.0
 42
0.0
 43
0.0
 44
0.0
 45
0.0
 46
0.0
 47
0.0
 48
0.0
 49
0.0
140
0.0
141
0.0
142
1.0
143
1.0
 70
  1712
 72
     0
 73
     0
 74
     0
  7

 75
     0
 76
     0
 77
     2
 78
   300
147
1.0
148
0.0
149
0.0
100
AcDbLayout
  1
Model
 70
     1
 71
     0
 10
0.0
 20
0.0
 11
12.0
 21
9.0
 12
0.0
 22
0.0
 32
0.0
 14
1.000000000000000E+20
 24
1.000000000000000E+20
 34
1.000000000000000E+20
 15
-1.000000000000000E+20
 25
-1.000000000000000E+20
 35
-1.000000000000000E+20
146
0.0
 13
0.0
 23
0.0
 33
0.0
 16
1.0
 26
0.0
 36
0.0
 17
0.0
 27
1.0
 37
0.0
 76
     0
330
1F
331
29
  0
MATERIAL
  5
3D
102
{ACAD_REACTORS
330
3B
102
}
330
3B
100
AcDbMaterial
  1
ByBlock
 72
     1
 94
      127
  0
MATERIAL
  5
3C
102
{ACAD_REACTORS
330
3B
102
}
330
3B
100
AcDbMaterial
  1
ByLayer
 72
     1
 94
      127
  0
MATERIAL
  5
3E
102
{ACAD_REACTORS
330
3B
102
}
330
3B
100
AcDbMaterial
  1
Global
 72
     1
 94
      127
  0
MLINESTYLE
  5
18
102
{ACAD_REACTORS
330
17
102
}
330
17
100
AcDbMlineStyle
  2
Standard
 70
     0
  3

 62
   256
 51
90.0
 52
90.0
 71
     2
 49
0.5
 62
   256
  6
BYLAYER
 49
-0.5
 62
   256
  6
BYLAYER
  0
ACDBPLACEHOLDER
  5
F
102
{ACAD_REACTORS
330
E
102
}
330
E
  0
VISUALSTYLE
  5
2F
102
{ACAD_REACTORS
330
2A
102
}
330
2A
100
AcDbVisualStyle
  2
2dWireframe
 70
     4
177
     2
291
     0
 71
     0
176
     1
 72
     2
176
     1
 73
     0
176
     1
 90
        0
176
     1
 40
-0.6
176
     1
 41
-30.0
176
     1
 62
     5
 63
     7
421
 16777215
176
     1
 74
     1
176
     1
 91
        4
176
     1
 64
     7
176
     1
 65
   257
176
     1
 75
     1
176
     1
175
     1
176
     1
 42
1.0
176
     1
 92
        0
176
     1
 66
   257
176
     1
 43
1.0
176
     1
 76
     1
176
     1
 77
     6
176
     1
 78
     2
176
     1
 67
     7
176
     1
 79
     5
176
     1
170
     0
176
     1
171
     0
176
     1
290
     0
176
     1
 93
        1
176
     1
 44
0.0
176
     1
173
     0
176
     1
  0
VISUALSTYLE
  5
31
102
{ACAD_REACTORS
330
2A
102
}
330
2A
100
AcDbVisualStyle
  2
3D Hidden
 70
     6
177
     2
291
     0
 71
     1
176
     1
 72
     2
176
     1
 73
     2
176
     1
 90
        0
176
     1
 40
-0.6
176
     1
 41
-30.0
176
     1
 62
     5
 63
     7
421
 16777215
176
     1
 74
     2
176
     1
 91
        2
176
     1
 64
     7
176
     1
 65
   257
176
     1
 75
     2
176
     1
175
     1
176
     1
 42
40.0
176
     1
 92
        0
176
     1
 66
   257
176
     1
 43
1.0
176
     1
 76
     1
176
     1
 77
     6
176
     1
 78
     2
176
     1
 67
     7
176
     1
 79
     3
176
     1
170
     0
176
     1
171
     0
176
     1
290
     0
176
     1
 93
        1
176
     1
 44
0.0
176
     1
173
     0
176
     1
  0
VISUALSTYLE
  5
30
102
{ACAD_REACTORS
330
2A
102
}
330
2A
100
AcDbVisualStyle
  2
3dWireframe
 70
     5
177
     2
291
     0
 71
     0
176
     1
 72
     2
176
     1
 73
     0
176
     1
 90
        0
176
     1
 40
-0.6
176
     1
 41
-30.0
176
     1
 62
     5
 63
     7
421
 16777215
176
     1
 74
     1
176
     1
 91
        4
176
     1
 64
     7
176
     1
 65
   257
176
     1
 75
     1
176
     1
175
     1
176
     1
 42
1.0
176
     1
 92
        0
176
     1
 66
   257
176
     1
 43
1.0
176
     1
 76
     1
176
     1
 77
     6
176
     1
 78
     2
176
     1
 67
     7
176
     1
 79
     5
176
     1
170
     0
176
     1
171
     0
176
     1
290
     0
176
     1
 93
        1
176
     1
 44
0.0
176
     1
173
     0
176
     1
  0
VISUALSTYLE
  5
32
102
{ACAD_REACTORS
330
2A
102
}
330
2A
100
AcDbVisualStyle
  2
Basic
 70
     7
177
     2
291
     1
 71
     1
176
     1
 72
     0
176
     1
 73
     1
176
     1
 90
        0
176
     1
 40
-0.6
176
     1
 41
-30.0
176
     1
 62
     5
 63
     7
421
 16777215
176
     1
 74
     0
176
     1
 91
        4
176
     1
 64
     7
176
     1
 65
   257
176
     1
 75
     1
176
     1
175
     1
176
     1
 42
1.0
176
     1
 92
        8
176
     1
 66
     7
176
     1
 43
1.0
176
     1
 76
     1
176
     1
 77
     6
176
     1
 78
     2
176
     1
 67
     7
176
     1
 79
     5
176
     1
170
     0
176
     1
171
     0
176
     1
290
     0
176
     1
 93
        1
176
     1
 44
0.0
176
     1
173
     0
176
     1
  0
VISUALSTYLE
  5
36
102
{ACAD_REACTORS
330
2A
102
}
330
2A
100
AcDbVisualStyle
  2
Brighten
 70
    12
177
     2
291
     1
 71
     2
176
     1
 72
     2
176
     1
 73
     0
176
     1
 90
        0
176
     1
 40
-0.6
176
     1
 41
-30.0
176
     1
 62
     5
 63
     7
421
 16777215
176
     1
 74
     1
176
     1
 91
        4
176
     1
 64
     7
176
     1
 65
   257
176
     1
 75
     1
176
     1
175
     1
176
     1
 42
1.0
176
     1
 92
        8
176
     1
 66
     7
176
     1
 43
1.0
176
     1
 76
     1
176
     1
 77
     6
176
     1
 78
     2
176
     1
 67
     7
176
     1
 79
     5
176
     1
170
     0
176
     1
171
     0
176
     1
290
     0
176
     1
 93
        1
176
     1
 44
50.0
176
     1
173
     0
176
     1
  0
VISUALSTYLE
  5
3A
102
{ACAD_REACTORS
330
2A
102
}
330
2A
100
AcDbVisualStyle
  2
ColorChange
 70
    16
177
     2
291
     1
 71
     2
176
     1
 72
     2
176
     1
 73
     3
176
     1
 90
        0
176
     1
 40
-0.6
176
     1
 41
-30.0
176
     1
 62
     5
 63
     8
421
  8421504
176
     1
 74
     1
176
     1
 91
        4
176
     1
 64
     7
176
     1
 65
   257
176
     1
 75
     1
176
     1
175
     1
176
     1
 42
1.0
176
     1
 92
        8
176
     1
 66
     8
424
  8421504
176
     1
 43
1.0
176
     1
 76
     1
176
     1
 77
     6
176
     1
 78
     2
176
     1
 67
     7
176
     1
 79
     5
176
     1
170
     0
176
     1
171
     0
176
     1
290
     0
176
     1
 93
        1
176
     1
 44
0.0
176
     1
173
     0
176
     1
  0
VISUALSTYLE
  5
34
102
{ACAD_REACTORS
330
2A
102
}
330
2A
100
AcDbVisualStyle
  2
Conceptual
 70
     9
177
     2
291
     0
 71
     3
176
     1
 72
     2
176
     1
 73
     0
176
     1
 90
        0
176
     1
 40
-0.6
176
     1
 41
-30.0
176
     1
 62
     5
 63
     7
421
 16777215
176
     1
 74
     2
176
     1
 91
        2
176
     1
 64
     7
176
     1
 65
   257
176
     1
 75
     1
176
     1
175
     1
176
     1
 42
40.0
176
     1
 92
        8
176
     1
 66
     7
176
     1
 43
1.0
176
     1
 76
     1
176
     1
 77
     6
176
     1
 78
     2
176
     1
 67
     7
176
     1
 79
     3
176
     1
170
     0
176
     1
171
     0
176
     1
290
     0
176
     1
 93
        1
176
     1
 44
0.0
176
     1
173
     0
176
     1
  0
VISUALSTYLE
  5
35
102
{ACAD_REACTORS
330
2A
102
}
330
2A
100
AcDbVisualStyle
  2
Dim
 70
    11
177
     2
291
     1
 71
     2
176
     1
 72
     2
176
     1
 73
     0
176
     1
 90
        0
176
     1
 40
-0.6
176
     1
 41
-30.0
176
     1
 62
     5
 63
     7
421
 16777215
176
     1
 74
     1
176
     1
 91
        4
176
     1
 64
     7
176
     1
 65
   257
176
     1
 75
     1
176
     1
175
     1
176
     1
 42
1.0
176
     1
 92
        8
176
     1
 66
     7
176
     1
 43
1.0
176
     1
 76
     1
176
     1
 77
     6
176
     1
 78
     2
176
     1
 67
     7
176
     1
 79
     5
176
     1
170
     0
176
     1
171
     0
176
     1
290
     0
176
     1
 93
        1
176
     1
 44
-50.0
176
     1
173
     0
176
     1
  0
VISUALSTYLE
  5
39
102
{ACAD_REACTORS
330
2A
102
}
330
2A
100
AcDbVisualStyle
  2
Facepattern
 70
    15
177
     2
291
     1
 71
     2
176
     1
 72
     2
176
     1
 73
     0
176
     1
 90
        0
176
     1
 40
-0.6
176
     1
 41
-30.0
176
     1
 62
     5
 63
     7
421
 16777215
176
     1
 74
     1
176
     1
 91
        4
176
     1
 64
     7
176
     1
 65
   257
176
     1
 75
     1
176
     1
175
     1
176
     1
 42
1.0
176
     1
 92
        8
176
     1
 66
     7
176
     1
 43
1.0
176
     1
 76
     1
176
     1
 77
     6
176
     1
 78
     2
176
     1
 67
     7
176
     1
 79
     5
176
     1
170
     0
176
     1
171
     0
176
     1
290
     0
176
     1
 93
        1
176
     1
 44
0.0
176
     1
173
     0
176
     1
  0
VISUALSTYLE
  5
2B
102
{ACAD_REACTORS
330
2A
102
}
330
2A
100
AcDbVisualStyle
  2
Flat
 70
     0
177
     2
291
     1
 71
     2
176
     1
 72
     1
176
     1
 73
     1
176
     1
 90
        2
176
     1
 40
-0.6
176
     1
 41
30.0
176
     1
 62
     5
 63
     7
421
 16777215
176
     1
 74
     0
176
     1
 91
        4
176
     1
 64
     7
176
     1
 65
   257
176
     1
 75
     1
176
     1
175
     1
176
     1
 42
1.0
176
     1
 92
        8
176
     1
 66
     7
176
     1
 43
1.0
176
     1
 76
     1
176
     1
 77
     6
176
     1
 78
     2
176
     1
 67
     7
176
     1
 79
     5
176
     1
170
     0
176
     1
171
     0
176
     1
290
     0
176
     1
 93
       13
176
     1
 44
0.0
176
     1
173
     0
176
     1
  0
VISUALSTYLE
  5
2C
102
{ACAD_REACTORS
330
2A
102
}
330
2A
100
AcDbVisualStyle
  2
FlatWithEdges
 70
     1
177
     2
291
     1
 71
     2
176
     1
 72
     1
176
     1
 73
     1
176
     1
 90
        2
176
     1
 40
-0.6
176
     1
 41
30.0
176
     1
 62
     5
 63
     7
421
 16777215
176
     1
 74
     1
176
     1
 91
        4
176
     1
 64
     7
176
     1
 65
   257
176
     1
 75
     1
176
     1
175
     1
176
     1
 42
1.0
176
     1
 92
        0
176
     1
 66
   257
176
     1
 43
1.0
176
     1
 76
     1
176
     1
 77
     6
176
     1
 78
     2
176
     1
 67
     7
176
     1
 79
     5
176
     1
170
     0
176
     1
171
     0
176
     1
290
     0
176
     1
 93
       13
176
     1
 44
0.0
176
     1
173
     0
176
     1
  0
VISUALSTYLE
  5
2D
102
{ACAD_REACTORS
330
2A
102
}
330
2A
100
AcDbVisualStyle
  2
Gouraud
 70
     2
177
     2
291
     1
 71
     2
176
     1
 72
     2
176
     1
 73
     1
176
     1
 90
        2
176
     1
 40
-0.6
176
     1
 41
30.0
176
     1
 62
     5
 63
     7
421
 16777215
176
     1
 74
     0
176
     1
 91
        4
176
     1
 64
     7
176
     1
 65
   257
176
     1
 75
     1
176
     1
175
     1
176
     1
 42
1.0
176
     1
 92
        0
176
     1
 66
     7
176
     1
 43
1.0
176
     1
 76
     1
176
     1
 77
     6
176
     1
 78
     2
176
     1
 67
     7
176
     1
 79
     5
176
     1
170
     0
176
     1
171
     0
176
     1
290
     0
176
     1
 93
       13
176
     1
 44
0.0
176
     1
173
     0
176
     1
  0
VISUALSTYLE
  5
2E
102
{ACAD_REACTORS
330
2A
102
}
330
2A
100
AcDbVisualStyle
  2
GouraudWithEdges
 70
     3
177
     2
291
     1
 71
     2
176
     1
 72
     2
176
     1
 73
     1
176
     1
 90
        2
176
     1
 40
-0.6
176
     1
 41
30.0
176
     1
 62
     5
 63
     7
421
 16777215
176
     1
 74
     1
176
     1
 91
        4
176
     1
 64
     7
176
     1
 65
   257
176
     1
 75
     1
176
     1
175
     1
176
     1
 42
1.0
176
     1
 92
        0
176
     1
 66
   257
176
     1
 43
1.0
176
     1
 76
     1
176
     1
 77
     6
176
     1
 78
     2
176
     1
 67
     7
176
     1
 79
     5
176
     1
170
     0
176
     1
171
     0
176
     1
290
     0
176
     1
 93
       13
176
     1
 44
0.0
176
     1
173
     0
176
     1
  0
VISUALSTYLE
  5
38
102
{ACAD_REACTORS
330
2A
102
}
330
2A
100
AcDbVisualStyle
  2
Linepattern
 70
    14
177
     2
291
     1
 71
     2
176
     1
 72
     2
176
     1
 73
     0
176
     1
 90
        0
176
     1
 40
-0.6
176
     1
 41
-30.0
176
     1
 62
     5
 63
     7
421
 16777215
176
     1
 74
     1
176
     1
 91
        4
176
     1
 64
     7
176
     1
 65
   257
176
     1
 75
     7
176
     1
175
     7
176
     1
 42
1.0
176
     1
 92
        8
176
     1
 66
     7
176
     1
 43
1.0
176
     1
 76
     1
176
     1
 77
     6
176
     1
 78
     2
176
     1
 67
     7
176
     1
 79
     5
176
     1
170
     0
176
     1
171
     0
176
     1
290
     0
176
     1
 93
        1
176
     1
 44
0.0
176
     1
173
     0
176
     1
  0
VISUALSTYLE
  5
33
102
{ACAD_REACTORS
330
2A
102
}
330
2A
100
AcDbVisualStyle
  2
Realistic
 70
     8
177
     2
291
     0
 71
     2
176
     1
 72
     2
176
     1
 73
     0
176
     1
 90
        0
176
     1
 40
-0.6
176
     1
 41
-30.0
176
     1
 62
     5
 63
     7
421
 16777215
176
     1
 74
     1
176
     1
 91
        0
176
     1
 64
     7
176
     1
 65
   257
176
     1
 75
     1
176
     1
175
     1
176
     1
 42
1.0
176
     1
 92
        8
176
     1
 66
     8
424
  7895160
176
     1
 43
1.0
176
     1
 76
     1
176
     1
 77
     6
176
     1
 78
     2
176
     1
 67
     7
176
     1
 79
     5
176
     1
170
     0
176
     1
171
     0
176
     1
290
     0
176
     1
 93
       13
176
     1
 44
0.0
176
     1
173
     0
176
     1
  0
VISUALSTYLE
  5
37
102
{ACAD_REACTORS
330
2A
102
}
330
2A
100
AcDbVisualStyle
  2
Thicken
 70
    13
177
     2
291
     1
 71
     2
176
     1
 72
     2
176
     1
 73
     0
176
     1
 90
        0
176
     1
 40
-0.6
176
     1
 41
-30.0
176
     1
 62
     5
 63
     7
421
 16777215
176
     1
 74
     1
176
     1
 91
        4
176
     1
 64
     7
176
     1
 65
   257
176
     1
 75
     1
176
     1
175
     1
176
     1
 42
1.0
176
     1
 92
       12
176
     1
 66
     7
176
     1
 43
1.0
176
     1
 76
     1
176
     1
 77
     6
176
     1
 78
     2
176
     1
 67
     7
176
     1
 79
     5
176
     1
170
     0
176
     1
171
     0
176
     1
290
     0
176
     1
 93
        1
176
     1
 44
0.0
176
     1
173
     0
176
     1
  0
ENDSEC
  0
EOF
