  0
SECTION
  2
HEADER
  9
$ACADVER
  1
AC1024
  9
$ACADMAINTVER
 70
     6
  9
$DWGCODEPAGE
  3
UNDEFINED
  9
$INSBASE
 10
0.0
 20
0.0
 30
0.0
  9
$EXTMIN
 10
1.000000000000000E+20
 20
1.000000000000000E+20
 30
1.000000000000000E+20
  9
$EXTMAX
 10
-1.000000000000000E+20
 20
-1.000000000000000E+20
 30
-1.000000000000000E+20
  9
$LIMMIN
 10
0.0
 20
0.0
  9
$LIMMAX
 10
12.0
 20
9.0
  9
$ORTHOMODE
 70
     0
  9
$REGENMODE
 70
     1
  9
$FILLMODE
 70
     1
  9
$QTEXTMODE
 70
     0
  9
$MIRRTEXT
 70
     1
  9
$LTSCALE
 40
1.0
  9
$ATTMODE
 70
     1
  9
$TEXTSIZE
 40
0.2
  9
$TRACEWID
 40
0.05
  9
$TEXTSTYLE
  7
Standard
  9
$CLAYER
  8
0
  9
$CELTYPE
  6
ByLayer
  9
$CECOLOR
 62
   256
  9
$CELTSCALE
 40
1.0
  9
$DISPSILH
 70
     0
  9
$DIMSCALE
 40
1.0
  9
$DIMASZ
 40
0.18
  9
$DIMEXO
 40
0.0625
  9
$DIMDLI
 40
0.38
  9
$DIMRND
 40
0.0
  9
$DIMDLE
 40
0.0
  9
$DIMEXE
 40
0.18
  9
$DIMTP
 40
0.0
  9
$DIMTM
 40
0.0
  9
$DIMTXT
 40
0.18
  9
$DIMCEN
 40
0.09
  9
$DIMTSZ
 40
0.0
  9
$DIMTOL
 70
     0
  9
$DIMLIM
 70
     0
  9
$DIMTIH
 70
     1
  9
$DIMTOH
 70
     1
  9
$DIMSE1
 70
     0
  9
$DIMSE2
 70
     0
  9
$DIMTAD
 70
     0
  9
$DIMZIN
 70
     0
  9
$DIMBLK
  1

  9
$DIMASO
 70
     1
  9
$DIMSHO
 70
     1
  9
$DIMPOST
  1

  9
$DIMAPOST
  1

  9
$DIMALT
 70
     0
  9
$DIMALTD
 70
     2
  9
$DIMALTF
 40
25.4
  9
$DIMLFAC
 40
1.0
  9
$DIMTOFL
 70
     0
  9
$DIMTVP
 40
0.0
  9
$DIMTIX
 70
     0
  9
$DIMSOXD
 70
     0
  9
$DIMSAH
 70
     0
  9
$DIMBLK1
  1

  9
$DIMBLK2
  1

  9
$DIMSTYLE
  2
Standard
  9
$DIMCLRD
 70
     0
  9
$DIMCLRE
 70
     0
  9
$DIMCLRT
 70
     0
  9
$DIMTFAC
 40
1.0
  9
$DIMGAP
 40
0.09
  9
$DIMJUST
 70
     0
  9
$DIMSD1
 70
     0
  9
$DIMSD2
 70
     0
  9
$DIMTOLJ
 70
     1
  9
$DIMTZIN
 70
     0
  9
$DIMALTZ
 70
     0
  9
$DIMALTTZ
 70
     0
  9
$DIMUPT
 70
     0
  9
$DIMDEC
 70
     4
  9
$DIMTDEC
 70
     4
  9
$DIMALTU
 70
     2
  9
$DIMALTTD
 70
     2
  9
$DIMTXSTY
  7
Standard
  9
$DIMAUNIT
 70
     0
  9
$DIMADEC
 70
     0
  9
$DIMALTRND
 40
0.0
  9
$DIMAZIN
 70
     0
  9
$DIMDSEP
 70
    46
  9
$DIMATFIT
 70
     3
  9
$DIMFRAC
 70
     0
  9
$DIMLDRBLK
  1

  9
$DIMLUNIT
 70
     2
  9
$DIMLWD
 70
    -2
  9
$DIMLWE
 70
    -2
  9
$DIMTMOVE
 70
     0
  9
$DIMFXL
 40
1.0
  9
$DIMFXLON
 70
     0
  9
$DIMJOGANG
 40
0.7853981633974483
  9
$DIMTFILL
 70
     0
  9
$DIMTFILLCLR
 70
     0
  9
$DIMARCSYM
 70
     0
  9
$DIMLTYPE
  6

  9
$DIMLTEX1
  6

  9
$DIMLTEX2
  6

  9
$DIMTXTDIRECTION
 70
     0
  9
$LUNITS
 70
     2
  9
$LUPREC
 70
     4
  9
$SKETCHINC
 40
0.1
  9
$FILLETRAD
 40
0.5
  9
$AUNITS
 70
     0
  9
$AUPREC
 70
     0
  9
$MENU
  1
.
  9
$ELEVATION
 40
0.0
  9
$PELEVATION
 40
0.0
  9
$THICKNESS
 40
0.0
  9
$LIMCHECK
 70
     0
  9
$CHAMFERA
 40
0.5
  9
$CHAMFERB
 40
0.5
  9
$CHAMFERC
 40
1.0
  9
$CHAMFERD
 40
0.0
  9
$SKPOLY
 70
     0
  9
$TDCREATE
 40
2457917.587581007
  9
$TDUCREATE
 40
2457917.212581018
  9
$TDUPDATE
 40
2457917.587581007
  9
$TDUUPDATE
 40
2457917.212581018
  9
$TDINDWG
 40
0.0000000116
  9
$TDUSRTIMER
 40
0.0000000116
  9
$USRTIMER
 70
     1
  9
$ANGBASE
 50
0.0
  9
$ANGDIR
 70
     0
  9
$PDMODE
 70
     0
  9
$PDSIZE
 40
0.0
  9
$PLINEWID
 40
0.0
  9
$SPLFRAME
 70
     0
  9
$SPLINETYPE
 70
     6
  9
$SPLINESEGS
 70
     8
  9
$HANDSEED
  5
140
  9
$SURFTAB1
 70
     6
  9
$SURFTAB2
 70
     6
  9
$SURFTYPE
 70
     6
  9
$SURFU
 70
     6
  9
$SURFV
 70
     6
  9
$UCSBASE
  2

  9
$UCSNAME
  2

  9
$UCSORG
 10
0.0
 20
0.0
 30
0.0
  9
$UCSXDIR
 10
1.0
 20
0.0
 30
0.0
  9
$UCSYDIR
 10
0.0
 20
1.0
 30
0.0
  9
$UCSORTHOREF
  2

  9
$UCSORTHOVIEW
 70
     0
  9
$UCSORGTOP
 10
0.0
 20
0.0
 30
0.0
  9
$UCSORGBOTTOM
 10
0.0
 20
0.0
 30
0.0
  9
$UCSORGLEFT
 10
0.0
 20
0.0
 30
0.0
  9
$UCSORGRIGHT
 10
0.0
 20
0.0
 30
0.0
  9
$UCSORGFRONT
 10
0.0
 20
0.0
 30
0.0
  9
$UCSORGBACK
 10
0.0
 20
0.0
 30
0.0
  9
$PUCSBASE
  2

  9
$PUCSNAME
  2

  9
$PUCSORG
 10
0.0
 20
0.0
 30
0.0
  9
$PUCSXDIR
 10
1.0
 20
0.0
 30
0.0
  9
$PUCSYDIR
 10
0.0
 20
1.0
 30
0.0
  9
$PUCSORTHOREF
  2

  9
$PUCSORTHOVIEW
 70
     0
  9
$PUCSORGTOP
 10
0.0
 20
0.0
 30
0.0
  9
$PUCSORGBOTTOM
 10
0.0
 20
0.0
 30
0.0
  9
$PUCSORGLEFT
 10
0.0
 20
0.0
 30
0.0
  9
$PUCSORGRIGHT
 10
0.0
 20
0.0
 30
0.0
  9
$PUCSORGFRONT
 10
0.0
 20
0.0
 30
0.0
  9
$PUCSORGBACK
 10
0.0
 20
0.0
 30
0.0
  9
$USERI1
 70
     0
  9
$USERI2
 70
     0
  9
$USERI3
 70
     0
  9
$USERI4
 70
     0
  9
$USERI5
 70
     0
  9
$USERR1
 40
0.0
  9
$USERR2
 40
0.0
  9
$USERR3
 40
0.0
  9
$USERR4
 40
0.0
  9
$USERR5
 40
0.0
  9
$WORLDVIEW
 70
     1
  9
$SHADEDGE
 70
     3
  9
$SHADEDIF
 70
    70
  9
$TILEMODE
 70
     1
  9
$MAXACTVP
 70
    64
  9
$PINSBASE
 10
0.0
 20
0.0
 30
0.0
  9
$PLIMCHECK
 70
     0
  9
$PEXTMIN
 10
1.000000000000000E+20
 20
1.000000000000000E+20
 30
1.000000000000000E+20
  9
$PEXTMAX
 10
-1.000000000000000E+20
 20
-1.000000000000000E+20
 30
-1.000000000000000E+20
  9
$PLIMMIN
 10
0.0
 20
0.0
  9
$PLIMMAX
 10
12.0
 20
9.0
  9
$UNITMODE
 70
     0
  9
$VISRETAIN
 70
     1
  9
$PLINEGEN
 70
     0
  9
$PSLTSCALE
 70
     1
  9
$TREEDEPTH
 70
  3020
  9
$CMLSTYLE
  2
Standard
  9
$CMLJUST
 70
     0
  9
$CMLSCALE
 40
1.0
  9
$PROXYGRAPHICS
 70
     1
  9
$MEASUREMENT
 70
     0
  9
$CELWEIGHT
370
    -1
  9
$ENDCAPS
280
     0
  9
$JOINSTYLE
280
     0
  9
$LWDISPLAY
290
     1
  9
$INSUNITS
 70
     1
  9
$HYPERLINKBASE
  1

  9
$STYLESHEET
  1

  9
$XEDIT
290
     1
  9
$CEPSNTYPE
380
     0
  9
$PSTYLEMODE
290
     1
  9
$FINGERPRINTGUID
  2
{5D26AB9A-0285-50EC-5472-B07A5E5E0653}
  9
$VERSIONGUID
  2
{FAEB1C32-E019-11D5-929B-00C0DF256EC4}
  9
$EXTNAMES
290
     1
  9
$PSVPSCALE
 40
0.0
  9
$OLESTARTUP
290
     0
  9
$SORTENTS
280
   127
  9
$INDEXCTL
280
     0
  9
$HIDETEXT
280
     1
  9
$XCLIPFRAME
280
     2
  9
$HALOGAP
280
     0
  9
$OBSCOLOR
 70
   257
  9
$OBSLTYPE
280
     0
  9
$INTERSECTIONDISPLAY
280
     0
  9
$INTERSECTIONCOLOR
 70
   257
  9
$DIMASSOC
280
     2
  9
$PROJECTNAME
  1

  9
$CAMERADISPLAY
290
     0
  9
$LENSLENGTH
 40
50.0
  9
$CAMERAHEIGHT
 40
0.0
  9
$STEPSPERSEC
 40
2.0
  9
$STEPSIZE
 40
6.0
  9
$3DDWFPREC
 40
2.0
  9
$PSOLWIDTH
 40
0.25
  9
$PSOLHEIGHT
 40
4.0
  9
$LOFTANG1
 40
1.570796326794897
  9
$LOFTANG2
 40
1.570796326794897
  9
$LOFTMAG1
 40
0.0
  9
$LOFTMAG2
 40
0.0
  9
$LOFTPARAM
 70
     7
  9
$LOFTNORMALS
280
     1
  9
$LATITUDE
 40
37.795
  9
$LONGITUDE
 40
-122.394
  9
$NORTHDIRECTION
 40
0.0
  9
$TIMEZONE
 70
 -8000
  9
$LIGHTGLYPHDISPLAY
280
     1
  9
$TILEMODELIGHTSYNCH
280
     1
  9
$CMATERIAL
347
3C
  9
$SOLIDHIST
280
     1
  9
$SHOWHIST
280
     1
  9
$DWFFRAME
280
     2
  9
$DGNFRAME
280
     2
  9
$REALWORLDSCALE
290
     1
  9
$INTERFERECOLOR
 62
   256
  9
$CSHADOW
280
     0
  9
$SHADOWPLANELOCATION
 40
0.0
  0
ENDSEC
  0
SECTION
  2
CLASSES
  0
CLASS
  1
ACDBDICTIONARYWDFLT
  2
AcDbDictionaryWithDefault
  3
ObjectDBX Classes
 90
        0
 91
        4
280
     0
281
     0
  0
CLASS
  1
VISUALSTYLE
  2
AcDbVisualStyle
  3
ObjectDBX Classes
 90
     4095
 91
        4
280
     0
281
     0
  0
CLASS
  1
MATERIAL
  2
AcDbMaterial
  3
ObjectDBX Classes
 90
     1153
 91
        4
280
     0
281
     0
  0
CLASS
  1
SUN
  2
AcDbSun
  3
SCENEOE
 90
     1024
 91
        4
280
     0
281
     0
  0
ENDSEC
  0
SECTION
  2
TABLES
  0
TABLE
  2
VPORT
  5
8
330
0
100
AcDbSymbolTable
 70
     1
  0
VPORT
  5
29
330
8
100
AcDbSymbolTableRecord
100
AcDbViewportTableRecord
  2
*Active
 70
     0
 10
0.0
 20
0.0
 11
1.0
 21
1.0
 12
0.0
 22
0.0
 13
0.0
 23
0.0
 14
0.5
 24
0.5
 15
0.5
 25
0.5
 16
0.0
 26
0.0
 36
1.0
 17
105.0008280156501
 27
-148.4999710739862
 37
0.0
 40
296.9999421479724
 41
0.7070764206636528
 42
50.0
 43
0.0
 44
0.0
 50
0.0
 51
0.0
 71
     0
 72
   100
 73
     1
 74
     3
 75
     0
 76
     0
 77
     0
 78
     0
281
     0
 65
     1
110
0.0
120
0.0
130
0.0
111
1.0
121
0.0
131
0.0
112
0.0
122
1.0
132
0.0
 79
     0
146
0.0
 60
     3
 61
     5
292
     1
282
     1
141
0.0
142
0.0
 63
   250
361
3F
  0
ENDTAB
  0
TABLE
  2
LTYPE
  5
5
330
0
100
AcDbSymbolTable
 70
     1
  0
LTYPE
  5
14
330
5
100
AcDbSymbolTableRecord
100
AcDbLinetypeTableRecord
  2
ByBlock
 70
     0
  3

 72
    65
 73
     0
 40
0.0
  0
LTYPE
  5
15
330
5
100
AcDbSymbolTableRecord
100
AcDbLinetypeTableRecord
  2
ByLayer
 70
     0
  3

 72
    65
 73
     0
 40
0.0
  0
LTYPE
  5
16
330
5
100
AcDbSymbolTableRecord
100
AcDbLinetypeTableRecord
  2
Continuous
 70
     0
  3
Solid line
 72
    65
 73
     0
 40
0.0
  0
ENDTAB
  0
TABLE
  2
LAYER
  5
2
330
0
100
AcDbSymbolTable
 70
     2
  0
LAYER
  5
10
330
2
100
AcDbSymbolTableRecord
100
AcDbLayerTableRecord
  2
0
 70
     0
 62
     7
  6
Continuous
370
    -3
390
F
347
3E
  0
LAYER
  5
40
330
2
100
AcDbSymbolTableRecord
100
AcDbLayerTableRecord
  2
_U+30EC_U+30A4_U+30E4_U+30FC 1
 70
     0
 62
     7
  6
Continuous
370
    -3
390
F
347
3E
  0
ENDTAB
  0
TABLE
  2
STYLE
  5
3
330
0
100
AcDbSymbolTable
 70
     1
  0
STYLE
  5
11
330
3
100
AcDbSymbolTableRecord
100
AcDbTextStyleTableRecord
  2
Standard
 70
     0
 40
0.0
 41
1.0
 50
0.0
 71
     0
 42
0.2
  3
txt
  4

  0
ENDTAB
  0
TABLE
  2
VIEW
  5
6
330
0
100
AcDbSymbolTable
 70
     0
  0
ENDTAB
  0
TABLE
  2
UCS
  5
7
330
0
100
AcDbSymbolTable
 70
     0
  0
ENDTAB
  0
TABLE
  2
APPID
  5
9
330
0
100
AcDbSymbolTable
 70
     1
  0
APPID
  5
12
330
9
100
AcDbSymbolTableRecord
100
AcDbRegAppTableRecord
  2
ACAD
 70
     0
  0
ENDTAB
  0
TABLE
  2
DIMSTYLE
  5
A
330
0
100
AcDbSymbolTable
 70
     1
100
AcDbDimStyleTable
  0
DIMSTYLE
105
27
330
A
100
AcDbSymbolTableRecord
100
AcDbDimStyleTableRecord
  2
Standard
 70
     0
178
     0
340
11
  0
ENDTAB
  0
TABLE
  2
BLOCK_RECORD
  5
1
330
0
100
AcDbSymbolTable
 70
    13
  0
BLOCK_RECORD
  5
1F
330
1
100
AcDbSymbolTableRecord
100
AcDbBlockTableRecord
  2
*Model_Space
340
22
 70
     0
280
     1
281
     0
  0
BLOCK_RECORD
  5
1B
330
1
100
AcDbSymbolTableRecord
100
AcDbBlockTableRecord
  2
*Paper_Space
340
1E
 70
     0
280
     1
281
     0
  0
BLOCK_RECORD
  5
23
330
1
100
AcDbSymbolTableRecord
100
AcDbBlockTableRecord
  2
*Paper_Space0
340
26
 70
     0
280
     1
281
     0
  0
BLOCK_RECORD
  5
85
330
1
100
AcDbSymbolTableRecord
100
AcDbBlockTableRecord
  2
block 2
340
0
102
{BLKREFS
331
86
102
}
 70
     0
280
     1
281
     0
  0
BLOCK_RECORD
  5
99
330
1
100
AcDbSymbolTableRecord
100
AcDbBlockTableRecord
  2
block 3
340
0
102
{BLKREFS
331
9A
102
}
 70
     0
280
     1
281
     0
  0
BLOCK_RECORD
  5
AB
330
1
100
AcDbSymbolTableRecord
100
AcDbBlockTableRecord
  2
block 4
340
0
102
{BLKREFS
331
AC
102
}
 70
     0
280
     1
281
     0
  0
BLOCK_RECORD
  5
B3
330
1
100
AcDbSymbolTableRecord
100
AcDbBlockTableRecord
  2
block 5
340
0
102
{BLKREFS
331
B4
102
}
 70
     0
280
     1
281
     0
  0
BLOCK_RECORD
  5
C7
330
1
100
AcDbSymbolTableRecord
100
AcDbBlockTableRecord
  2
block 6
340
0
102
{BLKREFS
331
C8
102
}
 70
     0
280
     1
281
     0
  0
BLOCK_RECORD
  5
D8
330
1
100
AcDbSymbolTableRecord
100
AcDbBlockTableRecord
  2
block 7
340
0
102
{BLKREFS
331
D9
102
}
 70
     0
280
     1
281
     0
  0
BLOCK_RECORD
  5
E8
330
1
100
AcDbSymbolTableRecord
100
AcDbBlockTableRecord
  2
block 8
340
0
102
{BLKREFS
331
E9
102
}
 70
     0
280
     1
281
     0
  0
BLOCK_RECORD
  5
F9
330
1
100
AcDbSymbolTableRecord
100
AcDbBlockTableRecord
  2
block 9
340
0
102
{BLKREFS
331
FA
102
}
 70
     0
280
     1
281
     0
  0
BLOCK_RECORD
  5
102
330
1
100
AcDbSymbolTableRecord
100
AcDbBlockTableRecord
  2
block 10
340
0
102
{BLKREFS
331
103
102
}
 70
     0
280
     1
281
     0
  0
BLOCK_RECORD
  5
116
330
1
100
AcDbSymbolTableRecord
100
AcDbBlockTableRecord
  2
block 11
340
0
102
{BLKREFS
331
117
102
}
 70
     0
280
     1
281
     0
  0
BLOCK_RECORD
  5
11C
330
1
100
AcDbSymbolTableRecord
100
AcDbBlockTableRecord
  2
block 12
340
0
102
{BLKREFS
331
11D
102
}
 70
     0
280
     1
281
     0
  0
BLOCK_RECORD
  5
12C
330
1
100
AcDbSymbolTableRecord
100
AcDbBlockTableRecord
  2
block 13
340
0
102
{BLKREFS
331
12D
102
}
 70
     0
280
     1
281
     0
  0
ENDTAB
  0
ENDSEC
  0
SECTION
  2
BLOCKS
  0
BLOCK
  5
20
330
1F
100
AcDbEntity
  8
0
100
AcDbBlockBegin
  2
*Model_Space
 70
     0
 10
0.0
 20
0.0
 30
0.0
  3
*Model_Space
  1

  0
ENDBLK
  5
21
330
1F
100
AcDbEntity
  8
0
100
AcDbBlockEnd
  0
BLOCK
  5
1C
330
1B
100
AcDbEntity
 67
     1
  8
0
100
AcDbBlockBegin
  2
*Paper_Space
 70
     0
 10
0.0
 20
0.0
 30
0.0
  3
*Paper_Space
  1

  0
ENDBLK
  5
1D
330
1B
100
AcDbEntity
 67
     1
  8
0
100
AcDbBlockEnd
  0
BLOCK
  5
24
330
23
100
AcDbEntity
  8
0
100
AcDbBlockBegin
  2
*Paper_Space0
 70
     0
 10
0.0
 20
0.0
 30
0.0
  3
*Paper_Space0
  1

  0
ENDBLK
  5
25
330
23
100
AcDbEntity
  8
0
100
AcDbBlockEnd
  0
BLOCK
  5
87
330
85
100
AcDbEntity
  8
0
100
AcDbBlockBegin
  2
block 2
 70
     0
 10
0.0
 20
0.0
 30
0.0
  3
block 2
  1

  0
POLYLINE
  5
89
330
85
100
AcDbEntity
  8
_U+30EC_U+30A4_U+30E4_U+30FC 1
 62
   179
420
  2234388
370
     9
100
AcDb2dPolyline
 66
     1
 10
0.0
 20
0.0
 30
0.0
  0
VERTEX
  5
8A
330
89
100
AcDbEntity
  8
_U+30EC_U+30A4_U+30E4_U+30FC 1
 62
   179
420
  2234388
370
     9
100
AcDbVertex
100
AcDb2dVertex
 10
127.9718642351658
 20
-141.7417366312311
 30
0.0
  0
VERTEX
  5
8B
330
89
100
AcDbEntity
  8
_U+30EC_U+30A4_U+30E4_U+30FC 1
 62
   179
420
  2234388
370
     9
100
AcDbVertex
100
AcDb2dVertex
 10
127.9718642351658
 20
-137.9714241321737
 30
0.0
  0
SEQEND
  5
8C
330
89
100
AcDbEntity
  8
_U+30EC_U+30A4_U+30E4_U+30FC 1
 62
   179
420
  2234388
370
     9
  0
POLYLINE
  5
8D
330
85
100
AcDbEntity
  8
_U+30EC_U+30A4_U+30E4_U+30FC 1
 62
   179
420
  2234388
370
     9
100
AcDb2dPolyline
 66
     1
 10
0.0
 20
0.0
 30
0.0
  0
VERTEX
  5
8E
330
8D
100
AcDbEntity
  8
_U+30EC_U+30A4_U+30E4_U+30FC 1
 62
   179
420
  2234388
370
     9
100
AcDbVertex
100
AcDb2dVertex
 10
127.9718642351658
 20
-141.7417366312311
 30
0.0
  0
VERTEX
  5
8F
330
8D
100
AcDbEntity
  8
_U+30EC_U+30A4_U+30E4_U+30FC 1
 62
   179
420
  2234388
370
     9
100
AcDbVertex
100
AcDb2dVertex
 10
127.9718642351658
 20
-142.7415088532037
 30
0.0
  0
SEQEND
  5
90
330
8D
100
AcDbEntity
  8
_U+30EC_U+30A4_U+30E4_U+30FC 1
 62
   179
420
  2234388
370
     9
  0
POLYLINE
  5
91
330
85
100
AcDbEntity
  8
_U+30EC_U+30A4_U+30E4_U+30FC 1
 62
   179
420
  2234388
370
     9
100
AcDb2dPolyline
 66
     1
 10
0.0
 20
0.0
 30
0.0
  0
VERTEX
  5
92
330
91
100
AcDbEntity
  8
_U+30EC_U+30A4_U+30E4_U+30FC 1
 62
   179
420
  2234388
370
     9
100
AcDbVertex
100
AcDb2dVertex
 10
126.5118228835256
 20
-141.7417366312311
 30
0.0
  0
VERTEX
  5
93
330
91
100
AcDbEntity
  8
_U+30EC_U+30A4_U+30E4_U+30FC 1
 62
   179
420
  2234388
370
     9
100
AcDbVertex
100
AcDb2dVertex
 10
128.9716364318816
 20
-141.7417366312311
 30
0.0
  0
SEQEND
  5
94
330
91
100
AcDbEntity
  8
_U+30EC_U+30A4_U+30E4_U+30FC 1
 62
   179
420
  2234388
370
     9
  0
POLYLINE
  5
95
330
85
100
AcDbEntity
  8
_U+30EC_U+30A4_U+30E4_U+30FC 1
 62
   179
420
  2234388
370
     9
100
AcDb2dPolyline
 66
     1
 10
0.0
 20
0.0
 30
0.0
  0
VERTEX
  5
96
330
95
100
AcDbEntity
  8
_U+30EC_U+30A4_U+30E4_U+30FC 1
 62
   179
420
  2234388
370
     9
100
AcDbVertex
100
AcDb2dVertex
 10
126.5118228835256
 20
-142.7415088532037
 30
0.0
  0
VERTEX
  5
97
330
95
100
AcDbEntity
  8
_U+30EC_U+30A4_U+30E4_U+30FC 1
 62
   179
420
  2234388
370
     9
100
AcDbVertex
100
AcDb2dVertex
 10
128.9716364318816
 20
-142.7415088532037
 30
0.0
  0
SEQEND
  5
98
330
95
100
AcDbEntity
  8
_U+30EC_U+30A4_U+30E4_U+30FC 1
 62
   179
420
  2234388
370
     9
  0
INSERT
  5
9A
330
85
100
AcDbEntity
  8
_U+30EC_U+30A4_U+30E4_U+30FC 1
100
AcDbBlockReference
  2
block 3
 10
0.0
 20
0.0
 30
0.0
  0
ENDBLK
  5
88
330
85
100
AcDbEntity
  8
0
100
AcDbBlockEnd
  0
BLOCK
  5
9B
330
99
100
AcDbEntity
  8
0
100
AcDbBlockBegin
  2
block 3
 70
     0
 10
0.0
 20
0.0
 30
0.0
  3
block 3
  1

  0
SPLINE
  5
9D
330
99
100
AcDbEntity
  8
_U+30EC_U+30A4_U+30E4_U+30FC 1
370
     0
100
AcDbSpline
210
0.0
220
0.0
230
1.0
 70
    11
 71
     3
 72
    26
 73
    22
 74
     0
 42
0.0000000001
 43
0.0000000001
 12
1.0
 22
0.0
 32
0.0
 13
1.0
 23
0.0
 33
0.0
 40
0.0
 40
0.0
 40
0.0
 40
0.0
 40
1.0
 40
1.0
 40
1.0
 40
2.0
 40
2.0
 40
2.0
 40
3.0
 40
3.0
 40
3.0
 40
4.0
 40
4.0
 40
4.0
 40
5.0
 40
5.0
 40
5.0
 40
6.0
 40
6.0
 40
6.0
 40
7.0
 40
7.0
 40
7.0
 40
7.0
 10
126.6203504457755
 20
-138.7939398524543
 30
0.0
 10
126.6203504457755
 20
-138.7939398524543
 30
0.0
 10
125.5161973427529
 20
-138.7939398524543
 30
0.0
 10
125.5161973427529
 20
-138.7939398524543
 30
0.0
 10
125.5161973427529
 20
-138.7939398524543
 30
0.0
 10
125.5161973427529
 20
-139.1463731205954
 30
0.0
 10
125.5161973427529
 20
-139.1463731205954
 30
0.0
 10
125.5161973427529
 20
-139.1463731205954
 30
0.0
 10
125.3680582368872
 20
-139.1463731205954
 30
0.0
 10
125.3680582368872
 20
-139.1463731205954
 30
0.0
 10
125.3532443263006
 20
-138.7915282856146
 30
0.0
 10
125.1902913098483
 20
-138.741918910627
 30
0.0
 10
125.075914139738
 20
-138.7102240321627
 30
0.0
 10
125.075914139738
 20
-138.7102240321627
 30
0.0
 10
125.075914139738
 20
-138.5541612066809
 30
0.0
 10
125.075914139738
 20
-138.5541612066809
 30
0.0
 10
125.075914139738
 20
-138.5541612066809
 30
0.0
 10
126.6203504457755
 20
-138.5541612066809
 30
0.0
 10
126.6203504457755
 20
-138.5541612066809
 30
0.0
 10
126.6203504457755
 20
-138.5541612066809
 30
0.0
 10
126.6203504457755
 20
-138.7939398524543
 30
0.0
 10
126.6203504457755
 20
-138.7939398524543
 30
0.0
  0
HATCH
  5
9E
330
99
100
AcDbEntity
  8
_U+30EC_U+30A4_U+30E4_U+30FC 1
 62
   179
420
  2234388
100
AcDbHatch
 10
0.0
 20
0.0
 30
0.0
210
0.0
220
0.0
230
1.0
  2
SOLID
 70
     1
 71
     0
 91
        1
 92
        1
 93
        1
 72
     4
 94
        3
 73
     0
 74
     1
 95
       26
 96
       22
 40
0.0
 40
0.0
 40
0.0
 40
0.0
 40
1.0
 40
1.0
 40
1.0
 40
2.0
 40
2.0
 40
2.0
 40
3.0
 40
3.0
 40
3.0
 40
4.0
 40
4.0
 40
4.0
 40
5.0
 40
5.0
 40
5.0
 40
6.0
 40
6.0
 40
6.0
 40
7.0
 40
7.0
 40
7.0
 40
7.0
 10
126.6203504457755
 20
-138.7939398524543
 10
126.6203504457755
 20
-138.7939398524543
 10
125.5161973427529
 20
-138.7939398524543
 10
125.5161973427529
 20
-138.7939398524543
 10
125.5161973427529
 20
-138.7939398524543
 10
125.5161973427529
 20
-139.1463731205954
 10
125.5161973427529
 20
-139.1463731205954
 10
125.5161973427529
 20
-139.1463731205954
 10
125.3680582368872
 20
-139.1463731205954
 10
125.3680582368872
 20
-139.1463731205954
 10
125.3532443263006
 20
-138.7915282856146
 10
125.1902913098483
 20
-138.741918910627
 10
125.075914139738
 20
-138.7102240321627
 10
125.075914139738
 20
-138.7102240321627
 10
125.075914139738
 20
-138.5541612066809
 10
125.075914139738
 20
-138.5541612066809
 10
125.075914139738
 20
-138.5541612066809
 10
126.6203504457755
 20
-138.5541612066809
 10
126.6203504457755
 20
-138.5541612066809
 10
126.6203504457755
 20
-138.5541612066809
 10
126.6203504457755
 20
-138.7939398524543
 10
126.6203504457755
 20
-138.7939398524543
 97
        0
 97
        0
 75
     2
 76
     1
 98
        0
  0
ENDBLK
  5
9C
330
99
100
AcDbEntity
  8
0
100
AcDbBlockEnd
  0
BLOCK
  5
AD
330
AB
100
AcDbEntity
  8
0
100
AcDbBlockBegin
  2
block 4
 70
     0
 10
0.0
 20
0.0
 30
0.0
  3
block 4
  1

  0
SPLINE
  5
AF
330
AB
100
AcDbEntity
  8
_U+30EC_U+30A4_U+30E4_U+30FC 1
370
     0
100
AcDbSpline
210
0.0
220
0.0
230
1.0
 70
    11
 71
     3
 72
    62
 73
    58
 74
     0
 42
0.0000000001
 43
0.0000000001
 12
1.0
 22
0.0
 32
0.0
 13
1.0
 23
0.0
 33
0.0
 40
0.0
 40
0.0
 40
0.0
 40
0.0
 40
1.0
 40
1.0
 40
1.0
 40
2.0
 40
2.0
 40
2.0
 40
3.0
 40
3.0
 40
3.0
 40
4.0
 40
4.0
 40
4.0
 40
5.0
 40
5.0
 40
5.0
 40
6.0
 40
6.0
 40
6.0
 40
7.0
 40
7.0
 40
7.0
 40
8.0
 40
8.0
 40
8.0
 40
9.0
 40
9.0
 40
9.0
 40
10.0
 40
10.0
 40
10.0
 40
11.0
 40
11.0
 40
11.0
 40
12.0
 40
12.0
 40
12.0
 40
13.0
 40
13.0
 40
13.0
 40
14.0
 40
14.0
 40
14.0
 40
15.0
 40
15.0
 40
15.0
 40
16.0
 40
16.0
 40
16.0
 40
17.0
 40
17.0
 40
17.0
 40
18.0
 40
18.0
 40
18.0
 40
19.0
 40
19.0
 40
19.0
 40
19.0
 10
105.8033609761533
 20
-136.4400783621574
 30
0.0
 10
105.7017306593385
 20
-136.4400783621574
 30
0.0
 10
105.4688422045356
 20
-136.4188910249231
 30
0.0
 10
105.3353447544821
 20
-136.2326836139453
 30
0.0
 10
105.2562798130957
 20
-136.1205457559004
 30
0.0
 10
105.2518011889648
 20
-136.021154751151
 30
0.0
 10
105.2471503100598
 20
-135.9365776569881
 30
0.0
 10
105.2471503100598
 20
-135.9365776569881
 30
0.0
 10
105.482278076928
 20
-135.9365776569881
 30
0.0
 10
105.482278076928
 20
-135.9365776569881
 30
0.0
 10
105.4846896437677
 20
-136.010647209921
 30
0.0
 10
105.4957139493205
 20
-136.2454304672407
 30
0.0
 10
105.7988823520225
 20
-136.2454304672407
 30
0.0
 10
105.9456434196942
 20
-136.2454304672407
 30
0.0
 10
106.1085964361465
 20
-136.1756672836644
 30
0.0
 10
106.1085964361465
 20
-135.9470851982181
 30
0.0
 10
106.1085964361465
 20
-135.8308132255909
 30
0.0
 10
106.0679443094205
 20
-135.7820651244746
 30
0.0
 10
106.0338378641165
 20
-135.7503702460103
 30
0.0
 10
105.9549451775043
 20
-135.6763006930775
 30
0.0
 10
105.8305772304868
 20
-135.6637260945563
 30
0.0
 10
105.771666097689
 20
-135.6637260945563
 30
0.0
 10
105.7513400343261
 20
-135.6637260945563
 30
0.0
 10
105.7127549648913
 20
-135.6657931518475
 30
0.0
 10
105.6834716532666
 20
-135.6699272664297
 30
0.0
 10
105.6834716532666
 20
-135.6699272664297
 30
0.0
 10
105.6834716532666
 20
-135.4752793715131
 30
0.0
 10
105.6834716532666
 20
-135.4752793715131
 30
0.0
 10
105.7241237799926
 20
-135.4816527981608
 30
0.0
 10
105.7692545308494
 20
-135.4838921102263
 30
0.0
 10
105.7761447218199
 20
-135.4838921102263
 30
0.0
 10
105.846424669719
 20
-135.4838921102263
 30
0.0
 10
106.0586425516103
 20
-135.462704772992
 30
0.0
 10
106.0586425516103
 20
-135.2256822036068
 30
0.0
 10
106.0586425516103
 20
-135.0480875313422
 30
0.0
 10
105.9187716749092
 20
-134.9929660035781
 30
0.0
 10
105.8009494093137
 20
-134.9929660035781
 30
0.0
 10
105.5184515795232
 20
-134.9929660035781
 30
0.0
 10
105.5094943312615
 20
-135.2256822036068
 30
0.0
 10
105.5050157071307
 20
-135.2976846992485
 30
0.0
 10
105.5050157071307
 20
-135.2976846992485
 30
0.0
 10
105.28797469156
 20
-135.2976846992485
 30
0.0
 10
105.28797469156
 20
-135.2976846992485
 30
0.0
 10
105.2969319398216
 20
-135.1727999879082
 30
0.0
 10
105.3263875062205
 20
-134.7962510513704
 30
0.0
 10
105.8147297912546
 20
-134.7962510513704
 30
0.0
 10
106.0541639274795
 20
-134.7962510513704
 30
0.0
 10
106.3118570697762
 20
-134.9232028200018
 30
0.0
 10
106.3118570697762
 20
-135.2193087769591
 30
0.0
 10
106.3118570697762
 20
-135.4055161879368
 30
0.0
 10
106.2102267529613
 20
-135.4880262248086
 30
0.0
 10
106.1041178120156
 20
-135.549348924446
 30
0.0
 10
106.1695746262354
 20
-135.576909688328
 30
0.0
 10
106.3638780116035
 20
-135.6573526679086
 30
0.0
 10
106.3638780116035
 20
-135.9345105996969
 30
0.0
 10
106.3638780116035
 20
-136.2729912311227
 30
0.0
 10
106.0996391878848
 20
-136.4400783621574
 30
0.0
 10
105.8033609761533
 20
-136.4400783621574
 30
0.0
  0
HATCH
  5
B0
330
AB
100
AcDbEntity
  8
_U+30EC_U+30A4_U+30E4_U+30FC 1
 62
   179
420
  2234388
100
AcDbHatch
 10
0.0
 20
0.0
 30
0.0
210
0.0
220
0.0
230
1.0
  2
SOLID
 70
     1
 71
     0
 91
        1
 92
        1
 93
        1
 72
     4
 94
        3
 73
     0
 74
     1
 95
       62
 96
       58
 40
0.0
 40
0.0
 40
0.0
 40
0.0
 40
1.0
 40
1.0
 40
1.0
 40
2.0
 40
2.0
 40
2.0
 40
3.0
 40
3.0
 40
3.0
 40
4.0
 40
4.0
 40
4.0
 40
5.0
 40
5.0
 40
5.0
 40
6.0
 40
6.0
 40
6.0
 40
7.0
 40
7.0
 40
7.0
 40
8.0
 40
8.0
 40
8.0
 40
9.0
 40
9.0
 40
9.0
 40
10.0
 40
10.0
 40
10.0
 40
11.0
 40
11.0
 40
11.0
 40
12.0
 40
12.0
 40
12.0
 40
13.0
 40
13.0
 40
13.0
 40
14.0
 40
14.0
 40
14.0
 40
15.0
 40
15.0
 40
15.0
 40
16.0
 40
16.0
 40
16.0
 40
17.0
 40
17.0
 40
17.0
 40
18.0
 40
18.0
 40
18.0
 40
19.0
 40
19.0
 40
19.0
 40
19.0
 10
105.8033609761533
 20
-136.4400783621574
 10
105.7017306593385
 20
-136.4400783621574
 10
105.4688422045356
 20
-136.4188910249231
 10
105.3353447544821
 20
-136.2326836139453
 10
105.2562798130957
 20
-136.1205457559004
 10
105.2518011889648
 20
-136.021154751151
 10
105.2471503100598
 20
-135.9365776569881
 10
105.2471503100598
 20
-135.9365776569881
 10
105.482278076928
 20
-135.9365776569881
 10
105.482278076928
 20
-135.9365776569881
 10
105.4846896437677
 20
-136.010647209921
 10
105.4957139493205
 20
-136.2454304672407
 10
105.7988823520225
 20
-136.2454304672407
 10
105.9456434196942
 20
-136.2454304672407
 10
106.1085964361465
 20
-136.1756672836644
 10
106.1085964361465
 20
-135.9470851982181
 10
106.1085964361465
 20
-135.8308132255909
 10
106.0679443094205
 20
-135.7820651244746
 10
106.0338378641165
 20
-135.7503702460103
 10
105.9549451775043
 20
-135.6763006930775
 10
105.8305772304868
 20
-135.6637260945563
 10
105.771666097689
 20
-135.6637260945563
 10
105.7513400343261
 20
-135.6637260945563
 10
105.7127549648913
 20
-135.6657931518475
 10
105.6834716532666
 20
-135.6699272664297
 10
105.6834716532666
 20
-135.6699272664297
 10
105.6834716532666
 20
-135.4752793715131
 10
105.6834716532666
 20
-135.4752793715131
 10
105.7241237799926
 20
-135.4816527981608
 10
105.7692545308494
 20
-135.4838921102263
 10
105.7761447218199
 20
-135.4838921102263
 10
105.846424669719
 20
-135.4838921102263
 10
106.0586425516103
 20
-135.462704772992
 10
106.0586425516103
 20
-135.2256822036068
 10
106.0586425516103
 20
-135.0480875313422
 10
105.9187716749092
 20
-134.9929660035781
 10
105.8009494093137
 20
-134.9929660035781
 10
105.5184515795232
 20
-134.9929660035781
 10
105.5094943312615
 20
-135.2256822036068
 10
105.5050157071307
 20
-135.2976846992485
 10
105.5050157071307
 20
-135.2976846992485
 10
105.28797469156
 20
-135.2976846992485
 10
105.28797469156
 20
-135.2976846992485
 10
105.2969319398216
 20
-135.1727999879082
 10
105.3263875062205
 20
-134.7962510513704
 10
105.8147297912546
 20
-134.7962510513704
 10
106.0541639274795
 20
-134.7962510513704
 10
106.3118570697762
 20
-134.9232028200018
 10
106.3118570697762
 20
-135.2193087769591
 10
106.3118570697762
 20
-135.4055161879368
 10
106.2102267529613
 20
-135.4880262248086
 10
106.1041178120156
 20
-135.549348924446
 10
106.1695746262354
 20
-135.576909688328
 10
106.3638780116035
 20
-135.6573526679086
 10
106.3638780116035
 20
-135.9345105996969
 10
106.3638780116035
 20
-136.2729912311227
 10
106.0996391878848
 20
-136.4400783621574
 10
105.8033609761533
 20
-136.4400783621574
 97
        0
 97
        0
 75
     2
 76
     1
 98
        0
  0
SPLINE
  5
B1
330
AB
100
AcDbEntity
  8
_U+30EC_U+30A4_U+30E4_U+30FC 1
370
     0
100
AcDbSpline
210
0.0
220
0.0
230
1.0
 70
    11
 71
     3
 72
    53
 73
    49
 74
     0
 42
0.0000000001
 43
0.0000000001
 12
1.0
 22
0.0
 32
0.0
 13
1.0
 23
0.0
 33
0.0
 40
0.0
 40
0.0
 40
0.0
 40
0.0
 40
1.0
 40
1.0
 40
1.0
 40
2.0
 40
2.0
 40
2.0
 40
3.0
 40
3.0
 40
3.0
 40
4.0
 40
4.0
 40
4.0
 40
5.0
 40
5.0
 40
5.0
 40
6.0
 40
6.0
 40
6.0
 40
7.0
 40
7.0
 40
7.0
 40
8.0
 40
8.0
 40
8.0
 40
9.0
 40
9.0
 40
9.0
 40
10.0
 40
10.0
 40
10.0
 40
11.0
 40
11.0
 40
11.0
 40
12.0
 40
12.0
 40
12.0
 40
13.0
 40
13.0
 40
13.0
 40
14.0
 40
14.0
 40
14.0
 40
15.0
 40
15.0
 40
15.0
 40
16.0
 40
16.0
 40
16.0
 40
16.0
 10
107.0497965227167
 20
-136.4400783621574
 30
0.0
 10
106.9660807024251
 20
-136.4400783621574
 30
0.0
 10
106.8575601946398
 20
-136.4230251395054
 30
0.0
 10
106.7490396868544
 20
-136.3596353825768
 30
0.0
 10
106.563693549748
 20
-136.249564581823
 30
0.0
 10
106.5409559195453
 20
-136.1184786986093
 30
0.0
 10
106.5206298561824
 20
-136.010647209921
 30
0.0
 10
106.5206298561824
 20
-136.010647209921
 30
0.0
 10
106.7579969351161
 20
-136.010647209921
 30
0.0
 10
106.7579969351161
 20
-136.010647209921
 30
0.0
 10
106.8169080679138
 20
-136.2094292194199
 30
0.0
 10
106.9526448300327
 20
-136.239057040593
 30
0.0
 10
107.0522080895564
 20
-136.239057040593
 30
0.0
 10
107.2013807240677
 20
-136.239057040593
 30
0.0
 10
107.3639892309715
 20
-136.1396660358436
 30
0.0
 10
107.3639892309715
 20
-135.9069498358149
 30
0.0
 10
107.3639892309715
 20
-135.6509792412609
 30
0.0
 10
107.1717529028946
 20
-135.5812160576846
 30
0.0
 10
107.0429063317462
 20
-135.5812160576846
 30
0.0
 10
107.0091443959908
 20
-135.5812160576846
 30
0.0
 10
106.8575601946398
 20
-135.5812160576846
 30
0.0
 10
106.7628200687954
 20
-135.7102348836072
 30
0.0
 10
106.7628200687954
 20
-135.7102348836072
 30
0.0
 10
106.5750623648493
 20
-135.691114603664
 30
0.0
 10
106.5750623648493
 20
-135.691114603664
 30
0.0
 10
106.5750623648493
 20
-135.691114603664
 30
0.0
 10
106.7039089359976
 20
-134.8449991524867
 30
0.0
 10
106.7039089359976
 20
-134.8449991524867
 30
0.0
 10
106.7039089359976
 20
-134.8449991524867
 30
0.0
 10
107.5358994956855
 20
-134.8449991524867
 30
0.0
 10
107.5358994956855
 20
-134.8449991524867
 30
0.0
 10
107.5358994956855
 20
-134.8449991524867
 30
0.0
 10
107.5358994956855
 20
-135.0396470474033
 30
0.0
 10
107.5358994956855
 20
-135.0396470474033
 30
0.0
 10
107.5358994956855
 20
-135.0396470474033
 30
0.0
 10
106.8778862580028
 20
-135.0396470474033
 30
0.0
 10
106.8778862580028
 20
-135.0396470474033
 30
0.0
 10
106.8778862580028
 20
-135.0396470474033
 30
0.0
 10
106.8079508196522
 20
-135.462704772992
 30
0.0
 10
106.8079508196522
 20
-135.462704772992
 30
0.0
 10
106.8734076338719
 20
-135.4287705824622
 30
0.0
 10
106.9616020782943
 20
-135.3886352200591
 30
0.0
 10
107.0883815921515
 20
-135.3886352200591
 30
0.0
 10
107.3595106068407
 20
-135.3886352200591
 30
0.0
 10
107.6127251250065
 20
-135.5748426310369
 30
0.0
 10
107.6127251250065
 20
-135.8878295558718
 30
0.0
 10
107.6127251250065
 20
-136.2052951048376
 30
0.0
 10
107.3729464792332
 20
-136.4400783621574
 30
0.0
 10
107.0497965227167
 20
-136.4400783621574
 30
0.0
  0
HATCH
  5
B2
330
AB
100
AcDbEntity
  8
_U+30EC_U+30A4_U+30E4_U+30FC 1
 62
   179
420
  2234388
100
AcDbHatch
 10
0.0
 20
0.0
 30
0.0
210
0.0
220
0.0
230
1.0
  2
SOLID
 70
     1
 71
     0
 91
        1
 92
        1
 93
        1
 72
     4
 94
        3
 73
     0
 74
     1
 95
       53
 96
       49
 40
0.0
 40
0.0
 40
0.0
 40
0.0
 40
1.0
 40
1.0
 40
1.0
 40
2.0
 40
2.0
 40
2.0
 40
3.0
 40
3.0
 40
3.0
 40
4.0
 40
4.0
 40
4.0
 40
5.0
 40
5.0
 40
5.0
 40
6.0
 40
6.0
 40
6.0
 40
7.0
 40
7.0
 40
7.0
 40
8.0
 40
8.0
 40
8.0
 40
9.0
 40
9.0
 40
9.0
 40
10.0
 40
10.0
 40
10.0
 40
11.0
 40
11.0
 40
11.0
 40
12.0
 40
12.0
 40
12.0
 40
13.0
 40
13.0
 40
13.0
 40
14.0
 40
14.0
 40
14.0
 40
15.0
 40
15.0
 40
15.0
 40
16.0
 40
16.0
 40
16.0
 40
16.0
 10
107.0497965227167
 20
-136.4400783621574
 10
106.9660807024251
 20
-136.4400783621574
 10
106.8575601946398
 20
-136.4230251395054
 10
106.7490396868544
 20
-136.3596353825768
 10
106.563693549748
 20
-136.249564581823
 10
106.5409559195453
 20
-136.1184786986093
 10
106.5206298561824
 20
-136.010647209921
 10
106.5206298561824
 20
-136.010647209921
 10
106.7579969351161
 20
-136.010647209921
 10
106.7579969351161
 20
-136.010647209921
 10
106.8169080679138
 20
-136.2094292194199
 10
106.9526448300327
 20
-136.239057040593
 10
107.0522080895564
 20
-136.239057040593
 10
107.2013807240677
 20
-136.239057040593
 10
107.3639892309715
 20
-136.1396660358436
 10
107.3639892309715
 20
-135.9069498358149
 10
107.3639892309715
 20
-135.6509792412609
 10
107.1717529028946
 20
-135.5812160576846
 10
107.0429063317462
 20
-135.5812160576846
 10
107.0091443959908
 20
-135.5812160576846
 10
106.8575601946398
 20
-135.5812160576846
 10
106.7628200687954
 20
-135.7102348836072
 10
106.7628200687954
 20
-135.7102348836072
 10
106.5750623648493
 20
-135.691114603664
 10
106.5750623648493
 20
-135.691114603664
 10
106.5750623648493
 20
-135.691114603664
 10
106.7039089359976
 20
-134.8449991524867
 10
106.7039089359976
 20
-134.8449991524867
 10
106.7039089359976
 20
-134.8449991524867
 10
107.5358994956855
 20
-134.8449991524867
 10
107.5358994956855
 20
-134.8449991524867
 10
107.5358994956855
 20
-134.8449991524867
 10
107.5358994956855
 20
-135.0396470474033
 10
107.5358994956855
 20
-135.0396470474033
 10
107.5358994956855
 20
-135.0396470474033
 10
106.8778862580028
 20
-135.0396470474033
 10
106.8778862580028
 20
-135.0396470474033
 10
106.8778862580028
 20
-135.0396470474033
 10
106.8079508196522
 20
-135.462704772992
 10
106.8079508196522
 20
-135.462704772992
 10
106.8734076338719
 20
-135.4287705824622
 10
106.9616020782943
 20
-135.3886352200591
 10
107.0883815921515
 20
-135.3886352200591
 10
107.3595106068407
 20
-135.3886352200591
 10
107.6127251250065
 20
-135.5748426310369
 10
107.6127251250065
 20
-135.8878295558718
 10
107.6127251250065
 20
-136.2052951048376
 10
107.3729464792332
 20
-136.4400783621574
 10
107.0497965227167
 20
-136.4400783621574
 97
        0
 97
        0
 75
     2
 76
     1
 98
        0
  0
ENDBLK
  5
AE
330
AB
100
AcDbEntity
  8
0
100
AcDbBlockEnd
  0
BLOCK
  5
B5
330
B3
100
AcDbEntity
  8
0
100
AcDbBlockBegin
  2
block 5
 70
     0
 10
0.0
 20
0.0
 30
0.0
  3
block 5
  1

  0
POLYLINE
  5
B7
330
B3
100
AcDbEntity
  8
_U+30EC_U+30A4_U+30E4_U+30FC 1
 62
   179
420
  2234388
370
     9
100
AcDb2dPolyline
 66
     1
 10
0.0
 20
0.0
 30
0.0
  0
VERTEX
  5
B8
330
B7
100
AcDbEntity
  8
_U+30EC_U+30A4_U+30E4_U+30FC 1
 62
   179
420
  2234388
370
     9
100
AcDbVertex
100
AcDb2dVertex
 10
112.9719298956237
 20
-158.2415060715508
 30
0.0
  0
VERTEX
  5
B9
330
B7
100
AcDbEntity
  8
_U+30EC_U+30A4_U+30E4_U+30FC 1
 62
   179
420
  2234388
370
     9
100
AcDbVertex
100
AcDb2dVertex
 10
112.9719298956237
 20
-152.9836002395319
 30
0.0
  0
SEQEND
  5
BA
330
B7
100
AcDbEntity
  8
_U+30EC_U+30A4_U+30E4_U+30FC 1
 62
   179
420
  2234388
370
     9
  0
POLYLINE
  5
BB
330
B3
100
AcDbEntity
  8
_U+30EC_U+30A4_U+30E4_U+30FC 1
 62
   179
420
  2234388
370
     9
100
AcDb2dPolyline
 66
     1
 10
0.0
 20
0.0
 30
0.0
  0
VERTEX
  5
BC
330
BB
100
AcDbEntity
  8
_U+30EC_U+30A4_U+30E4_U+30FC 1
 62
   179
420
  2234388
370
     9
100
AcDbVertex
100
AcDb2dVertex
 10
112.9719298956237
 20
-158.2415060715508
 30
0.0
  0
VERTEX
  5
BD
330
BB
100
AcDbEntity
  8
_U+30EC_U+30A4_U+30E4_U+30FC 1
 62
   179
420
  2234388
370
     9
100
AcDbVertex
100
AcDb2dVertex
 10
112.9719298956237
 20
-159.7414819045089
 30
0.0
  0
SEQEND
  5
BE
330
BB
100
AcDbEntity
  8
_U+30EC_U+30A4_U+30E4_U+30FC 1
 62
   179
420
  2234388
370
     9
  0
POLYLINE
  5
BF
330
B3
100
AcDbEntity
  8
_U+30EC_U+30A4_U+30E4_U+30FC 1
 62
   179
420
  2234388
370
     9
100
AcDb2dPolyline
 66
     1
 10
0.0
 20
0.0
 30
0.0
  0
VERTEX
  5
C0
330
BF
100
AcDbEntity
  8
_U+30EC_U+30A4_U+30E4_U+30FC 1
 62
   179
420
  2234388
370
     9
100
AcDbVertex
100
AcDb2dVertex
 10
111.5118885439836
 20
-158.2415060715508
 30
0.0
  0
VERTEX
  5
C1
330
BF
100
AcDbEntity
  8
_U+30EC_U+30A4_U+30E4_U+30FC 1
 62
   179
420
  2234388
370
     9
100
AcDbVertex
100
AcDb2dVertex
 10
113.9716668145628
 20
-158.2415060715508
 30
0.0
  0
SEQEND
  5
C2
330
BF
100
AcDbEntity
  8
_U+30EC_U+30A4_U+30E4_U+30FC 1
 62
   179
420
  2234388
370
     9
  0
POLYLINE
  5
C3
330
B3
100
AcDbEntity
  8
_U+30EC_U+30A4_U+30E4_U+30FC 1
 62
   179
420
  2234388
370
     9
100
AcDb2dPolyline
 66
     1
 10
0.0
 20
0.0
 30
0.0
  0
VERTEX
  5
C4
330
C3
100
AcDbEntity
  8
_U+30EC_U+30A4_U+30E4_U+30FC 1
 62
   179
420
  2234388
370
     9
100
AcDbVertex
100
AcDb2dVertex
 10
111.5118885439836
 20
-158.741039404759
 30
0.0
  0
VERTEX
  5
C5
330
C3
100
AcDbEntity
  8
_U+30EC_U+30A4_U+30E4_U+30FC 1
 62
   179
420
  2234388
370
     9
100
AcDbVertex
100
AcDb2dVertex
 10
113.9716668145628
 20
-158.741039404759
 30
0.0
  0
SEQEND
  5
C6
330
C3
100
AcDbEntity
  8
_U+30EC_U+30A4_U+30E4_U+30FC 1
 62
   179
420
  2234388
370
     9
  0
INSERT
  5
C8
330
B3
100
AcDbEntity
  8
_U+30EC_U+30A4_U+30E4_U+30FC 1
100
AcDbBlockReference
  2
block 6
 10
0.0
 20
0.0
 30
0.0
  0
ENDBLK
  5
B6
330
B3
100
AcDbEntity
  8
0
100
AcDbBlockEnd
  0
BLOCK
  5
C9
330
C7
100
AcDbEntity
  8
0
100
AcDbBlockBegin
  2
block 6
 70
     0
 10
0.0
 20
0.0
 30
0.0
  3
block 6
  1

  0
SPLINE
  5
CB
330
C7
100
AcDbEntity
  8
_U+30EC_U+30A4_U+30E4_U+30FC 1
370
     0
100
AcDbSpline
210
0.0
220
0.0
230
1.0
 70
    11
 71
     3
 72
    29
 73
    25
 74
     0
 42
0.0000000001
 43
0.0000000001
 12
1.0
 22
0.0
 32
0.0
 13
1.0
 23
0.0
 33
0.0
 40
0.0
 40
0.0
 40
0.0
 40
0.0
 40
1.0
 40
1.0
 40
1.0
 40
2.0
 40
2.0
 40
2.0
 40
3.0
 40
3.0
 40
3.0
 40
4.0
 40
4.0
 40
4.0
 40
5.0
 40
5.0
 40
5.0
 40
6.0
 40
6.0
 40
6.0
 40
7.0
 40
7.0
 40
7.0
 40
8.0
 40
8.0
 40
8.0
 40
8.0
 10
111.4422932664103
 20
-155.7386419966556
 30
0.0
 10
111.6517550719135
 20
-155.8540526954115
 30
0.0
 10
111.6707030970823
 20
-156.0393988325179
 30
0.0
 10
111.6707030970823
 20
-156.1637667795355
 30
0.0
 10
111.6707030970823
 20
-156.3353325347009
 30
0.0
 10
111.6241943080315
 20
-156.4869167360519
 30
0.0
 10
111.4422932664103
 20
-156.5885470528668
 30
0.0
 10
111.2476453714936
 20
-156.6994791274918
 30
0.0
 10
111.0106228021085
 20
-156.7198051908548
 30
0.0
 10
110.8480142952047
 20
-156.7198051908548
 30
0.0
 10
110.7040093039212
 20
-156.7198051908548
 30
0.0
 10
110.4521728239495
 20
-156.701546184783
 30
0.0
 10
110.2533908144505
 20
-156.5885470528668
 30
0.0
 10
110.0504746903693
 20
-156.4734808636594
 30
0.0
 10
110.0270480410696
 20
-156.3015705989455
 30
0.0
 10
110.0270480410696
 20
-156.1637667795355
 30
0.0
 10
110.0270480410696
 20
-155.9939235721126
 30
0.0
 10
110.0714897728294
 20
-155.8402723134705
 30
0.0
 10
110.2533908144505
 20
-155.7386419966556
 30
0.0
 10
110.445971652076
 20
-155.6321885461614
 30
0.0
 10
110.6743814827481
 20
-155.6073838586676
 30
0.0
 10
110.8480142952047
 20
-155.6073838586676
 30
0.0
 10
111.0192355408216
 20
-155.6073838586676
 30
0.0
 10
111.2497124287848
 20
-155.6301214888703
 30
0.0
 10
111.4422932664103
 20
-155.7386419966556
 30
0.0
  0
SPLINE
  5
CC
330
C7
100
AcDbEntity
  8
_U+30EC_U+30A4_U+30E4_U+30FC 1
370
     0
100
AcDbSpline
210
0.0
220
0.0
230
1.0
 70
    11
 71
     3
 72
    17
 73
    13
 74
     0
 42
0.0000000001
 43
0.0000000001
 12
1.0
 22
0.0
 32
0.0
 13
1.0
 23
0.0
 33
0.0
 40
0.0
 40
0.0
 40
0.0
 40
0.0
 40
1.0
 40
1.0
 40
1.0
 40
2.0
 40
2.0
 40
2.0
 40
3.0
 40
3.0
 40
3.0
 40
4.0
 40
4.0
 40
4.0
 40
4.0
 10
110.2196288786951
 20
-156.1637667795355
 30
0.0
 10
110.2196288786951
 20
-156.4304171700938
 30
0.0
 10
110.5031602371312
 20
-156.4800265450814
 30
0.0
 10
110.8480142952047
 20
-156.4800265450814
 30
0.0
 10
111.1673746466873
 20
-156.4800265450814
 30
0.0
 10
111.4760552021657
 20
-156.4417859851951
 30
0.0
 10
111.4760552021657
 20
-156.1637667795355
 30
0.0
 10
111.4760552021657
 20
-155.8991834462683
 30
0.0
 10
111.1949354105693
 20
-155.847162504441
 30
0.0
 10
110.8480142952047
 20
-155.847162504441
 30
0.0
 10
110.5283094341735
 20
-155.847162504441
 30
0.0
 10
110.2196288786951
 20
-155.8878146311669
 30
0.0
 10
110.2196288786951
 20
-156.1637667795355
 30
0.0
  0
HATCH
  5
CD
330
C7
100
AcDbEntity
  8
_U+30EC_U+30A4_U+30E4_U+30FC 1
 62
   179
420
  2234388
100
AcDbHatch
 10
0.0
 20
0.0
 30
0.0
210
0.0
220
0.0
230
1.0
  2
SOLID
 70
     1
 71
     0
 91
        2
 92
        1
 93
        1
 72
     4
 94
        3
 73
     0
 74
     1
 95
       29
 96
       25
 40
0.0
 40
0.0
 40
0.0
 40
0.0
 40
1.0
 40
1.0
 40
1.0
 40
2.0
 40
2.0
 40
2.0
 40
3.0
 40
3.0
 40
3.0
 40
4.0
 40
4.0
 40
4.0
 40
5.0
 40
5.0
 40
5.0
 40
6.0
 40
6.0
 40
6.0
 40
7.0
 40
7.0
 40
7.0
 40
8.0
 40
8.0
 40
8.0
 40
8.0
 10
111.4422932664103
 20
-155.7386419966556
 10
111.6517550719135
 20
-155.8540526954115
 10
111.6707030970823
 20
-156.0393988325179
 10
111.6707030970823
 20
-156.1637667795355
 10
111.6707030970823
 20
-156.3353325347009
 10
111.6241943080315
 20
-156.4869167360519
 10
111.4422932664103
 20
-156.5885470528668
 10
111.2476453714936
 20
-156.6994791274918
 10
111.0106228021085
 20
-156.7198051908548
 10
110.8480142952047
 20
-156.7198051908548
 10
110.7040093039212
 20
-156.7198051908548
 10
110.4521728239495
 20
-156.701546184783
 10
110.2533908144505
 20
-156.5885470528668
 10
110.0504746903693
 20
-156.4734808636594
 10
110.0270480410696
 20
-156.3015705989455
 10
110.0270480410696
 20
-156.1637667795355
 10
110.0270480410696
 20
-155.9939235721126
 10
110.0714897728294
 20
-155.8402723134705
 10
110.2533908144505
 20
-155.7386419966556
 10
110.445971652076
 20
-155.6321885461614
 10
110.6743814827481
 20
-155.6073838586676
 10
110.8480142952047
 20
-155.6073838586676
 10
111.0192355408216
 20
-155.6073838586676
 10
111.2497124287848
 20
-155.6301214888703
 10
111.4422932664103
 20
-155.7386419966556
 97
        0
 97
        0
 92
        1
 93
        1
 72
     4
 94
        3
 73
     0
 74
     1
 95
       17
 96
       13
 40
0.0
 40
0.0
 40
0.0
 40
0.0
 40
1.0
 40
1.0
 40
1.0
 40
2.0
 40
2.0
 40
2.0
 40
3.0
 40
3.0
 40
3.0
 40
4.0
 40
4.0
 40
4.0
 40
4.0
 10
110.2196288786951
 20
-156.1637667795355
 10
110.2196288786951
 20
-156.4304171700938
 10
110.5031602371312
 20
-156.4800265450814
 10
110.8480142952047
 20
-156.4800265450814
 10
111.1673746466873
 20
-156.4800265450814
 10
111.4760552021657
 20
-156.4417859851951
 10
111.4760552021657
 20
-156.1637667795355
 10
111.4760552021657
 20
-155.8991834462683
 10
111.1949354105693
 20
-155.847162504441
 10
110.8480142952047
 20
-155.847162504441
 10
110.5283094341735
 20
-155.847162504441
 10
110.2196288786951
 20
-155.8878146311669
 10
110.2196288786951
 20
-156.1637667795355
 97
        0
 97
        0
 75
     2
 76
     1
 98
        0
  0
POLYLINE
  5
CE
330
C7
100
AcDbEntity
  8
_U+30EC_U+30A4_U+30E4_U+30FC 1
370
     0
100
AcDb2dPolyline
 66
     1
 10
0.0
 20
0.0
 30
0.0
  0
VERTEX
  5
CF
330
CE
100
AcDbEntity
  8
_U+30EC_U+30A4_U+30E4_U+30FC 1
370
     0
100
AcDbVertex
100
AcDb2dVertex
 10
111.6200601934492
 20
-155.3762179516073
 30
0.0
  0
VERTEX
  5
D0
330
CE
100
AcDbEntity
  8
_U+30EC_U+30A4_U+30E4_U+30FC 1
370
     0
100
AcDbVertex
100
AcDb2dVertex
 10
111.3682237134774
 20
-155.3762179516073
 30
0.0
  0
VERTEX
  5
D1
330
CE
100
AcDbEntity
  8
_U+30EC_U+30A4_U+30E4_U+30FC 1
370
     0
100
AcDbVertex
100
AcDb2dVertex
 10
111.3682237134774
 20
-155.1071559942093
 30
0.0
  0
VERTEX
  5
D2
330
CE
100
AcDbEntity
  8
_U+30EC_U+30A4_U+30E4_U+30FC 1
370
     0
100
AcDbVertex
100
AcDb2dVertex
 10
111.6200601934492
 20
-155.1071559942093
 30
0.0
  0
VERTEX
  5
D3
330
CE
100
AcDbEntity
  8
_U+30EC_U+30A4_U+30E4_U+30FC 1
370
     0
100
AcDbVertex
100
AcDb2dVertex
 10
111.6200601934492
 20
-155.3762179516073
 30
0.0
  0
SEQEND
  5
D4
330
CE
100
AcDbEntity
  8
_U+30EC_U+30A4_U+30E4_U+30FC 1
370
     0
  0
HATCH
  5
D5
330
C7
100
AcDbEntity
  8
_U+30EC_U+30A4_U+30E4_U+30FC 1
 62
   179
420
  2234388
100
AcDbHatch
 10
0.0
 20
0.0
 30
0.0
210
0.0
220
0.0
230
1.0
  2
SOLID
 70
     1
 71
     0
 91
        1
 92
        1
 93
        4
 72
     1
 10
111.6200601934492
 20
-155.3762179516073
 11
111.3682237134774
 21
-155.3762179516073
 72
     1
 10
111.3682237134774
 20
-155.3762179516073
 11
111.3682237134774
 21
-155.1071559942093
 72
     1
 10
111.3682237134774
 20
-155.1071559942093
 11
111.6200601934492
 21
-155.1071559942093
 72
     1
 10
111.6200601934492
 20
-155.1071559942093
 11
111.6200601934492
 21
-155.3762179516073
 97
        0
 75
     2
 76
     1
 98
        0
  0
SPLINE
  5
D6
330
C7
100
AcDbEntity
  8
_U+30EC_U+30A4_U+30E4_U+30FC 1
370
     0
100
AcDbSpline
210
0.0
220
0.0
230
1.0
 70
    11
 71
     3
 72
    53
 73
    49
 74
     0
 42
0.0000000001
 43
0.0000000001
 12
1.0
 22
0.0
 32
0.0
 13
1.0
 23
0.0
 33
0.0
 40
0.0
 40
0.0
 40
0.0
 40
0.0
 40
1.0
 40
1.0
 40
1.0
 40
2.0
 40
2.0
 40
2.0
 40
3.0
 40
3.0
 40
3.0
 40
4.0
 40
4.0
 40
4.0
 40
5.0
 40
5.0
 40
5.0
 40
6.0
 40
6.0
 40
6.0
 40
7.0
 40
7.0
 40
7.0
 40
8.0
 40
8.0
 40
8.0
 40
9.0
 40
9.0
 40
9.0
 40
10.0
 40
10.0
 40
10.0
 40
11.0
 40
11.0
 40
11.0
 40
12.0
 40
12.0
 40
12.0
 40
13.0
 40
13.0
 40
13.0
 40
14.0
 40
14.0
 40
14.0
 40
15.0
 40
15.0
 40
15.0
 40
16.0
 40
16.0
 40
16.0
 40
16.0
 10
111.6707030970823
 20
-154.3402777391927
 30
0.0
 10
111.6707030970823
 20
-154.4236490499358
 30
0.0
 10
111.6538221292046
 20
-154.5325140672697
 30
0.0
 10
111.590432372276
 20
-154.6406900655065
 30
0.0
 10
111.4805338262965
 20
-154.8263807121615
 30
0.0
 10
111.3492756883085
 20
-154.8487738328156
 30
0.0
 10
111.2414441996202
 20
-154.8690998961786
 30
0.0
 10
111.2414441996202
 20
-154.8690998961786
 30
0.0
 10
111.2414441996202
 20
-154.6317328172449
 30
0.0
 10
111.2414441996202
 20
-154.6317328172449
 30
0.0
 10
111.4402262091191
 20
-154.5731661939956
 30
0.0
 10
111.4698540302923
 20
-154.4374294318768
 30
0.0
 10
111.4698540302923
 20
-154.337866172353
 30
0.0
 10
111.4698540302923
 20
-154.1886935378417
 30
0.0
 10
111.3702907707685
 20
-154.0260850309379
 30
0.0
 10
111.1377468255142
 20
-154.0260850309379
 30
0.0
 10
110.8817762309601
 20
-154.0260850309379
 30
0.0
 10
110.8118407926095
 20
-154.2179768494663
 30
0.0
 10
110.8118407926095
 20
-154.3468234206147
 30
0.0
 10
110.8118407926095
 20
-154.3809298659187
 30
0.0
 10
110.8118407926095
 20
-154.5325140672697
 30
0.0
 10
110.9410318733064
 20
-154.627254193114
 30
0.0
 10
110.9410318733064
 20
-154.627254193114
 30
0.0
 10
110.9220838481375
 20
-154.8150118970601
 30
0.0
 10
110.9220838481375
 20
-154.8150118970601
 30
0.0
 10
110.9220838481375
 20
-154.8150118970601
 30
0.0
 10
110.0756238874117
 20
-154.6861653259118
 30
0.0
 10
110.0756238874117
 20
-154.6861653259118
 30
0.0
 10
110.0756238874117
 20
-154.6861653259118
 30
0.0
 10
110.0756238874117
 20
-153.854174766224
 30
0.0
 10
110.0756238874117
 20
-153.854174766224
 30
0.0
 10
110.0756238874117
 20
-153.854174766224
 30
0.0
 10
110.2702717823283
 20
-153.854174766224
 30
0.0
 10
110.2702717823283
 20
-153.854174766224
 30
0.0
 10
110.2702717823283
 20
-153.854174766224
 30
0.0
 10
110.2702717823283
 20
-154.5118434943581
 30
0.0
 10
110.2702717823283
 20
-154.5118434943581
 30
0.0
 10
110.2702717823283
 20
-154.5118434943581
 30
0.0
 10
110.693329507917
 20
-154.5821234422573
 30
0.0
 10
110.693329507917
 20
-154.5821234422573
 30
0.0
 10
110.6595675721615
 20
-154.5166666280375
 30
0.0
 10
110.6192599549841
 20
-154.4284721836151
 30
0.0
 10
110.6192599549841
 20
-154.3016926697579
 30
0.0
 10
110.6192599549841
 20
-154.0305636550688
 30
0.0
 10
110.8056396207361
 20
-153.7773491369029
 30
0.0
 10
111.1187988003453
 20
-153.7773491369029
 30
0.0
 10
111.4360920945368
 20
-153.7773491369029
 30
0.0
 10
111.6707030970823
 20
-154.0167832731277
 30
0.0
 10
111.6707030970823
 20
-154.3402777391927
 30
0.0
  0
HATCH
  5
D7
330
C7
100
AcDbEntity
  8
_U+30EC_U+30A4_U+30E4_U+30FC 1
 62
   179
420
  2234388
100
AcDbHatch
 10
0.0
 20
0.0
 30
0.0
210
0.0
220
0.0
230
1.0
  2
SOLID
 70
     1
 71
     0
 91
        1
 92
        1
 93
        1
 72
     4
 94
        3
 73
     0
 74
     1
 95
       53
 96
       49
 40
0.0
 40
0.0
 40
0.0
 40
0.0
 40
1.0
 40
1.0
 40
1.0
 40
2.0
 40
2.0
 40
2.0
 40
3.0
 40
3.0
 40
3.0
 40
4.0
 40
4.0
 40
4.0
 40
5.0
 40
5.0
 40
5.0
 40
6.0
 40
6.0
 40
6.0
 40
7.0
 40
7.0
 40
7.0
 40
8.0
 40
8.0
 40
8.0
 40
9.0
 40
9.0
 40
9.0
 40
10.0
 40
10.0
 40
10.0
 40
11.0
 40
11.0
 40
11.0
 40
12.0
 40
12.0
 40
12.0
 40
13.0
 40
13.0
 40
13.0
 40
14.0
 40
14.0
 40
14.0
 40
15.0
 40
15.0
 40
15.0
 40
16.0
 40
16.0
 40
16.0
 40
16.0
 10
111.6707030970823
 20
-154.3402777391927
 10
111.6707030970823
 20
-154.4236490499358
 10
111.6538221292046
 20
-154.5325140672697
 10
111.590432372276
 20
-154.6406900655065
 10
111.4805338262965
 20
-154.8263807121615
 10
111.3492756883085
 20
-154.8487738328156
 10
111.2414441996202
 20
-154.8690998961786
 10
111.2414441996202
 20
-154.8690998961786
 10
111.2414441996202
 20
-154.6317328172449
 10
111.2414441996202
 20
-154.6317328172449
 10
111.4402262091191
 20
-154.5731661939956
 10
111.4698540302923
 20
-154.4374294318768
 10
111.4698540302923
 20
-154.337866172353
 10
111.4698540302923
 20
-154.1886935378417
 10
111.3702907707685
 20
-154.0260850309379
 10
111.1377468255142
 20
-154.0260850309379
 10
110.8817762309601
 20
-154.0260850309379
 10
110.8118407926095
 20
-154.2179768494663
 10
110.8118407926095
 20
-154.3468234206147
 10
110.8118407926095
 20
-154.3809298659187
 10
110.8118407926095
 20
-154.5325140672697
 10
110.9410318733064
 20
-154.627254193114
 10
110.9410318733064
 20
-154.627254193114
 10
110.9220838481375
 20
-154.8150118970601
 10
110.9220838481375
 20
-154.8150118970601
 10
110.9220838481375
 20
-154.8150118970601
 10
110.0756238874117
 20
-154.6861653259118
 10
110.0756238874117
 20
-154.6861653259118
 10
110.0756238874117
 20
-154.6861653259118
 10
110.0756238874117
 20
-153.854174766224
 10
110.0756238874117
 20
-153.854174766224
 10
110.0756238874117
 20
-153.854174766224
 10
110.2702717823283
 20
-153.854174766224
 10
110.2702717823283
 20
-153.854174766224
 10
110.2702717823283
 20
-153.854174766224
 10
110.2702717823283
 20
-154.5118434943581
 10
110.2702717823283
 20
-154.5118434943581
 10
110.2702717823283
 20
-154.5118434943581
 10
110.693329507917
 20
-154.5821234422573
 10
110.693329507917
 20
-154.5821234422573
 10
110.6595675721615
 20
-154.5166666280375
 10
110.6192599549841
 20
-154.4284721836151
 10
110.6192599549841
 20
-154.3016926697579
 10
110.6192599549841
 20
-154.0305636550688
 10
110.8056396207361
 20
-153.7773491369029
 10
111.1187988003453
 20
-153.7773491369029
 10
111.4360920945368
 20
-153.7773491369029
 10
111.6707030970823
 20
-154.0167832731277
 10
111.6707030970823
 20
-154.3402777391927
 97
        0
 97
        0
 75
     2
 76
     1
 98
        0
  0
ENDBLK
  5
CA
330
C7
100
AcDbEntity
  8
0
100
AcDbBlockEnd
  0
BLOCK
  5
DA
330
D8
100
AcDbEntity
  8
0
100
AcDbBlockBegin
  2
block 7
 70
     0
 10
0.0
 20
0.0
 30
0.0
  3
block 7
  1

  0
POLYLINE
  5
DC
330
D8
100
AcDbEntity
  8
_U+30EC_U+30A4_U+30E4_U+30FC 1
 62
   179
420
  2234388
370
     9
100
AcDb2dPolyline
 66
     1
 10
0.0
 20
0.0
 30
0.0
  0
VERTEX
  5
DD
330
DC
100
AcDbEntity
  8
_U+30EC_U+30A4_U+30E4_U+30FC 1
 62
   179
420
  2234388
370
     9
100
AcDbVertex
100
AcDb2dVertex
 10
98.97173247502074
 20
-163.2417077369676
 30
0.0
  0
VERTEX
  5
DE
330
DC
100
AcDbEntity
  8
_U+30EC_U+30A4_U+30E4_U+30FC 1
 62
   179
420
  2234388
370
     9
100
AcDbVertex
100
AcDb2dVertex
 10
108.9721708309994
 20
-163.2417077369676
 30
0.0
  0
SEQEND
  5
DF
330
DC
100
AcDbEntity
  8
_U+30EC_U+30A4_U+30E4_U+30FC 1
 62
   179
420
  2234388
370
     9
  0
POLYLINE
  5
E0
330
D8
100
AcDbEntity
  8
_U+30EC_U+30A4_U+30E4_U+30FC 1
 62
   179
420
  2234388
370
     9
100
AcDb2dPolyline
 66
     1
 10
0.0
 20
0.0
 30
0.0
  0
VERTEX
  5
E1
330
E0
100
AcDbEntity
  8
_U+30EC_U+30A4_U+30E4_U+30FC 1
 62
   179
420
  2234388
370
     9
100
AcDbVertex
100
AcDb2dVertex
 10
98.97173247502074
 20
-161.7817016262214
 30
0.0
  0
VERTEX
  5
E2
330
E0
100
AcDbEntity
  8
_U+30EC_U+30A4_U+30E4_U+30FC 1
 62
   179
420
  2234388
370
     9
100
AcDbVertex
100
AcDb2dVertex
 10
98.97173247502074
 20
-164.2414799589395
 30
0.0
  0
SEQEND
  5
E3
330
E0
100
AcDbEntity
  8
_U+30EC_U+30A4_U+30E4_U+30FC 1
 62
   179
420
  2234388
370
     9
  0
POLYLINE
  5
E4
330
D8
100
AcDbEntity
  8
_U+30EC_U+30A4_U+30E4_U+30FC 1
 62
   179
420
  2234388
370
     9
100
AcDb2dPolyline
 66
     1
 10
0.0
 20
0.0
 30
0.0
  0
VERTEX
  5
E5
330
E4
100
AcDbEntity
  8
_U+30EC_U+30A4_U+30E4_U+30FC 1
 62
   179
420
  2234388
370
     9
100
AcDbVertex
100
AcDb2dVertex
 10
108.9721708309994
 20
-161.0816494041738
 30
0.0
  0
VERTEX
  5
E6
330
E4
100
AcDbEntity
  8
_U+30EC_U+30A4_U+30E4_U+30FC 1
 62
   179
420
  2234388
370
     9
100
AcDbVertex
100
AcDb2dVertex
 10
108.9721708309994
 20
-164.2414799589395
 30
0.0
  0
SEQEND
  5
E7
330
E4
100
AcDbEntity
  8
_U+30EC_U+30A4_U+30E4_U+30FC 1
 62
   179
420
  2234388
370
     9
  0
INSERT
  5
E9
330
D8
100
AcDbEntity
  8
_U+30EC_U+30A4_U+30E4_U+30FC 1
100
AcDbBlockReference
  2
block 8
 10
0.0
 20
0.0
 30
0.0
  0
ENDBLK
  5
DB
330
D8
100
AcDbEntity
  8
0
100
AcDbBlockEnd
  0
BLOCK
  5
EA
330
E8
100
AcDbEntity
  8
0
100
AcDbBlockBegin
  2
block 8
 70
     0
 10
0.0
 20
0.0
 30
0.0
  3
block 8
  1

  0
SPLINE
  5
EC
330
E8
100
AcDbEntity
  8
_U+30EC_U+30A4_U+30E4_U+30FC 1
370
     0
100
AcDbSpline
210
0.0
220
0.0
230
1.0
 70
    11
 71
     3
 72
    26
 73
    22
 74
     0
 42
0.0000000001
 43
0.0000000001
 12
1.0
 22
0.0
 32
0.0
 13
1.0
 23
0.0
 33
0.0
 40
0.0
 40
0.0
 40
0.0
 40
0.0
 40
1.0
 40
1.0
 40
1.0
 40
2.0
 40
2.0
 40
2.0
 40
3.0
 40
3.0
 40
3.0
 40
4.0
 40
4.0
 40
4.0
 40
5.0
 40
5.0
 40
5.0
 40
6.0
 40
6.0
 40
6.0
 40
7.0
 40
7.0
 40
7.0
 40
7.0
 10
103.2906805839864
 20
-161.8902044951177
 30
0.0
 10
103.2906805839864
 20
-161.8902044951177
 30
0.0
 10
103.2906805839864
 20
-160.7860513920952
 30
0.0
 10
103.2906805839864
 20
-160.7860513920952
 30
0.0
 10
103.2906805839864
 20
-160.7860513920952
 30
0.0
 10
102.9379028062968
 20
-160.7860513920952
 30
0.0
 10
102.9379028062968
 20
-160.7860513920952
 30
0.0
 10
102.9379028062968
 20
-160.7860513920952
 30
0.0
 10
102.9379028062968
 20
-160.6379122862294
 30
0.0
 10
102.9379028062968
 20
-160.6379122862294
 30
0.0
 10
103.2929198960518
 20
-160.6230983756429
 30
0.0
 10
103.3427015258136
 20
-160.4601453591905
 30
0.0
 10
103.3743964042779
 20
-160.3457681890802
 30
0.0
 10
103.3743964042779
 20
-160.3457681890802
 30
0.0
 10
103.5302869749855
 20
-160.3457681890802
 30
0.0
 10
103.5302869749855
 20
-160.3457681890802
 30
0.0
 10
103.5302869749855
 20
-160.3457681890802
 30
0.0
 10
103.5302869749855
 20
-161.8902044951177
 30
0.0
 10
103.5302869749855
 20
-161.8902044951177
 30
0.0
 10
103.5302869749855
 20
-161.8902044951177
 30
0.0
 10
103.2906805839864
 20
-161.8902044951177
 30
0.0
 10
103.2906805839864
 20
-161.8902044951177
 30
0.0
  0
HATCH
  5
ED
330
E8
100
AcDbEntity
  8
_U+30EC_U+30A4_U+30E4_U+30FC 1
 62
   179
420
  2234388
100
AcDbHatch
 10
0.0
 20
0.0
 30
0.0
210
0.0
220
0.0
230
1.0
  2
SOLID
 70
     1
 71
     0
 91
        1
 92
        1
 93
        1
 72
     4
 94
        3
 73
     0
 74
     1
 95
       26
 96
       22
 40
0.0
 40
0.0
 40
0.0
 40
0.0
 40
1.0
 40
1.0
 40
1.0
 40
2.0
 40
2.0
 40
2.0
 40
3.0
 40
3.0
 40
3.0
 40
4.0
 40
4.0
 40
4.0
 40
5.0
 40
5.0
 40
5.0
 40
6.0
 40
6.0
 40
6.0
 40
7.0
 40
7.0
 40
7.0
 40
7.0
 10
103.2906805839864
 20
-161.8902044951177
 10
103.2906805839864
 20
-161.8902044951177
 10
103.2906805839864
 20
-160.7860513920952
 10
103.2906805839864
 20
-160.7860513920952
 10
103.2906805839864
 20
-160.7860513920952
 10
102.9379028062968
 20
-160.7860513920952
 10
102.9379028062968
 20
-160.7860513920952
 10
102.9379028062968
 20
-160.7860513920952
 10
102.9379028062968
 20
-160.6379122862294
 10
102.9379028062968
 20
-160.6379122862294
 10
103.2929198960518
 20
-160.6230983756429
 10
103.3427015258136
 20
-160.4601453591905
 10
103.3743964042779
 20
-160.3457681890802
 10
103.3743964042779
 20
-160.3457681890802
 10
103.5302869749855
 20
-160.3457681890802
 10
103.5302869749855
 20
-160.3457681890802
 10
103.5302869749855
 20
-160.3457681890802
 10
103.5302869749855
 20
-161.8902044951177
 10
103.5302869749855
 20
-161.8902044951177
 10
103.5302869749855
 20
-161.8902044951177
 10
103.2906805839864
 20
-161.8902044951177
 10
103.2906805839864
 20
-161.8902044951177
 97
        0
 97
        0
 75
     2
 76
     1
 98
        0
  0
SPLINE
  5
EE
330
E8
100
AcDbEntity
  8
_U+30EC_U+30A4_U+30E4_U+30FC 1
370
     0
100
AcDbSpline
210
0.0
220
0.0
230
1.0
 70
    11
 71
     3
 72
    29
 73
    25
 74
     0
 42
0.0000000001
 43
0.0000000001
 12
1.0
 22
0.0
 32
0.0
 13
1.0
 23
0.0
 33
0.0
 40
0.0
 40
0.0
 40
0.0
 40
0.0
 40
1.0
 40
1.0
 40
1.0
 40
2.0
 40
2.0
 40
2.0
 40
3.0
 40
3.0
 40
3.0
 40
4.0
 40
4.0
 40
4.0
 40
5.0
 40
5.0
 40
5.0
 40
6.0
 40
6.0
 40
6.0
 40
7.0
 40
7.0
 40
7.0
 40
8.0
 40
8.0
 40
8.0
 40
8.0
 10
105.0254584155839
 20
-161.7124375680789
 30
0.0
 10
104.9102199716023
 20
-161.921899373582
 30
0.0
 10
104.7248738344959
 20
-161.9408473987509
 30
0.0
 10
104.6005058874783
 20
-161.9408473987509
 30
0.0
 10
104.4285956227644
 20
-161.9408473987509
 30
0.0
 10
104.2771836761876
 20
-161.8943386097
 30
0.0
 10
104.1753811045985
 20
-161.7124375680789
 30
0.0
 10
104.0646212847477
 20
-161.5177896731622
 30
0.0
 10
104.0442952213848
 20
-161.280767103777
 30
0.0
 10
104.0442952213848
 20
-161.1181585968733
 30
0.0
 10
104.0442952213848
 20
-160.9741536055898
 30
0.0
 10
104.0623819726823
 20
-160.722317125618
 30
0.0
 10
104.1753811045985
 20
-160.5235351161191
 30
0.0
 10
104.2907918033544
 20
-160.3206189920379
 30
0.0
 10
104.4625298132941
 20
-160.2971923427382
 30
0.0
 10
104.6005058874783
 20
-160.2971923427382
 30
0.0
 10
104.7700045853526
 20
-160.2971923427382
 30
0.0
 10
104.9238280987691
 20
-160.3416340744979
 30
0.0
 10
105.0254584155839
 20
-160.5235351161191
 30
0.0
 10
105.1317396113039
 20
-160.7161159537446
 30
0.0
 10
105.1565442987977
 20
-160.9445257844166
 30
0.0
 10
105.1565442987977
 20
-161.1181585968733
 30
0.0
 10
105.1565442987977
 20
-161.2893798424901
 30
0.0
 10
105.1339789233693
 20
-161.5198567304534
 30
0.0
 10
105.0254584155839
 20
-161.7124375680789
 30
0.0
  0
SPLINE
  5
EF
330
E8
100
AcDbEntity
  8
_U+30EC_U+30A4_U+30E4_U+30FC 1
370
     0
100
AcDbSpline
210
0.0
220
0.0
230
1.0
 70
    11
 71
     3
 72
    17
 73
    13
 74
     0
 42
0.0000000001
 43
0.0000000001
 12
1.0
 22
0.0
 32
0.0
 13
1.0
 23
0.0
 33
0.0
 40
0.0
 40
0.0
 40
0.0
 40
0.0
 40
1.0
 40
1.0
 40
1.0
 40
2.0
 40
2.0
 40
2.0
 40
3.0
 40
3.0
 40
3.0
 40
4.0
 40
4.0
 40
4.0
 40
4.0
 10
104.6005058874783
 20
-160.4897731803637
 30
0.0
 10
104.3336832421458
 20
-160.4897731803637
 30
0.0
 10
104.2839016123839
 20
-160.7733045387997
 30
0.0
 10
104.2839016123839
 20
-161.1181585968733
 30
0.0
 10
104.2839016123839
 20
-161.4375189483559
 30
0.0
 10
104.3223144270444
 20
-161.7461995038343
 30
0.0
 10
104.6005058874783
 20
-161.7461995038343
 30
0.0
 10
104.8649169659713
 20
-161.7461995038343
 30
0.0
 10
104.9169379077985
 20
-161.4650797122379
 30
0.0
 10
104.9169379077985
 20
-161.1181585968733
 30
0.0
 10
104.9169379077985
 20
-160.7984537358421
 30
0.0
 10
104.8762857810726
 20
-160.4897731803637
 30
0.0
 10
104.6005058874783
 20
-160.4897731803637
 30
0.0
  0
HATCH
  5
F0
330
E8
100
AcDbEntity
  8
_U+30EC_U+30A4_U+30E4_U+30FC 1
 62
   179
420
  2234388
100
AcDbHatch
 10
0.0
 20
0.0
 30
0.0
210
0.0
220
0.0
230
1.0
  2
SOLID
 70
     1
 71
     0
 91
        2
 92
        1
 93
        1
 72
     4
 94
        3
 73
     0
 74
     1
 95
       29
 96
       25
 40
0.0
 40
0.0
 40
0.0
 40
0.0
 40
1.0
 40
1.0
 40
1.0
 40
2.0
 40
2.0
 40
2.0
 40
3.0
 40
3.0
 40
3.0
 40
4.0
 40
4.0
 40
4.0
 40
5.0
 40
5.0
 40
5.0
 40
6.0
 40
6.0
 40
6.0
 40
7.0
 40
7.0
 40
7.0
 40
8.0
 40
8.0
 40
8.0
 40
8.0
 10
105.0254584155839
 20
-161.7124375680789
 10
104.9102199716023
 20
-161.921899373582
 10
104.7248738344959
 20
-161.9408473987509
 10
104.6005058874783
 20
-161.9408473987509
 10
104.4285956227644
 20
-161.9408473987509
 10
104.2771836761876
 20
-161.8943386097
 10
104.1753811045985
 20
-161.7124375680789
 10
104.0646212847477
 20
-161.5177896731622
 10
104.0442952213848
 20
-161.280767103777
 10
104.0442952213848
 20
-161.1181585968733
 10
104.0442952213848
 20
-160.9741536055898
 10
104.0623819726823
 20
-160.722317125618
 10
104.1753811045985
 20
-160.5235351161191
 10
104.2907918033544
 20
-160.3206189920379
 10
104.4625298132941
 20
-160.2971923427382
 10
104.6005058874783
 20
-160.2971923427382
 10
104.7700045853526
 20
-160.2971923427382
 10
104.9238280987691
 20
-160.3416340744979
 10
105.0254584155839
 20
-160.5235351161191
 10
105.1317396113039
 20
-160.7161159537446
 10
105.1565442987977
 20
-160.9445257844166
 10
105.1565442987977
 20
-161.1181585968733
 10
105.1565442987977
 20
-161.2893798424901
 10
105.1339789233693
 20
-161.5198567304534
 10
105.0254584155839
 20
-161.7124375680789
 97
        0
 97
        0
 92
        1
 93
        1
 72
     4
 94
        3
 73
     0
 74
     1
 95
       17
 96
       13
 40
0.0
 40
0.0
 40
0.0
 40
0.0
 40
1.0
 40
1.0
 40
1.0
 40
2.0
 40
2.0
 40
2.0
 40
3.0
 40
3.0
 40
3.0
 40
4.0
 40
4.0
 40
4.0
 40
4.0
 10
104.6005058874783
 20
-160.4897731803637
 10
104.3336832421458
 20
-160.4897731803637
 10
104.2839016123839
 20
-160.7733045387997
 10
104.2839016123839
 20
-161.1181585968733
 10
104.2839016123839
 20
-161.4375189483559
 10
104.3223144270444
 20
-161.7461995038343
 10
104.6005058874783
 20
-161.7461995038343
 10
104.8649169659713
 20
-161.7461995038343
 10
104.9169379077985
 20
-161.4650797122379
 10
104.9169379077985
 20
-161.1181585968733
 10
104.9169379077985
 20
-160.7984537358421
 10
104.8762857810726
 20
-160.4897731803637
 10
104.6005058874783
 20
-160.4897731803637
 97
        0
 97
        0
 75
     2
 76
     1
 98
        0
  0
ENDBLK
  5
EB
330
E8
100
AcDbEntity
  8
0
100
AcDbBlockEnd
  0
BLOCK
  5
FB
330
F9
100
AcDbEntity
  8
0
100
AcDbBlockBegin
  2
block 9
 70
     0
 10
0.0
 20
0.0
 30
0.0
  3
block 9
  1

  0
SPLINE
  5
FD
330
F9
100
AcDbEntity
  8
_U+30EC_U+30A4_U+30E4_U+30FC 1
370
     0
100
AcDbSpline
210
0.0
220
0.0
230
1.0
 70
    11
 71
     3
 72
    26
 73
    22
 74
     0
 42
0.0000000001
 43
0.0000000001
 12
1.0
 22
0.0
 32
0.0
 13
1.0
 23
0.0
 33
0.0
 40
0.0
 40
0.0
 40
0.0
 40
0.0
 40
1.0
 40
1.0
 40
1.0
 40
2.0
 40
2.0
 40
2.0
 40
3.0
 40
3.0
 40
3.0
 40
4.0
 40
4.0
 40
4.0
 40
5.0
 40
5.0
 40
5.0
 40
6.0
 40
6.0
 40
6.0
 40
7.0
 40
7.0
 40
7.0
 40
7.0
 10
93.52538517627144
 20
-161.8902044951177
 30
0.0
 10
93.52538517627144
 20
-161.8902044951177
 30
0.0
 10
93.52538517627144
 20
-160.7860513920952
 30
0.0
 10
93.52538517627144
 20
-160.7860513920952
 30
0.0
 10
93.52538517627144
 20
-160.7860513920952
 30
0.0
 10
93.17260739858185
 20
-160.7860513920952
 30
0.0
 10
93.17260739858185
 20
-160.7860513920952
 30
0.0
 10
93.17260739858185
 20
-160.7860513920952
 30
0.0
 10
93.17260739858185
 20
-160.6379122862294
 30
0.0
 10
93.17260739858185
 20
-160.6379122862294
 30
0.0
 10
93.52762448833685
 20
-160.6230983756429
 30
0.0
 10
93.57740611809871
 20
-160.4601453591905
 30
0.0
 10
93.60892874178874
 20
-160.3457681890802
 30
0.0
 10
93.60892874178874
 20
-160.3457681890802
 30
0.0
 10
93.76499156727056
 20
-160.3457681890802
 30
0.0
 10
93.76499156727056
 20
-160.3457681890802
 30
0.0
 10
93.76499156727056
 20
-160.3457681890802
 30
0.0
 10
93.76499156727056
 20
-161.8902044951177
 30
0.0
 10
93.76499156727056
 20
-161.8902044951177
 30
0.0
 10
93.76499156727056
 20
-161.8902044951177
 30
0.0
 10
93.52538517627144
 20
-161.8902044951177
 30
0.0
 10
93.52538517627144
 20
-161.8902044951177
 30
0.0
  0
HATCH
  5
FE
330
F9
100
AcDbEntity
  8
_U+30EC_U+30A4_U+30E4_U+30FC 1
 62
   179
420
  2234388
100
AcDbHatch
 10
0.0
 20
0.0
 30
0.0
210
0.0
220
0.0
230
1.0
  2
SOLID
 70
     1
 71
     0
 91
        1
 92
        1
 93
        1
 72
     4
 94
        3
 73
     0
 74
     1
 95
       26
 96
       22
 40
0.0
 40
0.0
 40
0.0
 40
0.0
 40
1.0
 40
1.0
 40
1.0
 40
2.0
 40
2.0
 40
2.0
 40
3.0
 40
3.0
 40
3.0
 40
4.0
 40
4.0
 40
4.0
 40
5.0
 40
5.0
 40
5.0
 40
6.0
 40
6.0
 40
6.0
 40
7.0
 40
7.0
 40
7.0
 40
7.0
 10
93.52538517627144
 20
-161.8902044951177
 10
93.52538517627144
 20
-161.8902044951177
 10
93.52538517627144
 20
-160.7860513920952
 10
93.52538517627144
 20
-160.7860513920952
 10
93.52538517627144
 20
-160.7860513920952
 10
93.17260739858185
 20
-160.7860513920952
 10
93.17260739858185
 20
-160.7860513920952
 10
93.17260739858185
 20
-160.7860513920952
 10
93.17260739858185
 20
-160.6379122862294
 10
93.17260739858185
 20
-160.6379122862294
 10
93.52762448833685
 20
-160.6230983756429
 10
93.57740611809871
 20
-160.4601453591905
 10
93.60892874178874
 20
-160.3457681890802
 10
93.60892874178874
 20
-160.3457681890802
 10
93.76499156727056
 20
-160.3457681890802
 10
93.76499156727056
 20
-160.3457681890802
 10
93.76499156727056
 20
-160.3457681890802
 10
93.76499156727056
 20
-161.8902044951177
 10
93.76499156727056
 20
-161.8902044951177
 10
93.76499156727056
 20
-161.8902044951177
 10
93.52538517627144
 20
-161.8902044951177
 10
93.52538517627144
 20
-161.8902044951177
 97
        0
 97
        0
 75
     2
 76
     1
 98
        0
  0
SPLINE
  5
FF
330
F9
100
AcDbEntity
  8
_U+30EC_U+30A4_U+30E4_U+30FC 1
370
     0
100
AcDbSpline
210
0.0
220
0.0
230
1.0
 70
    11
 71
     3
 72
    29
 73
    25
 74
     0
 42
0.0000000001
 43
0.0000000001
 12
1.0
 22
0.0
 32
0.0
 13
1.0
 23
0.0
 33
0.0
 40
0.0
 40
0.0
 40
0.0
 40
0.0
 40
1.0
 40
1.0
 40
1.0
 40
2.0
 40
2.0
 40
2.0
 40
3.0
 40
3.0
 40
3.0
 40
4.0
 40
4.0
 40
4.0
 40
5.0
 40
5.0
 40
5.0
 40
6.0
 40
6.0
 40
6.0
 40
7.0
 40
7.0
 40
7.0
 40
8.0
 40
8.0
 40
8.0
 40
8.0
 10
95.260163007869
 20
-161.7124375680789
 30
0.0
 10
95.14492456388739
 20
-161.921899373582
 30
0.0
 10
94.95957842678094
 20
-161.9408473987509
 30
0.0
 10
94.83521047976342
 20
-161.9408473987509
 30
0.0
 10
94.66330021504946
 20
-161.9408473987509
 30
0.0
 10
94.51188826847273
 20
-161.8943386097
 30
0.0
 10
94.4100856968836
 20
-161.7124375680789
 30
0.0
 10
94.29932587703281
 20
-161.5177896731622
 30
0.0
 10
94.27899981366984
 20
-161.280767103777
 30
0.0
 10
94.27899981366984
 20
-161.1181585968733
 30
0.0
 10
94.27899981366984
 20
-160.9741536055898
 30
0.0
 10
94.2970865649674
 20
-160.722317125618
 30
0.0
 10
94.4100856968836
 20
-160.5235351161191
 30
0.0
 10
94.52549639563946
 20
-160.3206189920379
 30
0.0
 10
94.69723440557917
 20
-160.2971923427382
 30
0.0
 10
94.83521047976342
 20
-160.2971923427382
 30
0.0
 10
95.00470917763772
 20
-160.2971923427382
 30
0.0
 10
95.15853269105412
 20
-160.3416340744979
 30
0.0
 10
95.260163007869
 20
-160.5235351161191
 30
0.0
 10
95.36644420358896
 20
-160.7161159537446
 30
0.0
 10
95.39142114585701
 20
-160.9445257844166
 30
0.0
 10
95.39142114585701
 20
-161.1181585968733
 30
0.0
 10
95.39142114585701
 20
-161.2893798424901
 30
0.0
 10
95.36868351565437
 20
-161.5198567304534
 30
0.0
 10
95.260163007869
 20
-161.7124375680789
 30
0.0
  0
SPLINE
  5
100
330
F9
100
AcDbEntity
  8
_U+30EC_U+30A4_U+30E4_U+30FC 1
370
     0
100
AcDbSpline
210
0.0
220
0.0
230
1.0
 70
    11
 71
     3
 72
    17
 73
    13
 74
     0
 42
0.0000000001
 43
0.0000000001
 12
1.0
 22
0.0
 32
0.0
 13
1.0
 23
0.0
 33
0.0
 40
0.0
 40
0.0
 40
0.0
 40
0.0
 40
1.0
 40
1.0
 40
1.0
 40
2.0
 40
2.0
 40
2.0
 40
3.0
 40
3.0
 40
3.0
 40
4.0
 40
4.0
 40
4.0
 40
4.0
 10
94.83521047976342
 20
-160.4897731803637
 30
0.0
 10
94.56838783443082
 20
-160.4897731803637
 30
0.0
 10
94.51860620466897
 20
-160.7733045387997
 30
0.0
 10
94.51860620466897
 20
-161.1181585968733
 30
0.0
 10
94.51860620466897
 20
-161.4375189483559
 30
0.0
 10
94.5570190193295
 20
-161.7461995038343
 30
0.0
 10
94.83521047976342
 20
-161.7461995038343
 30
0.0
 10
95.09962155825635
 20
-161.7461995038343
 30
0.0
 10
95.15164250008363
 20
-161.4650797122379
 30
0.0
 10
95.15164250008363
 20
-161.1181585968733
 30
0.0
 10
95.15164250008363
 20
-160.7984537358421
 30
0.0
 10
95.11099037335768
 20
-160.4897731803637
 30
0.0
 10
94.83521047976342
 20
-160.4897731803637
 30
0.0
  0
HATCH
  5
101
330
F9
100
AcDbEntity
  8
_U+30EC_U+30A4_U+30E4_U+30FC 1
 62
   179
420
  2234388
100
AcDbHatch
 10
0.0
 20
0.0
 30
0.0
210
0.0
220
0.0
230
1.0
  2
SOLID
 70
     1
 71
     0
 91
        2
 92
        1
 93
        1
 72
     4
 94
        3
 73
     0
 74
     1
 95
       29
 96
       25
 40
0.0
 40
0.0
 40
0.0
 40
0.0
 40
1.0
 40
1.0
 40
1.0
 40
2.0
 40
2.0
 40
2.0
 40
3.0
 40
3.0
 40
3.0
 40
4.0
 40
4.0
 40
4.0
 40
5.0
 40
5.0
 40
5.0
 40
6.0
 40
6.0
 40
6.0
 40
7.0
 40
7.0
 40
7.0
 40
8.0
 40
8.0
 40
8.0
 40
8.0
 10
95.260163007869
 20
-161.7124375680789
 10
95.14492456388739
 20
-161.921899373582
 10
94.95957842678094
 20
-161.9408473987509
 10
94.83521047976342
 20
-161.9408473987509
 10
94.66330021504946
 20
-161.9408473987509
 10
94.51188826847273
 20
-161.8943386097
 10
94.4100856968836
 20
-161.7124375680789
 10
94.29932587703281
 20
-161.5177896731622
 10
94.27899981366984
 20
-161.280767103777
 10
94.27899981366984
 20
-161.1181585968733
 10
94.27899981366984
 20
-160.9741536055898
 10
94.2970865649674
 20
-160.722317125618
 10
94.4100856968836
 20
-160.5235351161191
 10
94.52549639563946
 20
-160.3206189920379
 10
94.69723440557917
 20
-160.2971923427382
 10
94.83521047976342
 20
-160.2971923427382
 10
95.00470917763772
 20
-160.2971923427382
 10
95.15853269105412
 20
-160.3416340744979
 10
95.260163007869
 20
-160.5235351161191
 10
95.36644420358896
 20
-160.7161159537446
 10
95.39142114585701
 20
-160.9445257844166
 10
95.39142114585701
 20
-161.1181585968733
 10
95.39142114585701
 20
-161.2893798424901
 10
95.36868351565437
 20
-161.5198567304534
 10
95.260163007869
 20
-161.7124375680789
 97
        0
 97
        0
 92
        1
 93
        1
 72
     4
 94
        3
 73
     0
 74
     1
 95
       17
 96
       13
 40
0.0
 40
0.0
 40
0.0
 40
0.0
 40
1.0
 40
1.0
 40
1.0
 40
2.0
 40
2.0
 40
2.0
 40
3.0
 40
3.0
 40
3.0
 40
4.0
 40
4.0
 40
4.0
 40
4.0
 10
94.83521047976342
 20
-160.4897731803637
 10
94.56838783443082
 20
-160.4897731803637
 10
94.51860620466897
 20
-160.7733045387997
 10
94.51860620466897
 20
-161.1181585968733
 10
94.51860620466897
 20
-161.4375189483559
 10
94.5570190193295
 20
-161.7461995038343
 10
94.83521047976342
 20
-161.7461995038343
 10
95.09962155825635
 20
-161.7461995038343
 10
95.15164250008363
 20
-161.4650797122379
 10
95.15164250008363
 20
-161.1181585968733
 10
95.15164250008363
 20
-160.7984537358421
 10
95.11099037335768
 20
-160.4897731803637
 10
94.83521047976342
 20
-160.4897731803637
 97
        0
 97
        0
 75
     2
 76
     1
 98
        0
  0
ENDBLK
  5
FC
330
F9
100
AcDbEntity
  8
0
100
AcDbBlockEnd
  0
BLOCK
  5
104
330
102
100
AcDbEntity
  8
0
100
AcDbBlockBegin
  2
block 10
 70
     0
 10
0.0
 20
0.0
 30
0.0
  3
block 10
  1

  0
POLYLINE
  5
106
330
102
100
AcDbEntity
  8
_U+30EC_U+30A4_U+30E4_U+30FC 1
 62
   179
420
  2234388
370
     9
100
AcDb2dPolyline
 66
     1
 10
0.0
 20
0.0
 30
0.0
  0
VERTEX
  5
107
330
106
100
AcDbEntity
  8
_U+30EC_U+30A4_U+30E4_U+30FC 1
 62
   179
420
  2234388
370
     9
100
AcDbVertex
100
AcDb2dVertex
 10
86.56111640275306
 20
-140.7412941314812
 30
0.0
  0
VERTEX
  5
108
330
106
100
AcDbEntity
  8
_U+30EC_U+30A4_U+30E4_U+30FC 1
 62
   179
420
  2234388
370
     9
100
AcDbVertex
100
AcDb2dVertex
 10
86.56111640275306
 20
-136.4838307992125
 30
0.0
  0
SEQEND
  5
109
330
106
100
AcDbEntity
  8
_U+30EC_U+30A4_U+30E4_U+30FC 1
 62
   179
420
  2234388
370
     9
  0
POLYLINE
  5
10A
330
102
100
AcDbEntity
  8
_U+30EC_U+30A4_U+30E4_U+30FC 1
 62
   179
420
  2234388
370
     9
100
AcDb2dPolyline
 66
     1
 10
0.0
 20
0.0
 30
0.0
  0
VERTEX
  5
10B
330
10A
100
AcDbEntity
  8
_U+30EC_U+30A4_U+30E4_U+30FC 1
 62
   179
420
  2234388
370
     9
100
AcDbVertex
100
AcDb2dVertex
 10
86.56111640275306
 20
-140.7412941314812
 30
0.0
  0
VERTEX
  5
10C
330
10A
100
AcDbEntity
  8
_U+30EC_U+30A4_U+30E4_U+30FC 1
 62
   179
420
  2234388
370
     9
100
AcDbVertex
100
AcDb2dVertex
 10
86.56111640275306
 20
-143.7412810751759
 30
0.0
  0
SEQEND
  5
10D
330
10A
100
AcDbEntity
  8
_U+30EC_U+30A4_U+30E4_U+30FC 1
 62
   179
420
  2234388
370
     9
  0
POLYLINE
  5
10E
330
102
100
AcDbEntity
  8
_U+30EC_U+30A4_U+30E4_U+30FC 1
 62
   179
420
  2234388
370
     9
100
AcDb2dPolyline
 66
     1
 10
0.0
 20
0.0
 30
0.0
  0
VERTEX
  5
10F
330
10E
100
AcDbEntity
  8
_U+30EC_U+30A4_U+30E4_U+30FC 1
 62
   179
420
  2234388
370
     9
100
AcDbVertex
100
AcDb2dVertex
 10
88.02115775439319
 20
-141.7417366312311
 30
0.0
  0
VERTEX
  5
110
330
10E
100
AcDbEntity
  8
_U+30EC_U+30A4_U+30E4_U+30FC 1
 62
   179
420
  2234388
370
     9
100
AcDbVertex
100
AcDb2dVertex
 10
85.56134420603715
 20
-141.7417366312311
 30
0.0
  0
SEQEND
  5
111
330
10E
100
AcDbEntity
  8
_U+30EC_U+30A4_U+30E4_U+30FC 1
 62
   179
420
  2234388
370
     9
  0
POLYLINE
  5
112
330
102
100
AcDbEntity
  8
_U+30EC_U+30A4_U+30E4_U+30FC 1
 62
   179
420
  2234388
370
     9
100
AcDb2dPolyline
 66
     1
 10
0.0
 20
0.0
 30
0.0
  0
VERTEX
  5
113
330
112
100
AcDbEntity
  8
_U+30EC_U+30A4_U+30E4_U+30FC 1
 62
   179
420
  2234388
370
     9
100
AcDbVertex
100
AcDb2dVertex
 10
88.02115775439319
 20
-142.7415088532037
 30
0.0
  0
VERTEX
  5
114
330
112
100
AcDbEntity
  8
_U+30EC_U+30A4_U+30E4_U+30FC 1
 62
   179
420
  2234388
370
     9
100
AcDbVertex
100
AcDb2dVertex
 10
85.56134420603715
 20
-142.7415088532037
 30
0.0
  0
SEQEND
  5
115
330
112
100
AcDbEntity
  8
_U+30EC_U+30A4_U+30E4_U+30FC 1
 62
   179
420
  2234388
370
     9
  0
INSERT
  5
117
330
102
100
AcDbEntity
  8
_U+30EC_U+30A4_U+30E4_U+30FC 1
100
AcDbBlockReference
  2
block 11
 10
0.0
 20
0.0
 30
0.0
  0
ENDBLK
  5
105
330
102
100
AcDbEntity
  8
0
100
AcDbBlockEnd
  0
BLOCK
  5
118
330
116
100
AcDbEntity
  8
0
100
AcDbBlockBegin
  2
block 11
 70
     0
 10
0.0
 20
0.0
 30
0.0
  3
block 11
  1

  0
SPLINE
  5
11A
330
116
100
AcDbEntity
  8
_U+30EC_U+30A4_U+30E4_U+30FC 1
370
     0
100
AcDbSpline
210
0.0
220
0.0
230
1.0
 70
    11
 71
     3
 72
    26
 73
    22
 74
     0
 42
0.0000000001
 43
0.0000000001
 12
1.0
 22
0.0
 32
0.0
 13
1.0
 23
0.0
 33
0.0
 40
0.0
 40
0.0
 40
0.0
 40
0.0
 40
1.0
 40
1.0
 40
1.0
 40
2.0
 40
2.0
 40
2.0
 40
3.0
 40
3.0
 40
3.0
 40
4.0
 40
4.0
 40
4.0
 40
5.0
 40
5.0
 40
5.0
 40
6.0
 40
6.0
 40
6.0
 40
7.0
 40
7.0
 40
7.0
 40
7.0
 10
85.20926918442686
 20
-138.7935953429058
 30
0.0
 10
85.20926918442686
 20
-138.7935953429058
 30
0.0
 10
84.10511608140428
 20
-138.7935953429058
 30
0.0
 10
84.10511608140428
 20
-138.7935953429058
 30
0.0
 10
84.10511608140428
 20
-138.7935953429058
 30
0.0
 10
84.10511608140428
 20
-139.1460286110468
 30
0.0
 10
84.10511608140428
 20
-139.1460286110468
 30
0.0
 10
84.10511608140428
 20
-139.1460286110468
 30
0.0
 10
83.95697697553854
 20
-139.1460286110468
 30
0.0
 10
83.95697697553854
 20
-139.1460286110468
 30
0.0
 10
83.94216306495197
 20
-138.7911837760661
 30
0.0
 10
83.77921004849965
 20
-138.7415744010785
 30
0.0
 10
83.66483287838935
 20
-138.7098795226142
 30
0.0
 10
83.66483287838935
 20
-138.7098795226142
 30
0.0
 10
83.66483287838935
 20
-138.5538166971324
 30
0.0
 10
83.66483287838935
 20
-138.5538166971324
 30
0.0
 10
83.66483287838935
 20
-138.5538166971324
 30
0.0
 10
85.20926918442686
 20
-138.5538166971324
 30
0.0
 10
85.20926918442686
 20
-138.5538166971324
 30
0.0
 10
85.20926918442686
 20
-138.5538166971324
 30
0.0
 10
85.20926918442686
 20
-138.7935953429058
 30
0.0
 10
85.20926918442686
 20
-138.7935953429058
 30
0.0
  0
HATCH
  5
11B
330
116
100
AcDbEntity
  8
_U+30EC_U+30A4_U+30E4_U+30FC 1
 62
   179
420
  2234388
100
AcDbHatch
 10
0.0
 20
0.0
 30
0.0
210
0.0
220
0.0
230
1.0
  2
SOLID
 70
     1
 71
     0
 91
        1
 92
        1
 93
        1
 72
     4
 94
        3
 73
     0
 74
     1
 95
       26
 96
       22
 40
0.0
 40
0.0
 40
0.0
 40
0.0
 40
1.0
 40
1.0
 40
1.0
 40
2.0
 40
2.0
 40
2.0
 40
3.0
 40
3.0
 40
3.0
 40
4.0
 40
4.0
 40
4.0
 40
5.0
 40
5.0
 40
5.0
 40
6.0
 40
6.0
 40
6.0
 40
7.0
 40
7.0
 40
7.0
 40
7.0
 10
85.20926918442686
 20
-138.7935953429058
 10
85.20926918442686
 20
-138.7935953429058
 10
84.10511608140428
 20
-138.7935953429058
 10
84.10511608140428
 20
-138.7935953429058
 10
84.10511608140428
 20
-138.7935953429058
 10
84.10511608140428
 20
-139.1460286110468
 10
84.10511608140428
 20
-139.1460286110468
 10
84.10511608140428
 20
-139.1460286110468
 10
83.95697697553854
 20
-139.1460286110468
 10
83.95697697553854
 20
-139.1460286110468
 10
83.94216306495197
 20
-138.7911837760661
 10
83.77921004849965
 20
-138.7415744010785
 10
83.66483287838935
 20
-138.7098795226142
 10
83.66483287838935
 20
-138.7098795226142
 10
83.66483287838935
 20
-138.5538166971324
 10
83.66483287838935
 20
-138.5538166971324
 10
83.66483287838935
 20
-138.5538166971324
 10
85.20926918442686
 20
-138.5538166971324
 10
85.20926918442686
 20
-138.5538166971324
 10
85.20926918442686
 20
-138.5538166971324
 10
85.20926918442686
 20
-138.7935953429058
 10
85.20926918442686
 20
-138.7935953429058
 97
        0
 97
        0
 75
     2
 76
     1
 98
        0
  0
ENDBLK
  5
119
330
116
100
AcDbEntity
  8
0
100
AcDbBlockEnd
  0
BLOCK
  5
11E
330
11C
100
AcDbEntity
  8
0
100
AcDbBlockBegin
  2
block 12
 70
     0
 10
0.0
 20
0.0
 30
0.0
  3
block 12
  1

  0
POLYLINE
  5
120
330
11C
100
AcDbEntity
  8
_U+30EC_U+30A4_U+30E4_U+30FC 1
 62
   179
420
  2234388
370
     9
100
AcDb2dPolyline
 66
     1
 10
0.0
 20
0.0
 30
0.0
  0
VERTEX
  5
121
330
120
100
AcDbEntity
  8
_U+30EC_U+30A4_U+30E4_U+30FC 1
 62
   179
420
  2234388
370
     9
100
AcDbVertex
100
AcDb2dVertex
 10
127.9718642351658
 20
-142.7415088532037
 30
0.0
  0
VERTEX
  5
122
330
120
100
AcDbEntity
  8
_U+30EC_U+30A4_U+30E4_U+30FC 1
 62
   179
420
  2234388
370
     9
100
AcDbVertex
100
AcDb2dVertex
 10
127.9718642351658
 20
-158.2415060715508
 30
0.0
  0
SEQEND
  5
123
330
120
100
AcDbEntity
  8
_U+30EC_U+30A4_U+30E4_U+30FC 1
 62
   179
420
  2234388
370
     9
  0
POLYLINE
  5
124
330
11C
100
AcDbEntity
  8
_U+30EC_U+30A4_U+30E4_U+30FC 1
 62
   179
420
  2234388
370
     9
100
AcDb2dPolyline
 66
     1
 10
0.0
 20
0.0
 30
0.0
  0
VERTEX
  5
125
330
124
100
AcDbEntity
  8
_U+30EC_U+30A4_U+30E4_U+30FC 1
 62
   179
420
  2234388
370
     9
100
AcDbVertex
100
AcDb2dVertex
 10
126.5118228835256
 20
-142.7415088532037
 30
0.0
  0
VERTEX
  5
126
330
124
100
AcDbEntity
  8
_U+30EC_U+30A4_U+30E4_U+30FC 1
 62
   179
420
  2234388
370
     9
100
AcDbVertex
100
AcDb2dVertex
 10
128.9716364318816
 20
-142.7415088532037
 30
0.0
  0
SEQEND
  5
127
330
124
100
AcDbEntity
  8
_U+30EC_U+30A4_U+30E4_U+30FC 1
 62
   179
420
  2234388
370
     9
  0
POLYLINE
  5
128
330
11C
100
AcDbEntity
  8
_U+30EC_U+30A4_U+30E4_U+30FC 1
 62
   179
420
  2234388
370
     9
100
AcDb2dPolyline
 66
     1
 10
0.0
 20
0.0
 30
0.0
  0
VERTEX
  5
129
330
128
100
AcDbEntity
  8
_U+30EC_U+30A4_U+30E4_U+30FC 1
 62
   179
420
  2234388
370
     9
100
AcDbVertex
100
AcDb2dVertex
 10
111.5118885439836
 20
-158.2415060715508
 30
0.0
  0
VERTEX
  5
12A
330
128
100
AcDbEntity
  8
_U+30EC_U+30A4_U+30E4_U+30FC 1
 62
   179
420
  2234388
370
     9
100
AcDbVertex
100
AcDb2dVertex
 10
128.9716364318816
 20
-158.2415060715508
 30
0.0
  0
SEQEND
  5
12B
330
128
100
AcDbEntity
  8
_U+30EC_U+30A4_U+30E4_U+30FC 1
 62
   179
420
  2234388
370
     9
  0
INSERT
  5
12D
330
11C
100
AcDbEntity
  8
_U+30EC_U+30A4_U+30E4_U+30FC 1
100
AcDbBlockReference
  2
block 13
 10
0.0
 20
0.0
 30
0.0
  0
ENDBLK
  5
11F
330
11C
100
AcDbEntity
  8
0
100
AcDbBlockEnd
  0
BLOCK
  5
12E
330
12C
100
AcDbEntity
  8
0
100
AcDbBlockBegin
  2
block 13
 70
     0
 10
0.0
 20
0.0
 30
0.0
  3
block 13
  1

  0
SPLINE
  5
130
330
12C
100
AcDbEntity
  8
_U+30EC_U+30A4_U+30E4_U+30FC 1
370
     0
100
AcDbSpline
210
0.0
220
0.0
230
1.0
 70
    11
 71
     3
 72
    26
 73
    22
 74
     0
 42
0.0000000001
 43
0.0000000001
 12
1.0
 22
0.0
 32
0.0
 13
1.0
 23
0.0
 33
0.0
 40
0.0
 40
0.0
 40
0.0
 40
0.0
 40
1.0
 40
1.0
 40
1.0
 40
2.0
 40
2.0
 40
2.0
 40
3.0
 40
3.0
 40
3.0
 40
4.0
 40
4.0
 40
4.0
 40
5.0
 40
5.0
 40
5.0
 40
6.0
 40
6.0
 40
6.0
 40
7.0
 40
7.0
 40
7.0
 40
7.0
 10
126.6203504457755
 20
-152.0947645019069
 30
0.0
 10
126.6203504457755
 20
-152.0947645019069
 30
0.0
 10
125.5161973427529
 20
-152.0947645019069
 30
0.0
 10
125.5161973427529
 20
-152.0947645019069
 30
0.0
 10
125.5161973427529
 20
-152.0947645019069
 30
0.0
 10
125.5161973427529
 20
-152.4471977700479
 30
0.0
 10
125.5161973427529
 20
-152.4471977700479
 30
0.0
 10
125.5161973427529
 20
-152.4471977700479
 30
0.0
 10
125.3680582368872
 20
-152.4471977700479
 30
0.0
 10
125.3680582368872
 20
-152.4471977700479
 30
0.0
 10
125.3532443263006
 20
-152.0923529350672
 30
0.0
 10
125.1902913098483
 20
-152.0427435600796
 30
0.0
 10
125.075914139738
 20
-152.0110486816153
 30
0.0
 10
125.075914139738
 20
-152.0110486816153
 30
0.0
 10
125.075914139738
 20
-151.8549858561335
 30
0.0
 10
125.075914139738
 20
-151.8549858561335
 30
0.0
 10
125.075914139738
 20
-151.8549858561335
 30
0.0
 10
126.6203504457755
 20
-151.8549858561335
 30
0.0
 10
126.6203504457755
 20
-151.8549858561335
 30
0.0
 10
126.6203504457755
 20
-151.8549858561335
 30
0.0
 10
126.6203504457755
 20
-152.0947645019069
 30
0.0
 10
126.6203504457755
 20
-152.0947645019069
 30
0.0
  0
HATCH
  5
131
330
12C
100
AcDbEntity
  8
_U+30EC_U+30A4_U+30E4_U+30FC 1
 62
   179
420
  2234388
100
AcDbHatch
 10
0.0
 20
0.0
 30
0.0
210
0.0
220
0.0
230
1.0
  2
SOLID
 70
     1
 71
     0
 91
        1
 92
        1
 93
        1
 72
     4
 94
        3
 73
     0
 74
     1
 95
       26
 96
       22
 40
0.0
 40
0.0
 40
0.0
 40
0.0
 40
1.0
 40
1.0
 40
1.0
 40
2.0
 40
2.0
 40
2.0
 40
3.0
 40
3.0
 40
3.0
 40
4.0
 40
4.0
 40
4.0
 40
5.0
 40
5.0
 40
5.0
 40
6.0
 40
6.0
 40
6.0
 40
7.0
 40
7.0
 40
7.0
 40
7.0
 10
126.6203504457755
 20
-152.0947645019069
 10
126.6203504457755
 20
-152.0947645019069
 10
125.5161973427529
 20
-152.0947645019069
 10
125.5161973427529
 20
-152.0947645019069
 10
125.5161973427529
 20
-152.0947645019069
 10
125.5161973427529
 20
-152.4471977700479
 10
125.5161973427529
 20
-152.4471977700479
 10
125.5161973427529
 20
-152.4471977700479
 10
125.3680582368872
 20
-152.4471977700479
 10
125.3680582368872
 20
-152.4471977700479
 10
125.3532443263006
 20
-152.0923529350672
 10
125.1902913098483
 20
-152.0427435600796
 10
125.075914139738
 20
-152.0110486816153
 10
125.075914139738
 20
-152.0110486816153
 10
125.075914139738
 20
-151.8549858561335
 10
125.075914139738
 20
-151.8549858561335
 10
125.075914139738
 20
-151.8549858561335
 10
126.6203504457755
 20
-151.8549858561335
 10
126.6203504457755
 20
-151.8549858561335
 10
126.6203504457755
 20
-151.8549858561335
 10
126.6203504457755
 20
-152.0947645019069
 10
126.6203504457755
 20
-152.0947645019069
 97
        0
 97
        0
 75
     2
 76
     1
 98
        0
  0
SPLINE
  5
132
330
12C
100
AcDbEntity
  8
_U+30EC_U+30A4_U+30E4_U+30FC 1
370
     0
100
AcDbSpline
210
0.0
220
0.0
230
1.0
 70
    11
 71
     3
 72
    53
 73
    49
 74
     0
 42
0.0000000001
 43
0.0000000001
 12
1.0
 22
0.0
 32
0.0
 13
1.0
 23
0.0
 33
0.0
 40
0.0
 40
0.0
 40
0.0
 40
0.0
 40
1.0
 40
1.0
 40
1.0
 40
2.0
 40
2.0
 40
2.0
 40
3.0
 40
3.0
 40
3.0
 40
4.0
 40
4.0
 40
4.0
 40
5.0
 40
5.0
 40
5.0
 40
6.0
 40
6.0
 40
6.0
 40
7.0
 40
7.0
 40
7.0
 40
8.0
 40
8.0
 40
8.0
 40
9.0
 40
9.0
 40
9.0
 40
10.0
 40
10.0
 40
10.0
 40
11.0
 40
11.0
 40
11.0
 40
12.0
 40
12.0
 40
12.0
 40
13.0
 40
13.0
 40
13.0
 40
14.0
 40
14.0
 40
14.0
 40
15.0
 40
15.0
 40
15.0
 40
16.0
 40
16.0
 40
16.0
 40
16.0
 10
126.6709933494086
 20
-150.8052652617779
 30
0.0
 10
126.6709933494086
 20
-150.8889810820694
 30
0.0
 10
126.6541123815309
 20
-150.9971570803063
 30
0.0
 10
126.5907226246023
 20
-151.1060220976402
 30
0.0
 10
126.4808240786229
 20
-151.2913682347466
 30
0.0
 10
126.3495659406348
 20
-151.3137613554007
 30
0.0
 10
126.2417344519465
 20
-151.3340874187637
 30
0.0
 10
126.2417344519465
 20
-151.3340874187637
 30
0.0
 10
126.2417344519465
 20
-151.09672033983
 30
0.0
 10
126.2417344519465
 20
-151.09672033983
 30
0.0
 10
126.4405164614454
 20
-151.0381537165808
 30
0.0
 10
126.4701442826186
 20
-150.9024169544619
 30
0.0
 10
126.4701442826186
 20
-150.8028536949382
 30
0.0
 10
126.4701442826186
 20
-150.6536810604269
 30
0.0
 10
126.3705810230949
 20
-150.4907280439745
 30
0.0
 10
126.1380370778405
 20
-150.4907280439745
 30
0.0
 10
125.8820664832864
 20
-150.4907280439745
 30
0.0
 10
125.8121310449359
 20
-150.6829643720515
 30
0.0
 10
125.8121310449359
 20
-150.8118109431998
 30
0.0
 10
125.8121310449359
 20
-150.8459173885038
 30
0.0
 10
125.8121310449359
 20
-150.9971570803063
 30
0.0
 10
125.9413221256327
 20
-151.0922417156992
 30
0.0
 10
125.9413221256327
 20
-151.0922417156992
 30
0.0
 10
125.9223741004639
 20
-151.2799994196453
 30
0.0
 10
125.9223741004639
 20
-151.2799994196453
 30
0.0
 10
125.9223741004639
 20
-151.2799994196453
 30
0.0
 10
125.075914139738
 20
-151.1511528484969
 30
0.0
 10
125.075914139738
 20
-151.1511528484969
 30
0.0
 10
125.075914139738
 20
-151.1511528484969
 30
0.0
 10
125.075914139738
 20
-150.3191622888091
 30
0.0
 10
125.075914139738
 20
-150.3191622888091
 30
0.0
 10
125.075914139738
 20
-150.3191622888091
 30
0.0
 10
125.2705620346546
 20
-150.3191622888091
 30
0.0
 10
125.2705620346546
 20
-150.3191622888091
 30
0.0
 10
125.2705620346546
 20
-150.3191622888091
 30
0.0
 10
125.2705620346546
 20
-150.9768310169433
 30
0.0
 10
125.2705620346546
 20
-150.9768310169433
 30
0.0
 10
125.2705620346546
 20
-150.9768310169433
 30
0.0
 10
125.6936197602433
 20
-151.0471109648424
 30
0.0
 10
125.6936197602433
 20
-151.0471109648424
 30
0.0
 10
125.6598578244878
 20
-150.9816541506227
 30
0.0
 10
125.6195502073104
 20
-150.8934597062002
 30
0.0
 10
125.6195502073104
 20
-150.766680192343
 30
0.0
 10
125.6195502073104
 20
-150.4955511776539
 30
0.0
 10
125.8059298730624
 20
-150.242336659488
 30
0.0
 10
126.1190890526716
 20
-150.242336659488
 30
0.0
 10
126.4363823468631
 20
-150.242336659488
 30
0.0
 10
126.6709933494086
 20
-150.4817707957129
 30
0.0
 10
126.6709933494086
 20
-150.8052652617779
 30
0.0
  0
HATCH
  5
133
330
12C
100
AcDbEntity
  8
_U+30EC_U+30A4_U+30E4_U+30FC 1
 62
   179
420
  2234388
100
AcDbHatch
 10
0.0
 20
0.0
 30
0.0
210
0.0
220
0.0
230
1.0
  2
SOLID
 70
     1
 71
     0
 91
        1
 92
        1
 93
        1
 72
     4
 94
        3
 73
     0
 74
     1
 95
       53
 96
       49
 40
0.0
 40
0.0
 40
0.0
 40
0.0
 40
1.0
 40
1.0
 40
1.0
 40
2.0
 40
2.0
 40
2.0
 40
3.0
 40
3.0
 40
3.0
 40
4.0
 40
4.0
 40
4.0
 40
5.0
 40
5.0
 40
5.0
 40
6.0
 40
6.0
 40
6.0
 40
7.0
 40
7.0
 40
7.0
 40
8.0
 40
8.0
 40
8.0
 40
9.0
 40
9.0
 40
9.0
 40
10.0
 40
10.0
 40
10.0
 40
11.0
 40
11.0
 40
11.0
 40
12.0
 40
12.0
 40
12.0
 40
13.0
 40
13.0
 40
13.0
 40
14.0
 40
14.0
 40
14.0
 40
15.0
 40
15.0
 40
15.0
 40
16.0
 40
16.0
 40
16.0
 40
16.0
 10
126.6709933494086
 20
-150.8052652617779
 10
126.6709933494086
 20
-150.8889810820694
 10
126.6541123815309
 20
-150.9971570803063
 10
126.5907226246023
 20
-151.1060220976402
 10
126.4808240786229
 20
-151.2913682347466
 10
126.3495659406348
 20
-151.3137613554007
 10
126.2417344519465
 20
-151.3340874187637
 10
126.2417344519465
 20
-151.3340874187637
 10
126.2417344519465
 20
-151.09672033983
 10
126.2417344519465
 20
-151.09672033983
 10
126.4405164614454
 20
-151.0381537165808
 10
126.4701442826186
 20
-150.9024169544619
 10
126.4701442826186
 20
-150.8028536949382
 10
126.4701442826186
 20
-150.6536810604269
 10
126.3705810230949
 20
-150.4907280439745
 10
126.1380370778405
 20
-150.4907280439745
 10
125.8820664832864
 20
-150.4907280439745
 10
125.8121310449359
 20
-150.6829643720515
 10
125.8121310449359
 20
-150.8118109431998
 10
125.8121310449359
 20
-150.8459173885038
 10
125.8121310449359
 20
-150.9971570803063
 10
125.9413221256327
 20
-151.0922417156992
 10
125.9413221256327
 20
-151.0922417156992
 10
125.9223741004639
 20
-151.2799994196453
 10
125.9223741004639
 20
-151.2799994196453
 10
125.9223741004639
 20
-151.2799994196453
 10
125.075914139738
 20
-151.1511528484969
 10
125.075914139738
 20
-151.1511528484969
 10
125.075914139738
 20
-151.1511528484969
 10
125.075914139738
 20
-150.3191622888091
 10
125.075914139738
 20
-150.3191622888091
 10
125.075914139738
 20
-150.3191622888091
 10
125.2705620346546
 20
-150.3191622888091
 10
125.2705620346546
 20
-150.3191622888091
 10
125.2705620346546
 20
-150.3191622888091
 10
125.2705620346546
 20
-150.9768310169433
 10
125.2705620346546
 20
-150.9768310169433
 10
125.2705620346546
 20
-150.9768310169433
 10
125.6936197602433
 20
-151.0471109648424
 10
125.6936197602433
 20
-151.0471109648424
 10
125.6598578244878
 20
-150.9816541506227
 10
125.6195502073104
 20
-150.8934597062002
 10
125.6195502073104
 20
-150.766680192343
 10
125.6195502073104
 20
-150.4955511776539
 10
125.8059298730624
 20
-150.242336659488
 10
126.1190890526716
 20
-150.242336659488
 10
126.4363823468631
 20
-150.242336659488
 10
126.6709933494086
 20
-150.4817707957129
 10
126.6709933494086
 20
-150.8052652617779
 97
        0
 97
        0
 75
     2
 76
     1
 98
        0
  0
POLYLINE
  5
134
330
12C
100
AcDbEntity
  8
_U+30EC_U+30A4_U+30E4_U+30FC 1
370
     0
100
AcDb2dPolyline
 66
     1
 10
0.0
 20
0.0
 30
0.0
  0
VERTEX
  5
135
330
134
100
AcDbEntity
  8
_U+30EC_U+30A4_U+30E4_U+30FC 1
370
     0
100
AcDbVertex
100
AcDb2dVertex
 10
126.6203504457755
 20
-149.9973903704868
 30
0.0
  0
VERTEX
  5
136
330
134
100
AcDbEntity
  8
_U+30EC_U+30A4_U+30E4_U+30FC 1
370
     0
100
AcDbVertex
100
AcDb2dVertex
 10
126.3685139658037
 20
-149.9973903704868
 30
0.0
  0
VERTEX
  5
137
330
134
100
AcDbEntity
  8
_U+30EC_U+30A4_U+30E4_U+30FC 1
370
     0
100
AcDbVertex
100
AcDb2dVertex
 10
126.3685139658037
 20
-149.7283284130887
 30
0.0
  0
VERTEX
  5
138
330
134
100
AcDbEntity
  8
_U+30EC_U+30A4_U+30E4_U+30FC 1
370
     0
100
AcDbVertex
100
AcDb2dVertex
 10
126.6203504457755
 20
-149.7283284130887
 30
0.0
  0
VERTEX
  5
139
330
134
100
AcDbEntity
  8
_U+30EC_U+30A4_U+30E4_U+30FC 1
370
     0
100
AcDbVertex
100
AcDb2dVertex
 10
126.6203504457755
 20
-149.9973903704868
 30
0.0
  0
SEQEND
  5
13A
330
134
100
AcDbEntity
  8
_U+30EC_U+30A4_U+30E4_U+30FC 1
370
     0
  0
HATCH
  5
13B
330
12C
100
AcDbEntity
  8
_U+30EC_U+30A4_U+30E4_U+30FC 1
 62
   179
420
  2234388
100
AcDbHatch
 10
0.0
 20
0.0
 30
0.0
210
0.0
220
0.0
230
1.0
  2
SOLID
 70
     1
 71
     0
 91
        1
 92
        1
 93
        4
 72
     1
 10
126.6203504457755
 20
-149.9973903704868
 11
126.3685139658037
 21
-149.9973903704868
 72
     1
 10
126.3685139658037
 20
-149.9973903704868
 11
126.3685139658037
 21
-149.7283284130887
 72
     1
 10
126.3685139658037
 20
-149.7283284130887
 11
126.6203504457755
 21
-149.7283284130887
 72
     1
 10
126.6203504457755
 20
-149.7283284130887
 11
126.6203504457755
 21
-149.9973903704868
 97
        0
 75
     2
 76
     1
 98
        0
  0
SPLINE
  5
13C
330
12C
100
AcDbEntity
  8
_U+30EC_U+30A4_U+30E4_U+30FC 1
370
     0
100
AcDbSpline
210
0.0
220
0.0
230
1.0
 70
    11
 71
     3
 72
    53
 73
    49
 74
     0
 42
0.0000000001
 43
0.0000000001
 12
1.0
 22
0.0
 32
0.0
 13
1.0
 23
0.0
 33
0.0
 40
0.0
 40
0.0
 40
0.0
 40
0.0
 40
1.0
 40
1.0
 40
1.0
 40
2.0
 40
2.0
 40
2.0
 40
3.0
 40
3.0
 40
3.0
 40
4.0
 40
4.0
 40
4.0
 40
5.0
 40
5.0
 40
5.0
 40
6.0
 40
6.0
 40
6.0
 40
7.0
 40
7.0
 40
7.0
 40
8.0
 40
8.0
 40
8.0
 40
9.0
 40
9.0
 40
9.0
 40
10.0
 40
10.0
 40
10.0
 40
11.0
 40
11.0
 40
11.0
 40
12.0
 40
12.0
 40
12.0
 40
13.0
 40
13.0
 40
13.0
 40
14.0
 40
14.0
 40
14.0
 40
15.0
 40
15.0
 40
15.0
 40
16.0
 40
16.0
 40
16.0
 40
16.0
 10
126.6709933494086
 20
-148.9614501580722
 30
0.0
 10
126.6709933494086
 20
-149.0451659783637
 30
0.0
 10
126.6541123815309
 20
-149.1533419766006
 30
0.0
 10
126.5907226246023
 20
-149.2622069939345
 30
0.0
 10
126.4808240786229
 20
-149.4475531310409
 30
0.0
 10
126.3495659406348
 20
-149.469946251695
 30
0.0
 10
126.2417344519465
 20
-149.490272315058
 30
0.0
 10
126.2417344519465
 20
-149.490272315058
 30
0.0
 10
126.2417344519465
 20
-149.2529052361243
 30
0.0
 10
126.2417344519465
 20
-149.2529052361243
 30
0.0
 10
126.4405164614454
 20
-149.194338612875
 30
0.0
 10
126.4701442826186
 20
-149.0586018507562
 30
0.0
 10
126.4701442826186
 20
-148.9590385912325
 30
0.0
 10
126.4701442826186
 20
-148.8098659567212
 30
0.0
 10
126.3705810230949
 20
-148.6469129402688
 30
0.0
 10
126.1380370778405
 20
-148.6469129402688
 30
0.0
 10
125.8820664832864
 20
-148.6469129402688
 30
0.0
 10
125.8121310449359
 20
-148.8391492683458
 30
0.0
 10
125.8121310449359
 20
-148.9679958394941
 30
0.0
 10
125.8121310449359
 20
-149.0021022847981
 30
0.0
 10
125.8121310449359
 20
-149.1533419766006
 30
0.0
 10
125.9413221256327
 20
-149.2484266119935
 30
0.0
 10
125.9413221256327
 20
-149.2484266119935
 30
0.0
 10
125.9223741004639
 20
-149.4361843159396
 30
0.0
 10
125.9223741004639
 20
-149.4361843159396
 30
0.0
 10
125.9223741004639
 20
-149.4361843159396
 30
0.0
 10
125.075914139738
 20
-149.3073377447912
 30
0.0
 10
125.075914139738
 20
-149.3073377447912
 30
0.0
 10
125.075914139738
 20
-149.3073377447912
 30
0.0
 10
125.075914139738
 20
-148.4753471851034
 30
0.0
 10
125.075914139738
 20
-148.4753471851034
 30
0.0
 10
125.075914139738
 20
-148.4753471851034
 30
0.0
 10
125.2705620346546
 20
-148.4753471851034
 30
0.0
 10
125.2705620346546
 20
-148.4753471851034
 30
0.0
 10
125.2705620346546
 20
-148.4753471851034
 30
0.0
 10
125.2705620346546
 20
-149.1330159132376
 30
0.0
 10
125.2705620346546
 20
-149.1330159132376
 30
0.0
 10
125.2705620346546
 20
-149.1330159132376
 30
0.0
 10
125.6936197602433
 20
-149.2032958611367
 30
0.0
 10
125.6936197602433
 20
-149.2032958611367
 30
0.0
 10
125.6598578244878
 20
-149.1378390469169
 30
0.0
 10
125.6195502073104
 20
-149.0496446024945
 30
0.0
 10
125.6195502073104
 20
-148.9228650886373
 30
0.0
 10
125.6195502073104
 20
-148.6517360739482
 30
0.0
 10
125.8059298730624
 20
-148.3985215557823
 30
0.0
 10
126.1190890526716
 20
-148.3985215557823
 30
0.0
 10
126.4363823468631
 20
-148.3985215557823
 30
0.0
 10
126.6709933494086
 20
-148.6379556920072
 30
0.0
 10
126.6709933494086
 20
-148.9614501580722
 30
0.0
  0
HATCH
  5
13D
330
12C
100
AcDbEntity
  8
_U+30EC_U+30A4_U+30E4_U+30FC 1
 62
   179
420
  2234388
100
AcDbHatch
 10
0.0
 20
0.0
 30
0.0
210
0.0
220
0.0
230
1.0
  2
SOLID
 70
     1
 71
     0
 91
        1
 92
        1
 93
        1
 72
     4
 94
        3
 73
     0
 74
     1
 95
       53
 96
       49
 40
0.0
 40
0.0
 40
0.0
 40
0.0
 40
1.0
 40
1.0
 40
1.0
 40
2.0
 40
2.0
 40
2.0
 40
3.0
 40
3.0
 40
3.0
 40
4.0
 40
4.0
 40
4.0
 40
5.0
 40
5.0
 40
5.0
 40
6.0
 40
6.0
 40
6.0
 40
7.0
 40
7.0
 40
7.0
 40
8.0
 40
8.0
 40
8.0
 40
9.0
 40
9.0
 40
9.0
 40
10.0
 40
10.0
 40
10.0
 40
11.0
 40
11.0
 40
11.0
 40
12.0
 40
12.0
 40
12.0
 40
13.0
 40
13.0
 40
13.0
 40
14.0
 40
14.0
 40
14.0
 40
15.0
 40
15.0
 40
15.0
 40
16.0
 40
16.0
 40
16.0
 40
16.0
 10
126.6709933494086
 20
-148.9614501580722
 10
126.6709933494086
 20
-149.0451659783637
 10
126.6541123815309
 20
-149.1533419766006
 10
126.5907226246023
 20
-149.2622069939345
 10
126.4808240786229
 20
-149.4475531310409
 10
126.3495659406348
 20
-149.469946251695
 10
126.2417344519465
 20
-149.490272315058
 10
126.2417344519465
 20
-149.490272315058
 10
126.2417344519465
 20
-149.2529052361243
 10
126.2417344519465
 20
-149.2529052361243
 10
126.4405164614454
 20
-149.194338612875
 10
126.4701442826186
 20
-149.0586018507562
 10
126.4701442826186
 20
-148.9590385912325
 10
126.4701442826186
 20
-148.8098659567212
 10
126.3705810230949
 20
-148.6469129402688
 10
126.1380370778405
 20
-148.6469129402688
 10
125.8820664832864
 20
-148.6469129402688
 10
125.8121310449359
 20
-148.8391492683458
 10
125.8121310449359
 20
-148.9679958394941
 10
125.8121310449359
 20
-149.0021022847981
 10
125.8121310449359
 20
-149.1533419766006
 10
125.9413221256327
 20
-149.2484266119935
 10
125.9413221256327
 20
-149.2484266119935
 10
125.9223741004639
 20
-149.4361843159396
 10
125.9223741004639
 20
-149.4361843159396
 10
125.9223741004639
 20
-149.4361843159396
 10
125.075914139738
 20
-149.3073377447912
 10
125.075914139738
 20
-149.3073377447912
 10
125.075914139738
 20
-149.3073377447912
 10
125.075914139738
 20
-148.4753471851034
 10
125.075914139738
 20
-148.4753471851034
 10
125.075914139738
 20
-148.4753471851034
 10
125.2705620346546
 20
-148.4753471851034
 10
125.2705620346546
 20
-148.4753471851034
 10
125.2705620346546
 20
-148.4753471851034
 10
125.2705620346546
 20
-149.1330159132376
 10
125.2705620346546
 20
-149.1330159132376
 10
125.2705620346546
 20
-149.1330159132376
 10
125.6936197602433
 20
-149.2032958611367
 10
125.6936197602433
 20
-149.2032958611367
 10
125.6598578244878
 20
-149.1378390469169
 10
125.6195502073104
 20
-149.0496446024945
 10
125.6195502073104
 20
-148.9228650886373
 10
125.6195502073104
 20
-148.6517360739482
 10
125.8059298730624
 20
-148.3985215557823
 10
126.1190890526716
 20
-148.3985215557823
 10
126.4363823468631
 20
-148.3985215557823
 10
126.6709933494086
 20
-148.6379556920072
 10
126.6709933494086
 20
-148.9614501580722
 97
        0
 97
        0
 75
     2
 76
     1
 98
        0
  0
ENDBLK
  5
12F
330
12C
100
AcDbEntity
  8
0
100
AcDbBlockEnd
  0
ENDSEC
  0
SECTION
  2
ENTITIES
  0
POLYLINE
  5
41
330
1F
100
AcDbEntity
  8
_U+30EC_U+30A4_U+30E4_U+30FC 1
 62
   179
420
  2234388
370
    25
100
AcDb2dPolyline
 66
     1
 10
0.0
 20
0.0
 30
0.0
  0
VERTEX
  5
42
330
41
100
AcDbEntity
  8
_U+30EC_U+30A4_U+30E4_U+30FC 1
 62
   179
420
  2234388
370
    25
100
AcDbVertex
100
AcDb2dVertex
 10
88.9120627316643
 20
-141.7417366312311
 30
0.0
  0
VERTEX
  5
43
330
41
100
AcDbEntity
  8
_U+30EC_U+30A4_U+30E4_U+30FC 1
 62
   179
420
  2234388
370
    25
100
AcDbVertex
100
AcDb2dVertex
 10
99.97217494949733
 20
-141.7417366312311
 30
0.0
  0
SEQEND
  5
44
330
41
100
AcDbEntity
  8
_U+30EC_U+30A4_U+30E4_U+30FC 1
 62
   179
420
  2234388
370
    25
  0
POLYLINE
  5
45
330
1F
100
AcDbEntity
  8
_U+30EC_U+30A4_U+30E4_U+30FC 1
 62
   179
420
  2234388
370
    25
100
AcDb2dPolyline
 66
     1
 10
0.0
 20
0.0
 30
0.0
  0
VERTEX
  5
46
330
45
100
AcDbEntity
  8
_U+30EC_U+30A4_U+30E4_U+30FC 1
 62
   179
420
  2234388
370
    25
100
AcDbVertex
100
AcDb2dVertex
 10
123.9721083023401
 20
-141.7417366312311
 30
0.0
  0
VERTEX
  5
47
330
45
100
AcDbEntity
  8
_U+30EC_U+30A4_U+30E4_U+30FC 1
 62
   179
420
  2234388
370
    25
100
AcDbVertex
100
AcDb2dVertex
 10
123.9721083023401
 20
-142.7415088532037
 30
0.0
  0
SEQEND
  5
48
330
45
100
AcDbEntity
  8
_U+30EC_U+30A4_U+30E4_U+30FC 1
 62
   179
420
  2234388
370
    25
  0
POLYLINE
  5
49
330
1F
100
AcDbEntity
  8
_U+30EC_U+30A4_U+30E4_U+30FC 1
 62
   179
420
  2234388
370
    25
100
AcDb2dPolyline
 66
     1
 10
0.0
 20
0.0
 30
0.0
  0
VERTEX
  5
4A
330
49
100
AcDbEntity
  8
_U+30EC_U+30A4_U+30E4_U+30FC 1
 62
   179
420
  2234388
370
    25
100
AcDbVertex
100
AcDb2dVertex
 10
101.9717193429291
 20
-142.7415088532037
 30
0.0
  0
VERTEX
  5
4B
330
49
100
AcDbEntity
  8
_U+30EC_U+30A4_U+30E4_U+30FC 1
 62
   179
420
  2234388
370
    25
100
AcDbVertex
100
AcDb2dVertex
 10
123.9721083023401
 20
-142.7415088532037
 30
0.0
  0
SEQEND
  5
4C
330
49
100
AcDbEntity
  8
_U+30EC_U+30A4_U+30E4_U+30FC 1
 62
   179
420
  2234388
370
    25
  0
POLYLINE
  5
4D
330
1F
100
AcDbEntity
  8
_U+30EC_U+30A4_U+30E4_U+30FC 1
 62
   179
420
  2234388
370
    25
100
AcDb2dPolyline
 66
     1
 10
0.0
 20
0.0
 30
0.0
  0
VERTEX
  5
4E
330
4D
100
AcDbEntity
  8
_U+30EC_U+30A4_U+30E4_U+30FC 1
 62
   179
420
  2234388
370
    25
100
AcDbVertex
100
AcDb2dVertex
 10
88.9120627316643
 20
-141.7417366312311
 30
0.0
  0
VERTEX
  5
4F
330
4D
100
AcDbEntity
  8
_U+30EC_U+30A4_U+30E4_U+30FC 1
 62
   179
420
  2234388
370
    25
100
AcDbVertex
100
AcDb2dVertex
 10
88.9120627316643
 20
-142.7415088532037
 30
0.0
  0
SEQEND
  5
50
330
4D
100
AcDbEntity
  8
_U+30EC_U+30A4_U+30E4_U+30FC 1
 62
   179
420
  2234388
370
    25
  0
POLYLINE
  5
51
330
1F
100
AcDbEntity
  8
_U+30EC_U+30A4_U+30E4_U+30FC 1
 62
   179
420
  2234388
370
    25
100
AcDb2dPolyline
 66
     1
 10
0.0
 20
0.0
 30
0.0
  0
VERTEX
  5
52
330
51
100
AcDbEntity
  8
_U+30EC_U+30A4_U+30E4_U+30FC 1
 62
   179
420
  2234388
370
    25
100
AcDbVertex
100
AcDb2dVertex
 10
98.97173247502074
 20
-142.7415088532037
 30
0.0
  0
VERTEX
  5
53
330
51
100
AcDbEntity
  8
_U+30EC_U+30A4_U+30E4_U+30FC 1
 62
   179
420
  2234388
370
    25
100
AcDbVertex
100
AcDb2dVertex
 10
98.97173247502074
 20
-159.2412782935228
 30
0.0
  0
SEQEND
  5
54
330
51
100
AcDbEntity
  8
_U+30EC_U+30A4_U+30E4_U+30FC 1
 62
   179
420
  2234388
370
    25
  0
POLYLINE
  5
55
330
1F
100
AcDbEntity
  8
_U+30EC_U+30A4_U+30E4_U+30FC 1
 62
   179
420
  2234388
370
    25
100
AcDb2dPolyline
 66
     1
 10
0.0
 20
0.0
 30
0.0
  0
VERTEX
  5
56
330
55
100
AcDbEntity
  8
_U+30EC_U+30A4_U+30E4_U+30FC 1
 62
   179
420
  2234388
370
    25
100
AcDbVertex
100
AcDb2dVertex
 10
108.9721708309994
 20
-158.2415060715508
 30
0.0
  0
VERTEX
  5
57
330
55
100
AcDbEntity
  8
_U+30EC_U+30A4_U+30E4_U+30FC 1
 62
   179
420
  2234388
370
    25
100
AcDbVertex
100
AcDb2dVertex
 10
108.9721708309994
 20
-158.7417449603145
 30
0.0
  0
SEQEND
  5
58
330
55
100
AcDbEntity
  8
_U+30EC_U+30A4_U+30E4_U+30FC 1
 62
   179
420
  2234388
370
    25
  0
POLYLINE
  5
59
330
1F
100
AcDbEntity
  8
_U+30EC_U+30A4_U+30E4_U+30FC 1
 62
   179
420
  2234388
370
    25
100
AcDb2dPolyline
 66
     1
 10
0.0
 20
0.0
 30
0.0
  0
VERTEX
  5
5A
330
59
100
AcDbEntity
  8
_U+30EC_U+30A4_U+30E4_U+30FC 1
 62
   179
420
  2234388
370
    25
100
AcDbVertex
100
AcDb2dVertex
 10
101.9717193429291
 20
-158.2415060715508
 30
0.0
  0
VERTEX
  5
5B
330
59
100
AcDbEntity
  8
_U+30EC_U+30A4_U+30E4_U+30FC 1
 62
   179
420
  2234388
370
    25
100
AcDbVertex
100
AcDb2dVertex
 10
108.9721708309994
 20
-158.2415060715508
 30
0.0
  0
SEQEND
  5
5C
330
59
100
AcDbEntity
  8
_U+30EC_U+30A4_U+30E4_U+30FC 1
 62
   179
420
  2234388
370
    25
  0
POLYLINE
  5
5D
330
1F
100
AcDbEntity
  8
_U+30EC_U+30A4_U+30E4_U+30FC 1
 62
   179
420
  2234388
370
    25
100
AcDb2dPolyline
 66
     1
 10
0.0
 20
0.0
 30
0.0
  0
VERTEX
  5
5E
330
5D
100
AcDbEntity
  8
_U+30EC_U+30A4_U+30E4_U+30FC 1
 62
   179
420
  2234388
370
    25
100
AcDbVertex
100
AcDb2dVertex
 10
100.9719471462132
 20
-141.7417366312311
 30
0.0
  0
VERTEX
  5
5F
330
5D
100
AcDbEntity
  8
_U+30EC_U+30A4_U+30E4_U+30FC 1
 62
   179
420
  2234388
370
    25
100
AcDbVertex
100
AcDb2dVertex
 10
123.9721083023401
 20
-141.7417366312311
 30
0.0
  0
SEQEND
  5
60
330
5D
100
AcDbEntity
  8
_U+30EC_U+30A4_U+30E4_U+30FC 1
 62
   179
420
  2234388
370
    25
  0
POLYLINE
  5
61
330
1F
100
AcDbEntity
  8
_U+30EC_U+30A4_U+30E4_U+30FC 1
 62
   179
420
  2234388
370
    25
100
AcDb2dPolyline
 66
     1
 10
0.0
 20
0.0
 30
0.0
  0
VERTEX
  5
62
330
61
100
AcDbEntity
  8
_U+30EC_U+30A4_U+30E4_U+30FC 1
 62
   179
420
  2234388
370
    25
100
AcDbVertex
100
AcDb2dVertex
 10
88.9120627316643
 20
-142.7415088532037
 30
0.0
  0
VERTEX
  5
63
330
61
100
AcDbEntity
  8
_U+30EC_U+30A4_U+30E4_U+30FC 1
 62
   179
420
  2234388
370
    25
100
AcDbVertex
100
AcDb2dVertex
 10
98.97173247502074
 20
-142.7415088532037
 30
0.0
  0
SEQEND
  5
64
330
61
100
AcDbEntity
  8
_U+30EC_U+30A4_U+30E4_U+30FC 1
 62
   179
420
  2234388
370
    25
  0
POLYLINE
  5
65
330
1F
100
AcDbEntity
  8
_U+30EC_U+30A4_U+30E4_U+30FC 1
 62
   179
420
  2234388
370
    25
100
AcDb2dPolyline
 66
     1
 10
0.0
 20
0.0
 30
0.0
  0
VERTEX
  5
66
330
65
100
AcDbEntity
  8
_U+30EC_U+30A4_U+30E4_U+30FC 1
 62
   179
420
  2234388
370
    25
100
AcDbVertex
100
AcDb2dVertex
 10
99.97217494949733
 20
-141.7417366312311
 30
0.0
  0
VERTEX
  5
67
330
65
100
AcDbEntity
  8
_U+30EC_U+30A4_U+30E4_U+30FC 1
 62
   179
420
  2234388
370
    25
100
AcDbVertex
100
AcDb2dVertex
 10
99.97217494949733
 20
-158.2415060715508
 30
0.0
  0
SEQEND
  5
68
330
65
100
AcDbEntity
  8
_U+30EC_U+30A4_U+30E4_U+30FC 1
 62
   179
420
  2234388
370
    25
  0
POLYLINE
  5
69
330
1F
100
AcDbEntity
  8
_U+30EC_U+30A4_U+30E4_U+30FC 1
 62
   179
420
  2234388
370
    25
100
AcDb2dPolyline
 66
     1
 10
0.0
 20
0.0
 30
0.0
  0
VERTEX
  5
6A
330
69
100
AcDbEntity
  8
_U+30EC_U+30A4_U+30E4_U+30FC 1
 62
   179
420
  2234388
370
    25
100
AcDbVertex
100
AcDb2dVertex
 10
100.9719471462132
 20
-141.7417366312311
 30
0.0
  0
VERTEX
  5
6B
330
69
100
AcDbEntity
  8
_U+30EC_U+30A4_U+30E4_U+30FC 1
 62
   179
420
  2234388
370
    25
100
AcDbVertex
100
AcDb2dVertex
 10
100.9719471462132
 20
-158.2415060715508
 30
0.0
  0
SEQEND
  5
6C
330
69
100
AcDbEntity
  8
_U+30EC_U+30A4_U+30E4_U+30FC 1
 62
   179
420
  2234388
370
    25
  0
POLYLINE
  5
6D
330
1F
100
AcDbEntity
  8
_U+30EC_U+30A4_U+30E4_U+30FC 1
 62
   179
420
  2234388
370
    25
100
AcDb2dPolyline
 66
     1
 10
0.0
 20
0.0
 30
0.0
  0
VERTEX
  5
6E
330
6D
100
AcDbEntity
  8
_U+30EC_U+30A4_U+30E4_U+30FC 1
 62
   179
420
  2234388
370
    25
100
AcDbVertex
100
AcDb2dVertex
 10
101.9717193429291
 20
-142.7415088532037
 30
0.0
  0
VERTEX
  5
6F
330
6D
100
AcDbEntity
  8
_U+30EC_U+30A4_U+30E4_U+30FC 1
 62
   179
420
  2234388
370
    25
100
AcDbVertex
100
AcDb2dVertex
 10
101.9717193429291
 20
-158.2415060715508
 30
0.0
  0
SEQEND
  5
70
330
6D
100
AcDbEntity
  8
_U+30EC_U+30A4_U+30E4_U+30FC 1
 62
   179
420
  2234388
370
    25
  0
POLYLINE
  5
71
330
1F
100
AcDbEntity
  8
_U+30EC_U+30A4_U+30E4_U+30FC 1
 62
   179
420
  2234388
370
    25
100
AcDb2dPolyline
 66
     1
 10
0.0
 20
0.0
 30
0.0
  0
VERTEX
  5
72
330
71
100
AcDbEntity
  8
_U+30EC_U+30A4_U+30E4_U+30FC 1
 62
   179
420
  2234388
370
    25
100
AcDbVertex
100
AcDb2dVertex
 10
99.97217494949733
 20
-158.2415060715508
 30
0.0
  0
VERTEX
  5
73
330
71
100
AcDbEntity
  8
_U+30EC_U+30A4_U+30E4_U+30FC 1
 62
   179
420
  2234388
370
    25
100
AcDbVertex
100
AcDb2dVertex
 10
100.9719471462132
 20
-158.2415060715508
 30
0.0
  0
SEQEND
  5
74
330
71
100
AcDbEntity
  8
_U+30EC_U+30A4_U+30E4_U+30FC 1
 62
   179
420
  2234388
370
    25
  0
POLYLINE
  5
75
330
1F
100
AcDbEntity
  8
_U+30EC_U+30A4_U+30E4_U+30FC 1
 62
   179
420
  2234388
370
    25
100
AcDb2dPolyline
 66
     1
 10
0.0
 20
0.0
 30
0.0
  0
VERTEX
  5
76
330
75
100
AcDbEntity
  8
_U+30EC_U+30A4_U+30E4_U+30FC 1
 62
   179
420
  2234388
370
    25
100
AcDbVertex
100
AcDb2dVertex
 10
98.97173247502074
 20
-159.2412782935228
 30
0.0
  0
VERTEX
  5
77
330
75
100
AcDbEntity
  8
_U+30EC_U+30A4_U+30E4_U+30FC 1
 62
   179
420
  2234388
370
    25
100
AcDbVertex
100
AcDb2dVertex
 10
108.9721708309994
 20
-158.7417449603145
 30
0.0
  0
SEQEND
  5
78
330
75
100
AcDbEntity
  8
_U+30EC_U+30A4_U+30E4_U+30FC 1
 62
   179
420
  2234388
370
    25
  0
SPLINE
  5
79
330
1F
100
AcDbEntity
  8
_U+30EC_U+30A4_U+30E4_U+30FC 1
 62
   179
420
  2234388
370
     9
100
AcDbSpline
210
0.0
220
0.0
230
1.0
 70
    11
 71
     3
 72
    17
 73
    13
 74
     0
 42
0.0000000001
 43
0.0000000001
 12
1.0
 22
0.0
 32
0.0
 13
1.0
 23
0.0
 33
0.0
 40
0.0
 40
0.0
 40
0.0
 40
0.0
 40
1.0
 40
1.0
 40
1.0
 40
2.0
 40
2.0
 40
2.0
 40
3.0
 40
3.0
 40
3.0
 40
4.0
 40
4.0
 40
4.0
 40
4.0
 10
124.0720118346593
 20
-137.7413071877869
 30
0.0
 10
124.0720118346593
 20
-137.6861680211341
 30
0.0
 10
124.0272090580245
 20
-137.6414005211452
 30
0.0
 10
123.9721083023401
 20
-137.6414005211452
 30
0.0
 10
123.9169660052815
 20
-137.6414005211452
 30
0.0
 10
123.8721985064236
 20
-137.6861680211341
 30
0.0
 10
123.8721985064236
 20
-137.7413071877869
 30
0.0
 10
123.8721985064236
 20
-137.7964110766621
 30
0.0
 10
123.9169660052815
 20
-137.8412138544285
 30
0.0
 10
123.9721083023401
 20
-137.8412138544285
 30
0.0
 10
124.0272090580245
 20
-137.8412138544285
 30
0.0
 10
124.0720118346593
 20
-137.7964110766621
 30
0.0
 10
124.0720118346593
 20
-137.7413071877869
 30
0.0
  0
SPLINE
  5
7A
330
1F
100
AcDbEntity
  8
_U+30EC_U+30A4_U+30E4_U+30FC 1
 62
   179
420
  2234388
370
     9
100
AcDbSpline
210
0.0
220
0.0
230
1.0
 70
    11
 71
     3
 72
    17
 73
    13
 74
     0
 42
0.0000000001
 43
0.0000000001
 12
1.0
 22
0.0
 32
0.0
 13
1.0
 23
0.0
 33
0.0
 40
0.0
 40
0.0
 40
0.0
 40
0.0
 40
1.0
 40
1.0
 40
1.0
 40
2.0
 40
2.0
 40
2.0
 40
3.0
 40
3.0
 40
3.0
 40
4.0
 40
4.0
 40
4.0
 40
4.0
 10
128.0717708992836
 20
-141.7417366312311
 30
0.0
 10
128.0717708992836
 20
-141.6859271868007
 30
0.0
 10
128.0269681226488
 20
-141.6418299645895
 30
0.0
 10
127.9718642351658
 20
-141.6418299645895
 30
0.0
 10
127.9160547921451
 20
-141.6418299645895
 30
0.0
 10
127.8712520155104
 20
-141.6859271868007
 30
0.0
 10
127.8712520155104
 20
-141.7417366312311
 30
0.0
 10
127.8712520155104
 20
-141.7968405201063
 30
0.0
 10
127.9160547921451
 20
-141.8416432978731
 30
0.0
 10
127.9718642351658
 20
-141.8416432978731
 30
0.0
 10
128.0269681226488
 20
-141.8416432978731
 30
0.0
 10
128.0717708992836
 20
-141.7968405201063
 30
0.0
 10
128.0717708992836
 20
-141.7417366312311
 30
0.0
  0
SPLINE
  5
7B
330
1F
100
AcDbEntity
  8
_U+30EC_U+30A4_U+30E4_U+30FC 1
 62
   179
420
  2234388
370
     9
100
AcDbSpline
210
0.0
220
0.0
230
1.0
 70
    11
 71
     3
 72
    17
 73
    13
 74
     0
 42
0.0000000001
 43
0.0000000001
 12
1.0
 22
0.0
 32
0.0
 13
1.0
 23
0.0
 33
0.0
 40
0.0
 40
0.0
 40
0.0
 40
0.0
 40
1.0
 40
1.0
 40
1.0
 40
2.0
 40
2.0
 40
2.0
 40
3.0
 40
3.0
 40
3.0
 40
4.0
 40
4.0
 40
4.0
 40
4.0
 10
128.0717708992836
 20
-142.7415088532037
 30
0.0
 10
128.0717708992836
 20
-142.6863696865506
 30
0.0
 10
128.0269681226488
 20
-142.6416021865617
 30
0.0
 10
127.9718642351658
 20
-142.6416021865617
 30
0.0
 10
127.9160547921451
 20
-142.6416021865617
 30
0.0
 10
127.8712520155104
 20
-142.6863696865506
 30
0.0
 10
127.8712520155104
 20
-142.7415088532037
 30
0.0
 10
127.8712520155104
 20
-142.7966127420786
 30
0.0
 10
127.9160547921451
 20
-142.8414155198453
 30
0.0
 10
127.9718642351658
 20
-142.8414155198453
 30
0.0
 10
128.0269681226488
 20
-142.8414155198453
 30
0.0
 10
128.0717708992836
 20
-142.7966127420786
 30
0.0
 10
128.0717708992836
 20
-142.7415088532037
 30
0.0
  0
SPLINE
  5
7C
330
1F
100
AcDbEntity
  8
_U+30EC_U+30A4_U+30E4_U+30FC 1
 62
   179
420
  2234388
370
     9
100
AcDbSpline
210
0.0
220
0.0
230
1.0
 70
    11
 71
     3
 72
    17
 73
    13
 74
     0
 42
0.0000000001
 43
0.0000000001
 12
1.0
 22
0.0
 32
0.0
 13
1.0
 23
0.0
 33
0.0
 40
0.0
 40
0.0
 40
0.0
 40
0.0
 40
1.0
 40
1.0
 40
1.0
 40
2.0
 40
2.0
 40
2.0
 40
3.0
 40
3.0
 40
3.0
 40
4.0
 40
4.0
 40
4.0
 40
4.0
 10
86.66172862240845
 20
-141.7417366312311
 30
0.0
 10
86.66172862240845
 20
-141.6859271868007
 30
0.0
 10
86.61692584577368
 20
-141.6418299645895
 30
0.0
 10
86.56111640275306
 20
-141.6418299645895
 30
0.0
 10
86.50601251526999
 20
-141.6418299645895
 30
0.0
 10
86.46120973863522
 20
-141.6859271868007
 30
0.0
 10
86.46120973863522
 20
-141.7417366312311
 30
0.0
 10
86.46120973863522
 20
-141.7968405201063
 30
0.0
 10
86.50601251526999
 20
-141.8416432978731
 30
0.0
 10
86.56111640275306
 20
-141.8416432978731
 30
0.0
 10
86.61692584577368
 20
-141.8416432978731
 30
0.0
 10
86.66172862240845
 20
-141.7968405201063
 30
0.0
 10
86.66172862240845
 20
-141.7417366312311
 30
0.0
  0
SPLINE
  5
7D
330
1F
100
AcDbEntity
  8
_U+30EC_U+30A4_U+30E4_U+30FC 1
 62
   179
420
  2234388
370
     9
100
AcDbSpline
210
0.0
220
0.0
230
1.0
 70
    11
 71
     3
 72
    17
 73
    13
 74
     0
 42
0.0000000001
 43
0.0000000001
 12
1.0
 22
0.0
 32
0.0
 13
1.0
 23
0.0
 33
0.0
 40
0.0
 40
0.0
 40
0.0
 40
0.0
 40
1.0
 40
1.0
 40
1.0
 40
2.0
 40
2.0
 40
2.0
 40
3.0
 40
3.0
 40
3.0
 40
4.0
 40
4.0
 40
4.0
 40
4.0
 10
86.66172862240845
 20
-142.7415088532037
 30
0.0
 10
86.66172862240845
 20
-142.6863696865506
 30
0.0
 10
86.61692584577368
 20
-142.6416021865617
 30
0.0
 10
86.56111640275306
 20
-142.6416021865617
 30
0.0
 10
86.50601251526999
 20
-142.6416021865617
 30
0.0
 10
86.46120973863522
 20
-142.6863696865506
 30
0.0
 10
86.46120973863522
 20
-142.7415088532037
 30
0.0
 10
86.46120973863522
 20
-142.7966127420786
 30
0.0
 10
86.50601251526999
 20
-142.8414155198453
 30
0.0
 10
86.56111640275306
 20
-142.8414155198453
 30
0.0
 10
86.61692584577368
 20
-142.8414155198453
 30
0.0
 10
86.66172862240845
 20
-142.7966127420786
 30
0.0
 10
86.66172862240845
 20
-142.7415088532037
 30
0.0
  0
SPLINE
  5
7E
330
1F
100
AcDbEntity
  8
_U+30EC_U+30A4_U+30E4_U+30FC 1
 62
   179
420
  2234388
370
     9
100
AcDbSpline
210
0.0
220
0.0
230
1.0
 70
    11
 71
     3
 72
    17
 73
    13
 74
     0
 42
0.0000000001
 43
0.0000000001
 12
1.0
 22
0.0
 32
0.0
 13
1.0
 23
0.0
 33
0.0
 40
0.0
 40
0.0
 40
0.0
 40
0.0
 40
1.0
 40
1.0
 40
1.0
 40
2.0
 40
2.0
 40
2.0
 40
3.0
 40
3.0
 40
3.0
 40
4.0
 40
4.0
 40
4.0
 40
4.0
 10
89.01196939578213
 20
-137.7413071877869
 30
0.0
 10
89.01196939578213
 20
-137.6861680211341
 30
0.0
 10
88.96716661914738
 20
-137.6414005211452
 30
0.0
 10
88.9120627316643
 20
-137.6414005211452
 30
0.0
 10
88.85692356640435
 20
-137.6414005211452
 30
0.0
 10
88.81215831113037
 20
-137.6861680211341
 30
0.0
 10
88.81215831113037
 20
-137.7413071877869
 30
0.0
 10
88.81215831113037
 20
-137.7964110766621
 30
0.0
 10
88.85692356640435
 20
-137.8412138544285
 30
0.0
 10
88.9120627316643
 20
-137.8412138544285
 30
0.0
 10
88.96716661914738
 20
-137.8412138544285
 30
0.0
 10
89.01196939578213
 20
-137.7964110766621
 30
0.0
 10
89.01196939578213
 20
-137.7413071877869
 30
0.0
  0
SPLINE
  5
7F
330
1F
100
AcDbEntity
  8
_U+30EC_U+30A4_U+30E4_U+30FC 1
 62
   179
420
  2234388
370
     9
100
AcDbSpline
210
0.0
220
0.0
230
1.0
 70
    11
 71
     3
 72
    17
 73
    13
 74
     0
 42
0.0000000001
 43
0.0000000001
 12
1.0
 22
0.0
 32
0.0
 13
1.0
 23
0.0
 33
0.0
 40
0.0
 40
0.0
 40
0.0
 40
0.0
 40
1.0
 40
1.0
 40
1.0
 40
2.0
 40
2.0
 40
2.0
 40
3.0
 40
3.0
 40
3.0
 40
4.0
 40
4.0
 40
4.0
 40
4.0
 10
109.0720774951173
 20
-163.2417077369676
 30
0.0
 10
109.0720774951173
 20
-163.1858982925366
 30
0.0
 10
109.0272747184825
 20
-163.141130792548
 30
0.0
 10
108.9721708309994
 20
-163.141130792548
 30
0.0
 10
108.9170316657395
 20
-163.141130792548
 30
0.0
 10
108.8722641668816
 20
-163.1858982925366
 30
0.0
 10
108.8722641668816
 20
-163.2417077369676
 30
0.0
 10
108.8722641668816
 20
-163.2968469036201
 30
0.0
 10
108.9170316657395
 20
-163.3416144036093
 30
0.0
 10
108.9721708309994
 20
-163.3416144036093
 30
0.0
 10
109.0272747184825
 20
-163.3416144036093
 30
0.0
 10
109.0720774951173
 20
-163.2968469036201
 30
0.0
 10
109.0720774951173
 20
-163.2417077369676
 30
0.0
  0
SPLINE
  5
80
330
1F
100
AcDbEntity
  8
_U+30EC_U+30A4_U+30E4_U+30FC 1
 62
   179
420
  2234388
370
     9
100
AcDbSpline
210
0.0
220
0.0
230
1.0
 70
    11
 71
     3
 72
    17
 73
    13
 74
     0
 42
0.0000000001
 43
0.0000000001
 12
1.0
 22
0.0
 32
0.0
 13
1.0
 23
0.0
 33
0.0
 40
0.0
 40
0.0
 40
0.0
 40
0.0
 40
1.0
 40
1.0
 40
1.0
 40
2.0
 40
2.0
 40
2.0
 40
3.0
 40
3.0
 40
3.0
 40
4.0
 40
4.0
 40
4.0
 40
4.0
 10
99.07164164189864
 20
-163.2417077369676
 30
0.0
 10
99.07164164189864
 20
-163.1858982925366
 30
0.0
 10
99.0268716402807
 20
-163.141130792548
 30
0.0
 10
98.97173247502074
 20
-163.141130792548
 30
0.0
 10
98.91662858753767
 20
-163.141130792548
 30
0.0
 10
98.8718258109029
 20
-163.1858982925366
 30
0.0
 10
98.8718258109029
 20
-163.2417077369676
 30
0.0
 10
98.8718258109029
 20
-163.2968469036201
 30
0.0
 10
98.91662858753767
 20
-163.3416144036093
 30
0.0
 10
98.97173247502074
 20
-163.3416144036093
 30
0.0
 10
99.0268716402807
 20
-163.3416144036093
 30
0.0
 10
99.07164164189864
 20
-163.2968469036201
 30
0.0
 10
99.07164164189864
 20
-163.2417077369676
 30
0.0
  0
SPLINE
  5
81
330
1F
100
AcDbEntity
  8
_U+30EC_U+30A4_U+30E4_U+30FC 1
 62
   179
420
  2234388
370
     9
100
AcDbSpline
210
0.0
220
0.0
230
1.0
 70
    11
 71
     3
 72
    17
 73
    13
 74
     0
 42
0.0000000001
 43
0.0000000001
 12
1.0
 22
0.0
 32
0.0
 13
1.0
 23
0.0
 33
0.0
 40
0.0
 40
0.0
 40
0.0
 40
0.0
 40
1.0
 40
1.0
 40
1.0
 40
2.0
 40
2.0
 40
2.0
 40
3.0
 40
3.0
 40
3.0
 40
4.0
 40
4.0
 40
4.0
 40
4.0
 10
89.01196939578213
 20
-163.2417077369676
 30
0.0
 10
89.01196939578213
 20
-163.1858982925366
 30
0.0
 10
88.96716661914738
 20
-163.141130792548
 30
0.0
 10
88.9120627316643
 20
-163.141130792548
 30
0.0
 10
88.85692356640435
 20
-163.141130792548
 30
0.0
 10
88.81215831113037
 20
-163.1858982925366
 30
0.0
 10
88.81215831113037
 20
-163.2417077369676
 30
0.0
 10
88.81215831113037
 20
-163.2968469036201
 30
0.0
 10
88.85692356640435
 20
-163.3416144036093
 30
0.0
 10
88.9120627316643
 20
-163.3416144036093
 30
0.0
 10
88.96716661914738
 20
-163.3416144036093
 30
0.0
 10
89.01196939578213
 20
-163.2968469036201
 30
0.0
 10
89.01196939578213
 20
-163.2417077369676
 30
0.0
  0
SPLINE
  5
82
330
1F
100
AcDbEntity
  8
_U+30EC_U+30A4_U+30E4_U+30FC 1
 62
   179
420
  2234388
370
     9
100
AcDbSpline
210
0.0
220
0.0
230
1.0
 70
    11
 71
     3
 72
    17
 73
    13
 74
     0
 42
0.0000000001
 43
0.0000000001
 12
1.0
 22
0.0
 32
0.0
 13
1.0
 23
0.0
 33
0.0
 40
0.0
 40
0.0
 40
0.0
 40
0.0
 40
1.0
 40
1.0
 40
1.0
 40
2.0
 40
2.0
 40
2.0
 40
3.0
 40
3.0
 40
3.0
 40
4.0
 40
4.0
 40
4.0
 40
4.0
 10
113.0718365597416
 20
-158.2415060715508
 30
0.0
 10
113.0718365597416
 20
-158.1863669048978
 30
0.0
 10
113.0270337831068
 20
-158.1415994049092
 30
0.0
 10
112.9719298956237
 20
-158.1415994049092
 30
0.0
 10
112.9167907303638
 20
-158.1415994049092
 30
0.0
 10
112.871987953729
 20
-158.1863669048978
 30
0.0
 10
112.871987953729
 20
-158.2415060715508
 30
0.0
 10
112.871987953729
 20
-158.2966099604258
 30
0.0
 10
112.9167907303638
 20
-158.3414127381925
 30
0.0
 10
112.9719298956237
 20
-158.3414127381925
 30
0.0
 10
113.0270337831068
 20
-158.3414127381925
 30
0.0
 10
113.0718365597416
 20
-158.2966099604258
 30
0.0
 10
113.0718365597416
 20
-158.2415060715508
 30
0.0
  0
SPLINE
  5
83
330
1F
100
AcDbEntity
  8
_U+30EC_U+30A4_U+30E4_U+30FC 1
 62
   179
420
  2234388
370
     9
100
AcDbSpline
210
0.0
220
0.0
230
1.0
 70
    11
 71
     3
 72
    17
 73
    13
 74
     0
 42
0.0000000001
 43
0.0000000001
 12
1.0
 22
0.0
 32
0.0
 13
1.0
 23
0.0
 33
0.0
 40
0.0
 40
0.0
 40
0.0
 40
0.0
 40
1.0
 40
1.0
 40
1.0
 40
2.0
 40
2.0
 40
2.0
 40
3.0
 40
3.0
 40
3.0
 40
4.0
 40
4.0
 40
4.0
 40
4.0
 10
113.0718365597416
 20
-158.741039404759
 30
0.0
 10
113.0718365597416
 20
-158.6859355158841
 30
0.0
 10
113.0270337831068
 20
-158.6411327381174
 30
0.0
 10
112.9719298956237
 20
-158.6411327381174
 30
0.0
 10
112.9167907303638
 20
-158.6411327381174
 30
0.0
 10
112.871987953729
 20
-158.6859355158841
 30
0.0
 10
112.871987953729
 20
-158.741039404759
 30
0.0
 10
112.871987953729
 20
-158.7961785714121
 30
0.0
 10
112.9167907303638
 20
-158.8409460714007
 30
0.0
 10
112.9719298956237
 20
-158.8409460714007
 30
0.0
 10
113.0270337831068
 20
-158.8409460714007
 30
0.0
 10
113.0718365597416
 20
-158.7961785714121
 30
0.0
 10
113.0718365597416
 20
-158.741039404759
 30
0.0
  0
SPLINE
  5
84
330
1F
100
AcDbEntity
  8
_U+30EC_U+30A4_U+30E4_U+30FC 1
 62
   179
420
  2234388
370
     9
100
AcDbSpline
210
0.0
220
0.0
230
1.0
 70
    11
 71
     3
 72
    17
 73
    13
 74
     0
 42
0.0000000001
 43
0.0000000001
 12
1.0
 22
0.0
 32
0.0
 13
1.0
 23
0.0
 33
0.0
 40
0.0
 40
0.0
 40
0.0
 40
0.0
 40
1.0
 40
1.0
 40
1.0
 40
2.0
 40
2.0
 40
2.0
 40
3.0
 40
3.0
 40
3.0
 40
4.0
 40
4.0
 40
4.0
 40
4.0
 10
128.0717708992836
 20
-158.2415060715508
 30
0.0
 10
128.0717708992836
 20
-158.1863669048978
 30
0.0
 10
128.0269681226488
 20
-158.1415994049092
 30
0.0
 10
127.9718642351658
 20
-158.1415994049092
 30
0.0
 10
127.9160547921451
 20
-158.1415994049092
 30
0.0
 10
127.8712520155104
 20
-158.1863669048978
 30
0.0
 10
127.8712520155104
 20
-158.2415060715508
 30
0.0
 10
127.8712520155104
 20
-158.2966099604258
 30
0.0
 10
127.9160547921451
 20
-158.3414127381925
 30
0.0
 10
127.9718642351658
 20
-158.3414127381925
 30
0.0
 10
128.0269681226488
 20
-158.3414127381925
 30
0.0
 10
128.0717708992836
 20
-158.2966099604258
 30
0.0
 10
128.0717708992836
 20
-158.2415060715508
 30
0.0
  0
INSERT
  5
86
330
1F
100
AcDbEntity
  8
_U+30EC_U+30A4_U+30E4_U+30FC 1
100
AcDbBlockReference
  2
block 2
 10
0.0
 20
0.0
 30
0.0
  0
POLYLINE
  5
9F
330
1F
100
AcDbEntity
  8
_U+30EC_U+30A4_U+30E4_U+30FC 1
 62
   179
420
  2234388
370
     9
100
AcDb2dPolyline
 66
     1
 10
0.0
 20
0.0
 30
0.0
  0
VERTEX
  5
A0
330
9F
100
AcDbEntity
  8
_U+30EC_U+30A4_U+30E4_U+30FC 1
 62
   179
420
  2234388
370
     9
100
AcDbVertex
100
AcDb2dVertex
 10
123.9721083023401
 20
-137.7413071877869
 30
0.0
  0
VERTEX
  5
A1
330
9F
100
AcDbEntity
  8
_U+30EC_U+30A4_U+30E4_U+30FC 1
 62
   179
420
  2234388
370
     9
100
AcDbVertex
100
AcDb2dVertex
 10
88.9120627316643
 20
-137.7413071877869
 30
0.0
  0
SEQEND
  5
A2
330
9F
100
AcDbEntity
  8
_U+30EC_U+30A4_U+30E4_U+30FC 1
 62
   179
420
  2234388
370
     9
  0
POLYLINE
  5
A3
330
1F
100
AcDbEntity
  8
_U+30EC_U+30A4_U+30E4_U+30FC 1
 62
   179
420
  2234388
370
     9
100
AcDb2dPolyline
 66
     1
 10
0.0
 20
0.0
 30
0.0
  0
VERTEX
  5
A4
330
A3
100
AcDbEntity
  8
_U+30EC_U+30A4_U+30E4_U+30FC 1
 62
   179
420
  2234388
370
     9
100
AcDbVertex
100
AcDb2dVertex
 10
123.9721083023401
 20
-139.2013132985331
 30
0.0
  0
VERTEX
  5
A5
330
A3
100
AcDbEntity
  8
_U+30EC_U+30A4_U+30E4_U+30FC 1
 62
   179
420
  2234388
370
     9
100
AcDbVertex
100
AcDb2dVertex
 10
123.9721083023401
 20
-136.7415349658147
 30
0.0
  0
SEQEND
  5
A6
330
A3
100
AcDbEntity
  8
_U+30EC_U+30A4_U+30E4_U+30FC 1
 62
   179
420
  2234388
370
     9
  0
POLYLINE
  5
A7
330
1F
100
AcDbEntity
  8
_U+30EC_U+30A4_U+30E4_U+30FC 1
 62
   179
420
  2234388
370
     9
100
AcDb2dPolyline
 66
     1
 10
0.0
 20
0.0
 30
0.0
  0
VERTEX
  5
A8
330
A7
100
AcDbEntity
  8
_U+30EC_U+30A4_U+30E4_U+30FC 1
 62
   179
420
  2234388
370
     9
100
AcDbVertex
100
AcDb2dVertex
 10
88.9120627316643
 20
-139.2013132985331
 30
0.0
  0
VERTEX
  5
A9
330
A7
100
AcDbEntity
  8
_U+30EC_U+30A4_U+30E4_U+30FC 1
 62
   179
420
  2234388
370
     9
100
AcDbVertex
100
AcDb2dVertex
 10
88.9120627316643
 20
-136.7415349658147
 30
0.0
  0
SEQEND
  5
AA
330
A7
100
AcDbEntity
  8
_U+30EC_U+30A4_U+30E4_U+30FC 1
 62
   179
420
  2234388
370
     9
  0
INSERT
  5
AC
330
1F
100
AcDbEntity
  8
_U+30EC_U+30A4_U+30E4_U+30FC 1
100
AcDbBlockReference
  2
block 4
 10
0.0
 20
0.0
 30
0.0
  0
INSERT
  5
B4
330
1F
100
AcDbEntity
  8
_U+30EC_U+30A4_U+30E4_U+30FC 1
100
AcDbBlockReference
  2
block 5
 10
0.0
 20
0.0
 30
0.0
  0
INSERT
  5
D9
330
1F
100
AcDbEntity
  8
_U+30EC_U+30A4_U+30E4_U+30FC 1
100
AcDbBlockReference
  2
block 7
 10
0.0
 20
0.0
 30
0.0
  0
POLYLINE
  5
F1
330
1F
100
AcDbEntity
  8
_U+30EC_U+30A4_U+30E4_U+30FC 1
 62
   179
420
  2234388
370
     9
100
AcDb2dPolyline
 66
     1
 10
0.0
 20
0.0
 30
0.0
  0
VERTEX
  5
F2
330
F1
100
AcDbEntity
  8
_U+30EC_U+30A4_U+30E4_U+30FC 1
 62
   179
420
  2234388
370
     9
100
AcDbVertex
100
AcDb2dVertex
 10
88.9120627316643
 20
-163.2417077369676
 30
0.0
  0
VERTEX
  5
F3
330
F1
100
AcDbEntity
  8
_U+30EC_U+30A4_U+30E4_U+30FC 1
 62
   179
420
  2234388
370
     9
100
AcDbVertex
100
AcDb2dVertex
 10
98.97173247502074
 20
-163.2417077369676
 30
0.0
  0
SEQEND
  5
F4
330
F1
100
AcDbEntity
  8
_U+30EC_U+30A4_U+30E4_U+30FC 1
 62
   179
420
  2234388
370
     9
  0
POLYLINE
  5
F5
330
1F
100
AcDbEntity
  8
_U+30EC_U+30A4_U+30E4_U+30FC 1
 62
   179
420
  2234388
370
     9
100
AcDb2dPolyline
 66
     1
 10
0.0
 20
0.0
 30
0.0
  0
VERTEX
  5
F6
330
F5
100
AcDbEntity
  8
_U+30EC_U+30A4_U+30E4_U+30FC 1
 62
   179
420
  2234388
370
     9
100
AcDbVertex
100
AcDb2dVertex
 10
88.9120627316643
 20
-145.7814655191102
 30
0.0
  0
VERTEX
  5
F7
330
F5
100
AcDbEntity
  8
_U+30EC_U+30A4_U+30E4_U+30FC 1
 62
   179
420
  2234388
370
     9
100
AcDbVertex
100
AcDb2dVertex
 10
88.9120627316643
 20
-164.2414799589395
 30
0.0
  0
SEQEND
  5
F8
330
F5
100
AcDbEntity
  8
_U+30EC_U+30A4_U+30E4_U+30FC 1
 62
   179
420
  2234388
370
     9
  0
INSERT
  5
FA
330
1F
100
AcDbEntity
  8
_U+30EC_U+30A4_U+30E4_U+30FC 1
100
AcDbBlockReference
  2
block 9
 10
0.0
 20
0.0
 30
0.0
  0
INSERT
  5
103
330
1F
100
AcDbEntity
  8
_U+30EC_U+30A4_U+30E4_U+30FC 1
100
AcDbBlockReference
  2
block 10
 10
0.0
 20
0.0
 30
0.0
  0
INSERT
  5
11D
330
1F
100
AcDbEntity
  8
_U+30EC_U+30A4_U+30E4_U+30FC 1
100
AcDbBlockReference
  2
block 12
 10
0.0
 20
0.0
 30
0.0
  0
ENDSEC
  0
SECTION
  2
OBJECTS
  0
DICTIONARY
  5
C
330
0
100
AcDbDictionary
281
     1
  3
ACAD_GROUP
350
D
  3
ACAD_LAYOUT
350
1A
  3
ACAD_MATERIAL
350
3B
  3
ACAD_MLEADERSTYLE
350
13F
  3
ACAD_MLINESTYLE
350
17
  3
ACAD_PLOTSETTINGS
350
19
  3
ACAD_PLOTSTYLENAME
350
E
  3
ACAD_TABLESTYLE
350
13E
  3
ACAD_VISUALSTYLE
350
2A
  0
SUN
  5
3F
330
29
100
AcDbSun
 90
        1
290
     0
 63
     7
421
 16777215
 40
1.0
291
     1
 91
  2455826
 92
 54000000
292
     0
 70
     2
 71
   256
280
     1
  0
DICTIONARY
  5
D
102
{ACAD_REACTORS
330
C
102
}
330
C
100
AcDbDictionary
281
     1
  0
DICTIONARY
  5
1A
102
{ACAD_REACTORS
330
C
102
}
330
C
100
AcDbDictionary
281
     1
  3
Layout1
350
1E
  3
Layout2
350
26
  3
Model
350
22
  0
DICTIONARY
  5
3B
102
{ACAD_REACTORS
330
C
102
}
330
C
100
AcDbDictionary
281
     1
  3
ByBlock
350
3D
  3
ByLayer
350
3C
  3
Global
350
3E
  0
DICTIONARY
  5
13F
102
{ACAD_REACTORS
330
C
102
}
330
C
100
AcDbDictionary
281
     1
  0
DICTIONARY
  5
17
102
{ACAD_REACTORS
330
C
102
}
330
C
100
AcDbDictionary
281
     1
  3
Standard
350
18
  0
DICTIONARY
  5
19
102
{ACAD_REACTORS
330
C
102
}
330
C
100
AcDbDictionary
281
     1
  0
ACDBDICTIONARYWDFLT
  5
E
102
{ACAD_REACTORS
330
C
102
}
330
C
100
AcDbDictionary
281
     1
  3
Normal
350
F
100
AcDbDictionaryWithDefault
340
F
  0
DICTIONARY
  5
13E
102
{ACAD_REACTORS
330
C
102
}
330
C
100
AcDbDictionary
281
     1
  0
DICTIONARY
  5
2A
102
{ACAD_REACTORS
330
C
102
}
330
C
100
AcDbDictionary
281
     1
  3
2dWireframe
350
2F
  3
3D Hidden
350
31
  3
3dWireframe
350
30
  3
Basic
350
32
  3
Brighten
350
36
  3
ColorChange
350
3A
  3
Conceptual
350
34
  3
Dim
350
35
  3
Facepattern
350
39
  3
Flat
350
2B
  3
FlatWithEdges
350
2C
  3
Gouraud
350
2D
  3
GouraudWithEdges
350
2E
  3
Linepattern
350
38
  3
Realistic
350
33
  3
Thicken
350
37
  0
LAYOUT
  5
1E
102
{ACAD_REACTORS
330
1A
102
}
330
1A
100
AcDbPlotSettings
  1

  2
none_device
  4

  6

 40
0.0
 41
0.0
 42
0.0
 43
0.0
 44
0.0
 45
0.0
 46
0.0
 47
0.0
 48
0.0
 49
0.0
140
0.0
141
0.0
142
1.0
143
1.0
 70
   688
 72
     0
 73
     0
 74
     5
  7

 75
    16
 76
     0
 77
     2
 78
   300
147
1.0
148
0.0
149
0.0
100
AcDbLayout
  1
Layout1
 70
     1
 71
     1
 10
0.0
 20
0.0
 11
12.0
 21
9.0
 12
0.0
 22
0.0
 32
0.0
 14
1.000000000000000E+20
 24
1.000000000000000E+20
 34
1.000000000000000E+20
 15
-1.000000000000000E+20
 25
-1.000000000000000E+20
 35
-1.000000000000000E+20
146
0.0
 13
0.0
 23
0.0
 33
0.0
 16
1.0
 26
0.0
 36
0.0
 17
0.0
 27
1.0
 37
0.0
 76
     0
330
1B
  0
LAYOUT
  5
26
102
{ACAD_REACTORS
330
1A
102
}
330
1A
100
AcDbPlotSettings
  1

  2
none_device
  4

  6

 40
0.0
 41
0.0
 42
0.0
 43
0.0
 44
0.0
 45
0.0
 46
0.0
 47
0.0
 48
0.0
 49
0.0
140
0.0
141
0.0
142
1.0
143
1.0
 70
   688
 72
     0
 73
     0
 74
     5
  7

 75
    16
 76
     0
 77
     2
 78
   300
147
1.0
148
0.0
149
0.0
100
AcDbLayout
  1
Layout2
 70
     1
 71
     2
 10
0.0
 20
0.0
 11
0.0
 21
0.0
 12
0.0
 22
0.0
 32
0.0
 14
0.0
 24
0.0
 34
0.0
 15
0.0
 25
0.0
 35
0.0
146
0.0
 13
0.0
 23
0.0
 33
0.0
 16
1.0
 26
0.0
 36
0.0
 17
0.0
 27
1.0
 37
0.0
 76
     0
330
23
  0
LAYOUT
  5
22
102
{ACAD_REACTORS
330
1A
102
}
330
1A
100
AcDbPlotSettings
  1

  2
none_device
  4

  6

 40
0.0
 41
0.0
 42
0.0
 43
0.0
 44
0.0
 45
0.0
 46
0.0
 47
0.0
 48
0.0
 49
0.0
140
0.0
141
0.0
142
1.0
143
1.0
 70
  1712
 72
     0
 73
     0
 74
     0
  7

 75
     0
 76
     0
 77
     2
 78
   300
147
1.0
148
0.0
149
0.0
100
AcDbLayout
  1
Model
 70
     1
 71
     0
 10
0.0
 20
0.0
 11
12.0
 21
9.0
 12
0.0
 22
0.0
 32
0.0
 14
1.000000000000000E+20
 24
1.000000000000000E+20
 34
1.000000000000000E+20
 15
-1.000000000000000E+20
 25
-1.000000000000000E+20
 35
-1.000000000000000E+20
146
0.0
 13
0.0
 23
0.0
 33
0.0
 16
1.0
 26
0.0
 36
0.0
 17
0.0
 27
1.0
 37
0.0
 76
     0
330
1F
331
29
  0
MATERIAL
  5
3D
102
{ACAD_REACTORS
330
3B
102
}
330
3B
100
AcDbMaterial
  1
ByBlock
 72
     1
 94
      127
  0
MATERIAL
  5
3C
102
{ACAD_REACTORS
330
3B
102
}
330
3B
100
AcDbMaterial
  1
ByLayer
 72
     1
 94
      127
  0
MATERIAL
  5
3E
102
{ACAD_REACTORS
330
3B
102
}
330
3B
100
AcDbMaterial
  1
Global
 72
     1
 94
      127
  0
MLINESTYLE
  5
18
102
{ACAD_REACTORS
330
17
102
}
330
17
100
AcDbMlineStyle
  2
Standard
 70
     0
  3

 62
   256
 51
90.0
 52
90.0
 71
     2
 49
0.5
 62
   256
  6
BYLAYER
 49
-0.5
 62
   256
  6
BYLAYER
  0
ACDBPLACEHOLDER
  5
F
102
{ACAD_REACTORS
330
E
102
}
330
E
  0
VISUALSTYLE
  5
2F
102
{ACAD_REACTORS
330
2A
102
}
330
2A
100
AcDbVisualStyle
  2
2dWireframe
 70
     4
177
     2
291
     0
 71
     0
176
     1
 72
     2
176
     1
 73
     0
176
     1
 90
        0
176
     1
 40
-0.6
176
     1
 41
-30.0
176
     1
 62
     5
 63
     7
421
 16777215
176
     1
 74
     1
176
     1
 91
        4
176
     1
 64
     7
176
     1
 65
   257
176
     1
 75
     1
176
     1
175
     1
176
     1
 42
1.0
176
     1
 92
        0
176
     1
 66
   257
176
     1
 43
1.0
176
     1
 76
     1
176
     1
 77
     6
176
     1
 78
     2
176
     1
 67
     7
176
     1
 79
     5
176
     1
170
     0
176
     1
171
     0
176
     1
290
     0
176
     1
 93
        1
176
     1
 44
0.0
176
     1
173
     0
176
     1
  0
VISUALSTYLE
  5
31
102
{ACAD_REACTORS
330
2A
102
}
330
2A
100
AcDbVisualStyle
  2
3D Hidden
 70
     6
177
     2
291
     0
 71
     1
176
     1
 72
     2
176
     1
 73
     2
176
     1
 90
        0
176
     1
 40
-0.6
176
     1
 41
-30.0
176
     1
 62
     5
 63
     7
421
 16777215
176
     1
 74
     2
176
     1
 91
        2
176
     1
 64
     7
176
     1
 65
   257
176
     1
 75
     2
176
     1
175
     1
176
     1
 42
40.0
176
     1
 92
        0
176
     1
 66
   257
176
     1
 43
1.0
176
     1
 76
     1
176
     1
 77
     6
176
     1
 78
     2
176
     1
 67
     7
176
     1
 79
     3
176
     1
170
     0
176
     1
171
     0
176
     1
290
     0
176
     1
 93
        1
176
     1
 44
0.0
176
     1
173
     0
176
     1
  0
VISUALSTYLE
  5
30
102
{ACAD_REACTORS
330
2A
102
}
330
2A
100
AcDbVisualStyle
  2
3dWireframe
 70
     5
177
     2
291
     0
 71
     0
176
     1
 72
     2
176
     1
 73
     0
176
     1
 90
        0
176
     1
 40
-0.6
176
     1
 41
-30.0
176
     1
 62
     5
 63
     7
421
 16777215
176
     1
 74
     1
176
     1
 91
        4
176
     1
 64
     7
176
     1
 65
   257
176
     1
 75
     1
176
     1
175
     1
176
     1
 42
1.0
176
     1
 92
        0
176
     1
 66
   257
176
     1
 43
1.0
176
     1
 76
     1
176
     1
 77
     6
176
     1
 78
     2
176
     1
 67
     7
176
     1
 79
     5
176
     1
170
     0
176
     1
171
     0
176
     1
290
     0
176
     1
 93
        1
176
     1
 44
0.0
176
     1
173
     0
176
     1
  0
VISUALSTYLE
  5
32
102
{ACAD_REACTORS
330
2A
102
}
330
2A
100
AcDbVisualStyle
  2
Basic
 70
     7
177
     2
291
     1
 71
     1
176
     1
 72
     0
176
     1
 73
     1
176
     1
 90
        0
176
     1
 40
-0.6
176
     1
 41
-30.0
176
     1
 62
     5
 63
     7
421
 16777215
176
     1
 74
     0
176
     1
 91
        4
176
     1
 64
     7
176
     1
 65
   257
176
     1
 75
     1
176
     1
175
     1
176
     1
 42
1.0
176
     1
 92
        8
176
     1
 66
     7
176
     1
 43
1.0
176
     1
 76
     1
176
     1
 77
     6
176
     1
 78
     2
176
     1
 67
     7
176
     1
 79
     5
176
     1
170
     0
176
     1
171
     0
176
     1
290
     0
176
     1
 93
        1
176
     1
 44
0.0
176
     1
173
     0
176
     1
  0
VISUALSTYLE
  5
36
102
{ACAD_REACTORS
330
2A
102
}
330
2A
100
AcDbVisualStyle
  2
Brighten
 70
    12
177
     2
291
     1
 71
     2
176
     1
 72
     2
176
     1
 73
     0
176
     1
 90
        0
176
     1
 40
-0.6
176
     1
 41
-30.0
176
     1
 62
     5
 63
     7
421
 16777215
176
     1
 74
     1
176
     1
 91
        4
176
     1
 64
     7
176
     1
 65
   257
176
     1
 75
     1
176
     1
175
     1
176
     1
 42
1.0
176
     1
 92
        8
176
     1
 66
     7
176
     1
 43
1.0
176
     1
 76
     1
176
     1
 77
     6
176
     1
 78
     2
176
     1
 67
     7
176
     1
 79
     5
176
     1
170
     0
176
     1
171
     0
176
     1
290
     0
176
     1
 93
        1
176
     1
 44
50.0
176
     1
173
     0
176
     1
  0
VISUALSTYLE
  5
3A
102
{ACAD_REACTORS
330
2A
102
}
330
2A
100
AcDbVisualStyle
  2
ColorChange
 70
    16
177
     2
291
     1
 71
     2
176
     1
 72
     2
176
     1
 73
     3
176
     1
 90
        0
176
     1
 40
-0.6
176
     1
 41
-30.0
176
     1
 62
     5
 63
     8
421
  8421504
176
     1
 74
     1
176
     1
 91
        4
176
     1
 64
     7
176
     1
 65
   257
176
     1
 75
     1
176
     1
175
     1
176
     1
 42
1.0
176
     1
 92
        8
176
     1
 66
     8
424
  8421504
176
     1
 43
1.0
176
     1
 76
     1
176
     1
 77
     6
176
     1
 78
     2
176
     1
 67
     7
176
     1
 79
     5
176
     1
170
     0
176
     1
171
     0
176
     1
290
     0
176
     1
 93
        1
176
     1
 44
0.0
176
     1
173
     0
176
     1
  0
VISUALSTYLE
  5
34
102
{ACAD_REACTORS
330
2A
102
}
330
2A
100
AcDbVisualStyle
  2
Conceptual
 70
     9
177
     2
291
     0
 71
     3
176
     1
 72
     2
176
     1
 73
     0
176
     1
 90
        0
176
     1
 40
-0.6
176
     1
 41
-30.0
176
     1
 62
     5
 63
     7
421
 16777215
176
     1
 74
     2
176
     1
 91
        2
176
     1
 64
     7
176
     1
 65
   257
176
     1
 75
     1
176
     1
175
     1
176
     1
 42
40.0
176
     1
 92
        8
176
     1
 66
     7
176
     1
 43
1.0
176
     1
 76
     1
176
     1
 77
     6
176
     1
 78
     2
176
     1
 67
     7
176
     1
 79
     3
176
     1
170
     0
176
     1
171
     0
176
     1
290
     0
176
     1
 93
        1
176
     1
 44
0.0
176
     1
173
     0
176
     1
  0
VISUALSTYLE
  5
35
102
{ACAD_REACTORS
330
2A
102
}
330
2A
100
AcDbVisualStyle
  2
Dim
 70
    11
177
     2
291
     1
 71
     2
176
     1
 72
     2
176
     1
 73
     0
176
     1
 90
        0
176
     1
 40
-0.6
176
     1
 41
-30.0
176
     1
 62
     5
 63
     7
421
 16777215
176
     1
 74
     1
176
     1
 91
        4
176
     1
 64
     7
176
     1
 65
   257
176
     1
 75
     1
176
     1
175
     1
176
     1
 42
1.0
176
     1
 92
        8
176
     1
 66
     7
176
     1
 43
1.0
176
     1
 76
     1
176
     1
 77
     6
176
     1
 78
     2
176
     1
 67
     7
176
     1
 79
     5
176
     1
170
     0
176
     1
171
     0
176
     1
290
     0
176
     1
 93
        1
176
     1
 44
-50.0
176
     1
173
     0
176
     1
  0
VISUALSTYLE
  5
39
102
{ACAD_REACTORS
330
2A
102
}
330
2A
100
AcDbVisualStyle
  2
Facepattern
 70
    15
177
     2
291
     1
 71
     2
176
     1
 72
     2
176
     1
 73
     0
176
     1
 90
        0
176
     1
 40
-0.6
176
     1
 41
-30.0
176
     1
 62
     5
 63
     7
421
 16777215
176
     1
 74
     1
176
     1
 91
        4
176
     1
 64
     7
176
     1
 65
   257
176
     1
 75
     1
176
     1
175
     1
176
     1
 42
1.0
176
     1
 92
        8
176
     1
 66
     7
176
     1
 43
1.0
176
     1
 76
     1
176
     1
 77
     6
176
     1
 78
     2
176
     1
 67
     7
176
     1
 79
     5
176
     1
170
     0
176
     1
171
     0
176
     1
290
     0
176
     1
 93
        1
176
     1
 44
0.0
176
     1
173
     0
176
     1
  0
VISUALSTYLE
  5
2B
102
{ACAD_REACTORS
330
2A
102
}
330
2A
100
AcDbVisualStyle
  2
Flat
 70
     0
177
     2
291
     1
 71
     2
176
     1
 72
     1
176
     1
 73
     1
176
     1
 90
        2
176
     1
 40
-0.6
176
     1
 41
30.0
176
     1
 62
     5
 63
     7
421
 16777215
176
     1
 74
     0
176
     1
 91
        4
176
     1
 64
     7
176
     1
 65
   257
176
     1
 75
     1
176
     1
175
     1
176
     1
 42
1.0
176
     1
 92
        8
176
     1
 66
     7
176
     1
 43
1.0
176
     1
 76
     1
176
     1
 77
     6
176
     1
 78
     2
176
     1
 67
     7
176
     1
 79
     5
176
     1
170
     0
176
     1
171
     0
176
     1
290
     0
176
     1
 93
       13
176
     1
 44
0.0
176
     1
173
     0
176
     1
  0
VISUALSTYLE
  5
2C
102
{ACAD_REACTORS
330
2A
102
}
330
2A
100
AcDbVisualStyle
  2
FlatWithEdges
 70
     1
177
     2
291
     1
 71
     2
176
     1
 72
     1
176
     1
 73
     1
176
     1
 90
        2
176
     1
 40
-0.6
176
     1
 41
30.0
176
     1
 62
     5
 63
     7
421
 16777215
176
     1
 74
     1
176
     1
 91
        4
176
     1
 64
     7
176
     1
 65
   257
176
     1
 75
     1
176
     1
175
     1
176
     1
 42
1.0
176
     1
 92
        0
176
     1
 66
   257
176
     1
 43
1.0
176
     1
 76
     1
176
     1
 77
     6
176
     1
 78
     2
176
     1
 67
     7
176
     1
 79
     5
176
     1
170
     0
176
     1
171
     0
176
     1
290
     0
176
     1
 93
       13
176
     1
 44
0.0
176
     1
173
     0
176
     1
  0
VISUALSTYLE
  5
2D
102
{ACAD_REACTORS
330
2A
102
}
330
2A
100
AcDbVisualStyle
  2
Gouraud
 70
     2
177
     2
291
     1
 71
     2
176
     1
 72
     2
176
     1
 73
     1
176
     1
 90
        2
176
     1
 40
-0.6
176
     1
 41
30.0
176
     1
 62
     5
 63
     7
421
 16777215
176
     1
 74
     0
176
     1
 91
        4
176
     1
 64
     7
176
     1
 65
   257
176
     1
 75
     1
176
     1
175
     1
176
     1
 42
1.0
176
     1
 92
        0
176
     1
 66
     7
176
     1
 43
1.0
176
     1
 76
     1
176
     1
 77
     6
176
     1
 78
     2
176
     1
 67
     7
176
     1
 79
     5
176
     1
170
     0
176
     1
171
     0
176
     1
290
     0
176
     1
 93
       13
176
     1
 44
0.0
176
     1
173
     0
176
     1
  0
VISUALSTYLE
  5
2E
102
{ACAD_REACTORS
330
2A
102
}
330
2A
100
AcDbVisualStyle
  2
GouraudWithEdges
 70
     3
177
     2
291
     1
 71
     2
176
     1
 72
     2
176
     1
 73
     1
176
     1
 90
        2
176
     1
 40
-0.6
176
     1
 41
30.0
176
     1
 62
     5
 63
     7
421
 16777215
176
     1
 74
     1
176
     1
 91
        4
176
     1
 64
     7
176
     1
 65
   257
176
     1
 75
     1
176
     1
175
     1
176
     1
 42
1.0
176
     1
 92
        0
176
     1
 66
   257
176
     1
 43
1.0
176
     1
 76
     1
176
     1
 77
     6
176
     1
 78
     2
176
     1
 67
     7
176
     1
 79
     5
176
     1
170
     0
176
     1
171
     0
176
     1
290
     0
176
     1
 93
       13
176
     1
 44
0.0
176
     1
173
     0
176
     1
  0
VISUALSTYLE
  5
38
102
{ACAD_REACTORS
330
2A
102
}
330
2A
100
AcDbVisualStyle
  2
Linepattern
 70
    14
177
     2
291
     1
 71
     2
176
     1
 72
     2
176
     1
 73
     0
176
     1
 90
        0
176
     1
 40
-0.6
176
     1
 41
-30.0
176
     1
 62
     5
 63
     7
421
 16777215
176
     1
 74
     1
176
     1
 91
        4
176
     1
 64
     7
176
     1
 65
   257
176
     1
 75
     7
176
     1
175
     7
176
     1
 42
1.0
176
     1
 92
        8
176
     1
 66
     7
176
     1
 43
1.0
176
     1
 76
     1
176
     1
 77
     6
176
     1
 78
     2
176
     1
 67
     7
176
     1
 79
     5
176
     1
170
     0
176
     1
171
     0
176
     1
290
     0
176
     1
 93
        1
176
     1
 44
0.0
176
     1
173
     0
176
     1
  0
VISUALSTYLE
  5
33
102
{ACAD_REACTORS
330
2A
102
}
330
2A
100
AcDbVisualStyle
  2
Realistic
 70
     8
177
     2
291
     0
 71
     2
176
     1
 72
     2
176
     1
 73
     0
176
     1
 90
        0
176
     1
 40
-0.6
176
     1
 41
-30.0
176
     1
 62
     5
 63
     7
421
 16777215
176
     1
 74
     1
176
     1
 91
        0
176
     1
 64
     7
176
     1
 65
   257
176
     1
 75
     1
176
     1
175
     1
176
     1
 42
1.0
176
     1
 92
        8
176
     1
 66
     8
424
  7895160
176
     1
 43
1.0
176
     1
 76
     1
176
     1
 77
     6
176
     1
 78
     2
176
     1
 67
     7
176
     1
 79
     5
176
     1
170
     0
176
     1
171
     0
176
     1
290
     0
176
     1
 93
       13
176
     1
 44
0.0
176
     1
173
     0
176
     1
  0
VISUALSTYLE
  5
37
102
{ACAD_REACTORS
330
2A
102
}
330
2A
100
AcDbVisualStyle
  2
Thicken
 70
    13
177
     2
291
     1
 71
     2
176
     1
 72
     2
176
     1
 73
     0
176
     1
 90
        0
176
     1
 40
-0.6
176
     1
 41
-30.0
176
     1
 62
     5
 63
     7
421
 16777215
176
     1
 74
     1
176
     1
 91
        4
176
     1
 64
     7
176
     1
 65
   257
176
     1
 75
     1
176
     1
175
     1
176
     1
 42
1.0
176
     1
 92
       12
176
     1
 66
     7
176
     1
 43
1.0
176
     1
 76
     1
176
     1
 77
     6
176
     1
 78
     2
176
     1
 67
     7
176
     1
 79
     5
176
     1
170
     0
176
     1
171
     0
176
     1
290
     0
176
     1
 93
        1
176
     1
 44
0.0
176
     1
173
     0
176
     1
  0
ENDSEC
  0
EOF
