  0
SECTION
  2
HEADER
  9
$ACADVER
  1
AC1024
  9
$ACADMAINTVER
 70
     6
  9
$DWGCODEPAGE
  3
UNDEFINED
  9
$INSBASE
 10
0.0
 20
0.0
 30
0.0
  9
$EXTMIN
 10
1.000000000000000E+20
 20
1.000000000000000E+20
 30
1.000000000000000E+20
  9
$EXTMAX
 10
-1.000000000000000E+20
 20
-1.000000000000000E+20
 30
-1.000000000000000E+20
  9
$LIMMIN
 10
0.0
 20
0.0
  9
$LIMMAX
 10
12.0
 20
9.0
  9
$ORTHOMODE
 70
     0
  9
$REGENMODE
 70
     1
  9
$FILLMODE
 70
     1
  9
$QTEXTMODE
 70
     0
  9
$MIRRTEXT
 70
     1
  9
$LTSCALE
 40
1.0
  9
$ATTMODE
 70
     1
  9
$TEXTSIZE
 40
0.2
  9
$TRACEWID
 40
0.05
  9
$TEXTSTYLE
  7
Standard
  9
$CLAYER
  8
0
  9
$CELTYPE
  6
ByLayer
  9
$CECOLOR
 62
   256
  9
$CELTSCALE
 40
1.0
  9
$DISPSILH
 70
     0
  9
$DIMSCALE
 40
1.0
  9
$DIMASZ
 40
0.18
  9
$DIMEXO
 40
0.0625
  9
$DIMDLI
 40
0.38
  9
$DIMRND
 40
0.0
  9
$DIMDLE
 40
0.0
  9
$DIMEXE
 40
0.18
  9
$DIMTP
 40
0.0
  9
$DIMTM
 40
0.0
  9
$DIMTXT
 40
0.18
  9
$DIMCEN
 40
0.09
  9
$DIMTSZ
 40
0.0
  9
$DIMTOL
 70
     0
  9
$DIMLIM
 70
     0
  9
$DIMTIH
 70
     1
  9
$DIMTOH
 70
     1
  9
$DIMSE1
 70
     0
  9
$DIMSE2
 70
     0
  9
$DIMTAD
 70
     0
  9
$DIMZIN
 70
     0
  9
$DIMBLK
  1

  9
$DIMASO
 70
     1
  9
$DIMSHO
 70
     1
  9
$DIMPOST
  1

  9
$DIMAPOST
  1

  9
$DIMALT
 70
     0
  9
$DIMALTD
 70
     2
  9
$DIMALTF
 40
25.4
  9
$DIMLFAC
 40
1.0
  9
$DIMTOFL
 70
     0
  9
$DIMTVP
 40
0.0
  9
$DIMTIX
 70
     0
  9
$DIMSOXD
 70
     0
  9
$DIMSAH
 70
     0
  9
$DIMBLK1
  1

  9
$DIMBLK2
  1

  9
$DIMSTYLE
  2
Standard
  9
$DIMCLRD
 70
     0
  9
$DIMCLRE
 70
     0
  9
$DIMCLRT
 70
     0
  9
$DIMTFAC
 40
1.0
  9
$DIMGAP
 40
0.09
  9
$DIMJUST
 70
     0
  9
$DIMSD1
 70
     0
  9
$DIMSD2
 70
     0
  9
$DIMTOLJ
 70
     1
  9
$DIMTZIN
 70
     0
  9
$DIMALTZ
 70
     0
  9
$DIMALTTZ
 70
     0
  9
$DIMUPT
 70
     0
  9
$DIMDEC
 70
     4
  9
$DIMTDEC
 70
     4
  9
$DIMALTU
 70
     2
  9
$DIMALTTD
 70
     2
  9
$DIMTXSTY
  7
Standard
  9
$DIMAUNIT
 70
     0
  9
$DIMADEC
 70
     0
  9
$DIMALTRND
 40
0.0
  9
$DIMAZIN
 70
     0
  9
$DIMDSEP
 70
    46
  9
$DIMATFIT
 70
     3
  9
$DIMFRAC
 70
     0
  9
$DIMLDRBLK
  1

  9
$DIMLUNIT
 70
     2
  9
$DIMLWD
 70
    -2
  9
$DIMLWE
 70
    -2
  9
$DIMTMOVE
 70
     0
  9
$DIMFXL
 40
1.0
  9
$DIMFXLON
 70
     0
  9
$DIMJOGANG
 40
0.7853981633974483
  9
$DIMTFILL
 70
     0
  9
$DIMTFILLCLR
 70
     0
  9
$DIMARCSYM
 70
     0
  9
$DIMLTYPE
  6

  9
$DIMLTEX1
  6

  9
$DIMLTEX2
  6

  9
$DIMTXTDIRECTION
 70
     0
  9
$LUNITS
 70
     2
  9
$LUPREC
 70
     4
  9
$SKETCHINC
 40
0.1
  9
$FILLETRAD
 40
0.5
  9
$AUNITS
 70
     0
  9
$AUPREC
 70
     0
  9
$MENU
  1
.
  9
$ELEVATION
 40
0.0
  9
$PELEVATION
 40
0.0
  9
$THICKNESS
 40
0.0
  9
$LIMCHECK
 70
     0
  9
$CHAMFERA
 40
0.5
  9
$CHAMFERB
 40
0.5
  9
$CHAMFERC
 40
1.0
  9
$CHAMFERD
 40
0.0
  9
$SKPOLY
 70
     0
  9
$TDCREATE
 40
2457917.587499988
  9
$TDUCREATE
 40
2457917.2125
  9
$TDUPDATE
 40
2457917.587499988
  9
$TDUUPDATE
 40
2457917.2125
  9
$TDINDWG
 40
0.0000000116
  9
$TDUSRTIMER
 40
0.0000000116
  9
$USRTIMER
 70
     1
  9
$ANGBASE
 50
0.0
  9
$ANGDIR
 70
     0
  9
$PDMODE
 70
     0
  9
$PDSIZE
 40
0.0
  9
$PLINEWID
 40
0.0
  9
$SPLFRAME
 70
     0
  9
$SPLINETYPE
 70
     6
  9
$SPLINESEGS
 70
     8
  9
$HANDSEED
  5
142
  9
$SURFTAB1
 70
     6
  9
$SURFTAB2
 70
     6
  9
$SURFTYPE
 70
     6
  9
$SURFU
 70
     6
  9
$SURFV
 70
     6
  9
$UCSBASE
  2

  9
$UCSNAME
  2

  9
$UCSORG
 10
0.0
 20
0.0
 30
0.0
  9
$UCSXDIR
 10
1.0
 20
0.0
 30
0.0
  9
$UCSYDIR
 10
0.0
 20
1.0
 30
0.0
  9
$UCSORTHOREF
  2

  9
$UCSORTHOVIEW
 70
     0
  9
$UCSORGTOP
 10
0.0
 20
0.0
 30
0.0
  9
$UCSORGBOTTOM
 10
0.0
 20
0.0
 30
0.0
  9
$UCSORGLEFT
 10
0.0
 20
0.0
 30
0.0
  9
$UCSORGRIGHT
 10
0.0
 20
0.0
 30
0.0
  9
$UCSORGFRONT
 10
0.0
 20
0.0
 30
0.0
  9
$UCSORGBACK
 10
0.0
 20
0.0
 30
0.0
  9
$PUCSBASE
  2

  9
$PUCSNAME
  2

  9
$PUCSORG
 10
0.0
 20
0.0
 30
0.0
  9
$PUCSXDIR
 10
1.0
 20
0.0
 30
0.0
  9
$PUCSYDIR
 10
0.0
 20
1.0
 30
0.0
  9
$PUCSORTHOREF
  2

  9
$PUCSORTHOVIEW
 70
     0
  9
$PUCSORGTOP
 10
0.0
 20
0.0
 30
0.0
  9
$PUCSORGBOTTOM
 10
0.0
 20
0.0
 30
0.0
  9
$PUCSORGLEFT
 10
0.0
 20
0.0
 30
0.0
  9
$PUCSORGRIGHT
 10
0.0
 20
0.0
 30
0.0
  9
$PUCSORGFRONT
 10
0.0
 20
0.0
 30
0.0
  9
$PUCSORGBACK
 10
0.0
 20
0.0
 30
0.0
  9
$USERI1
 70
     0
  9
$USERI2
 70
     0
  9
$USERI3
 70
     0
  9
$USERI4
 70
     0
  9
$USERI5
 70
     0
  9
$USERR1
 40
0.0
  9
$USERR2
 40
0.0
  9
$USERR3
 40
0.0
  9
$USERR4
 40
0.0
  9
$USERR5
 40
0.0
  9
$WORLDVIEW
 70
     1
  9
$SHADEDGE
 70
     3
  9
$SHADEDIF
 70
    70
  9
$TILEMODE
 70
     1
  9
$MAXACTVP
 70
    64
  9
$PINSBASE
 10
0.0
 20
0.0
 30
0.0
  9
$PLIMCHECK
 70
     0
  9
$PEXTMIN
 10
1.000000000000000E+20
 20
1.000000000000000E+20
 30
1.000000000000000E+20
  9
$PEXTMAX
 10
-1.000000000000000E+20
 20
-1.000000000000000E+20
 30
-1.000000000000000E+20
  9
$PLIMMIN
 10
0.0
 20
0.0
  9
$PLIMMAX
 10
12.0
 20
9.0
  9
$UNITMODE
 70
     0
  9
$VISRETAIN
 70
     1
  9
$PLINEGEN
 70
     0
  9
$PSLTSCALE
 70
     1
  9
$TREEDEPTH
 70
  3020
  9
$CMLSTYLE
  2
Standard
  9
$CMLJUST
 70
     0
  9
$CMLSCALE
 40
1.0
  9
$PROXYGRAPHICS
 70
     1
  9
$MEASUREMENT
 70
     0
  9
$CELWEIGHT
370
    -1
  9
$ENDCAPS
280
     0
  9
$JOINSTYLE
280
     0
  9
$LWDISPLAY
290
     1
  9
$INSUNITS
 70
     1
  9
$HYPERLINKBASE
  1

  9
$STYLESHEET
  1

  9
$XEDIT
290
     1
  9
$CEPSNTYPE
380
     0
  9
$PSTYLEMODE
290
     1
  9
$FINGERPRINTGUID
  2
{A23E9220-6146-0187-8F9A-0DF98F77C4DC}
  9
$VERSIONGUID
  2
{FAEB1C32-E019-11D5-929B-00C0DF256EC4}
  9
$EXTNAMES
290
     1
  9
$PSVPSCALE
 40
0.0
  9
$OLESTARTUP
290
     0
  9
$SORTENTS
280
   127
  9
$INDEXCTL
280
     0
  9
$HIDETEXT
280
     1
  9
$XCLIPFRAME
280
     2
  9
$HALOGAP
280
     0
  9
$OBSCOLOR
 70
   257
  9
$OBSLTYPE
280
     0
  9
$INTERSECTIONDISPLAY
280
     0
  9
$INTERSECTIONCOLOR
 70
   257
  9
$DIMASSOC
280
     2
  9
$PROJECTNAME
  1

  9
$CAMERADISPLAY
290
     0
  9
$LENSLENGTH
 40
50.0
  9
$CAMERAHEIGHT
 40
0.0
  9
$STEPSPERSEC
 40
2.0
  9
$STEPSIZE
 40
6.0
  9
$3DDWFPREC
 40
2.0
  9
$PSOLWIDTH
 40
0.25
  9
$PSOLHEIGHT
 40
4.0
  9
$LOFTANG1
 40
1.570796326794897
  9
$LOFTANG2
 40
1.570796326794897
  9
$LOFTMAG1
 40
0.0
  9
$LOFTMAG2
 40
0.0
  9
$LOFTPARAM
 70
     7
  9
$LOFTNORMALS
280
     1
  9
$LATITUDE
 40
37.795
  9
$LONGITUDE
 40
-122.394
  9
$NORTHDIRECTION
 40
0.0
  9
$TIMEZONE
 70
 -8000
  9
$LIGHTGLYPHDISPLAY
280
     1
  9
$TILEMODELIGHTSYNCH
280
     1
  9
$CMATERIAL
347
3C
  9
$SOLIDHIST
280
     1
  9
$SHOWHIST
280
     1
  9
$DWFFRAME
280
     2
  9
$DGNFRAME
280
     2
  9
$REALWORLDSCALE
290
     1
  9
$INTERFERECOLOR
 62
   256
  9
$CSHADOW
280
     0
  9
$SHADOWPLANELOCATION
 40
0.0
  0
ENDSEC
  0
SECTION
  2
CLASSES
  0
CLASS
  1
ACDBDICTIONARYWDFLT
  2
AcDbDictionaryWithDefault
  3
ObjectDBX Classes
 90
        0
 91
        4
280
     0
281
     0
  0
CLASS
  1
VISUALSTYLE
  2
AcDbVisualStyle
  3
ObjectDBX Classes
 90
     4095
 91
        4
280
     0
281
     0
  0
CLASS
  1
MATERIAL
  2
AcDbMaterial
  3
ObjectDBX Classes
 90
     1153
 91
        4
280
     0
281
     0
  0
CLASS
  1
SUN
  2
AcDbSun
  3
SCENEOE
 90
     1024
 91
        4
280
     0
281
     0
  0
ENDSEC
  0
SECTION
  2
TABLES
  0
TABLE
  2
VPORT
  5
8
330
0
100
AcDbSymbolTable
 70
     1
  0
VPORT
  5
29
330
8
100
AcDbSymbolTableRecord
100
AcDbViewportTableRecord
  2
*Active
 70
     0
 10
0.0
 20
0.0
 11
1.0
 21
1.0
 12
0.0
 22
0.0
 13
0.0
 23
0.0
 14
0.5
 24
0.5
 15
0.5
 25
0.5
 16
0.0
 26
0.0
 36
1.0
 17
105.0008280156501
 27
-148.4999710739862
 37
0.0
 40
296.9999421479724
 41
0.7070764206636528
 42
50.0
 43
0.0
 44
0.0
 50
0.0
 51
0.0
 71
     0
 72
   100
 73
     1
 74
     3
 75
     0
 76
     0
 77
     0
 78
     0
281
     0
 65
     1
110
0.0
120
0.0
130
0.0
111
1.0
121
0.0
131
0.0
112
0.0
122
1.0
132
0.0
 79
     0
146
0.0
 60
     3
 61
     5
292
     1
282
     1
141
0.0
142
0.0
 63
   250
361
3F
  0
ENDTAB
  0
TABLE
  2
LTYPE
  5
5
330
0
100
AcDbSymbolTable
 70
     1
  0
LTYPE
  5
14
330
5
100
AcDbSymbolTableRecord
100
AcDbLinetypeTableRecord
  2
ByBlock
 70
     0
  3

 72
    65
 73
     0
 40
0.0
  0
LTYPE
  5
15
330
5
100
AcDbSymbolTableRecord
100
AcDbLinetypeTableRecord
  2
ByLayer
 70
     0
  3

 72
    65
 73
     0
 40
0.0
  0
LTYPE
  5
16
330
5
100
AcDbSymbolTableRecord
100
AcDbLinetypeTableRecord
  2
Continuous
 70
     0
  3
Solid line
 72
    65
 73
     0
 40
0.0
  0
ENDTAB
  0
TABLE
  2
LAYER
  5
2
330
0
100
AcDbSymbolTable
 70
     2
  0
LAYER
  5
10
330
2
100
AcDbSymbolTableRecord
100
AcDbLayerTableRecord
  2
0
 70
     0
 62
     7
  6
Continuous
370
    -3
390
F
347
3E
  0
LAYER
  5
40
330
2
100
AcDbSymbolTableRecord
100
AcDbLayerTableRecord
  2
_U+30EC_U+30A4_U+30E4_U+30FC 1
 70
     0
 62
     7
  6
Continuous
370
    -3
390
F
347
3E
  0
ENDTAB
  0
TABLE
  2
STYLE
  5
3
330
0
100
AcDbSymbolTable
 70
     1
  0
STYLE
  5
11
330
3
100
AcDbSymbolTableRecord
100
AcDbTextStyleTableRecord
  2
Standard
 70
     0
 40
0.0
 41
1.0
 50
0.0
 71
     0
 42
0.2
  3
txt
  4

  0
ENDTAB
  0
TABLE
  2
VIEW
  5
6
330
0
100
AcDbSymbolTable
 70
     0
  0
ENDTAB
  0
TABLE
  2
UCS
  5
7
330
0
100
AcDbSymbolTable
 70
     0
  0
ENDTAB
  0
TABLE
  2
APPID
  5
9
330
0
100
AcDbSymbolTable
 70
     1
  0
APPID
  5
12
330
9
100
AcDbSymbolTableRecord
100
AcDbRegAppTableRecord
  2
ACAD
 70
     0
  0
ENDTAB
  0
TABLE
  2
DIMSTYLE
  5
A
330
0
100
AcDbSymbolTable
 70
     1
100
AcDbDimStyleTable
  0
DIMSTYLE
105
27
330
A
100
AcDbSymbolTableRecord
100
AcDbDimStyleTableRecord
  2
Standard
 70
     0
178
     0
340
11
  0
ENDTAB
  0
TABLE
  2
BLOCK_RECORD
  5
1
330
0
100
AcDbSymbolTable
 70
    14
  0
BLOCK_RECORD
  5
1F
330
1
100
AcDbSymbolTableRecord
100
AcDbBlockTableRecord
  2
*Model_Space
340
22
 70
     0
280
     1
281
     0
  0
BLOCK_RECORD
  5
1B
330
1
100
AcDbSymbolTableRecord
100
AcDbBlockTableRecord
  2
*Paper_Space
340
1E
 70
     0
280
     1
281
     0
  0
BLOCK_RECORD
  5
23
330
1
100
AcDbSymbolTableRecord
100
AcDbBlockTableRecord
  2
*Paper_Space0
340
26
 70
     0
280
     1
281
     0
  0
BLOCK_RECORD
  5
85
330
1
100
AcDbSymbolTableRecord
100
AcDbBlockTableRecord
  2
block 2
340
0
102
{BLKREFS
331
86
102
}
 70
     0
280
     1
281
     0
  0
BLOCK_RECORD
  5
99
330
1
100
AcDbSymbolTableRecord
100
AcDbBlockTableRecord
  2
block 3
340
0
102
{BLKREFS
331
9A
102
}
 70
     0
280
     1
281
     0
  0
BLOCK_RECORD
  5
9F
330
1
100
AcDbSymbolTableRecord
100
AcDbBlockTableRecord
  2
block 4
340
0
102
{BLKREFS
331
A0
102
}
 70
     0
280
     1
281
     0
  0
BLOCK_RECORD
  5
AF
330
1
100
AcDbSymbolTableRecord
100
AcDbBlockTableRecord
  2
block 5
340
0
102
{BLKREFS
331
B0
102
}
 70
     0
280
     1
281
     0
  0
BLOCK_RECORD
  5
B7
330
1
100
AcDbSymbolTableRecord
100
AcDbBlockTableRecord
  2
block 6
340
0
102
{BLKREFS
331
B8
102
}
 70
     0
280
     1
281
     0
  0
BLOCK_RECORD
  5
CB
330
1
100
AcDbSymbolTableRecord
100
AcDbBlockTableRecord
  2
block 7
340
0
102
{BLKREFS
331
CC
102
}
 70
     0
280
     1
281
     0
  0
BLOCK_RECORD
  5
DC
330
1
100
AcDbSymbolTableRecord
100
AcDbBlockTableRecord
  2
block 8
340
0
102
{BLKREFS
331
DD
102
}
 70
     0
280
     1
281
     0
  0
BLOCK_RECORD
  5
EC
330
1
100
AcDbSymbolTableRecord
100
AcDbBlockTableRecord
  2
block 9
340
0
102
{BLKREFS
331
ED
102
}
 70
     0
280
     1
281
     0
  0
BLOCK_RECORD
  5
FD
330
1
100
AcDbSymbolTableRecord
100
AcDbBlockTableRecord
  2
block 10
340
0
102
{BLKREFS
331
FE
102
}
 70
     0
280
     1
281
     0
  0
BLOCK_RECORD
  5
104
330
1
100
AcDbSymbolTableRecord
100
AcDbBlockTableRecord
  2
block 11
340
0
102
{BLKREFS
331
105
102
}
 70
     0
280
     1
281
     0
  0
BLOCK_RECORD
  5
118
330
1
100
AcDbSymbolTableRecord
100
AcDbBlockTableRecord
  2
block 12
340
0
102
{BLKREFS
331
119
102
}
 70
     0
280
     1
281
     0
  0
BLOCK_RECORD
  5
11E
330
1
100
AcDbSymbolTableRecord
100
AcDbBlockTableRecord
  2
block 13
340
0
102
{BLKREFS
331
11F
102
}
 70
     0
280
     1
281
     0
  0
BLOCK_RECORD
  5
12E
330
1
100
AcDbSymbolTableRecord
100
AcDbBlockTableRecord
  2
block 14
340
0
102
{BLKREFS
331
12F
102
}
 70
     0
280
     1
281
     0
  0
ENDTAB
  0
ENDSEC
  0
SECTION
  2
BLOCKS
  0
BLOCK
  5
20
330
1F
100
AcDbEntity
  8
0
100
AcDbBlockBegin
  2
*Model_Space
 70
     0
 10
0.0
 20
0.0
 30
0.0
  3
*Model_Space
  1

  0
ENDBLK
  5
21
330
1F
100
AcDbEntity
  8
0
100
AcDbBlockEnd
  0
BLOCK
  5
1C
330
1B
100
AcDbEntity
 67
     1
  8
0
100
AcDbBlockBegin
  2
*Paper_Space
 70
     0
 10
0.0
 20
0.0
 30
0.0
  3
*Paper_Space
  1

  0
ENDBLK
  5
1D
330
1B
100
AcDbEntity
 67
     1
  8
0
100
AcDbBlockEnd
  0
BLOCK
  5
24
330
23
100
AcDbEntity
  8
0
100
AcDbBlockBegin
  2
*Paper_Space0
 70
     0
 10
0.0
 20
0.0
 30
0.0
  3
*Paper_Space0
  1

  0
ENDBLK
  5
25
330
23
100
AcDbEntity
  8
0
100
AcDbBlockEnd
  0
BLOCK
  5
87
330
85
100
AcDbEntity
  8
0
100
AcDbBlockBegin
  2
block 2
 70
     0
 10
0.0
 20
0.0
 30
0.0
  3
block 2
  1

  0
POLYLINE
  5
89
330
85
100
AcDbEntity
  8
_U+30EC_U+30A4_U+30E4_U+30FC 1
 62
   179
420
  2234388
370
     9
100
AcDb2dPolyline
 66
     1
 10
0.0
 20
0.0
 30
0.0
  0
VERTEX
  5
8A
330
89
100
AcDbEntity
  8
_U+30EC_U+30A4_U+30E4_U+30FC 1
 62
   179
420
  2234388
370
     9
100
AcDbVertex
100
AcDb2dVertex
 10
125.8107476236338
 20
-141.7350338534553
 30
0.0
  0
VERTEX
  5
8B
330
89
100
AcDbEntity
  8
_U+30EC_U+30A4_U+30E4_U+30FC 1
 62
   179
420
  2234388
370
     9
100
AcDbVertex
100
AcDb2dVertex
 10
125.8107476236338
 20
-137.9647213543978
 30
0.0
  0
SEQEND
  5
8C
330
89
100
AcDbEntity
  8
_U+30EC_U+30A4_U+30E4_U+30FC 1
 62
   179
420
  2234388
370
     9
  0
POLYLINE
  5
8D
330
85
100
AcDbEntity
  8
_U+30EC_U+30A4_U+30E4_U+30FC 1
 62
   179
420
  2234388
370
     9
100
AcDb2dPolyline
 66
     1
 10
0.0
 20
0.0
 30
0.0
  0
VERTEX
  5
8E
330
8D
100
AcDbEntity
  8
_U+30EC_U+30A4_U+30E4_U+30FC 1
 62
   179
420
  2234388
370
     9
100
AcDbVertex
100
AcDb2dVertex
 10
125.8107476236338
 20
-141.7350338534553
 30
0.0
  0
VERTEX
  5
8F
330
8D
100
AcDbEntity
  8
_U+30EC_U+30A4_U+30E4_U+30FC 1
 62
   179
420
  2234388
370
     9
100
AcDbVertex
100
AcDb2dVertex
 10
125.8107476236338
 20
-142.7347707976496
 30
0.0
  0
SEQEND
  5
90
330
8D
100
AcDbEntity
  8
_U+30EC_U+30A4_U+30E4_U+30FC 1
 62
   179
420
  2234388
370
     9
  0
POLYLINE
  5
91
330
85
100
AcDbEntity
  8
_U+30EC_U+30A4_U+30E4_U+30FC 1
 62
   179
420
  2234388
370
     9
100
AcDb2dPolyline
 66
     1
 10
0.0
 20
0.0
 30
0.0
  0
VERTEX
  5
92
330
91
100
AcDbEntity
  8
_U+30EC_U+30A4_U+30E4_U+30FC 1
 62
   179
420
  2234388
370
     9
100
AcDbVertex
100
AcDb2dVertex
 10
124.3507062719936
 20
-141.7350338534553
 30
0.0
  0
VERTEX
  5
93
330
91
100
AcDbEntity
  8
_U+30EC_U+30A4_U+30E4_U+30FC 1
 62
   179
420
  2234388
370
     9
100
AcDbVertex
100
AcDb2dVertex
 10
126.8105198203497
 20
-141.7350338534553
 30
0.0
  0
SEQEND
  5
94
330
91
100
AcDbEntity
  8
_U+30EC_U+30A4_U+30E4_U+30FC 1
 62
   179
420
  2234388
370
     9
  0
POLYLINE
  5
95
330
85
100
AcDbEntity
  8
_U+30EC_U+30A4_U+30E4_U+30FC 1
 62
   179
420
  2234388
370
     9
100
AcDb2dPolyline
 66
     1
 10
0.0
 20
0.0
 30
0.0
  0
VERTEX
  5
96
330
95
100
AcDbEntity
  8
_U+30EC_U+30A4_U+30E4_U+30FC 1
 62
   179
420
  2234388
370
     9
100
AcDbVertex
100
AcDb2dVertex
 10
124.3507062719936
 20
-142.7347707976496
 30
0.0
  0
VERTEX
  5
97
330
95
100
AcDbEntity
  8
_U+30EC_U+30A4_U+30E4_U+30FC 1
 62
   179
420
  2234388
370
     9
100
AcDbVertex
100
AcDb2dVertex
 10
126.8105198203497
 20
-142.7347707976496
 30
0.0
  0
SEQEND
  5
98
330
95
100
AcDbEntity
  8
_U+30EC_U+30A4_U+30E4_U+30FC 1
 62
   179
420
  2234388
370
     9
  0
INSERT
  5
9A
330
85
100
AcDbEntity
  8
_U+30EC_U+30A4_U+30E4_U+30FC 1
100
AcDbBlockReference
  2
block 3
 10
0.0
 20
0.0
 30
0.0
  0
ENDBLK
  5
88
330
85
100
AcDbEntity
  8
0
100
AcDbBlockEnd
  0
BLOCK
  5
9B
330
99
100
AcDbEntity
  8
0
100
AcDbBlockBegin
  2
block 3
 70
     0
 10
0.0
 20
0.0
 30
0.0
  3
block 3
  1

  0
SPLINE
  5
9D
330
99
100
AcDbEntity
  8
_U+30EC_U+30A4_U+30E4_U+30FC 1
370
     0
100
AcDbSpline
210
0.0
220
0.0
230
1.0
 70
    11
 71
     3
 72
    26
 73
    22
 74
     0
 42
0.0000000001
 43
0.0000000001
 12
1.0
 22
0.0
 32
0.0
 13
1.0
 23
0.0
 33
0.0
 40
0.0
 40
0.0
 40
0.0
 40
0.0
 40
1.0
 40
1.0
 40
1.0
 40
2.0
 40
2.0
 40
2.0
 40
3.0
 40
3.0
 40
3.0
 40
4.0
 40
4.0
 40
4.0
 40
5.0
 40
5.0
 40
5.0
 40
6.0
 40
6.0
 40
6.0
 40
7.0
 40
7.0
 40
7.0
 40
7.0
 10
124.4592420478782
 20
-138.7867051519353
 30
0.0
 10
124.4592420478782
 20
-138.7867051519353
 30
0.0
 10
123.3550889448557
 20
-138.7867051519353
 30
0.0
 10
123.3550889448557
 20
-138.7867051519353
 30
0.0
 10
123.3550889448557
 20
-138.7867051519353
 30
0.0
 10
123.3550889448557
 20
-139.1391384200763
 30
0.0
 10
123.3550889448557
 20
-139.1391384200763
 30
0.0
 10
123.3550889448557
 20
-139.1391384200763
 30
0.0
 10
123.2069498389899
 20
-139.1391384200763
 30
0.0
 10
123.2069498389899
 20
-139.1391384200763
 30
0.0
 10
123.1921359284034
 20
-138.7842935850956
 30
0.0
 10
123.029182911951
 20
-138.734684210108
 30
0.0
 10
122.9148057418408
 20
-138.7029893316437
 30
0.0
 10
122.9148057418408
 20
-138.7029893316437
 30
0.0
 10
122.9148057418408
 20
-138.5469265061619
 30
0.0
 10
122.9148057418408
 20
-138.5469265061619
 30
0.0
 10
122.9148057418408
 20
-138.5469265061619
 30
0.0
 10
124.4592420478782
 20
-138.5469265061619
 30
0.0
 10
124.4592420478782
 20
-138.5469265061619
 30
0.0
 10
124.4592420478782
 20
-138.5469265061619
 30
0.0
 10
124.4592420478782
 20
-138.7867051519353
 30
0.0
 10
124.4592420478782
 20
-138.7867051519353
 30
0.0
  0
HATCH
  5
9E
330
99
100
AcDbEntity
  8
_U+30EC_U+30A4_U+30E4_U+30FC 1
 62
   179
420
  2234388
100
AcDbHatch
 10
0.0
 20
0.0
 30
0.0
210
0.0
220
0.0
230
1.0
  2
SOLID
 70
     1
 71
     0
 91
        1
 92
        1
 93
        1
 72
     4
 94
        3
 73
     0
 74
     1
 95
       26
 96
       22
 40
0.0
 40
0.0
 40
0.0
 40
0.0
 40
1.0
 40
1.0
 40
1.0
 40
2.0
 40
2.0
 40
2.0
 40
3.0
 40
3.0
 40
3.0
 40
4.0
 40
4.0
 40
4.0
 40
5.0
 40
5.0
 40
5.0
 40
6.0
 40
6.0
 40
6.0
 40
7.0
 40
7.0
 40
7.0
 40
7.0
 10
124.4592420478782
 20
-138.7867051519353
 10
124.4592420478782
 20
-138.7867051519353
 10
123.3550889448557
 20
-138.7867051519353
 10
123.3550889448557
 20
-138.7867051519353
 10
123.3550889448557
 20
-138.7867051519353
 10
123.3550889448557
 20
-139.1391384200763
 10
123.3550889448557
 20
-139.1391384200763
 10
123.3550889448557
 20
-139.1391384200763
 10
123.2069498389899
 20
-139.1391384200763
 10
123.2069498389899
 20
-139.1391384200763
 10
123.1921359284034
 20
-138.7842935850956
 10
123.029182911951
 20
-138.734684210108
 10
122.9148057418408
 20
-138.7029893316437
 10
122.9148057418408
 20
-138.7029893316437
 10
122.9148057418408
 20
-138.5469265061619
 10
122.9148057418408
 20
-138.5469265061619
 10
122.9148057418408
 20
-138.5469265061619
 10
124.4592420478782
 20
-138.5469265061619
 10
124.4592420478782
 20
-138.5469265061619
 10
124.4592420478782
 20
-138.5469265061619
 10
124.4592420478782
 20
-138.7867051519353
 10
124.4592420478782
 20
-138.7867051519353
 97
        0
 97
        0
 75
     2
 76
     1
 98
        0
  0
ENDBLK
  5
9C
330
99
100
AcDbEntity
  8
0
100
AcDbBlockEnd
  0
BLOCK
  5
A1
330
9F
100
AcDbEntity
  8
0
100
AcDbBlockBegin
  2
block 4
 70
     0
 10
0.0
 20
0.0
 30
0.0
  3
block 4
  1

  0
POLYLINE
  5
A3
330
9F
100
AcDbEntity
  8
_U+30EC_U+30A4_U+30E4_U+30FC 1
 62
   179
420
  2234388
370
     9
100
AcDb2dPolyline
 66
     1
 10
0.0
 20
0.0
 30
0.0
  0
VERTEX
  5
A4
330
A3
100
AcDbEntity
  8
_U+30EC_U+30A4_U+30E4_U+30FC 1
 62
   179
420
  2234388
370
     9
100
AcDbVertex
100
AcDb2dVertex
 10
121.7613880047193
 20
-137.7352746877884
 30
0.0
  0
VERTEX
  5
A5
330
A3
100
AcDbEntity
  8
_U+30EC_U+30A4_U+30E4_U+30FC 1
 62
   179
420
  2234388
370
     9
100
AcDbVertex
100
AcDb2dVertex
 10
90.7617118511425
 20
-137.7352746877884
 30
0.0
  0
SEQEND
  5
A6
330
A3
100
AcDbEntity
  8
_U+30EC_U+30A4_U+30E4_U+30FC 1
 62
   179
420
  2234388
370
     9
  0
POLYLINE
  5
A7
330
9F
100
AcDbEntity
  8
_U+30EC_U+30A4_U+30E4_U+30FC 1
 62
   179
420
  2234388
370
     9
100
AcDb2dPolyline
 66
     1
 10
0.0
 20
0.0
 30
0.0
  0
VERTEX
  5
A8
330
A7
100
AcDbEntity
  8
_U+30EC_U+30A4_U+30E4_U+30FC 1
 62
   179
420
  2234388
370
     9
100
AcDbVertex
100
AcDb2dVertex
 10
121.8041093925183
 20
-139.1946105207569
 30
0.0
  0
VERTEX
  5
A9
330
A7
100
AcDbEntity
  8
_U+30EC_U+30A4_U+30E4_U+30FC 1
 62
   179
420
  2234388
370
     9
100
AcDbVertex
100
AcDb2dVertex
 10
121.8041093925183
 20
-136.7347969102606
 30
0.0
  0
SEQEND
  5
AA
330
A7
100
AcDbEntity
  8
_U+30EC_U+30A4_U+30E4_U+30FC 1
 62
   179
420
  2234388
370
     9
  0
POLYLINE
  5
AB
330
9F
100
AcDbEntity
  8
_U+30EC_U+30A4_U+30E4_U+30FC 1
 62
   179
420
  2234388
370
     9
100
AcDb2dPolyline
 66
     1
 10
0.0
 20
0.0
 30
0.0
  0
VERTEX
  5
AC
330
AB
100
AcDbEntity
  8
_U+30EC_U+30A4_U+30E4_U+30FC 1
 62
   179
420
  2234388
370
     9
100
AcDbVertex
100
AcDb2dVertex
 10
90.7617118511425
 20
-139.1946105207569
 30
0.0
  0
VERTEX
  5
AD
330
AB
100
AcDbEntity
  8
_U+30EC_U+30A4_U+30E4_U+30FC 1
 62
   179
420
  2234388
370
     9
100
AcDbVertex
100
AcDb2dVertex
 10
90.7617118511425
 20
-136.7347969102606
 30
0.0
  0
SEQEND
  5
AE
330
AB
100
AcDbEntity
  8
_U+30EC_U+30A4_U+30E4_U+30FC 1
 62
   179
420
  2234388
370
     9
  0
INSERT
  5
B0
330
9F
100
AcDbEntity
  8
_U+30EC_U+30A4_U+30E4_U+30FC 1
100
AcDbBlockReference
  2
block 5
 10
0.0
 20
0.0
 30
0.0
  0
ENDBLK
  5
A2
330
9F
100
AcDbEntity
  8
0
100
AcDbBlockEnd
  0
BLOCK
  5
B1
330
AF
100
AcDbEntity
  8
0
100
AcDbBlockBegin
  2
block 5
 70
     0
 10
0.0
 20
0.0
 30
0.0
  3
block 5
  1

  0
SPLINE
  5
B3
330
AF
100
AcDbEntity
  8
_U+30EC_U+30A4_U+30E4_U+30FC 1
370
     0
100
AcDbSpline
210
0.0
220
0.0
230
1.0
 70
    11
 71
     3
 72
    62
 73
    58
 74
     0
 42
0.0000000001
 43
0.0000000001
 12
1.0
 22
0.0
 32
0.0
 13
1.0
 23
0.0
 33
0.0
 40
0.0
 40
0.0
 40
0.0
 40
0.0
 40
1.0
 40
1.0
 40
1.0
 40
2.0
 40
2.0
 40
2.0
 40
3.0
 40
3.0
 40
3.0
 40
4.0
 40
4.0
 40
4.0
 40
5.0
 40
5.0
 40
5.0
 40
6.0
 40
6.0
 40
6.0
 40
7.0
 40
7.0
 40
7.0
 40
8.0
 40
8.0
 40
8.0
 40
9.0
 40
9.0
 40
9.0
 40
10.0
 40
10.0
 40
10.0
 40
11.0
 40
11.0
 40
11.0
 40
12.0
 40
12.0
 40
12.0
 40
13.0
 40
13.0
 40
13.0
 40
14.0
 40
14.0
 40
14.0
 40
15.0
 40
15.0
 40
15.0
 40
16.0
 40
16.0
 40
16.0
 40
17.0
 40
17.0
 40
17.0
 40
18.0
 40
18.0
 40
18.0
 40
19.0
 40
19.0
 40
19.0
 40
19.0
 10
105.5494574388904
 20
-136.4342216998324
 30
0.0
 10
105.4476548673013
 20
-136.4342216998324
 30
0.0
 10
105.2147664124984
 20
-136.4130343625981
 30
0.0
 10
105.081268962445
 20
-136.2268269516204
 30
0.0
 10
105.0022040210585
 20
-136.1146890935755
 30
0.0
 10
104.9977253969277
 20
-136.015298088826
 30
0.0
 10
104.9932467727968
 20
-135.9307209946631
 30
0.0
 10
104.9932467727968
 20
-135.9307209946631
 30
0.0
 10
105.2282022848909
 20
-135.9307209946631
 30
0.0
 10
105.2282022848909
 20
-135.9307209946631
 30
0.0
 10
105.2306138517306
 20
-136.004790547596
 30
0.0
 10
105.2418104120576
 20
-136.2395738049158
 30
0.0
 10
105.5449788147596
 20
-136.2395738049158
 30
0.0
 10
105.6917398824312
 20
-136.2395738049158
 30
0.0
 10
105.8546928988836
 20
-136.1698106213395
 30
0.0
 10
105.8546928988836
 20
-135.9412285358932
 30
0.0
 10
105.8546928988836
 20
-135.824956563266
 30
0.0
 10
105.8140407721576
 20
-135.7762084621497
 30
0.0
 10
105.7799343268536
 20
-135.7445135836854
 30
0.0
 10
105.7010416402414
 20
-135.6704440307525
 30
0.0
 10
105.5766736932239
 20
-135.6578694322314
 30
0.0
 10
105.5177625604261
 20
-135.6578694322314
 30
0.0
 10
105.4974364970631
 20
-135.6578694322314
 30
0.0
 10
105.4588514276283
 20
-135.6599364895225
 30
0.0
 10
105.4295681160037
 20
-135.6640706041048
 30
0.0
 10
105.4295681160037
 20
-135.6640706041048
 30
0.0
 10
105.4295681160037
 20
-135.4694227091882
 30
0.0
 10
105.4295681160037
 20
-135.4694227091882
 30
0.0
 10
105.4702202427297
 20
-135.4757961358359
 30
0.0
 10
105.5153509935864
 20
-135.4780354479013
 30
0.0
 10
105.5222411845569
 20
-135.4780354479013
 30
0.0
 10
105.592521132456
 20
-135.4780354479013
 30
0.0
 10
105.8047390143474
 20
-135.456848110667
 30
0.0
 10
105.8047390143474
 20
-135.2198255412819
 30
0.0
 10
105.8047390143474
 20
-135.0422308690172
 30
0.0
 10
105.6648681376463
 20
-134.9871093412532
 30
0.0
 10
105.5470458720507
 20
-134.9871093412532
 30
0.0
 10
105.264375787486
 20
-134.9871093412532
 30
0.0
 10
105.2554185392244
 20
-135.2198255412819
 30
0.0
 10
105.2509399150935
 20
-135.2918280369236
 30
0.0
 10
105.2509399150935
 20
-135.2918280369236
 30
0.0
 10
105.0338988995228
 20
-135.2918280369236
 30
0.0
 10
105.0338988995228
 20
-135.2918280369236
 30
0.0
 10
105.0428561477844
 20
-135.1669433255833
 30
0.0
 10
105.0723117141833
 20
-134.7903943890455
 30
0.0
 10
105.5608262539917
 20
-134.7903943890455
 30
0.0
 10
105.8002603902166
 20
-134.7903943890455
 30
0.0
 10
106.0579535325133
 20
-134.9173461576769
 30
0.0
 10
106.0579535325133
 20
-135.2134521146342
 30
0.0
 10
106.0579535325133
 20
-135.3996595256119
 30
0.0
 10
105.9563232156984
 20
-135.4821695624836
 30
0.0
 10
105.8502142747527
 20
-135.5434922621211
 30
0.0
 10
105.9156710889725
 20
-135.5710530260031
 30
0.0
 10
106.1099744743406
 20
-135.6514960055837
 30
0.0
 10
106.1099744743406
 20
-135.928653937372
 30
0.0
 10
106.1099744743406
 20
-136.2671345687978
 30
0.0
 10
105.8457356506219
 20
-136.4342216998324
 30
0.0
 10
105.5494574388904
 20
-136.4342216998324
 30
0.0
  0
HATCH
  5
B4
330
AF
100
AcDbEntity
  8
_U+30EC_U+30A4_U+30E4_U+30FC 1
 62
   179
420
  2234388
100
AcDbHatch
 10
0.0
 20
0.0
 30
0.0
210
0.0
220
0.0
230
1.0
  2
SOLID
 70
     1
 71
     0
 91
        1
 92
        1
 93
        1
 72
     4
 94
        3
 73
     0
 74
     1
 95
       62
 96
       58
 40
0.0
 40
0.0
 40
0.0
 40
0.0
 40
1.0
 40
1.0
 40
1.0
 40
2.0
 40
2.0
 40
2.0
 40
3.0
 40
3.0
 40
3.0
 40
4.0
 40
4.0
 40
4.0
 40
5.0
 40
5.0
 40
5.0
 40
6.0
 40
6.0
 40
6.0
 40
7.0
 40
7.0
 40
7.0
 40
8.0
 40
8.0
 40
8.0
 40
9.0
 40
9.0
 40
9.0
 40
10.0
 40
10.0
 40
10.0
 40
11.0
 40
11.0
 40
11.0
 40
12.0
 40
12.0
 40
12.0
 40
13.0
 40
13.0
 40
13.0
 40
14.0
 40
14.0
 40
14.0
 40
15.0
 40
15.0
 40
15.0
 40
16.0
 40
16.0
 40
16.0
 40
17.0
 40
17.0
 40
17.0
 40
18.0
 40
18.0
 40
18.0
 40
19.0
 40
19.0
 40
19.0
 40
19.0
 10
105.5494574388904
 20
-136.4342216998324
 10
105.4476548673013
 20
-136.4342216998324
 10
105.2147664124984
 20
-136.4130343625981
 10
105.081268962445
 20
-136.2268269516204
 10
105.0022040210585
 20
-136.1146890935755
 10
104.9977253969277
 20
-136.015298088826
 10
104.9932467727968
 20
-135.9307209946631
 10
104.9932467727968
 20
-135.9307209946631
 10
105.2282022848909
 20
-135.9307209946631
 10
105.2282022848909
 20
-135.9307209946631
 10
105.2306138517306
 20
-136.004790547596
 10
105.2418104120576
 20
-136.2395738049158
 10
105.5449788147596
 20
-136.2395738049158
 10
105.6917398824312
 20
-136.2395738049158
 10
105.8546928988836
 20
-136.1698106213395
 10
105.8546928988836
 20
-135.9412285358932
 10
105.8546928988836
 20
-135.824956563266
 10
105.8140407721576
 20
-135.7762084621497
 10
105.7799343268536
 20
-135.7445135836854
 10
105.7010416402414
 20
-135.6704440307525
 10
105.5766736932239
 20
-135.6578694322314
 10
105.5177625604261
 20
-135.6578694322314
 10
105.4974364970631
 20
-135.6578694322314
 10
105.4588514276283
 20
-135.6599364895225
 10
105.4295681160037
 20
-135.6640706041048
 10
105.4295681160037
 20
-135.6640706041048
 10
105.4295681160037
 20
-135.4694227091882
 10
105.4295681160037
 20
-135.4694227091882
 10
105.4702202427297
 20
-135.4757961358359
 10
105.5153509935864
 20
-135.4780354479013
 10
105.5222411845569
 20
-135.4780354479013
 10
105.592521132456
 20
-135.4780354479013
 10
105.8047390143474
 20
-135.456848110667
 10
105.8047390143474
 20
-135.2198255412819
 10
105.8047390143474
 20
-135.0422308690172
 10
105.6648681376463
 20
-134.9871093412532
 10
105.5470458720507
 20
-134.9871093412532
 10
105.264375787486
 20
-134.9871093412532
 10
105.2554185392244
 20
-135.2198255412819
 10
105.2509399150935
 20
-135.2918280369236
 10
105.2509399150935
 20
-135.2918280369236
 10
105.0338988995228
 20
-135.2918280369236
 10
105.0338988995228
 20
-135.2918280369236
 10
105.0428561477844
 20
-135.1669433255833
 10
105.0723117141833
 20
-134.7903943890455
 10
105.5608262539917
 20
-134.7903943890455
 10
105.8002603902166
 20
-134.7903943890455
 10
106.0579535325133
 20
-134.9173461576769
 10
106.0579535325133
 20
-135.2134521146342
 10
106.0579535325133
 20
-135.3996595256119
 10
105.9563232156984
 20
-135.4821695624836
 10
105.8502142747527
 20
-135.5434922621211
 10
105.9156710889725
 20
-135.5710530260031
 10
106.1099744743406
 20
-135.6514960055837
 10
106.1099744743406
 20
-135.928653937372
 10
106.1099744743406
 20
-136.2671345687978
 10
105.8457356506219
 20
-136.4342216998324
 10
105.5494574388904
 20
-136.4342216998324
 97
        0
 97
        0
 75
     2
 76
     1
 98
        0
  0
SPLINE
  5
B5
330
AF
100
AcDbEntity
  8
_U+30EC_U+30A4_U+30E4_U+30FC 1
370
     0
100
AcDbSpline
210
0.0
220
0.0
230
1.0
 70
    11
 71
     3
 72
    26
 73
    22
 74
     0
 42
0.0000000001
 43
0.0000000001
 12
1.0
 22
0.0
 32
0.0
 13
1.0
 23
0.0
 33
0.0
 40
0.0
 40
0.0
 40
0.0
 40
0.0
 40
1.0
 40
1.0
 40
1.0
 40
2.0
 40
2.0
 40
2.0
 40
3.0
 40
3.0
 40
3.0
 40
4.0
 40
4.0
 40
4.0
 40
5.0
 40
5.0
 40
5.0
 40
6.0
 40
6.0
 40
6.0
 40
7.0
 40
7.0
 40
7.0
 40
7.0
 10
106.7641981069895
 20
-136.383406541425
 30
0.0
 10
106.7641981069895
 20
-136.383406541425
 30
0.0
 10
106.7641981069895
 20
-135.2790811836282
 30
0.0
 10
106.7641981069895
 20
-135.2790811836282
 30
0.0
 10
106.7641981069895
 20
-135.2790811836282
 30
0.0
 10
106.4114203292999
 20
-135.2790811836282
 30
0.0
 10
106.4114203292999
 20
-135.2790811836282
 30
0.0
 10
106.4114203292999
 20
-135.2790811836282
 30
0.0
 10
106.4114203292999
 20
-135.1311143325367
 30
0.0
 10
106.4114203292999
 20
-135.1311143325367
 30
0.0
 10
106.7666096738292
 20
-135.1163004219501
 30
0.0
 10
106.8162190488168
 20
-134.9533474054978
 30
0.0
 10
106.8479139272811
 20
-134.8391424901617
 30
0.0
 10
106.8479139272811
 20
-134.8391424901617
 30
0.0
 10
107.0039767527629
 20
-134.8391424901617
 30
0.0
 10
107.0039767527629
 20
-134.8391424901617
 30
0.0
 10
107.0039767527629
 20
-134.8391424901617
 30
0.0
 10
107.0039767527629
 20
-136.383406541425
 30
0.0
 10
107.0039767527629
 20
-136.383406541425
 30
0.0
 10
107.0039767527629
 20
-136.383406541425
 30
0.0
 10
106.7641981069895
 20
-136.383406541425
 30
0.0
 10
106.7641981069895
 20
-136.383406541425
 30
0.0
  0
HATCH
  5
B6
330
AF
100
AcDbEntity
  8
_U+30EC_U+30A4_U+30E4_U+30FC 1
 62
   179
420
  2234388
100
AcDbHatch
 10
0.0
 20
0.0
 30
0.0
210
0.0
220
0.0
230
1.0
  2
SOLID
 70
     1
 71
     0
 91
        1
 92
        1
 93
        1
 72
     4
 94
        3
 73
     0
 74
     1
 95
       26
 96
       22
 40
0.0
 40
0.0
 40
0.0
 40
0.0
 40
1.0
 40
1.0
 40
1.0
 40
2.0
 40
2.0
 40
2.0
 40
3.0
 40
3.0
 40
3.0
 40
4.0
 40
4.0
 40
4.0
 40
5.0
 40
5.0
 40
5.0
 40
6.0
 40
6.0
 40
6.0
 40
7.0
 40
7.0
 40
7.0
 40
7.0
 10
106.7641981069895
 20
-136.383406541425
 10
106.7641981069895
 20
-136.383406541425
 10
106.7641981069895
 20
-135.2790811836282
 10
106.7641981069895
 20
-135.2790811836282
 10
106.7641981069895
 20
-135.2790811836282
 10
106.4114203292999
 20
-135.2790811836282
 10
106.4114203292999
 20
-135.2790811836282
 10
106.4114203292999
 20
-135.2790811836282
 10
106.4114203292999
 20
-135.1311143325367
 10
106.4114203292999
 20
-135.1311143325367
 10
106.7666096738292
 20
-135.1163004219501
 10
106.8162190488168
 20
-134.9533474054978
 10
106.8479139272811
 20
-134.8391424901617
 10
106.8479139272811
 20
-134.8391424901617
 10
107.0039767527629
 20
-134.8391424901617
 10
107.0039767527629
 20
-134.8391424901617
 10
107.0039767527629
 20
-134.8391424901617
 10
107.0039767527629
 20
-136.383406541425
 10
107.0039767527629
 20
-136.383406541425
 10
107.0039767527629
 20
-136.383406541425
 10
106.7641981069895
 20
-136.383406541425
 10
106.7641981069895
 20
-136.383406541425
 97
        0
 97
        0
 75
     2
 76
     1
 98
        0
  0
ENDBLK
  5
B2
330
AF
100
AcDbEntity
  8
0
100
AcDbBlockEnd
  0
BLOCK
  5
B9
330
B7
100
AcDbEntity
  8
0
100
AcDbBlockBegin
  2
block 6
 70
     0
 10
0.0
 20
0.0
 30
0.0
  3
block 6
  1

  0
POLYLINE
  5
BB
330
B7
100
AcDbEntity
  8
_U+30EC_U+30A4_U+30E4_U+30FC 1
 62
   179
420
  2234388
370
     9
100
AcDb2dPolyline
 66
     1
 10
0.0
 20
0.0
 30
0.0
  0
VERTEX
  5
BC
330
BB
100
AcDbEntity
  8
_U+30EC_U+30A4_U+30E4_U+30FC 1
 62
   179
420
  2234388
370
     9
100
AcDbVertex
100
AcDb2dVertex
 10
110.8101077285542
 20
-158.234944404886
 30
0.0
  0
VERTEX
  5
BD
330
BB
100
AcDbEntity
  8
_U+30EC_U+30A4_U+30E4_U+30FC 1
 62
   179
420
  2234388
370
     9
100
AcDbVertex
100
AcDb2dVertex
 10
110.8101077285542
 20
-152.9770385728671
 30
0.0
  0
SEQEND
  5
BE
330
BB
100
AcDbEntity
  8
_U+30EC_U+30A4_U+30E4_U+30FC 1
 62
   179
420
  2234388
370
     9
  0
POLYLINE
  5
BF
330
B7
100
AcDbEntity
  8
_U+30EC_U+30A4_U+30E4_U+30FC 1
 62
   179
420
  2234388
370
     9
100
AcDb2dPolyline
 66
     1
 10
0.0
 20
0.0
 30
0.0
  0
VERTEX
  5
C0
330
BF
100
AcDbEntity
  8
_U+30EC_U+30A4_U+30E4_U+30FC 1
 62
   179
420
  2234388
370
     9
100
AcDbVertex
100
AcDb2dVertex
 10
110.8101077285542
 20
-158.234944404886
 30
0.0
  0
VERTEX
  5
C1
330
BF
100
AcDbEntity
  8
_U+30EC_U+30A4_U+30E4_U+30FC 1
 62
   179
420
  2234388
370
     9
100
AcDbVertex
100
AcDb2dVertex
 10
110.8101077285542
 20
-159.7346027378439
 30
0.0
  0
SEQEND
  5
C2
330
BF
100
AcDbEntity
  8
_U+30EC_U+30A4_U+30E4_U+30FC 1
 62
   179
420
  2234388
370
     9
  0
POLYLINE
  5
C3
330
B7
100
AcDbEntity
  8
_U+30EC_U+30A4_U+30E4_U+30FC 1
 62
   179
420
  2234388
370
     9
100
AcDb2dPolyline
 66
     1
 10
0.0
 20
0.0
 30
0.0
  0
VERTEX
  5
C4
330
C3
100
AcDbEntity
  8
_U+30EC_U+30A4_U+30E4_U+30FC 1
 62
   179
420
  2234388
370
     9
100
AcDbVertex
100
AcDb2dVertex
 10
109.3501016546909
 20
-158.234944404886
 30
0.0
  0
VERTEX
  5
C5
330
C3
100
AcDbEntity
  8
_U+30EC_U+30A4_U+30E4_U+30FC 1
 62
   179
420
  2234388
370
     9
100
AcDbVertex
100
AcDb2dVertex
 10
111.8105854808076
 20
-158.234944404886
 30
0.0
  0
SEQEND
  5
C6
330
C3
100
AcDbEntity
  8
_U+30EC_U+30A4_U+30E4_U+30FC 1
 62
   179
420
  2234388
370
     9
  0
POLYLINE
  5
C7
330
B7
100
AcDbEntity
  8
_U+30EC_U+30A4_U+30E4_U+30FC 1
 62
   179
420
  2234388
370
     9
100
AcDb2dPolyline
 66
     1
 10
0.0
 20
0.0
 30
0.0
  0
VERTEX
  5
C8
330
C7
100
AcDbEntity
  8
_U+30EC_U+30A4_U+30E4_U+30FC 1
 62
   179
420
  2234388
370
     9
100
AcDbVertex
100
AcDb2dVertex
 10
109.3501016546909
 20
-158.734160238094
 30
0.0
  0
VERTEX
  5
C9
330
C7
100
AcDbEntity
  8
_U+30EC_U+30A4_U+30E4_U+30FC 1
 62
   179
420
  2234388
370
     9
100
AcDbVertex
100
AcDb2dVertex
 10
111.8105854808076
 20
-158.734160238094
 30
0.0
  0
SEQEND
  5
CA
330
C7
100
AcDbEntity
  8
_U+30EC_U+30A4_U+30E4_U+30FC 1
 62
   179
420
  2234388
370
     9
  0
INSERT
  5
CC
330
B7
100
AcDbEntity
  8
_U+30EC_U+30A4_U+30E4_U+30FC 1
100
AcDbBlockReference
  2
block 7
 10
0.0
 20
0.0
 30
0.0
  0
ENDBLK
  5
BA
330
B7
100
AcDbEntity
  8
0
100
AcDbBlockEnd
  0
BLOCK
  5
CD
330
CB
100
AcDbEntity
  8
0
100
AcDbBlockBegin
  2
block 7
 70
     0
 10
0.0
 20
0.0
 30
0.0
  3
block 7
  1

  0
SPLINE
  5
CF
330
CB
100
AcDbEntity
  8
_U+30EC_U+30A4_U+30E4_U+30FC 1
370
     0
100
AcDbSpline
210
0.0
220
0.0
230
1.0
 70
    11
 71
     3
 72
    29
 73
    25
 74
     0
 42
0.0000000001
 43
0.0000000001
 12
1.0
 22
0.0
 32
0.0
 13
1.0
 23
0.0
 33
0.0
 40
0.0
 40
0.0
 40
0.0
 40
0.0
 40
1.0
 40
1.0
 40
1.0
 40
2.0
 40
2.0
 40
2.0
 40
3.0
 40
3.0
 40
3.0
 40
4.0
 40
4.0
 40
4.0
 40
5.0
 40
5.0
 40
5.0
 40
6.0
 40
6.0
 40
6.0
 40
7.0
 40
7.0
 40
7.0
 40
8.0
 40
8.0
 40
8.0
 40
8.0
 10
109.2808403589645
 20
-155.7314072961366
 30
0.0
 10
109.4903021644677
 20
-155.8468179948925
 30
0.0
 10
109.5092501896366
 20
-156.0321641319989
 30
0.0
 10
109.5092501896366
 20
-156.1565320790164
 30
0.0
 10
109.5092501896366
 20
-156.3280978341819
 30
0.0
 10
109.4627414005857
 20
-156.4796820355329
 30
0.0
 10
109.2808403589645
 20
-156.5813123523477
 30
0.0
 10
109.0861924640479
 20
-156.6922444269728
 30
0.0
 10
108.8491698946627
 20
-156.7125704903358
 30
0.0
 10
108.6865613877589
 20
-156.7125704903358
 30
0.0
 10
108.5425563964755
 20
-156.7125704903358
 30
0.0
 10
108.2907199165037
 20
-156.6946559938125
 30
0.0
 10
108.0919379070048
 20
-156.5813123523477
 30
0.0
 10
107.8890217829236
 20
-156.4662461631404
 30
0.0
 10
107.8655951336239
 20
-156.2943358984264
 30
0.0
 10
107.8655951336239
 20
-156.1565320790164
 30
0.0
 10
107.8655951336239
 20
-155.9866888715936
 30
0.0
 10
107.9100368653836
 20
-155.8330376129515
 30
0.0
 10
108.0919379070048
 20
-155.7314072961366
 30
0.0
 10
108.2845187446303
 20
-155.6249538456424
 30
0.0
 10
108.5129285753023
 20
-155.6001491581486
 30
0.0
 10
108.6865613877589
 20
-155.6001491581486
 30
0.0
 10
108.8577826333758
 20
-155.6001491581486
 30
0.0
 10
109.0882595213391
 20
-155.6228867883512
 30
0.0
 10
109.2808403589645
 20
-155.7314072961366
 30
0.0
  0
SPLINE
  5
D0
330
CB
100
AcDbEntity
  8
_U+30EC_U+30A4_U+30E4_U+30FC 1
370
     0
100
AcDbSpline
210
0.0
220
0.0
230
1.0
 70
    11
 71
     3
 72
    17
 73
    13
 74
     0
 42
0.0000000001
 43
0.0000000001
 12
1.0
 22
0.0
 32
0.0
 13
1.0
 23
0.0
 33
0.0
 40
0.0
 40
0.0
 40
0.0
 40
0.0
 40
1.0
 40
1.0
 40
1.0
 40
2.0
 40
2.0
 40
2.0
 40
3.0
 40
3.0
 40
3.0
 40
4.0
 40
4.0
 40
4.0
 40
4.0
 10
108.0581759712494
 20
-156.1565320790164
 30
0.0
 10
108.0581759712494
 20
-156.4231824695748
 30
0.0
 10
108.3417073296854
 20
-156.4727918445624
 30
0.0
 10
108.6865613877589
 20
-156.4727918445624
 30
0.0
 10
109.0059217392416
 20
-156.4727918445624
 30
0.0
 10
109.31460229472
 20
-156.4345512846761
 30
0.0
 10
109.31460229472
 20
-156.1565320790164
 30
0.0
 10
109.31460229472
 20
-155.8919487457492
 30
0.0
 10
109.0334825031236
 20
-155.839927803922
 30
0.0
 10
108.6865613877589
 20
-155.839927803922
 30
0.0
 10
108.3668565267277
 20
-155.839927803922
 30
0.0
 10
108.0581759712494
 20
-155.8805799306479
 30
0.0
 10
108.0581759712494
 20
-156.1565320790164
 30
0.0
  0
HATCH
  5
D1
330
CB
100
AcDbEntity
  8
_U+30EC_U+30A4_U+30E4_U+30FC 1
 62
   179
420
  2234388
100
AcDbHatch
 10
0.0
 20
0.0
 30
0.0
210
0.0
220
0.0
230
1.0
  2
SOLID
 70
     1
 71
     0
 91
        2
 92
        1
 93
        1
 72
     4
 94
        3
 73
     0
 74
     1
 95
       29
 96
       25
 40
0.0
 40
0.0
 40
0.0
 40
0.0
 40
1.0
 40
1.0
 40
1.0
 40
2.0
 40
2.0
 40
2.0
 40
3.0
 40
3.0
 40
3.0
 40
4.0
 40
4.0
 40
4.0
 40
5.0
 40
5.0
 40
5.0
 40
6.0
 40
6.0
 40
6.0
 40
7.0
 40
7.0
 40
7.0
 40
8.0
 40
8.0
 40
8.0
 40
8.0
 10
109.2808403589645
 20
-155.7314072961366
 10
109.4903021644677
 20
-155.8468179948925
 10
109.5092501896366
 20
-156.0321641319989
 10
109.5092501896366
 20
-156.1565320790164
 10
109.5092501896366
 20
-156.3280978341819
 10
109.4627414005857
 20
-156.4796820355329
 10
109.2808403589645
 20
-156.5813123523477
 10
109.0861924640479
 20
-156.6922444269728
 10
108.8491698946627
 20
-156.7125704903358
 10
108.6865613877589
 20
-156.7125704903358
 10
108.5425563964755
 20
-156.7125704903358
 10
108.2907199165037
 20
-156.6946559938125
 10
108.0919379070048
 20
-156.5813123523477
 10
107.8890217829236
 20
-156.4662461631404
 10
107.8655951336239
 20
-156.2943358984264
 10
107.8655951336239
 20
-156.1565320790164
 10
107.8655951336239
 20
-155.9866888715936
 10
107.9100368653836
 20
-155.8330376129515
 10
108.0919379070048
 20
-155.7314072961366
 10
108.2845187446303
 20
-155.6249538456424
 10
108.5129285753023
 20
-155.6001491581486
 10
108.6865613877589
 20
-155.6001491581486
 10
108.8577826333758
 20
-155.6001491581486
 10
109.0882595213391
 20
-155.6228867883512
 10
109.2808403589645
 20
-155.7314072961366
 97
        0
 97
        0
 92
        1
 93
        1
 72
     4
 94
        3
 73
     0
 74
     1
 95
       17
 96
       13
 40
0.0
 40
0.0
 40
0.0
 40
0.0
 40
1.0
 40
1.0
 40
1.0
 40
2.0
 40
2.0
 40
2.0
 40
3.0
 40
3.0
 40
3.0
 40
4.0
 40
4.0
 40
4.0
 40
4.0
 10
108.0581759712494
 20
-156.1565320790164
 10
108.0581759712494
 20
-156.4231824695748
 10
108.3417073296854
 20
-156.4727918445624
 10
108.6865613877589
 20
-156.4727918445624
 10
109.0059217392416
 20
-156.4727918445624
 10
109.31460229472
 20
-156.4345512846761
 10
109.31460229472
 20
-156.1565320790164
 10
109.31460229472
 20
-155.8919487457492
 10
109.0334825031236
 20
-155.839927803922
 10
108.6865613877589
 20
-155.839927803922
 10
108.3668565267277
 20
-155.839927803922
 10
108.0581759712494
 20
-155.8805799306479
 10
108.0581759712494
 20
-156.1565320790164
 97
        0
 97
        0
 75
     2
 76
     1
 98
        0
  0
POLYLINE
  5
D2
330
CB
100
AcDbEntity
  8
_U+30EC_U+30A4_U+30E4_U+30FC 1
370
     0
100
AcDb2dPolyline
 66
     1
 10
0.0
 20
0.0
 30
0.0
  0
VERTEX
  5
D3
330
D2
100
AcDbEntity
  8
_U+30EC_U+30A4_U+30E4_U+30FC 1
370
     0
100
AcDbVertex
100
AcDb2dVertex
 10
109.4586072860034
 20
-155.3689832510883
 30
0.0
  0
VERTEX
  5
D4
330
D2
100
AcDbEntity
  8
_U+30EC_U+30A4_U+30E4_U+30FC 1
370
     0
100
AcDbVertex
100
AcDb2dVertex
 10
109.2067708060316
 20
-155.3689832510883
 30
0.0
  0
VERTEX
  5
D5
330
D2
100
AcDbEntity
  8
_U+30EC_U+30A4_U+30E4_U+30FC 1
370
     0
100
AcDbVertex
100
AcDb2dVertex
 10
109.2067708060316
 20
-155.0999212936903
 30
0.0
  0
VERTEX
  5
D6
330
D2
100
AcDbEntity
  8
_U+30EC_U+30A4_U+30E4_U+30FC 1
370
     0
100
AcDbVertex
100
AcDb2dVertex
 10
109.4586072860034
 20
-155.0999212936903
 30
0.0
  0
VERTEX
  5
D7
330
D2
100
AcDbEntity
  8
_U+30EC_U+30A4_U+30E4_U+30FC 1
370
     0
100
AcDbVertex
100
AcDb2dVertex
 10
109.4586072860034
 20
-155.3689832510883
 30
0.0
  0
SEQEND
  5
D8
330
D2
100
AcDbEntity
  8
_U+30EC_U+30A4_U+30E4_U+30FC 1
370
     0
  0
HATCH
  5
D9
330
CB
100
AcDbEntity
  8
_U+30EC_U+30A4_U+30E4_U+30FC 1
 62
   179
420
  2234388
100
AcDbHatch
 10
0.0
 20
0.0
 30
0.0
210
0.0
220
0.0
230
1.0
  2
SOLID
 70
     1
 71
     0
 91
        1
 92
        1
 93
        4
 72
     1
 10
109.4586072860034
 20
-155.3689832510883
 11
109.2067708060316
 21
-155.3689832510883
 72
     1
 10
109.2067708060316
 20
-155.3689832510883
 11
109.2067708060316
 21
-155.0999212936903
 72
     1
 10
109.2067708060316
 20
-155.0999212936903
 11
109.4586072860034
 21
-155.0999212936903
 72
     1
 10
109.4586072860034
 20
-155.0999212936903
 11
109.4586072860034
 21
-155.3689832510883
 97
        0
 75
     2
 76
     1
 98
        0
  0
SPLINE
  5
DA
330
CB
100
AcDbEntity
  8
_U+30EC_U+30A4_U+30E4_U+30FC 1
370
     0
100
AcDbSpline
210
0.0
220
0.0
230
1.0
 70
    11
 71
     3
 72
    53
 73
    49
 74
     0
 42
0.0000000001
 43
0.0000000001
 12
1.0
 22
0.0
 32
0.0
 13
1.0
 23
0.0
 33
0.0
 40
0.0
 40
0.0
 40
0.0
 40
0.0
 40
1.0
 40
1.0
 40
1.0
 40
2.0
 40
2.0
 40
2.0
 40
3.0
 40
3.0
 40
3.0
 40
4.0
 40
4.0
 40
4.0
 40
5.0
 40
5.0
 40
5.0
 40
6.0
 40
6.0
 40
6.0
 40
7.0
 40
7.0
 40
7.0
 40
8.0
 40
8.0
 40
8.0
 40
9.0
 40
9.0
 40
9.0
 40
10.0
 40
10.0
 40
10.0
 40
11.0
 40
11.0
 40
11.0
 40
12.0
 40
12.0
 40
12.0
 40
13.0
 40
13.0
 40
13.0
 40
14.0
 40
14.0
 40
14.0
 40
15.0
 40
15.0
 40
15.0
 40
16.0
 40
16.0
 40
16.0
 40
16.0
 10
109.5092501896366
 20
-154.3330430386737
 30
0.0
 10
109.5092501896366
 20
-154.4167588589653
 30
0.0
 10
109.4923692217589
 20
-154.5249348572021
 30
0.0
 10
109.4289794648303
 20
-154.633799874536
 30
0.0
 10
109.3190809188508
 20
-154.8191460116424
 30
0.0
 10
109.1878227808628
 20
-154.8415391322966
 30
0.0
 10
109.0799912921745
 20
-154.8618651956595
 30
0.0
 10
109.0799912921745
 20
-154.8618651956595
 30
0.0
 10
109.0799912921745
 20
-154.6244981167258
 30
0.0
 10
109.0799912921745
 20
-154.6244981167258
 30
0.0
 10
109.2787733016734
 20
-154.5659314934766
 30
0.0
 10
109.3084011228465
 20
-154.4301947313577
 30
0.0
 10
109.3084011228465
 20
-154.330631471834
 30
0.0
 10
109.3084011228465
 20
-154.1814588373227
 30
0.0
 10
109.2088378633228
 20
-154.0185058208704
 30
0.0
 10
108.9762939180684
 20
-154.0185058208704
 30
0.0
 10
108.7203233235144
 20
-154.0185058208704
 30
0.0
 10
108.6503878851638
 20
-154.2107421489473
 30
0.0
 10
108.6503878851638
 20
-154.3395887200957
 30
0.0
 10
108.6503878851638
 20
-154.3736951653997
 30
0.0
 10
108.6503878851638
 20
-154.5249348572021
 30
0.0
 10
108.7795789658607
 20
-154.620019492595
 30
0.0
 10
108.7795789658607
 20
-154.620019492595
 30
0.0
 10
108.7606309406918
 20
-154.8077771965411
 30
0.0
 10
108.7606309406918
 20
-154.8077771965411
 30
0.0
 10
108.7606309406918
 20
-154.8077771965411
 30
0.0
 10
107.9141709799659
 20
-154.6789306253928
 30
0.0
 10
107.9141709799659
 20
-154.6789306253928
 30
0.0
 10
107.9141709799659
 20
-154.6789306253928
 30
0.0
 10
107.9141709799659
 20
-153.8469400657049
 30
0.0
 10
107.9141709799659
 20
-153.8469400657049
 30
0.0
 10
107.9141709799659
 20
-153.8469400657049
 30
0.0
 10
108.1088188748825
 20
-153.8469400657049
 30
0.0
 10
108.1088188748825
 20
-153.8469400657049
 30
0.0
 10
108.1088188748825
 20
-153.8469400657049
 30
0.0
 10
108.1088188748825
 20
-154.5046087938391
 30
0.0
 10
108.1088188748825
 20
-154.5046087938391
 30
0.0
 10
108.1088188748825
 20
-154.5046087938391
 30
0.0
 10
108.5318766004712
 20
-154.5748887417382
 30
0.0
 10
108.5318766004712
 20
-154.5748887417382
 30
0.0
 10
108.4981146647158
 20
-154.5094319275185
 30
0.0
 10
108.4578070475383
 20
-154.4212374830961
 30
0.0
 10
108.4578070475383
 20
-154.2944579692389
 30
0.0
 10
108.4578070475383
 20
-154.0233289545497
 30
0.0
 10
108.6441867132904
 20
-153.7701144363839
 30
0.0
 10
108.9573458928996
 20
-153.7701144363839
 30
0.0
 10
109.2746391870911
 20
-153.7701144363839
 30
0.0
 10
109.5092501896366
 20
-154.0095485726087
 30
0.0
 10
109.5092501896366
 20
-154.3330430386737
 30
0.0
  0
HATCH
  5
DB
330
CB
100
AcDbEntity
  8
_U+30EC_U+30A4_U+30E4_U+30FC 1
 62
   179
420
  2234388
100
AcDbHatch
 10
0.0
 20
0.0
 30
0.0
210
0.0
220
0.0
230
1.0
  2
SOLID
 70
     1
 71
     0
 91
        1
 92
        1
 93
        1
 72
     4
 94
        3
 73
     0
 74
     1
 95
       53
 96
       49
 40
0.0
 40
0.0
 40
0.0
 40
0.0
 40
1.0
 40
1.0
 40
1.0
 40
2.0
 40
2.0
 40
2.0
 40
3.0
 40
3.0
 40
3.0
 40
4.0
 40
4.0
 40
4.0
 40
5.0
 40
5.0
 40
5.0
 40
6.0
 40
6.0
 40
6.0
 40
7.0
 40
7.0
 40
7.0
 40
8.0
 40
8.0
 40
8.0
 40
9.0
 40
9.0
 40
9.0
 40
10.0
 40
10.0
 40
10.0
 40
11.0
 40
11.0
 40
11.0
 40
12.0
 40
12.0
 40
12.0
 40
13.0
 40
13.0
 40
13.0
 40
14.0
 40
14.0
 40
14.0
 40
15.0
 40
15.0
 40
15.0
 40
16.0
 40
16.0
 40
16.0
 40
16.0
 10
109.5092501896366
 20
-154.3330430386737
 10
109.5092501896366
 20
-154.4167588589653
 10
109.4923692217589
 20
-154.5249348572021
 10
109.4289794648303
 20
-154.633799874536
 10
109.3190809188508
 20
-154.8191460116424
 10
109.1878227808628
 20
-154.8415391322966
 10
109.0799912921745
 20
-154.8618651956595
 10
109.0799912921745
 20
-154.8618651956595
 10
109.0799912921745
 20
-154.6244981167258
 10
109.0799912921745
 20
-154.6244981167258
 10
109.2787733016734
 20
-154.5659314934766
 10
109.3084011228465
 20
-154.4301947313577
 10
109.3084011228465
 20
-154.330631471834
 10
109.3084011228465
 20
-154.1814588373227
 10
109.2088378633228
 20
-154.0185058208704
 10
108.9762939180684
 20
-154.0185058208704
 10
108.7203233235144
 20
-154.0185058208704
 10
108.6503878851638
 20
-154.2107421489473
 10
108.6503878851638
 20
-154.3395887200957
 10
108.6503878851638
 20
-154.3736951653997
 10
108.6503878851638
 20
-154.5249348572021
 10
108.7795789658607
 20
-154.620019492595
 10
108.7795789658607
 20
-154.620019492595
 10
108.7606309406918
 20
-154.8077771965411
 10
108.7606309406918
 20
-154.8077771965411
 10
108.7606309406918
 20
-154.8077771965411
 10
107.9141709799659
 20
-154.6789306253928
 10
107.9141709799659
 20
-154.6789306253928
 10
107.9141709799659
 20
-154.6789306253928
 10
107.9141709799659
 20
-153.8469400657049
 10
107.9141709799659
 20
-153.8469400657049
 10
107.9141709799659
 20
-153.8469400657049
 10
108.1088188748825
 20
-153.8469400657049
 10
108.1088188748825
 20
-153.8469400657049
 10
108.1088188748825
 20
-153.8469400657049
 10
108.1088188748825
 20
-154.5046087938391
 10
108.1088188748825
 20
-154.5046087938391
 10
108.1088188748825
 20
-154.5046087938391
 10
108.5318766004712
 20
-154.5748887417382
 10
108.5318766004712
 20
-154.5748887417382
 10
108.4981146647158
 20
-154.5094319275185
 10
108.4578070475383
 20
-154.4212374830961
 10
108.4578070475383
 20
-154.2944579692389
 10
108.4578070475383
 20
-154.0233289545497
 10
108.6441867132904
 20
-153.7701144363839
 10
108.9573458928996
 20
-153.7701144363839
 10
109.2746391870911
 20
-153.7701144363839
 10
109.5092501896366
 20
-154.0095485726087
 10
109.5092501896366
 20
-154.3330430386737
 97
        0
 97
        0
 75
     2
 76
     1
 98
        0
  0
ENDBLK
  5
CE
330
CB
100
AcDbEntity
  8
0
100
AcDbBlockEnd
  0
BLOCK
  5
DE
330
DC
100
AcDbEntity
  8
0
100
AcDbBlockBegin
  2
block 8
 70
     0
 10
0.0
 20
0.0
 30
0.0
  3
block 8
  1

  0
POLYLINE
  5
E0
330
DC
100
AcDbEntity
  8
_U+30EC_U+30A4_U+30E4_U+30FC 1
 62
   179
420
  2234388
370
     9
100
AcDb2dPolyline
 66
     1
 10
0.0
 20
0.0
 30
0.0
  0
VERTEX
  5
E1
330
E0
100
AcDbEntity
  8
_U+30EC_U+30A4_U+30E4_U+30FC 1
 62
   179
420
  2234388
370
     9
100
AcDbVertex
100
AcDb2dVertex
 10
96.81061586348876
 20
-163.2351813480803
 30
0.0
  0
VERTEX
  5
E2
330
E0
100
AcDbEntity
  8
_U+30EC_U+30A4_U+30E4_U+30FC 1
 62
   179
420
  2234388
370
     9
100
AcDbVertex
100
AcDb2dVertex
 10
106.8103486639299
 20
-163.2351813480803
 30
0.0
  0
SEQEND
  5
E3
330
E0
100
AcDbEntity
  8
_U+30EC_U+30A4_U+30E4_U+30FC 1
 62
   179
420
  2234388
370
     9
  0
POLYLINE
  5
E4
330
DC
100
AcDbEntity
  8
_U+30EC_U+30A4_U+30E4_U+30FC 1
 62
   179
420
  2234388
370
     9
100
AcDb2dPolyline
 66
     1
 10
0.0
 20
0.0
 30
0.0
  0
VERTEX
  5
E5
330
E4
100
AcDbEntity
  8
_U+30EC_U+30A4_U+30E4_U+30FC 1
 62
   179
420
  2234388
370
     9
100
AcDbVertex
100
AcDb2dVertex
 10
96.81061586348876
 20
-161.775139959556
 30
0.0
  0
VERTEX
  5
E6
330
E4
100
AcDbEntity
  8
_U+30EC_U+30A4_U+30E4_U+30FC 1
 62
   179
420
  2234388
370
     9
100
AcDbVertex
100
AcDb2dVertex
 10
96.81061586348876
 20
-164.2349535700522
 30
0.0
  0
SEQEND
  5
E7
330
E4
100
AcDbEntity
  8
_U+30EC_U+30A4_U+30E4_U+30FC 1
 62
   179
420
  2234388
370
     9
  0
POLYLINE
  5
E8
330
DC
100
AcDbEntity
  8
_U+30EC_U+30A4_U+30E4_U+30FC 1
 62
   179
420
  2234388
370
     9
100
AcDb2dPolyline
 66
     1
 10
0.0
 20
0.0
 30
0.0
  0
VERTEX
  5
E9
330
E8
100
AcDbEntity
  8
_U+30EC_U+30A4_U+30E4_U+30FC 1
 62
   179
420
  2234388
370
     9
100
AcDbVertex
100
AcDb2dVertex
 10
106.8103486639299
 20
-161.075087737509
 30
0.0
  0
VERTEX
  5
EA
330
E8
100
AcDbEntity
  8
_U+30EC_U+30A4_U+30E4_U+30FC 1
 62
   179
420
  2234388
370
     9
100
AcDbVertex
100
AcDb2dVertex
 10
106.8103486639299
 20
-164.2349535700522
 30
0.0
  0
SEQEND
  5
EB
330
E8
100
AcDbEntity
  8
_U+30EC_U+30A4_U+30E4_U+30FC 1
 62
   179
420
  2234388
370
     9
  0
INSERT
  5
ED
330
DC
100
AcDbEntity
  8
_U+30EC_U+30A4_U+30E4_U+30FC 1
100
AcDbBlockReference
  2
block 9
 10
0.0
 20
0.0
 30
0.0
  0
ENDBLK
  5
DF
330
DC
100
AcDbEntity
  8
0
100
AcDbBlockEnd
  0
BLOCK
  5
EE
330
EC
100
AcDbEntity
  8
0
100
AcDbBlockBegin
  2
block 9
 70
     0
 10
0.0
 20
0.0
 30
0.0
  3
block 9
  1

  0
SPLINE
  5
F0
330
EC
100
AcDbEntity
  8
_U+30EC_U+30A4_U+30E4_U+30FC 1
370
     0
100
AcDbSpline
210
0.0
220
0.0
230
1.0
 70
    11
 71
     3
 72
    26
 73
    22
 74
     0
 42
0.0000000001
 43
0.0000000001
 12
1.0
 22
0.0
 32
0.0
 13
1.0
 23
0.0
 33
0.0
 40
0.0
 40
0.0
 40
0.0
 40
0.0
 40
1.0
 40
1.0
 40
1.0
 40
2.0
 40
2.0
 40
2.0
 40
3.0
 40
3.0
 40
3.0
 40
4.0
 40
4.0
 40
4.0
 40
5.0
 40
5.0
 40
5.0
 40
6.0
 40
6.0
 40
6.0
 40
7.0
 40
7.0
 40
7.0
 40
7.0
 10
101.1290554217664
 20
-161.8836588136957
 30
0.0
 10
101.1290554217664
 20
-161.8836588136957
 30
0.0
 10
101.1290554217664
 20
-160.7795057106732
 30
0.0
 10
101.1290554217664
 20
-160.7795057106732
 30
0.0
 10
101.1290554217664
 20
-160.7795057106732
 30
0.0
 10
100.7762776440768
 20
-160.7795057106732
 30
0.0
 10
100.7762776440768
 20
-160.7795057106732
 30
0.0
 10
100.7762776440768
 20
-160.7795057106732
 30
0.0
 10
100.7762776440768
 20
-160.6313666048075
 30
0.0
 10
100.7762776440768
 20
-160.6313666048075
 30
0.0
 10
101.1312947338318
 20
-160.6165526942209
 30
0.0
 10
101.1810763635936
 20
-160.4535996777686
 30
0.0
 10
101.2125989872837
 20
-160.3392225076583
 30
0.0
 10
101.2125989872837
 20
-160.3392225076583
 30
0.0
 10
101.3686618127655
 20
-160.3392225076583
 30
0.0
 10
101.3686618127655
 20
-160.3392225076583
 30
0.0
 10
101.3686618127655
 20
-160.3392225076583
 30
0.0
 10
101.3686618127655
 20
-161.8836588136957
 30
0.0
 10
101.3686618127655
 20
-161.8836588136957
 30
0.0
 10
101.3686618127655
 20
-161.8836588136957
 30
0.0
 10
101.1290554217664
 20
-161.8836588136957
 30
0.0
 10
101.1290554217664
 20
-161.8836588136957
 30
0.0
  0
HATCH
  5
F1
330
EC
100
AcDbEntity
  8
_U+30EC_U+30A4_U+30E4_U+30FC 1
 62
   179
420
  2234388
100
AcDbHatch
 10
0.0
 20
0.0
 30
0.0
210
0.0
220
0.0
230
1.0
  2
SOLID
 70
     1
 71
     0
 91
        1
 92
        1
 93
        1
 72
     4
 94
        3
 73
     0
 74
     1
 95
       26
 96
       22
 40
0.0
 40
0.0
 40
0.0
 40
0.0
 40
1.0
 40
1.0
 40
1.0
 40
2.0
 40
2.0
 40
2.0
 40
3.0
 40
3.0
 40
3.0
 40
4.0
 40
4.0
 40
4.0
 40
5.0
 40
5.0
 40
5.0
 40
6.0
 40
6.0
 40
6.0
 40
7.0
 40
7.0
 40
7.0
 40
7.0
 10
101.1290554217664
 20
-161.8836588136957
 10
101.1290554217664
 20
-161.8836588136957
 10
101.1290554217664
 20
-160.7795057106732
 10
101.1290554217664
 20
-160.7795057106732
 10
101.1290554217664
 20
-160.7795057106732
 10
100.7762776440768
 20
-160.7795057106732
 10
100.7762776440768
 20
-160.7795057106732
 10
100.7762776440768
 20
-160.7795057106732
 10
100.7762776440768
 20
-160.6313666048075
 10
100.7762776440768
 20
-160.6313666048075
 10
101.1312947338318
 20
-160.6165526942209
 10
101.1810763635936
 20
-160.4535996777686
 10
101.2125989872837
 20
-160.3392225076583
 10
101.2125989872837
 20
-160.3392225076583
 10
101.3686618127655
 20
-160.3392225076583
 10
101.3686618127655
 20
-160.3392225076583
 10
101.3686618127655
 20
-160.3392225076583
 10
101.3686618127655
 20
-161.8836588136957
 10
101.3686618127655
 20
-161.8836588136957
 10
101.3686618127655
 20
-161.8836588136957
 10
101.1290554217664
 20
-161.8836588136957
 10
101.1290554217664
 20
-161.8836588136957
 97
        0
 97
        0
 75
     2
 76
     1
 98
        0
  0
SPLINE
  5
F2
330
EC
100
AcDbEntity
  8
_U+30EC_U+30A4_U+30E4_U+30FC 1
370
     0
100
AcDbSpline
210
0.0
220
0.0
230
1.0
 70
    11
 71
     3
 72
    29
 73
    25
 74
     0
 42
0.0000000001
 43
0.0000000001
 12
1.0
 22
0.0
 32
0.0
 13
1.0
 23
0.0
 33
0.0
 40
0.0
 40
0.0
 40
0.0
 40
0.0
 40
1.0
 40
1.0
 40
1.0
 40
2.0
 40
2.0
 40
2.0
 40
3.0
 40
3.0
 40
3.0
 40
4.0
 40
4.0
 40
4.0
 40
5.0
 40
5.0
 40
5.0
 40
6.0
 40
6.0
 40
6.0
 40
7.0
 40
7.0
 40
7.0
 40
8.0
 40
8.0
 40
8.0
 40
8.0
 10
102.8638332533639
 20
-161.7058918866569
 30
0.0
 10
102.7485948093823
 20
-161.9153536921601
 30
0.0
 10
102.5632486722759
 20
-161.9343017173289
 30
0.0
 10
102.4388807252583
 20
-161.9343017173289
 30
0.0
 10
102.2669704605444
 20
-161.9343017173289
 30
0.0
 10
102.1155585139676
 20
-161.8877929282781
 30
0.0
 10
102.0137559423785
 20
-161.7058918866569
 30
0.0
 10
101.9029961225277
 20
-161.5112439917403
 30
0.0
 10
101.8826700591648
 20
-161.2742214223551
 30
0.0
 10
101.8826700591648
 20
-161.1116129154513
 30
0.0
 10
101.8826700591648
 20
-160.9676079241678
 30
0.0
 10
101.9007568104623
 20
-160.7157714441961
 30
0.0
 10
102.0137559423785
 20
-160.5169894346971
 30
0.0
 10
102.1291666411344
 20
-160.3140733106159
 30
0.0
 10
102.3009046510741
 20
-160.2906466613162
 30
0.0
 10
102.4388807252583
 20
-160.2906466613162
 30
0.0
 10
102.6083794231326
 20
-160.2906466613162
 30
0.0
 10
102.762202936549
 20
-160.3350883930759
 30
0.0
 10
102.8638332533639
 20
-160.5169894346971
 30
0.0
 10
102.9701144490839
 20
-160.7095702723226
 30
0.0
 10
102.9950913913519
 20
-160.9379801029947
 30
0.0
 10
102.9950913913519
 20
-161.1116129154513
 30
0.0
 10
102.9950913913519
 20
-161.2828341610682
 30
0.0
 10
102.9723537611493
 20
-161.5133110490314
 30
0.0
 10
102.8638332533639
 20
-161.7058918866569
 30
0.0
  0
SPLINE
  5
F3
330
EC
100
AcDbEntity
  8
_U+30EC_U+30A4_U+30E4_U+30FC 1
370
     0
100
AcDbSpline
210
0.0
220
0.0
230
1.0
 70
    11
 71
     3
 72
    17
 73
    13
 74
     0
 42
0.0000000001
 43
0.0000000001
 12
1.0
 22
0.0
 32
0.0
 13
1.0
 23
0.0
 33
0.0
 40
0.0
 40
0.0
 40
0.0
 40
0.0
 40
1.0
 40
1.0
 40
1.0
 40
2.0
 40
2.0
 40
2.0
 40
3.0
 40
3.0
 40
3.0
 40
4.0
 40
4.0
 40
4.0
 40
4.0
 10
102.4388807252583
 20
-160.4832274989417
 30
0.0
 10
102.1720580799257
 20
-160.4832274989417
 30
0.0
 10
102.1222764501639
 20
-160.7667588573778
 30
0.0
 10
102.1222764501639
 20
-161.1116129154513
 30
0.0
 10
102.1222764501639
 20
-161.4309732669339
 30
0.0
 10
102.1606892648244
 20
-161.7396538224123
 30
0.0
 10
102.4388807252583
 20
-161.7396538224123
 30
0.0
 10
102.7032918037513
 20
-161.7396538224123
 30
0.0
 10
102.7553127455785
 20
-161.4585340308159
 30
0.0
 10
102.7553127455785
 20
-161.1116129154513
 30
0.0
 10
102.7553127455785
 20
-160.7919080544201
 30
0.0
 10
102.7146606188526
 20
-160.4832274989417
 30
0.0
 10
102.4388807252583
 20
-160.4832274989417
 30
0.0
  0
HATCH
  5
F4
330
EC
100
AcDbEntity
  8
_U+30EC_U+30A4_U+30E4_U+30FC 1
 62
   179
420
  2234388
100
AcDbHatch
 10
0.0
 20
0.0
 30
0.0
210
0.0
220
0.0
230
1.0
  2
SOLID
 70
     1
 71
     0
 91
        2
 92
        1
 93
        1
 72
     4
 94
        3
 73
     0
 74
     1
 95
       29
 96
       25
 40
0.0
 40
0.0
 40
0.0
 40
0.0
 40
1.0
 40
1.0
 40
1.0
 40
2.0
 40
2.0
 40
2.0
 40
3.0
 40
3.0
 40
3.0
 40
4.0
 40
4.0
 40
4.0
 40
5.0
 40
5.0
 40
5.0
 40
6.0
 40
6.0
 40
6.0
 40
7.0
 40
7.0
 40
7.0
 40
8.0
 40
8.0
 40
8.0
 40
8.0
 10
102.8638332533639
 20
-161.7058918866569
 10
102.7485948093823
 20
-161.9153536921601
 10
102.5632486722759
 20
-161.9343017173289
 10
102.4388807252583
 20
-161.9343017173289
 10
102.2669704605444
 20
-161.9343017173289
 10
102.1155585139676
 20
-161.8877929282781
 10
102.0137559423785
 20
-161.7058918866569
 10
101.9029961225277
 20
-161.5112439917403
 10
101.8826700591648
 20
-161.2742214223551
 10
101.8826700591648
 20
-161.1116129154513
 10
101.8826700591648
 20
-160.9676079241678
 10
101.9007568104623
 20
-160.7157714441961
 10
102.0137559423785
 20
-160.5169894346971
 10
102.1291666411344
 20
-160.3140733106159
 10
102.3009046510741
 20
-160.2906466613162
 10
102.4388807252583
 20
-160.2906466613162
 10
102.6083794231326
 20
-160.2906466613162
 10
102.762202936549
 20
-160.3350883930759
 10
102.8638332533639
 20
-160.5169894346971
 10
102.9701144490839
 20
-160.7095702723226
 10
102.9950913913519
 20
-160.9379801029947
 10
102.9950913913519
 20
-161.1116129154513
 10
102.9950913913519
 20
-161.2828341610682
 10
102.9723537611493
 20
-161.5133110490314
 10
102.8638332533639
 20
-161.7058918866569
 97
        0
 97
        0
 92
        1
 93
        1
 72
     4
 94
        3
 73
     0
 74
     1
 95
       17
 96
       13
 40
0.0
 40
0.0
 40
0.0
 40
0.0
 40
1.0
 40
1.0
 40
1.0
 40
2.0
 40
2.0
 40
2.0
 40
3.0
 40
3.0
 40
3.0
 40
4.0
 40
4.0
 40
4.0
 40
4.0
 10
102.4388807252583
 20
-160.4832274989417
 10
102.1720580799257
 20
-160.4832274989417
 10
102.1222764501639
 20
-160.7667588573778
 10
102.1222764501639
 20
-161.1116129154513
 10
102.1222764501639
 20
-161.4309732669339
 10
102.1606892648244
 20
-161.7396538224123
 10
102.4388807252583
 20
-161.7396538224123
 10
102.7032918037513
 20
-161.7396538224123
 10
102.7553127455785
 20
-161.4585340308159
 10
102.7553127455785
 20
-161.1116129154513
 10
102.7553127455785
 20
-160.7919080544201
 10
102.7146606188526
 20
-160.4832274989417
 10
102.4388807252583
 20
-160.4832274989417
 97
        0
 97
        0
 75
     2
 76
     1
 98
        0
  0
ENDBLK
  5
EF
330
EC
100
AcDbEntity
  8
0
100
AcDbBlockEnd
  0
BLOCK
  5
FF
330
FD
100
AcDbEntity
  8
0
100
AcDbBlockBegin
  2
block 10
 70
     0
 10
0.0
 20
0.0
 30
0.0
  3
block 10
  1

  0
SPLINE
  5
101
330
FD
100
AcDbEntity
  8
_U+30EC_U+30A4_U+30E4_U+30FC 1
370
     0
100
AcDbSpline
210
0.0
220
0.0
230
1.0
 70
    11
 71
     3
 72
    32
 73
    28
 74
     0
 42
0.0000000001
 43
0.0000000001
 12
1.0
 22
0.0
 32
0.0
 13
1.0
 23
0.0
 33
0.0
 40
0.0
 40
0.0
 40
0.0
 40
0.0
 40
1.0
 40
1.0
 40
1.0
 40
2.0
 40
2.0
 40
2.0
 40
3.0
 40
3.0
 40
3.0
 40
4.0
 40
4.0
 40
4.0
 40
5.0
 40
5.0
 40
5.0
 40
6.0
 40
6.0
 40
6.0
 40
7.0
 40
7.0
 40
7.0
 40
8.0
 40
8.0
 40
8.0
 40
9.0
 40
9.0
 40
9.0
 40
9.0
 10
93.79978703167158
 20
-161.9343017173289
 30
0.0
 10
93.24822724448309
 20
-161.9343017173289
 30
0.0
 10
93.23909774144717
 20
-161.3803303633008
 30
0.0
 10
93.23909774144717
 20
-161.1663899336667
 30
0.0
 10
93.23909774144717
 20
-160.9359130457035
 30
0.0
 10
93.25942380481015
 20
-160.2885796040251
 30
0.0
 10
93.84043915839753
 20
-160.2885796040251
 30
0.0
 10
94.02578529550398
 20
-160.2885796040251
 30
0.0
 10
94.28812931670575
 20
-160.3585150423756
 30
0.0
 10
94.3287814434317
 20
-160.6906222471538
 30
0.0
 10
94.3287814434317
 20
-160.6906222471538
 30
0.0
 10
94.1005438675339
 20
-160.6906222471538
 30
0.0
 10
94.1005438675339
 20
-160.6906222471538
 30
0.0
 10
94.08917505243257
 20
-160.6334336620986
 30
0.0
 10
94.05524086190286
 20
-160.4852945562328
 30
0.0
 10
93.83819984633212
 20
-160.4852945562328
 30
0.0
 10
93.52624645014275
 20
-160.4852945562328
 30
0.0
 10
93.48318275657712
 20
-160.8132676464286
 30
0.0
 10
93.46974688418464
 20
-161.018250827801
 30
0.0
 10
93.56913788893411
 20
-160.9400471602858
 30
0.0
 10
93.64148489412436
 20
-160.8807915179395
 30
0.0
 10
93.8359605342667
 20
-160.8807915179395
 30
0.0
 10
94.02819686234365
 20
-160.8807915179395
 30
0.0
 10
94.35134681886008
 20
-160.9889675161764
 30
0.0
 10
94.35134681886008
 20
-161.3951442738873
 30
0.0
 10
94.35134681886008
 20
-161.71450462537
 30
0.0
 10
94.13895668219443
 20
-161.9343017173289
 30
0.0
 10
93.79978703167158
 20
-161.9343017173289
 30
0.0
  0
SPLINE
  5
102
330
FD
100
AcDbEntity
  8
_U+30EC_U+30A4_U+30E4_U+30FC 1
370
     0
100
AcDbSpline
210
0.0
220
0.0
230
1.0
 70
    11
 71
     3
 72
    17
 73
    13
 74
     0
 42
0.0000000001
 43
0.0000000001
 12
1.0
 22
0.0
 32
0.0
 13
1.0
 23
0.0
 33
0.0
 40
0.0
 40
0.0
 40
0.0
 40
0.0
 40
1.0
 40
1.0
 40
1.0
 40
2.0
 40
2.0
 40
2.0
 40
3.0
 40
3.0
 40
3.0
 40
4.0
 40
4.0
 40
4.0
 40
4.0
 10
93.81787378296914
 20
-161.0754394128562
 30
0.0
 10
93.53761526524407
 20
-161.0754394128562
 30
0.0
 10
93.49679088374386
 20
-161.2869682756505
 30
0.0
 10
93.49679088374386
 20
-161.4034125030519
 30
0.0
 10
93.49679088374386
 20
-161.5791123727997
 30
0.0
 10
93.59859345533299
 20
-161.742065389252
 30
0.0
 10
93.79530840754076
 20
-161.742065389252
 30
0.0
 10
93.9241549786891
 20
-161.742065389252
 30
0.0
 10
94.11174042786095
 20
-161.6828097469057
 30
0.0
 10
94.11174042786095
 20
-161.3972113311785
 30
0.0
 10
94.11174042786095
 20
-161.1729356150887
 30
0.0
 10
93.96256779334963
 20
-161.0754394128562
 30
0.0
 10
93.81787378296914
 20
-161.0754394128562
 30
0.0
  0
HATCH
  5
103
330
FD
100
AcDbEntity
  8
_U+30EC_U+30A4_U+30E4_U+30FC 1
 62
   179
420
  2234388
100
AcDbHatch
 10
0.0
 20
0.0
 30
0.0
210
0.0
220
0.0
230
1.0
  2
SOLID
 70
     1
 71
     0
 91
        2
 92
        1
 93
        1
 72
     4
 94
        3
 73
     0
 74
     1
 95
       32
 96
       28
 40
0.0
 40
0.0
 40
0.0
 40
0.0
 40
1.0
 40
1.0
 40
1.0
 40
2.0
 40
2.0
 40
2.0
 40
3.0
 40
3.0
 40
3.0
 40
4.0
 40
4.0
 40
4.0
 40
5.0
 40
5.0
 40
5.0
 40
6.0
 40
6.0
 40
6.0
 40
7.0
 40
7.0
 40
7.0
 40
8.0
 40
8.0
 40
8.0
 40
9.0
 40
9.0
 40
9.0
 40
9.0
 10
93.79978703167158
 20
-161.9343017173289
 10
93.24822724448309
 20
-161.9343017173289
 10
93.23909774144717
 20
-161.3803303633008
 10
93.23909774144717
 20
-161.1663899336667
 10
93.23909774144717
 20
-160.9359130457035
 10
93.25942380481015
 20
-160.2885796040251
 10
93.84043915839753
 20
-160.2885796040251
 10
94.02578529550398
 20
-160.2885796040251
 10
94.28812931670575
 20
-160.3585150423756
 10
94.3287814434317
 20
-160.6906222471538
 10
94.3287814434317
 20
-160.6906222471538
 10
94.1005438675339
 20
-160.6906222471538
 10
94.1005438675339
 20
-160.6906222471538
 10
94.08917505243257
 20
-160.6334336620986
 10
94.05524086190286
 20
-160.4852945562328
 10
93.83819984633212
 20
-160.4852945562328
 10
93.52624645014275
 20
-160.4852945562328
 10
93.48318275657712
 20
-160.8132676464286
 10
93.46974688418464
 20
-161.018250827801
 10
93.56913788893411
 20
-160.9400471602858
 10
93.64148489412436
 20
-160.8807915179395
 10
93.8359605342667
 20
-160.8807915179395
 10
94.02819686234365
 20
-160.8807915179395
 10
94.35134681886008
 20
-160.9889675161764
 10
94.35134681886008
 20
-161.3951442738873
 10
94.35134681886008
 20
-161.71450462537
 10
94.13895668219443
 20
-161.9343017173289
 10
93.79978703167158
 20
-161.9343017173289
 97
        0
 97
        0
 92
        1
 93
        1
 72
     4
 94
        3
 73
     0
 74
     1
 95
       17
 96
       13
 40
0.0
 40
0.0
 40
0.0
 40
0.0
 40
1.0
 40
1.0
 40
1.0
 40
2.0
 40
2.0
 40
2.0
 40
3.0
 40
3.0
 40
3.0
 40
4.0
 40
4.0
 40
4.0
 40
4.0
 10
93.81787378296914
 20
-161.0754394128562
 10
93.53761526524407
 20
-161.0754394128562
 10
93.49679088374386
 20
-161.2869682756505
 10
93.49679088374386
 20
-161.4034125030519
 10
93.49679088374386
 20
-161.5791123727997
 10
93.59859345533299
 20
-161.742065389252
 10
93.79530840754076
 20
-161.742065389252
 10
93.9241549786891
 20
-161.742065389252
 10
94.11174042786095
 20
-161.6828097469057
 10
94.11174042786095
 20
-161.3972113311785
 10
94.11174042786095
 20
-161.1729356150887
 10
93.96256779334963
 20
-161.0754394128562
 10
93.81787378296914
 20
-161.0754394128562
 97
        0
 97
        0
 75
     2
 76
     1
 98
        0
  0
ENDBLK
  5
100
330
FD
100
AcDbEntity
  8
0
100
AcDbBlockEnd
  0
BLOCK
  5
106
330
104
100
AcDbEntity
  8
0
100
AcDbBlockBegin
  2
block 11
 70
     0
 10
0.0
 20
0.0
 30
0.0
  3
block 11
  1

  0
POLYLINE
  5
108
330
104
100
AcDbEntity
  8
_U+30EC_U+30A4_U+30E4_U+30FC 1
 62
   179
420
  2234388
370
     9
100
AcDb2dPolyline
 66
     1
 10
0.0
 20
0.0
 30
0.0
  0
VERTEX
  5
109
330
108
100
AcDbEntity
  8
_U+30EC_U+30A4_U+30E4_U+30FC 1
 62
   179
420
  2234388
370
     9
100
AcDbVertex
100
AcDb2dVertex
 10
88.52517135264584
 20
-140.7345560759275
 30
0.0
  0
VERTEX
  5
10A
330
108
100
AcDbEntity
  8
_U+30EC_U+30A4_U+30E4_U+30FC 1
 62
   179
420
  2234388
370
     9
100
AcDbVertex
100
AcDb2dVertex
 10
88.52517135264584
 20
-136.4771280214364
 30
0.0
  0
SEQEND
  5
10B
330
108
100
AcDbEntity
  8
_U+30EC_U+30A4_U+30E4_U+30FC 1
 62
   179
420
  2234388
370
     9
  0
POLYLINE
  5
10C
330
104
100
AcDbEntity
  8
_U+30EC_U+30A4_U+30E4_U+30FC 1
 62
   179
420
  2234388
370
     9
100
AcDb2dPolyline
 66
     1
 10
0.0
 20
0.0
 30
0.0
  0
VERTEX
  5
10D
330
10C
100
AcDbEntity
  8
_U+30EC_U+30A4_U+30E4_U+30FC 1
 62
   179
420
  2234388
370
     9
100
AcDbVertex
100
AcDb2dVertex
 10
88.52517135264584
 20
-140.7345560759275
 30
0.0
  0
VERTEX
  5
10E
330
10C
100
AcDbEntity
  8
_U+30EC_U+30A4_U+30E4_U+30FC 1
 62
   179
420
  2234388
370
     9
100
AcDbVertex
100
AcDb2dVertex
 10
88.52517135264584
 20
-143.7352485751774
 30
0.0
  0
SEQEND
  5
10F
330
10C
100
AcDbEntity
  8
_U+30EC_U+30A4_U+30E4_U+30FC 1
 62
   179
420
  2234388
370
     9
  0
POLYLINE
  5
110
330
104
100
AcDbEntity
  8
_U+30EC_U+30A4_U+30E4_U+30FC 1
 62
   179
420
  2234388
370
     9
100
AcDb2dPolyline
 66
     1
 10
0.0
 20
0.0
 30
0.0
  0
VERTEX
  5
111
330
110
100
AcDbEntity
  8
_U+30EC_U+30A4_U+30E4_U+30FC 1
 62
   179
420
  2234388
370
     9
100
AcDbVertex
100
AcDb2dVertex
 10
89.98521270428597
 20
-141.7350338534553
 30
0.0
  0
VERTEX
  5
112
330
110
100
AcDbEntity
  8
_U+30EC_U+30A4_U+30E4_U+30FC 1
 62
   179
420
  2234388
370
     9
100
AcDbVertex
100
AcDb2dVertex
 10
87.52539915592993
 20
-141.7350338534553
 30
0.0
  0
SEQEND
  5
113
330
110
100
AcDbEntity
  8
_U+30EC_U+30A4_U+30E4_U+30FC 1
 62
   179
420
  2234388
370
     9
  0
POLYLINE
  5
114
330
104
100
AcDbEntity
  8
_U+30EC_U+30A4_U+30E4_U+30FC 1
 62
   179
420
  2234388
370
     9
100
AcDb2dPolyline
 66
     1
 10
0.0
 20
0.0
 30
0.0
  0
VERTEX
  5
115
330
114
100
AcDbEntity
  8
_U+30EC_U+30A4_U+30E4_U+30FC 1
 62
   179
420
  2234388
370
     9
100
AcDbVertex
100
AcDb2dVertex
 10
89.98521270428597
 20
-142.7354763532051
 30
0.0
  0
VERTEX
  5
116
330
114
100
AcDbEntity
  8
_U+30EC_U+30A4_U+30E4_U+30FC 1
 62
   179
420
  2234388
370
     9
100
AcDbVertex
100
AcDb2dVertex
 10
87.52539915592993
 20
-142.7354763532051
 30
0.0
  0
SEQEND
  5
117
330
114
100
AcDbEntity
  8
_U+30EC_U+30A4_U+30E4_U+30FC 1
 62
   179
420
  2234388
370
     9
  0
INSERT
  5
119
330
104
100
AcDbEntity
  8
_U+30EC_U+30A4_U+30E4_U+30FC 1
100
AcDbBlockReference
  2
block 12
 10
0.0
 20
0.0
 30
0.0
  0
ENDBLK
  5
107
330
104
100
AcDbEntity
  8
0
100
AcDbBlockEnd
  0
BLOCK
  5
11A
330
118
100
AcDbEntity
  8
0
100
AcDbBlockBegin
  2
block 12
 70
     0
 10
0.0
 20
0.0
 30
0.0
  3
block 12
  1

  0
SPLINE
  5
11C
330
118
100
AcDbEntity
  8
_U+30EC_U+30A4_U+30E4_U+30FC 1
370
     0
100
AcDbSpline
210
0.0
220
0.0
230
1.0
 70
    11
 71
     3
 72
    26
 73
    22
 74
     0
 42
0.0000000001
 43
0.0000000001
 12
1.0
 22
0.0
 32
0.0
 13
1.0
 23
0.0
 33
0.0
 40
0.0
 40
0.0
 40
0.0
 40
0.0
 40
1.0
 40
1.0
 40
1.0
 40
2.0
 40
2.0
 40
2.0
 40
3.0
 40
3.0
 40
3.0
 40
4.0
 40
4.0
 40
4.0
 40
5.0
 40
5.0
 40
5.0
 40
6.0
 40
6.0
 40
6.0
 40
7.0
 40
7.0
 40
7.0
 40
7.0
 10
87.17366263011631
 20
-138.7867051519353
 30
0.0
 10
87.17366263011631
 20
-138.7867051519353
 30
0.0
 10
86.06950952709374
 20
-138.7867051519353
 30
0.0
 10
86.06950952709374
 20
-138.7867051519353
 30
0.0
 10
86.06950952709374
 20
-138.7867051519353
 30
0.0
 10
86.06950952709374
 20
-139.1391384200763
 30
0.0
 10
86.06950952709374
 20
-139.1391384200763
 30
0.0
 10
86.06950952709374
 20
-139.1391384200763
 30
0.0
 10
85.92137042122799
 20
-139.1391384200763
 30
0.0
 10
85.92137042122799
 20
-139.1391384200763
 30
0.0
 10
85.90655651064142
 20
-138.7842935850956
 30
0.0
 10
85.7436034941891
 20
-138.734684210108
 30
0.0
 10
85.62922632407881
 20
-138.7029893316437
 30
0.0
 10
85.62922632407881
 20
-138.7029893316437
 30
0.0
 10
85.62922632407881
 20
-138.5469265061619
 30
0.0
 10
85.62922632407881
 20
-138.5469265061619
 30
0.0
 10
85.62922632407881
 20
-138.5469265061619
 30
0.0
 10
87.17366263011631
 20
-138.5469265061619
 30
0.0
 10
87.17366263011631
 20
-138.5469265061619
 30
0.0
 10
87.17366263011631
 20
-138.5469265061619
 30
0.0
 10
87.17366263011631
 20
-138.7867051519353
 30
0.0
 10
87.17366263011631
 20
-138.7867051519353
 30
0.0
  0
HATCH
  5
11D
330
118
100
AcDbEntity
  8
_U+30EC_U+30A4_U+30E4_U+30FC 1
 62
   179
420
  2234388
100
AcDbHatch
 10
0.0
 20
0.0
 30
0.0
210
0.0
220
0.0
230
1.0
  2
SOLID
 70
     1
 71
     0
 91
        1
 92
        1
 93
        1
 72
     4
 94
        3
 73
     0
 74
     1
 95
       26
 96
       22
 40
0.0
 40
0.0
 40
0.0
 40
0.0
 40
1.0
 40
1.0
 40
1.0
 40
2.0
 40
2.0
 40
2.0
 40
3.0
 40
3.0
 40
3.0
 40
4.0
 40
4.0
 40
4.0
 40
5.0
 40
5.0
 40
5.0
 40
6.0
 40
6.0
 40
6.0
 40
7.0
 40
7.0
 40
7.0
 40
7.0
 10
87.17366263011631
 20
-138.7867051519353
 10
87.17366263011631
 20
-138.7867051519353
 10
86.06950952709374
 20
-138.7867051519353
 10
86.06950952709374
 20
-138.7867051519353
 10
86.06950952709374
 20
-138.7867051519353
 10
86.06950952709374
 20
-139.1391384200763
 10
86.06950952709374
 20
-139.1391384200763
 10
86.06950952709374
 20
-139.1391384200763
 10
85.92137042122799
 20
-139.1391384200763
 10
85.92137042122799
 20
-139.1391384200763
 10
85.90655651064142
 20
-138.7842935850956
 10
85.7436034941891
 20
-138.734684210108
 10
85.62922632407881
 20
-138.7029893316437
 10
85.62922632407881
 20
-138.7029893316437
 10
85.62922632407881
 20
-138.5469265061619
 10
85.62922632407881
 20
-138.5469265061619
 10
85.62922632407881
 20
-138.5469265061619
 10
87.17366263011631
 20
-138.5469265061619
 10
87.17366263011631
 20
-138.5469265061619
 10
87.17366263011631
 20
-138.5469265061619
 10
87.17366263011631
 20
-138.7867051519353
 10
87.17366263011631
 20
-138.7867051519353
 97
        0
 97
        0
 75
     2
 76
     1
 98
        0
  0
ENDBLK
  5
11B
330
118
100
AcDbEntity
  8
0
100
AcDbBlockEnd
  0
BLOCK
  5
120
330
11E
100
AcDbEntity
  8
0
100
AcDbBlockBegin
  2
block 13
 70
     0
 10
0.0
 20
0.0
 30
0.0
  3
block 13
  1

  0
POLYLINE
  5
122
330
11E
100
AcDbEntity
  8
_U+30EC_U+30A4_U+30E4_U+30FC 1
 62
   179
420
  2234388
370
     9
100
AcDb2dPolyline
 66
     1
 10
0.0
 20
0.0
 30
0.0
  0
VERTEX
  5
123
330
122
100
AcDbEntity
  8
_U+30EC_U+30A4_U+30E4_U+30FC 1
 62
   179
420
  2234388
370
     9
100
AcDbVertex
100
AcDb2dVertex
 10
125.8107476236338
 20
-142.7347707976496
 30
0.0
  0
VERTEX
  5
124
330
122
100
AcDbEntity
  8
_U+30EC_U+30A4_U+30E4_U+30FC 1
 62
   179
420
  2234388
370
     9
100
AcDbVertex
100
AcDb2dVertex
 10
125.8107476236338
 20
-158.234944404886
 30
0.0
  0
SEQEND
  5
125
330
122
100
AcDbEntity
  8
_U+30EC_U+30A4_U+30E4_U+30FC 1
 62
   179
420
  2234388
370
     9
  0
POLYLINE
  5
126
330
11E
100
AcDbEntity
  8
_U+30EC_U+30A4_U+30E4_U+30FC 1
 62
   179
420
  2234388
370
     9
100
AcDb2dPolyline
 66
     1
 10
0.0
 20
0.0
 30
0.0
  0
VERTEX
  5
127
330
126
100
AcDbEntity
  8
_U+30EC_U+30A4_U+30E4_U+30FC 1
 62
   179
420
  2234388
370
     9
100
AcDbVertex
100
AcDb2dVertex
 10
124.3507062719936
 20
-142.7347707976496
 30
0.0
  0
VERTEX
  5
128
330
126
100
AcDbEntity
  8
_U+30EC_U+30A4_U+30E4_U+30FC 1
 62
   179
420
  2234388
370
     9
100
AcDbVertex
100
AcDb2dVertex
 10
126.8105198203497
 20
-142.7347707976496
 30
0.0
  0
SEQEND
  5
129
330
126
100
AcDbEntity
  8
_U+30EC_U+30A4_U+30E4_U+30FC 1
 62
   179
420
  2234388
370
     9
  0
POLYLINE
  5
12A
330
11E
100
AcDbEntity
  8
_U+30EC_U+30A4_U+30E4_U+30FC 1
 62
   179
420
  2234388
370
     9
100
AcDb2dPolyline
 66
     1
 10
0.0
 20
0.0
 30
0.0
  0
VERTEX
  5
12B
330
12A
100
AcDbEntity
  8
_U+30EC_U+30A4_U+30E4_U+30FC 1
 62
   179
420
  2234388
370
     9
100
AcDbVertex
100
AcDb2dVertex
 10
109.3501016546909
 20
-158.234944404886
 30
0.0
  0
VERTEX
  5
12C
330
12A
100
AcDbEntity
  8
_U+30EC_U+30A4_U+30E4_U+30FC 1
 62
   179
420
  2234388
370
     9
100
AcDbVertex
100
AcDb2dVertex
 10
126.8105198203497
 20
-158.234944404886
 30
0.0
  0
SEQEND
  5
12D
330
12A
100
AcDbEntity
  8
_U+30EC_U+30A4_U+30E4_U+30FC 1
 62
   179
420
  2234388
370
     9
  0
INSERT
  5
12F
330
11E
100
AcDbEntity
  8
_U+30EC_U+30A4_U+30E4_U+30FC 1
100
AcDbBlockReference
  2
block 14
 10
0.0
 20
0.0
 30
0.0
  0
ENDBLK
  5
121
330
11E
100
AcDbEntity
  8
0
100
AcDbBlockEnd
  0
BLOCK
  5
130
330
12E
100
AcDbEntity
  8
0
100
AcDbBlockBegin
  2
block 14
 70
     0
 10
0.0
 20
0.0
 30
0.0
  3
block 14
  1

  0
SPLINE
  5
132
330
12E
100
AcDbEntity
  8
_U+30EC_U+30A4_U+30E4_U+30FC 1
370
     0
100
AcDbSpline
210
0.0
220
0.0
230
1.0
 70
    11
 71
     3
 72
    26
 73
    22
 74
     0
 42
0.0000000001
 43
0.0000000001
 12
1.0
 22
0.0
 32
0.0
 13
1.0
 23
0.0
 33
0.0
 40
0.0
 40
0.0
 40
0.0
 40
0.0
 40
1.0
 40
1.0
 40
1.0
 40
2.0
 40
2.0
 40
2.0
 40
3.0
 40
3.0
 40
3.0
 40
4.0
 40
4.0
 40
4.0
 40
5.0
 40
5.0
 40
5.0
 40
6.0
 40
6.0
 40
6.0
 40
7.0
 40
7.0
 40
7.0
 40
7.0
 10
124.4592420478782
 20
-152.0871852918393
 30
0.0
 10
124.4592420478782
 20
-152.0871852918393
 30
0.0
 10
123.3550889448557
 20
-152.0871852918393
 30
0.0
 10
123.3550889448557
 20
-152.0871852918393
 30
0.0
 10
123.3550889448557
 20
-152.0871852918393
 30
0.0
 10
123.3550889448557
 20
-152.4396185599804
 30
0.0
 10
123.3550889448557
 20
-152.4396185599804
 30
0.0
 10
123.3550889448557
 20
-152.4396185599804
 30
0.0
 10
123.2069498389899
 20
-152.4396185599804
 30
0.0
 10
123.2069498389899
 20
-152.4396185599804
 30
0.0
 10
123.1921359284034
 20
-152.0847737249996
 30
0.0
 10
123.029182911951
 20
-152.0351643500121
 30
0.0
 10
122.9148057418408
 20
-152.0034694715478
 30
0.0
 10
122.9148057418408
 20
-152.0034694715478
 30
0.0
 10
122.9148057418408
 20
-151.8474066460659
 30
0.0
 10
122.9148057418408
 20
-151.8474066460659
 30
0.0
 10
122.9148057418408
 20
-151.8474066460659
 30
0.0
 10
124.4592420478782
 20
-151.8474066460659
 30
0.0
 10
124.4592420478782
 20
-151.8474066460659
 30
0.0
 10
124.4592420478782
 20
-151.8474066460659
 30
0.0
 10
124.4592420478782
 20
-152.0871852918393
 30
0.0
 10
124.4592420478782
 20
-152.0871852918393
 30
0.0
  0
HATCH
  5
133
330
12E
100
AcDbEntity
  8
_U+30EC_U+30A4_U+30E4_U+30FC 1
 62
   179
420
  2234388
100
AcDbHatch
 10
0.0
 20
0.0
 30
0.0
210
0.0
220
0.0
230
1.0
  2
SOLID
 70
     1
 71
     0
 91
        1
 92
        1
 93
        1
 72
     4
 94
        3
 73
     0
 74
     1
 95
       26
 96
       22
 40
0.0
 40
0.0
 40
0.0
 40
0.0
 40
1.0
 40
1.0
 40
1.0
 40
2.0
 40
2.0
 40
2.0
 40
3.0
 40
3.0
 40
3.0
 40
4.0
 40
4.0
 40
4.0
 40
5.0
 40
5.0
 40
5.0
 40
6.0
 40
6.0
 40
6.0
 40
7.0
 40
7.0
 40
7.0
 40
7.0
 10
124.4592420478782
 20
-152.0871852918393
 10
124.4592420478782
 20
-152.0871852918393
 10
123.3550889448557
 20
-152.0871852918393
 10
123.3550889448557
 20
-152.0871852918393
 10
123.3550889448557
 20
-152.0871852918393
 10
123.3550889448557
 20
-152.4396185599804
 10
123.3550889448557
 20
-152.4396185599804
 10
123.3550889448557
 20
-152.4396185599804
 10
123.2069498389899
 20
-152.4396185599804
 10
123.2069498389899
 20
-152.4396185599804
 10
123.1921359284034
 20
-152.0847737249996
 10
123.029182911951
 20
-152.0351643500121
 10
122.9148057418408
 20
-152.0034694715478
 10
122.9148057418408
 20
-152.0034694715478
 10
122.9148057418408
 20
-151.8474066460659
 10
122.9148057418408
 20
-151.8474066460659
 10
122.9148057418408
 20
-151.8474066460659
 10
124.4592420478782
 20
-151.8474066460659
 10
124.4592420478782
 20
-151.8474066460659
 10
124.4592420478782
 20
-151.8474066460659
 10
124.4592420478782
 20
-152.0871852918393
 10
124.4592420478782
 20
-152.0871852918393
 97
        0
 97
        0
 75
     2
 76
     1
 98
        0
  0
SPLINE
  5
134
330
12E
100
AcDbEntity
  8
_U+30EC_U+30A4_U+30E4_U+30FC 1
370
     0
100
AcDbSpline
210
0.0
220
0.0
230
1.0
 70
    11
 71
     3
 72
    53
 73
    49
 74
     0
 42
0.0000000001
 43
0.0000000001
 12
1.0
 22
0.0
 32
0.0
 13
1.0
 23
0.0
 33
0.0
 40
0.0
 40
0.0
 40
0.0
 40
0.0
 40
1.0
 40
1.0
 40
1.0
 40
2.0
 40
2.0
 40
2.0
 40
3.0
 40
3.0
 40
3.0
 40
4.0
 40
4.0
 40
4.0
 40
5.0
 40
5.0
 40
5.0
 40
6.0
 40
6.0
 40
6.0
 40
7.0
 40
7.0
 40
7.0
 40
8.0
 40
8.0
 40
8.0
 40
9.0
 40
9.0
 40
9.0
 40
10.0
 40
10.0
 40
10.0
 40
11.0
 40
11.0
 40
11.0
 40
12.0
 40
12.0
 40
12.0
 40
13.0
 40
13.0
 40
13.0
 40
14.0
 40
14.0
 40
14.0
 40
15.0
 40
15.0
 40
15.0
 40
16.0
 40
16.0
 40
16.0
 40
16.0
 10
124.5098849515114
 20
-150.7976860517103
 30
0.0
 10
124.5098849515114
 20
-150.8814018720019
 30
0.0
 10
124.4930039836337
 20
-150.9895778702387
 30
0.0
 10
124.4296142267051
 20
-151.0984428875726
 30
0.0
 10
124.3197156807256
 20
-151.2837890246791
 30
0.0
 10
124.1884575427376
 20
-151.3061821453332
 30
0.0
 10
124.0806260540493
 20
-151.3265082086962
 30
0.0
 10
124.0806260540493
 20
-151.3265082086962
 30
0.0
 10
124.0806260540493
 20
-151.0891411297625
 30
0.0
 10
124.0806260540493
 20
-151.0891411297625
 30
0.0
 10
124.2794080635482
 20
-151.0305745065132
 30
0.0
 10
124.3090358847214
 20
-150.8948377443944
 30
0.0
 10
124.3090358847214
 20
-150.7952744848706
 30
0.0
 10
124.3090358847214
 20
-150.6461018503593
 30
0.0
 10
124.2094726251976
 20
-150.483148833907
 30
0.0
 10
123.9769286799433
 20
-150.483148833907
 30
0.0
 10
123.7209580853892
 20
-150.483148833907
 30
0.0
 10
123.6510226470386
 20
-150.6753851619839
 30
0.0
 10
123.6510226470386
 20
-150.8042317331323
 30
0.0
 10
123.6510226470386
 20
-150.8383381784363
 30
0.0
 10
123.6510226470386
 20
-150.9895778702387
 30
0.0
 10
123.7802137277355
 20
-151.0846625056316
 30
0.0
 10
123.7802137277355
 20
-151.0846625056316
 30
0.0
 10
123.7612657025666
 20
-151.2724202095777
 30
0.0
 10
123.7612657025666
 20
-151.2724202095777
 30
0.0
 10
123.7612657025666
 20
-151.2724202095777
 30
0.0
 10
122.9148057418408
 20
-151.1435736384294
 30
0.0
 10
122.9148057418408
 20
-151.1435736384294
 30
0.0
 10
122.9148057418408
 20
-151.1435736384294
 30
0.0
 10
122.9148057418408
 20
-150.3115830787416
 30
0.0
 10
122.9148057418408
 20
-150.3115830787416
 30
0.0
 10
122.9148057418408
 20
-150.3115830787416
 30
0.0
 10
123.1094536367574
 20
-150.3115830787416
 30
0.0
 10
123.1094536367574
 20
-150.3115830787416
 30
0.0
 10
123.1094536367574
 20
-150.3115830787416
 30
0.0
 10
123.1094536367574
 20
-150.9692518068757
 30
0.0
 10
123.1094536367574
 20
-150.9692518068757
 30
0.0
 10
123.1094536367574
 20
-150.9692518068757
 30
0.0
 10
123.532511362346
 20
-151.0395317547749
 30
0.0
 10
123.532511362346
 20
-151.0395317547749
 30
0.0
 10
123.4987494265906
 20
-150.9740749405551
 30
0.0
 10
123.4584418094132
 20
-150.8858804961327
 30
0.0
 10
123.4584418094132
 20
-150.7591009822755
 30
0.0
 10
123.4584418094132
 20
-150.4879719675864
 30
0.0
 10
123.6448214751652
 20
-150.2347574494205
 30
0.0
 10
123.9579806547744
 20
-150.2347574494205
 30
0.0
 10
124.2752739489659
 20
-150.2347574494205
 30
0.0
 10
124.5098849515114
 20
-150.4741915856453
 30
0.0
 10
124.5098849515114
 20
-150.7976860517103
 30
0.0
  0
HATCH
  5
135
330
12E
100
AcDbEntity
  8
_U+30EC_U+30A4_U+30E4_U+30FC 1
 62
   179
420
  2234388
100
AcDbHatch
 10
0.0
 20
0.0
 30
0.0
210
0.0
220
0.0
230
1.0
  2
SOLID
 70
     1
 71
     0
 91
        1
 92
        1
 93
        1
 72
     4
 94
        3
 73
     0
 74
     1
 95
       53
 96
       49
 40
0.0
 40
0.0
 40
0.0
 40
0.0
 40
1.0
 40
1.0
 40
1.0
 40
2.0
 40
2.0
 40
2.0
 40
3.0
 40
3.0
 40
3.0
 40
4.0
 40
4.0
 40
4.0
 40
5.0
 40
5.0
 40
5.0
 40
6.0
 40
6.0
 40
6.0
 40
7.0
 40
7.0
 40
7.0
 40
8.0
 40
8.0
 40
8.0
 40
9.0
 40
9.0
 40
9.0
 40
10.0
 40
10.0
 40
10.0
 40
11.0
 40
11.0
 40
11.0
 40
12.0
 40
12.0
 40
12.0
 40
13.0
 40
13.0
 40
13.0
 40
14.0
 40
14.0
 40
14.0
 40
15.0
 40
15.0
 40
15.0
 40
16.0
 40
16.0
 40
16.0
 40
16.0
 10
124.5098849515114
 20
-150.7976860517103
 10
124.5098849515114
 20
-150.8814018720019
 10
124.4930039836337
 20
-150.9895778702387
 10
124.4296142267051
 20
-151.0984428875726
 10
124.3197156807256
 20
-151.2837890246791
 10
124.1884575427376
 20
-151.3061821453332
 10
124.0806260540493
 20
-151.3265082086962
 10
124.0806260540493
 20
-151.3265082086962
 10
124.0806260540493
 20
-151.0891411297625
 10
124.0806260540493
 20
-151.0891411297625
 10
124.2794080635482
 20
-151.0305745065132
 10
124.3090358847214
 20
-150.8948377443944
 10
124.3090358847214
 20
-150.7952744848706
 10
124.3090358847214
 20
-150.6461018503593
 10
124.2094726251976
 20
-150.483148833907
 10
123.9769286799433
 20
-150.483148833907
 10
123.7209580853892
 20
-150.483148833907
 10
123.6510226470386
 20
-150.6753851619839
 10
123.6510226470386
 20
-150.8042317331323
 10
123.6510226470386
 20
-150.8383381784363
 10
123.6510226470386
 20
-150.9895778702387
 10
123.7802137277355
 20
-151.0846625056316
 10
123.7802137277355
 20
-151.0846625056316
 10
123.7612657025666
 20
-151.2724202095777
 10
123.7612657025666
 20
-151.2724202095777
 10
123.7612657025666
 20
-151.2724202095777
 10
122.9148057418408
 20
-151.1435736384294
 10
122.9148057418408
 20
-151.1435736384294
 10
122.9148057418408
 20
-151.1435736384294
 10
122.9148057418408
 20
-150.3115830787416
 10
122.9148057418408
 20
-150.3115830787416
 10
122.9148057418408
 20
-150.3115830787416
 10
123.1094536367574
 20
-150.3115830787416
 10
123.1094536367574
 20
-150.3115830787416
 10
123.1094536367574
 20
-150.3115830787416
 10
123.1094536367574
 20
-150.9692518068757
 10
123.1094536367574
 20
-150.9692518068757
 10
123.1094536367574
 20
-150.9692518068757
 10
123.532511362346
 20
-151.0395317547749
 10
123.532511362346
 20
-151.0395317547749
 10
123.4987494265906
 20
-150.9740749405551
 10
123.4584418094132
 20
-150.8858804961327
 10
123.4584418094132
 20
-150.7591009822755
 10
123.4584418094132
 20
-150.4879719675864
 10
123.6448214751652
 20
-150.2347574494205
 10
123.9579806547744
 20
-150.2347574494205
 10
124.2752739489659
 20
-150.2347574494205
 10
124.5098849515114
 20
-150.4741915856453
 10
124.5098849515114
 20
-150.7976860517103
 97
        0
 97
        0
 75
     2
 76
     1
 98
        0
  0
POLYLINE
  5
136
330
12E
100
AcDbEntity
  8
_U+30EC_U+30A4_U+30E4_U+30FC 1
370
     0
100
AcDb2dPolyline
 66
     1
 10
0.0
 20
0.0
 30
0.0
  0
VERTEX
  5
137
330
136
100
AcDbEntity
  8
_U+30EC_U+30A4_U+30E4_U+30FC 1
370
     0
100
AcDbVertex
100
AcDb2dVertex
 10
124.4592420478782
 20
-149.9898111604192
 30
0.0
  0
VERTEX
  5
138
330
136
100
AcDbEntity
  8
_U+30EC_U+30A4_U+30E4_U+30FC 1
370
     0
100
AcDbVertex
100
AcDb2dVertex
 10
124.2074055679065
 20
-149.9898111604192
 30
0.0
  0
VERTEX
  5
139
330
136
100
AcDbEntity
  8
_U+30EC_U+30A4_U+30E4_U+30FC 1
370
     0
100
AcDbVertex
100
AcDb2dVertex
 10
124.2074055679065
 20
-149.7207492030212
 30
0.0
  0
VERTEX
  5
13A
330
136
100
AcDbEntity
  8
_U+30EC_U+30A4_U+30E4_U+30FC 1
370
     0
100
AcDbVertex
100
AcDb2dVertex
 10
124.4592420478782
 20
-149.7207492030212
 30
0.0
  0
VERTEX
  5
13B
330
136
100
AcDbEntity
  8
_U+30EC_U+30A4_U+30E4_U+30FC 1
370
     0
100
AcDbVertex
100
AcDb2dVertex
 10
124.4592420478782
 20
-149.9898111604192
 30
0.0
  0
SEQEND
  5
13C
330
136
100
AcDbEntity
  8
_U+30EC_U+30A4_U+30E4_U+30FC 1
370
     0
  0
HATCH
  5
13D
330
12E
100
AcDbEntity
  8
_U+30EC_U+30A4_U+30E4_U+30FC 1
 62
   179
420
  2234388
100
AcDbHatch
 10
0.0
 20
0.0
 30
0.0
210
0.0
220
0.0
230
1.0
  2
SOLID
 70
     1
 71
     0
 91
        1
 92
        1
 93
        4
 72
     1
 10
124.4592420478782
 20
-149.9898111604192
 11
124.2074055679065
 21
-149.9898111604192
 72
     1
 10
124.2074055679065
 20
-149.9898111604192
 11
124.2074055679065
 21
-149.7207492030212
 72
     1
 10
124.2074055679065
 20
-149.7207492030212
 11
124.4592420478782
 21
-149.7207492030212
 72
     1
 10
124.4592420478782
 20
-149.7207492030212
 11
124.4592420478782
 21
-149.9898111604192
 97
        0
 75
     2
 76
     1
 98
        0
  0
SPLINE
  5
13E
330
12E
100
AcDbEntity
  8
_U+30EC_U+30A4_U+30E4_U+30FC 1
370
     0
100
AcDbSpline
210
0.0
220
0.0
230
1.0
 70
    11
 71
     3
 72
    53
 73
    49
 74
     0
 42
0.0000000001
 43
0.0000000001
 12
1.0
 22
0.0
 32
0.0
 13
1.0
 23
0.0
 33
0.0
 40
0.0
 40
0.0
 40
0.0
 40
0.0
 40
1.0
 40
1.0
 40
1.0
 40
2.0
 40
2.0
 40
2.0
 40
3.0
 40
3.0
 40
3.0
 40
4.0
 40
4.0
 40
4.0
 40
5.0
 40
5.0
 40
5.0
 40
6.0
 40
6.0
 40
6.0
 40
7.0
 40
7.0
 40
7.0
 40
8.0
 40
8.0
 40
8.0
 40
9.0
 40
9.0
 40
9.0
 40
10.0
 40
10.0
 40
10.0
 40
11.0
 40
11.0
 40
11.0
 40
12.0
 40
12.0
 40
12.0
 40
13.0
 40
13.0
 40
13.0
 40
14.0
 40
14.0
 40
14.0
 40
15.0
 40
15.0
 40
15.0
 40
16.0
 40
16.0
 40
16.0
 40
16.0
 10
124.5098849515114
 20
-148.9538709480046
 30
0.0
 10
124.5098849515114
 20
-149.0375867682962
 30
0.0
 10
124.4930039836337
 20
-149.145762766533
 30
0.0
 10
124.4296142267051
 20
-149.2546277838669
 30
0.0
 10
124.3197156807256
 20
-149.4399739209734
 30
0.0
 10
124.1884575427376
 20
-149.4623670416275
 30
0.0
 10
124.0806260540493
 20
-149.4826931049904
 30
0.0
 10
124.0806260540493
 20
-149.4826931049904
 30
0.0
 10
124.0806260540493
 20
-149.2453260260567
 30
0.0
 10
124.0806260540493
 20
-149.2453260260567
 30
0.0
 10
124.2794080635482
 20
-149.1867594028075
 30
0.0
 10
124.3090358847214
 20
-149.0510226406886
 30
0.0
 10
124.3090358847214
 20
-148.9514593811649
 30
0.0
 10
124.3090358847214
 20
-148.8022867466536
 30
0.0
 10
124.2094726251976
 20
-148.6393337302013
 30
0.0
 10
123.9769286799433
 20
-148.6393337302013
 30
0.0
 10
123.7209580853892
 20
-148.6393337302013
 30
0.0
 10
123.6510226470386
 20
-148.8315700582782
 30
0.0
 10
123.6510226470386
 20
-148.9604166294266
 30
0.0
 10
123.6510226470386
 20
-148.9945230747306
 30
0.0
 10
123.6510226470386
 20
-149.145762766533
 30
0.0
 10
123.7802137277355
 20
-149.2408474019259
 30
0.0
 10
123.7802137277355
 20
-149.2408474019259
 30
0.0
 10
123.7612657025666
 20
-149.428605105872
 30
0.0
 10
123.7612657025666
 20
-149.428605105872
 30
0.0
 10
123.7612657025666
 20
-149.428605105872
 30
0.0
 10
122.9148057418408
 20
-149.2997585347237
 30
0.0
 10
122.9148057418408
 20
-149.2997585347237
 30
0.0
 10
122.9148057418408
 20
-149.2997585347237
 30
0.0
 10
122.9148057418408
 20
-148.4677679750359
 30
0.0
 10
122.9148057418408
 20
-148.4677679750359
 30
0.0
 10
122.9148057418408
 20
-148.4677679750359
 30
0.0
 10
123.1094536367574
 20
-148.4677679750359
 30
0.0
 10
123.1094536367574
 20
-148.4677679750359
 30
0.0
 10
123.1094536367574
 20
-148.4677679750359
 30
0.0
 10
123.1094536367574
 20
-149.12543670317
 30
0.0
 10
123.1094536367574
 20
-149.12543670317
 30
0.0
 10
123.1094536367574
 20
-149.12543670317
 30
0.0
 10
123.532511362346
 20
-149.1957166510691
 30
0.0
 10
123.532511362346
 20
-149.1957166510691
 30
0.0
 10
123.4987494265906
 20
-149.1302598368494
 30
0.0
 10
123.4584418094132
 20
-149.042065392427
 30
0.0
 10
123.4584418094132
 20
-148.9152858785698
 30
0.0
 10
123.4584418094132
 20
-148.6441568638806
 30
0.0
 10
123.6448214751652
 20
-148.3909423457148
 30
0.0
 10
123.9579806547744
 20
-148.3909423457148
 30
0.0
 10
124.2752739489659
 20
-148.3909423457148
 30
0.0
 10
124.5098849515114
 20
-148.6303764819396
 30
0.0
 10
124.5098849515114
 20
-148.9538709480046
 30
0.0
  0
HATCH
  5
13F
330
12E
100
AcDbEntity
  8
_U+30EC_U+30A4_U+30E4_U+30FC 1
 62
   179
420
  2234388
100
AcDbHatch
 10
0.0
 20
0.0
 30
0.0
210
0.0
220
0.0
230
1.0
  2
SOLID
 70
     1
 71
     0
 91
        1
 92
        1
 93
        1
 72
     4
 94
        3
 73
     0
 74
     1
 95
       53
 96
       49
 40
0.0
 40
0.0
 40
0.0
 40
0.0
 40
1.0
 40
1.0
 40
1.0
 40
2.0
 40
2.0
 40
2.0
 40
3.0
 40
3.0
 40
3.0
 40
4.0
 40
4.0
 40
4.0
 40
5.0
 40
5.0
 40
5.0
 40
6.0
 40
6.0
 40
6.0
 40
7.0
 40
7.0
 40
7.0
 40
8.0
 40
8.0
 40
8.0
 40
9.0
 40
9.0
 40
9.0
 40
10.0
 40
10.0
 40
10.0
 40
11.0
 40
11.0
 40
11.0
 40
12.0
 40
12.0
 40
12.0
 40
13.0
 40
13.0
 40
13.0
 40
14.0
 40
14.0
 40
14.0
 40
15.0
 40
15.0
 40
15.0
 40
16.0
 40
16.0
 40
16.0
 40
16.0
 10
124.5098849515114
 20
-148.9538709480046
 10
124.5098849515114
 20
-149.0375867682962
 10
124.4930039836337
 20
-149.145762766533
 10
124.4296142267051
 20
-149.2546277838669
 10
124.3197156807256
 20
-149.4399739209734
 10
124.1884575427376
 20
-149.4623670416275
 10
124.0806260540493
 20
-149.4826931049904
 10
124.0806260540493
 20
-149.4826931049904
 10
124.0806260540493
 20
-149.2453260260567
 10
124.0806260540493
 20
-149.2453260260567
 10
124.2794080635482
 20
-149.1867594028075
 10
124.3090358847214
 20
-149.0510226406886
 10
124.3090358847214
 20
-148.9514593811649
 10
124.3090358847214
 20
-148.8022867466536
 10
124.2094726251976
 20
-148.6393337302013
 10
123.9769286799433
 20
-148.6393337302013
 10
123.7209580853892
 20
-148.6393337302013
 10
123.6510226470386
 20
-148.8315700582782
 10
123.6510226470386
 20
-148.9604166294266
 10
123.6510226470386
 20
-148.9945230747306
 10
123.6510226470386
 20
-149.145762766533
 10
123.7802137277355
 20
-149.2408474019259
 10
123.7802137277355
 20
-149.2408474019259
 10
123.7612657025666
 20
-149.428605105872
 10
123.7612657025666
 20
-149.428605105872
 10
123.7612657025666
 20
-149.428605105872
 10
122.9148057418408
 20
-149.2997585347237
 10
122.9148057418408
 20
-149.2997585347237
 10
122.9148057418408
 20
-149.2997585347237
 10
122.9148057418408
 20
-148.4677679750359
 10
122.9148057418408
 20
-148.4677679750359
 10
122.9148057418408
 20
-148.4677679750359
 10
123.1094536367574
 20
-148.4677679750359
 10
123.1094536367574
 20
-148.4677679750359
 10
123.1094536367574
 20
-148.4677679750359
 10
123.1094536367574
 20
-149.12543670317
 10
123.1094536367574
 20
-149.12543670317
 10
123.1094536367574
 20
-149.12543670317
 10
123.532511362346
 20
-149.1957166510691
 10
123.532511362346
 20
-149.1957166510691
 10
123.4987494265906
 20
-149.1302598368494
 10
123.4584418094132
 20
-149.042065392427
 10
123.4584418094132
 20
-148.9152858785698
 10
123.4584418094132
 20
-148.6441568638806
 10
123.6448214751652
 20
-148.3909423457148
 10
123.9579806547744
 20
-148.3909423457148
 10
124.2752739489659
 20
-148.3909423457148
 10
124.5098849515114
 20
-148.6303764819396
 10
124.5098849515114
 20
-148.9538709480046
 97
        0
 97
        0
 75
     2
 76
     1
 98
        0
  0
ENDBLK
  5
131
330
12E
100
AcDbEntity
  8
0
100
AcDbBlockEnd
  0
ENDSEC
  0
SECTION
  2
ENTITIES
  0
POLYLINE
  5
41
330
1F
100
AcDbEntity
  8
_U+30EC_U+30A4_U+30E4_U+30FC 1
 62
   179
420
  2234388
370
    25
100
AcDb2dPolyline
 66
     1
 10
0.0
 20
0.0
 30
0.0
  0
VERTEX
  5
42
330
41
100
AcDbEntity
  8
_U+30EC_U+30A4_U+30E4_U+30FC 1
 62
   179
420
  2234388
370
    25
100
AcDbVertex
100
AcDb2dVertex
 10
90.7210718521793
 20
-141.7350338534553
 30
0.0
  0
VERTEX
  5
43
330
41
100
AcDbEntity
  8
_U+30EC_U+30A4_U+30E4_U+30FC 1
 62
   179
420
  2234388
370
    25
100
AcDbVertex
100
AcDb2dVertex
 10
97.81038806020467
 20
-141.7350338534553
 30
0.0
  0
SEQEND
  5
44
330
41
100
AcDbEntity
  8
_U+30EC_U+30A4_U+30E4_U+30FC 1
 62
   179
420
  2234388
370
    25
  0
POLYLINE
  5
45
330
1F
100
AcDbEntity
  8
_U+30EC_U+30A4_U+30E4_U+30FC 1
 62
   179
420
  2234388
370
    25
100
AcDb2dPolyline
 66
     1
 10
0.0
 20
0.0
 30
0.0
  0
VERTEX
  5
46
330
45
100
AcDbEntity
  8
_U+30EC_U+30A4_U+30E4_U+30FC 1
 62
   179
420
  2234388
370
    25
100
AcDbVertex
100
AcDb2dVertex
 10
121.8103182812488
 20
-141.7350338534553
 30
0.0
  0
VERTEX
  5
47
330
45
100
AcDbEntity
  8
_U+30EC_U+30A4_U+30E4_U+30FC 1
 62
   179
420
  2234388
370
    25
100
AcDbVertex
100
AcDb2dVertex
 10
121.8103182812488
 20
-142.7347707976496
 30
0.0
  0
SEQEND
  5
48
330
45
100
AcDbEntity
  8
_U+30EC_U+30A4_U+30E4_U+30FC 1
 62
   179
420
  2234388
370
    25
  0
POLYLINE
  5
49
330
1F
100
AcDbEntity
  8
_U+30EC_U+30A4_U+30E4_U+30FC 1
 62
   179
420
  2234388
370
    25
100
AcDb2dPolyline
 66
     1
 10
0.0
 20
0.0
 30
0.0
  0
VERTEX
  5
4A
330
49
100
AcDbEntity
  8
_U+30EC_U+30A4_U+30E4_U+30FC 1
 62
   179
420
  2234388
370
    25
100
AcDbVertex
100
AcDb2dVertex
 10
99.81060273139717
 20
-142.7347707976496
 30
0.0
  0
VERTEX
  5
4B
330
49
100
AcDbEntity
  8
_U+30EC_U+30A4_U+30E4_U+30FC 1
 62
   179
420
  2234388
370
    25
100
AcDbVertex
100
AcDb2dVertex
 10
121.8103182812488
 20
-142.7347707976496
 30
0.0
  0
SEQEND
  5
4C
330
49
100
AcDbEntity
  8
_U+30EC_U+30A4_U+30E4_U+30FC 1
 62
   179
420
  2234388
370
    25
  0
POLYLINE
  5
4D
330
1F
100
AcDbEntity
  8
_U+30EC_U+30A4_U+30E4_U+30FC 1
 62
   179
420
  2234388
370
    25
100
AcDb2dPolyline
 66
     1
 10
0.0
 20
0.0
 30
0.0
  0
VERTEX
  5
4E
330
4D
100
AcDbEntity
  8
_U+30EC_U+30A4_U+30E4_U+30FC 1
 62
   179
420
  2234388
370
    25
100
AcDbVertex
100
AcDb2dVertex
 10
90.7210718521793
 20
-141.7350338534553
 30
0.0
  0
VERTEX
  5
4F
330
4D
100
AcDbEntity
  8
_U+30EC_U+30A4_U+30E4_U+30FC 1
 62
   179
420
  2234388
370
    25
100
AcDbVertex
100
AcDb2dVertex
 10
90.7210718521793
 20
-142.7354763532051
 30
0.0
  0
SEQEND
  5
50
330
4D
100
AcDbEntity
  8
_U+30EC_U+30A4_U+30E4_U+30FC 1
 62
   179
420
  2234388
370
    25
  0
POLYLINE
  5
51
330
1F
100
AcDbEntity
  8
_U+30EC_U+30A4_U+30E4_U+30FC 1
 62
   179
420
  2234388
370
    25
100
AcDb2dPolyline
 66
     1
 10
0.0
 20
0.0
 30
0.0
  0
VERTEX
  5
52
330
51
100
AcDbEntity
  8
_U+30EC_U+30A4_U+30E4_U+30FC 1
 62
   179
420
  2234388
370
    25
100
AcDbVertex
100
AcDb2dVertex
 10
96.81061586348876
 20
-142.7354763532051
 30
0.0
  0
VERTEX
  5
53
330
51
100
AcDbEntity
  8
_U+30EC_U+30A4_U+30E4_U+30FC 1
 62
   179
420
  2234388
370
    25
100
AcDbVertex
100
AcDb2dVertex
 10
96.81061586348876
 20
-159.2347166268579
 30
0.0
  0
SEQEND
  5
54
330
51
100
AcDbEntity
  8
_U+30EC_U+30A4_U+30E4_U+30FC 1
 62
   179
420
  2234388
370
    25
  0
POLYLINE
  5
55
330
1F
100
AcDbEntity
  8
_U+30EC_U+30A4_U+30E4_U+30FC 1
 62
   179
420
  2234388
370
    25
100
AcDb2dPolyline
 66
     1
 10
0.0
 20
0.0
 30
0.0
  0
VERTEX
  5
56
330
55
100
AcDbEntity
  8
_U+30EC_U+30A4_U+30E4_U+30FC 1
 62
   179
420
  2234388
370
    25
100
AcDbVertex
100
AcDb2dVertex
 10
106.8103486639299
 20
-158.234944404886
 30
0.0
  0
VERTEX
  5
57
330
55
100
AcDbEntity
  8
_U+30EC_U+30A4_U+30E4_U+30FC 1
 62
   179
420
  2234388
370
    25
100
AcDbVertex
100
AcDb2dVertex
 10
106.8103486639299
 20
-158.7345130158717
 30
0.0
  0
SEQEND
  5
58
330
55
100
AcDbEntity
  8
_U+30EC_U+30A4_U+30E4_U+30FC 1
 62
   179
420
  2234388
370
    25
  0
POLYLINE
  5
59
330
1F
100
AcDbEntity
  8
_U+30EC_U+30A4_U+30E4_U+30FC 1
 62
   179
420
  2234388
370
    25
100
AcDb2dPolyline
 66
     1
 10
0.0
 20
0.0
 30
0.0
  0
VERTEX
  5
5A
330
59
100
AcDbEntity
  8
_U+30EC_U+30A4_U+30E4_U+30FC 1
 62
   179
420
  2234388
370
    25
100
AcDbVertex
100
AcDb2dVertex
 10
99.81060273139717
 20
-158.234944404886
 30
0.0
  0
VERTEX
  5
5B
330
59
100
AcDbEntity
  8
_U+30EC_U+30A4_U+30E4_U+30FC 1
 62
   179
420
  2234388
370
    25
100
AcDbVertex
100
AcDb2dVertex
 10
106.8103486639299
 20
-158.234944404886
 30
0.0
  0
SEQEND
  5
5C
330
59
100
AcDbEntity
  8
_U+30EC_U+30A4_U+30E4_U+30FC 1
 62
   179
420
  2234388
370
    25
  0
POLYLINE
  5
5D
330
1F
100
AcDbEntity
  8
_U+30EC_U+30A4_U+30E4_U+30FC 1
 62
   179
420
  2234388
370
    25
100
AcDb2dPolyline
 66
     1
 10
0.0
 20
0.0
 30
0.0
  0
VERTEX
  5
5E
330
5D
100
AcDbEntity
  8
_U+30EC_U+30A4_U+30E4_U+30FC 1
 62
   179
420
  2234388
370
    25
100
AcDbVertex
100
AcDb2dVertex
 10
98.81016025692057
 20
-141.7350338534553
 30
0.0
  0
VERTEX
  5
5F
330
5D
100
AcDbEntity
  8
_U+30EC_U+30A4_U+30E4_U+30FC 1
 62
   179
420
  2234388
370
    25
100
AcDbVertex
100
AcDb2dVertex
 10
121.8103182812488
 20
-141.7350338534553
 30
0.0
  0
SEQEND
  5
60
330
5D
100
AcDbEntity
  8
_U+30EC_U+30A4_U+30E4_U+30FC 1
 62
   179
420
  2234388
370
    25
  0
POLYLINE
  5
61
330
1F
100
AcDbEntity
  8
_U+30EC_U+30A4_U+30E4_U+30FC 1
 62
   179
420
  2234388
370
    25
100
AcDb2dPolyline
 66
     1
 10
0.0
 20
0.0
 30
0.0
  0
VERTEX
  5
62
330
61
100
AcDbEntity
  8
_U+30EC_U+30A4_U+30E4_U+30FC 1
 62
   179
420
  2234388
370
    25
100
AcDbVertex
100
AcDb2dVertex
 10
90.7210718521793
 20
-142.7354763532051
 30
0.0
  0
VERTEX
  5
63
330
61
100
AcDbEntity
  8
_U+30EC_U+30A4_U+30E4_U+30FC 1
 62
   179
420
  2234388
370
    25
100
AcDbVertex
100
AcDb2dVertex
 10
96.81061586348876
 20
-142.7354763532051
 30
0.0
  0
SEQEND
  5
64
330
61
100
AcDbEntity
  8
_U+30EC_U+30A4_U+30E4_U+30FC 1
 62
   179
420
  2234388
370
    25
  0
POLYLINE
  5
65
330
1F
100
AcDbEntity
  8
_U+30EC_U+30A4_U+30E4_U+30FC 1
 62
   179
420
  2234388
370
    25
100
AcDb2dPolyline
 66
     1
 10
0.0
 20
0.0
 30
0.0
  0
VERTEX
  5
66
330
65
100
AcDbEntity
  8
_U+30EC_U+30A4_U+30E4_U+30FC 1
 62
   179
420
  2234388
370
    25
100
AcDbVertex
100
AcDb2dVertex
 10
97.81038806020467
 20
-141.7350338534553
 30
0.0
  0
VERTEX
  5
67
330
65
100
AcDbEntity
  8
_U+30EC_U+30A4_U+30E4_U+30FC 1
 62
   179
420
  2234388
370
    25
100
AcDbVertex
100
AcDb2dVertex
 10
97.81038806020467
 20
-158.234944404886
 30
0.0
  0
SEQEND
  5
68
330
65
100
AcDbEntity
  8
_U+30EC_U+30A4_U+30E4_U+30FC 1
 62
   179
420
  2234388
370
    25
  0
POLYLINE
  5
69
330
1F
100
AcDbEntity
  8
_U+30EC_U+30A4_U+30E4_U+30FC 1
 62
   179
420
  2234388
370
    25
100
AcDb2dPolyline
 66
     1
 10
0.0
 20
0.0
 30
0.0
  0
VERTEX
  5
6A
330
69
100
AcDbEntity
  8
_U+30EC_U+30A4_U+30E4_U+30FC 1
 62
   179
420
  2234388
370
    25
100
AcDbVertex
100
AcDb2dVertex
 10
98.81016025692057
 20
-141.7350338534553
 30
0.0
  0
VERTEX
  5
6B
330
69
100
AcDbEntity
  8
_U+30EC_U+30A4_U+30E4_U+30FC 1
 62
   179
420
  2234388
370
    25
100
AcDbVertex
100
AcDb2dVertex
 10
98.81016025692057
 20
-158.234944404886
 30
0.0
  0
SEQEND
  5
6C
330
69
100
AcDbEntity
  8
_U+30EC_U+30A4_U+30E4_U+30FC 1
 62
   179
420
  2234388
370
    25
  0
POLYLINE
  5
6D
330
1F
100
AcDbEntity
  8
_U+30EC_U+30A4_U+30E4_U+30FC 1
 62
   179
420
  2234388
370
    25
100
AcDb2dPolyline
 66
     1
 10
0.0
 20
0.0
 30
0.0
  0
VERTEX
  5
6E
330
6D
100
AcDbEntity
  8
_U+30EC_U+30A4_U+30E4_U+30FC 1
 62
   179
420
  2234388
370
    25
100
AcDbVertex
100
AcDb2dVertex
 10
99.81060273139717
 20
-142.7347707976496
 30
0.0
  0
VERTEX
  5
6F
330
6D
100
AcDbEntity
  8
_U+30EC_U+30A4_U+30E4_U+30FC 1
 62
   179
420
  2234388
370
    25
100
AcDbVertex
100
AcDb2dVertex
 10
99.81060273139717
 20
-158.234944404886
 30
0.0
  0
SEQEND
  5
70
330
6D
100
AcDbEntity
  8
_U+30EC_U+30A4_U+30E4_U+30FC 1
 62
   179
420
  2234388
370
    25
  0
POLYLINE
  5
71
330
1F
100
AcDbEntity
  8
_U+30EC_U+30A4_U+30E4_U+30FC 1
 62
   179
420
  2234388
370
    25
100
AcDb2dPolyline
 66
     1
 10
0.0
 20
0.0
 30
0.0
  0
VERTEX
  5
72
330
71
100
AcDbEntity
  8
_U+30EC_U+30A4_U+30E4_U+30FC 1
 62
   179
420
  2234388
370
    25
100
AcDbVertex
100
AcDb2dVertex
 10
97.81038806020467
 20
-158.234944404886
 30
0.0
  0
VERTEX
  5
73
330
71
100
AcDbEntity
  8
_U+30EC_U+30A4_U+30E4_U+30FC 1
 62
   179
420
  2234388
370
    25
100
AcDbVertex
100
AcDb2dVertex
 10
98.81016025692057
 20
-158.234944404886
 30
0.0
  0
SEQEND
  5
74
330
71
100
AcDbEntity
  8
_U+30EC_U+30A4_U+30E4_U+30FC 1
 62
   179
420
  2234388
370
    25
  0
POLYLINE
  5
75
330
1F
100
AcDbEntity
  8
_U+30EC_U+30A4_U+30E4_U+30FC 1
 62
   179
420
  2234388
370
    25
100
AcDb2dPolyline
 66
     1
 10
0.0
 20
0.0
 30
0.0
  0
VERTEX
  5
76
330
75
100
AcDbEntity
  8
_U+30EC_U+30A4_U+30E4_U+30FC 1
 62
   179
420
  2234388
370
    25
100
AcDbVertex
100
AcDb2dVertex
 10
96.81061586348876
 20
-159.2347166268579
 30
0.0
  0
VERTEX
  5
77
330
75
100
AcDbEntity
  8
_U+30EC_U+30A4_U+30E4_U+30FC 1
 62
   179
420
  2234388
370
    25
100
AcDbVertex
100
AcDb2dVertex
 10
106.8103486639299
 20
-158.7345130158717
 30
0.0
  0
SEQEND
  5
78
330
75
100
AcDbEntity
  8
_U+30EC_U+30A4_U+30E4_U+30FC 1
 62
   179
420
  2234388
370
    25
  0
SPLINE
  5
79
330
1F
100
AcDbEntity
  8
_U+30EC_U+30A4_U+30E4_U+30FC 1
 62
   179
420
  2234388
370
     9
100
AcDbSpline
210
0.0
220
0.0
230
1.0
 70
    11
 71
     3
 72
    17
 73
    13
 74
     0
 42
0.0000000001
 43
0.0000000001
 12
1.0
 22
0.0
 32
0.0
 13
1.0
 23
0.0
 33
0.0
 40
0.0
 40
0.0
 40
0.0
 40
0.0
 40
1.0
 40
1.0
 40
1.0
 40
2.0
 40
2.0
 40
2.0
 40
3.0
 40
3.0
 40
3.0
 40
4.0
 40
4.0
 40
4.0
 40
4.0
 10
121.9040160566361
 20
-137.7352746877884
 30
0.0
 10
121.9040160566361
 20
-137.6794652433579
 30
0.0
 10
121.8592132800014
 20
-137.6346624655912
 30
0.0
 10
121.8041093925183
 20
-137.6346624655912
 30
0.0
 10
121.7489702272583
 20
-137.6346624655912
 30
0.0
 10
121.7042027284004
 20
-137.6794652433579
 30
0.0
 10
121.7042027284004
 20
-137.7352746877884
 30
0.0
 10
121.7042027284004
 20
-137.7903785766636
 30
0.0
 10
121.7489702272583
 20
-137.83518135443
 30
0.0
 10
121.8041093925183
 20
-137.83518135443
 30
0.0
 10
121.8592132800014
 20
-137.83518135443
 30
0.0
 10
121.9040160566361
 20
-137.7903785766636
 30
0.0
 10
121.9040160566361
 20
-137.7352746877884
 30
0.0
  0
SPLINE
  5
7A
330
1F
100
AcDbEntity
  8
_U+30EC_U+30A4_U+30E4_U+30FC 1
 62
   179
420
  2234388
370
     9
100
AcDbSpline
210
0.0
220
0.0
230
1.0
 70
    11
 71
     3
 72
    17
 73
    13
 74
     0
 42
0.0000000001
 43
0.0000000001
 12
1.0
 22
0.0
 32
0.0
 13
1.0
 23
0.0
 33
0.0
 40
0.0
 40
0.0
 40
0.0
 40
0.0
 40
1.0
 40
1.0
 40
1.0
 40
2.0
 40
2.0
 40
2.0
 40
3.0
 40
3.0
 40
3.0
 40
4.0
 40
4.0
 40
4.0
 40
4.0
 10
125.9106542877516
 20
-141.7350338534553
 30
0.0
 10
125.9106542877516
 20
-141.6792244090245
 30
0.0
 10
125.8658867888937
 20
-141.6351271868133
 30
0.0
 10
125.8107476236338
 20
-141.6351271868133
 30
0.0
 10
125.7549381806131
 20
-141.6351271868133
 30
0.0
 10
125.7101706817552
 20
-141.6792244090245
 30
0.0
 10
125.7101706817552
 20
-141.7350338534553
 30
0.0
 10
125.7101706817552
 20
-141.7901377423302
 30
0.0
 10
125.7549381806131
 20
-141.8349405200969
 30
0.0
 10
125.8107476236338
 20
-141.8349405200969
 30
0.0
 10
125.8658867888937
 20
-141.8349405200969
 30
0.0
 10
125.9106542877516
 20
-141.7901377423302
 30
0.0
 10
125.9106542877516
 20
-141.7350338534553
 30
0.0
  0
SPLINE
  5
7B
330
1F
100
AcDbEntity
  8
_U+30EC_U+30A4_U+30E4_U+30FC 1
 62
   179
420
  2234388
370
     9
100
AcDbSpline
210
0.0
220
0.0
230
1.0
 70
    11
 71
     3
 72
    17
 73
    13
 74
     0
 42
0.0000000001
 43
0.0000000001
 12
1.0
 22
0.0
 32
0.0
 13
1.0
 23
0.0
 33
0.0
 40
0.0
 40
0.0
 40
0.0
 40
0.0
 40
1.0
 40
1.0
 40
1.0
 40
2.0
 40
2.0
 40
2.0
 40
3.0
 40
3.0
 40
3.0
 40
4.0
 40
4.0
 40
4.0
 40
4.0
 10
125.9106542877516
 20
-142.7347707976496
 30
0.0
 10
125.9106542877516
 20
-142.6796669087744
 30
0.0
 10
125.8658867888937
 20
-142.634864131008
 30
0.0
 10
125.8107476236338
 20
-142.634864131008
 30
0.0
 10
125.7549381806131
 20
-142.634864131008
 30
0.0
 10
125.7101706817552
 20
-142.6796669087744
 30
0.0
 10
125.7101706817552
 20
-142.7347707976496
 30
0.0
 10
125.7101706817552
 20
-142.7899099643024
 30
0.0
 10
125.7549381806131
 20
-142.8346774642913
 30
0.0
 10
125.8107476236338
 20
-142.8346774642913
 30
0.0
 10
125.8658867888937
 20
-142.8346774642913
 30
0.0
 10
125.9106542877516
 20
-142.7899099643024
 30
0.0
 10
125.9106542877516
 20
-142.7347707976496
 30
0.0
  0
SPLINE
  5
7C
330
1F
100
AcDbEntity
  8
_U+30EC_U+30A4_U+30E4_U+30FC 1
 62
   179
420
  2234388
370
     9
100
AcDbSpline
210
0.0
220
0.0
230
1.0
 70
    11
 71
     3
 72
    17
 73
    13
 74
     0
 42
0.0000000001
 43
0.0000000001
 12
1.0
 22
0.0
 32
0.0
 13
1.0
 23
0.0
 33
0.0
 40
0.0
 40
0.0
 40
0.0
 40
0.0
 40
1.0
 40
1.0
 40
1.0
 40
2.0
 40
2.0
 40
2.0
 40
3.0
 40
3.0
 40
3.0
 40
4.0
 40
4.0
 40
4.0
 40
4.0
 10
88.62578357230123
 20
-141.7350338534553
 30
0.0
 10
88.62578357230123
 20
-141.6792244090245
 30
0.0
 10
88.58098079566646
 20
-141.6351271868133
 30
0.0
 10
88.52517135264584
 20
-141.6351271868133
 30
0.0
 10
88.47006746516277
 20
-141.6351271868133
 30
0.0
 10
88.425264688528
 20
-141.6792244090245
 30
0.0
 10
88.425264688528
 20
-141.7350338534553
 30
0.0
 10
88.425264688528
 20
-141.7901377423302
 30
0.0
 10
88.47006746516277
 20
-141.8349405200969
 30
0.0
 10
88.52517135264584
 20
-141.8349405200969
 30
0.0
 10
88.58098079566646
 20
-141.8349405200969
 30
0.0
 10
88.62578357230123
 20
-141.7901377423302
 30
0.0
 10
88.62578357230123
 20
-141.7350338534553
 30
0.0
  0
SPLINE
  5
7D
330
1F
100
AcDbEntity
  8
_U+30EC_U+30A4_U+30E4_U+30FC 1
 62
   179
420
  2234388
370
     9
100
AcDbSpline
210
0.0
220
0.0
230
1.0
 70
    11
 71
     3
 72
    17
 73
    13
 74
     0
 42
0.0000000001
 43
0.0000000001
 12
1.0
 22
0.0
 32
0.0
 13
1.0
 23
0.0
 33
0.0
 40
0.0
 40
0.0
 40
0.0
 40
0.0
 40
1.0
 40
1.0
 40
1.0
 40
2.0
 40
2.0
 40
2.0
 40
3.0
 40
3.0
 40
3.0
 40
4.0
 40
4.0
 40
4.0
 40
4.0
 10
88.62578357230123
 20
-142.7354763532051
 30
0.0
 10
88.62578357230123
 20
-142.6803371865521
 30
0.0
 10
88.58098079566646
 20
-142.6355696865632
 30
0.0
 10
88.52517135264584
 20
-142.6355696865632
 30
0.0
 10
88.47006746516277
 20
-142.6355696865632
 30
0.0
 10
88.425264688528
 20
-142.6803371865521
 30
0.0
 10
88.425264688528
 20
-142.7354763532051
 30
0.0
 10
88.425264688528
 20
-142.7905802420801
 30
0.0
 10
88.47006746516277
 20
-142.8353830198468
 30
0.0
 10
88.52517135264584
 20
-142.8353830198468
 30
0.0
 10
88.58098079566646
 20
-142.8353830198468
 30
0.0
 10
88.62578357230123
 20
-142.7905802420801
 30
0.0
 10
88.62578357230123
 20
-142.7354763532051
 30
0.0
  0
SPLINE
  5
7E
330
1F
100
AcDbEntity
  8
_U+30EC_U+30A4_U+30E4_U+30FC 1
 62
   179
420
  2234388
370
     9
100
AcDbSpline
210
0.0
220
0.0
230
1.0
 70
    11
 71
     3
 72
    17
 73
    13
 74
     0
 42
0.0000000001
 43
0.0000000001
 12
1.0
 22
0.0
 32
0.0
 13
1.0
 23
0.0
 33
0.0
 40
0.0
 40
0.0
 40
0.0
 40
0.0
 40
1.0
 40
1.0
 40
1.0
 40
2.0
 40
2.0
 40
2.0
 40
3.0
 40
3.0
 40
3.0
 40
4.0
 40
4.0
 40
4.0
 40
4.0
 10
90.86161851526032
 20
-137.7352746877884
 30
0.0
 10
90.86161851526032
 20
-137.6794652433579
 30
0.0
 10
90.81685101640244
 20
-137.6346624655912
 30
0.0
 10
90.7617118511425
 20
-137.6346624655912
 30
0.0
 10
90.70660796365942
 20
-137.6346624655912
 30
0.0
 10
90.66180518702465
 20
-137.6794652433579
 30
0.0
 10
90.66180518702465
 20
-137.7352746877884
 30
0.0
 10
90.66180518702465
 20
-137.7903785766636
 30
0.0
 10
90.70660796365942
 20
-137.83518135443
 30
0.0
 10
90.7617118511425
 20
-137.83518135443
 30
0.0
 10
90.81685101640244
 20
-137.83518135443
 30
0.0
 10
90.86161851526032
 20
-137.7903785766636
 30
0.0
 10
90.86161851526032
 20
-137.7352746877884
 30
0.0
  0
SPLINE
  5
7F
330
1F
100
AcDbEntity
  8
_U+30EC_U+30A4_U+30E4_U+30FC 1
 62
   179
420
  2234388
370
     9
100
AcDbSpline
210
0.0
220
0.0
230
1.0
 70
    11
 71
     3
 72
    17
 73
    13
 74
     0
 42
0.0000000001
 43
0.0000000001
 12
1.0
 22
0.0
 32
0.0
 13
1.0
 23
0.0
 33
0.0
 40
0.0
 40
0.0
 40
0.0
 40
0.0
 40
1.0
 40
1.0
 40
1.0
 40
2.0
 40
2.0
 40
2.0
 40
3.0
 40
3.0
 40
3.0
 40
4.0
 40
4.0
 40
4.0
 40
4.0
 10
106.9102553280477
 20
-163.2351813480803
 30
0.0
 10
106.9102553280477
 20
-163.1793719036499
 30
0.0
 10
106.8654878291898
 20
-163.1345691258832
 30
0.0
 10
106.8103486639299
 20
-163.1345691258832
 30
0.0
 10
106.7552447764468
 20
-163.1345691258832
 30
0.0
 10
106.710441999812
 20
-163.1793719036499
 30
0.0
 10
106.710441999812
 20
-163.2351813480803
 30
0.0
 10
106.710441999812
 20
-163.2902852369552
 30
0.0
 10
106.7552447764468
 20
-163.335088014722
 30
0.0
 10
106.8103486639299
 20
-163.335088014722
 30
0.0
 10
106.8654878291898
 20
-163.335088014722
 30
0.0
 10
106.9102553280477
 20
-163.2902852369552
 30
0.0
 10
106.9102553280477
 20
-163.2351813480803
 30
0.0
  0
SPLINE
  5
80
330
1F
100
AcDbEntity
  8
_U+30EC_U+30A4_U+30E4_U+30FC 1
 62
   179
420
  2234388
370
     9
100
AcDbSpline
210
0.0
220
0.0
230
1.0
 70
    11
 71
     3
 72
    17
 73
    13
 74
     0
 42
0.0000000001
 43
0.0000000001
 12
1.0
 22
0.0
 32
0.0
 13
1.0
 23
0.0
 33
0.0
 40
0.0
 40
0.0
 40
0.0
 40
0.0
 40
1.0
 40
1.0
 40
1.0
 40
2.0
 40
2.0
 40
2.0
 40
3.0
 40
3.0
 40
3.0
 40
4.0
 40
4.0
 40
4.0
 40
4.0
 10
96.91052497577249
 20
-163.2351813480803
 30
0.0
 10
96.91052497577249
 20
-163.1793719036499
 30
0.0
 10
96.86575502874871
 20
-163.1345691258832
 30
0.0
 10
96.81061586348876
 20
-163.1345691258832
 30
0.0
 10
96.75480642046813
 20
-163.1345691258832
 30
0.0
 10
96.71003892161025
 20
-163.1793719036499
 30
0.0
 10
96.71003892161025
 20
-163.2351813480803
 30
0.0
 10
96.71003892161025
 20
-163.2902852369552
 30
0.0
 10
96.75480642046813
 20
-163.335088014722
 30
0.0
 10
96.81061586348876
 20
-163.335088014722
 30
0.0
 10
96.86575502874871
 20
-163.335088014722
 30
0.0
 10
96.91052497577249
 20
-163.2902852369552
 30
0.0
 10
96.91052497577249
 20
-163.2351813480803
 30
0.0
  0
SPLINE
  5
81
330
1F
100
AcDbEntity
  8
_U+30EC_U+30A4_U+30E4_U+30FC 1
 62
   179
420
  2234388
370
     9
100
AcDbSpline
210
0.0
220
0.0
230
1.0
 70
    11
 71
     3
 72
    17
 73
    13
 74
     0
 42
0.0000000001
 43
0.0000000001
 12
1.0
 22
0.0
 32
0.0
 13
1.0
 23
0.0
 33
0.0
 40
0.0
 40
0.0
 40
0.0
 40
0.0
 40
1.0
 40
1.0
 40
1.0
 40
2.0
 40
2.0
 40
2.0
 40
3.0
 40
3.0
 40
3.0
 40
4.0
 40
4.0
 40
4.0
 40
4.0
 10
90.86094823749964
 20
-163.2351813480803
 30
0.0
 10
90.86094823749964
 20
-163.1793719036499
 30
0.0
 10
90.81614546086489
 20
-163.1345691258832
 30
0.0
 10
90.76104157338182
 20
-163.1345691258832
 30
0.0
 10
90.70590240812186
 20
-163.1345691258832
 30
0.0
 10
90.66113490926398
 20
-163.1793719036499
 30
0.0
 10
90.66113490926398
 20
-163.2351813480803
 30
0.0
 10
90.66113490926398
 20
-163.2902852369552
 30
0.0
 10
90.70590240812186
 20
-163.335088014722
 30
0.0
 10
90.76104157338182
 20
-163.335088014722
 30
0.0
 10
90.81614546086489
 20
-163.335088014722
 30
0.0
 10
90.86094823749964
 20
-163.2902852369552
 30
0.0
 10
90.86094823749964
 20
-163.2351813480803
 30
0.0
  0
SPLINE
  5
82
330
1F
100
AcDbEntity
  8
_U+30EC_U+30A4_U+30E4_U+30FC 1
 62
   179
420
  2234388
370
     9
100
AcDbSpline
210
0.0
220
0.0
230
1.0
 70
    11
 71
     3
 72
    17
 73
    13
 74
     0
 42
0.0000000001
 43
0.0000000001
 12
1.0
 22
0.0
 32
0.0
 13
1.0
 23
0.0
 33
0.0
 40
0.0
 40
0.0
 40
0.0
 40
0.0
 40
1.0
 40
1.0
 40
1.0
 40
2.0
 40
2.0
 40
2.0
 40
3.0
 40
3.0
 40
3.0
 40
4.0
 40
4.0
 40
4.0
 40
4.0
 10
110.910014392672
 20
-158.234944404886
 30
0.0
 10
110.910014392672
 20
-158.1798405160105
 30
0.0
 10
110.8652468938141
 20
-158.1350377382437
 30
0.0
 10
110.8101077285542
 20
-158.1350377382437
 30
0.0
 10
110.7550038410711
 20
-158.1350377382437
 30
0.0
 10
110.7102010644363
 20
-158.1798405160105
 30
0.0
 10
110.7102010644363
 20
-158.234944404886
 30
0.0
 10
110.7102010644363
 20
-158.2900835715384
 30
0.0
 10
110.7550038410711
 20
-158.3348510715277
 30
0.0
 10
110.8101077285542
 20
-158.3348510715277
 30
0.0
 10
110.8652468938141
 20
-158.3348510715277
 30
0.0
 10
110.910014392672
 20
-158.2900835715384
 30
0.0
 10
110.910014392672
 20
-158.234944404886
 30
0.0
  0
SPLINE
  5
83
330
1F
100
AcDbEntity
  8
_U+30EC_U+30A4_U+30E4_U+30FC 1
 62
   179
420
  2234388
370
     9
100
AcDbSpline
210
0.0
220
0.0
230
1.0
 70
    11
 71
     3
 72
    17
 73
    13
 74
     0
 42
0.0000000001
 43
0.0000000001
 12
1.0
 22
0.0
 32
0.0
 13
1.0
 23
0.0
 33
0.0
 40
0.0
 40
0.0
 40
0.0
 40
0.0
 40
1.0
 40
1.0
 40
1.0
 40
2.0
 40
2.0
 40
2.0
 40
3.0
 40
3.0
 40
3.0
 40
4.0
 40
4.0
 40
4.0
 40
4.0
 10
110.910014392672
 20
-158.734160238094
 30
0.0
 10
110.910014392672
 20
-158.6790210714415
 30
0.0
 10
110.8652468938141
 20
-158.6342535714523
 30
0.0
 10
110.8101077285542
 20
-158.6342535714523
 30
0.0
 10
110.7550038410711
 20
-158.6342535714523
 30
0.0
 10
110.7102010644363
 20
-158.6790210714415
 30
0.0
 10
110.7102010644363
 20
-158.734160238094
 30
0.0
 10
110.7102010644363
 20
-158.7892641269695
 30
0.0
 10
110.7550038410711
 20
-158.8340669047363
 30
0.0
 10
110.8101077285542
 20
-158.8340669047363
 30
0.0
 10
110.8652468938141
 20
-158.8340669047363
 30
0.0
 10
110.910014392672
 20
-158.7892641269695
 30
0.0
 10
110.910014392672
 20
-158.734160238094
 30
0.0
  0
SPLINE
  5
84
330
1F
100
AcDbEntity
  8
_U+30EC_U+30A4_U+30E4_U+30FC 1
 62
   179
420
  2234388
370
     9
100
AcDbSpline
210
0.0
220
0.0
230
1.0
 70
    11
 71
     3
 72
    17
 73
    13
 74
     0
 42
0.0000000001
 43
0.0000000001
 12
1.0
 22
0.0
 32
0.0
 13
1.0
 23
0.0
 33
0.0
 40
0.0
 40
0.0
 40
0.0
 40
0.0
 40
1.0
 40
1.0
 40
1.0
 40
2.0
 40
2.0
 40
2.0
 40
3.0
 40
3.0
 40
3.0
 40
4.0
 40
4.0
 40
4.0
 40
4.0
 10
125.9106542877516
 20
-158.234944404886
 30
0.0
 10
125.9106542877516
 20
-158.1798405160105
 30
0.0
 10
125.8658867888937
 20
-158.1350377382437
 30
0.0
 10
125.8107476236338
 20
-158.1350377382437
 30
0.0
 10
125.7549381806131
 20
-158.1350377382437
 30
0.0
 10
125.7101706817552
 20
-158.1798405160105
 30
0.0
 10
125.7101706817552
 20
-158.234944404886
 30
0.0
 10
125.7101706817552
 20
-158.2900835715384
 30
0.0
 10
125.7549381806131
 20
-158.3348510715277
 30
0.0
 10
125.8107476236338
 20
-158.3348510715277
 30
0.0
 10
125.8658867888937
 20
-158.3348510715277
 30
0.0
 10
125.9106542877516
 20
-158.2900835715384
 30
0.0
 10
125.9106542877516
 20
-158.234944404886
 30
0.0
  0
INSERT
  5
86
330
1F
100
AcDbEntity
  8
_U+30EC_U+30A4_U+30E4_U+30FC 1
100
AcDbBlockReference
  2
block 2
 10
0.0
 20
0.0
 30
0.0
  0
INSERT
  5
A0
330
1F
100
AcDbEntity
  8
_U+30EC_U+30A4_U+30E4_U+30FC 1
100
AcDbBlockReference
  2
block 4
 10
0.0
 20
0.0
 30
0.0
  0
INSERT
  5
B8
330
1F
100
AcDbEntity
  8
_U+30EC_U+30A4_U+30E4_U+30FC 1
100
AcDbBlockReference
  2
block 6
 10
0.0
 20
0.0
 30
0.0
  0
INSERT
  5
DD
330
1F
100
AcDbEntity
  8
_U+30EC_U+30A4_U+30E4_U+30FC 1
100
AcDbBlockReference
  2
block 8
 10
0.0
 20
0.0
 30
0.0
  0
POLYLINE
  5
F5
330
1F
100
AcDbEntity
  8
_U+30EC_U+30A4_U+30E4_U+30FC 1
 62
   179
420
  2234388
370
     9
100
AcDb2dPolyline
 66
     1
 10
0.0
 20
0.0
 30
0.0
  0
VERTEX
  5
F6
330
F5
100
AcDbEntity
  8
_U+30EC_U+30A4_U+30E4_U+30FC 1
 62
   179
420
  2234388
370
     9
100
AcDbVertex
100
AcDb2dVertex
 10
90.81064442174184
 20
-163.2351813480803
 30
0.0
  0
VERTEX
  5
F7
330
F5
100
AcDbEntity
  8
_U+30EC_U+30A4_U+30E4_U+30FC 1
 62
   179
420
  2234388
370
     9
100
AcDbVertex
100
AcDb2dVertex
 10
96.81061586348876
 20
-163.2351813480803
 30
0.0
  0
SEQEND
  5
F8
330
F5
100
AcDbEntity
  8
_U+30EC_U+30A4_U+30E4_U+30FC 1
 62
   179
420
  2234388
370
     9
  0
POLYLINE
  5
F9
330
1F
100
AcDbEntity
  8
_U+30EC_U+30A4_U+30E4_U+30FC 1
 62
   179
420
  2234388
370
     9
100
AcDb2dPolyline
 66
     1
 10
0.0
 20
0.0
 30
0.0
  0
VERTEX
  5
FA
330
F9
100
AcDbEntity
  8
_U+30EC_U+30A4_U+30E4_U+30FC 1
 62
   179
420
  2234388
370
     9
100
AcDbVertex
100
AcDb2dVertex
 10
90.76104157338182
 20
-145.7747274635562
 30
0.0
  0
VERTEX
  5
FB
330
F9
100
AcDbEntity
  8
_U+30EC_U+30A4_U+30E4_U+30FC 1
 62
   179
420
  2234388
370
     9
100
AcDbVertex
100
AcDb2dVertex
 10
90.76104157338182
 20
-164.2349535700522
 30
0.0
  0
SEQEND
  5
FC
330
F9
100
AcDbEntity
  8
_U+30EC_U+30A4_U+30E4_U+30FC 1
 62
   179
420
  2234388
370
     9
  0
INSERT
  5
FE
330
1F
100
AcDbEntity
  8
_U+30EC_U+30A4_U+30E4_U+30FC 1
100
AcDbBlockReference
  2
block 10
 10
0.0
 20
0.0
 30
0.0
  0
INSERT
  5
105
330
1F
100
AcDbEntity
  8
_U+30EC_U+30A4_U+30E4_U+30FC 1
100
AcDbBlockReference
  2
block 11
 10
0.0
 20
0.0
 30
0.0
  0
INSERT
  5
11F
330
1F
100
AcDbEntity
  8
_U+30EC_U+30A4_U+30E4_U+30FC 1
100
AcDbBlockReference
  2
block 13
 10
0.0
 20
0.0
 30
0.0
  0
ENDSEC
  0
SECTION
  2
OBJECTS
  0
DICTIONARY
  5
C
330
0
100
AcDbDictionary
281
     1
  3
ACAD_GROUP
350
D
  3
ACAD_LAYOUT
350
1A
  3
ACAD_MATERIAL
350
3B
  3
ACAD_MLEADERSTYLE
350
141
  3
ACAD_MLINESTYLE
350
17
  3
ACAD_PLOTSETTINGS
350
19
  3
ACAD_PLOTSTYLENAME
350
E
  3
ACAD_TABLESTYLE
350
140
  3
ACAD_VISUALSTYLE
350
2A
  0
SUN
  5
3F
330
29
100
AcDbSun
 90
        1
290
     0
 63
     7
421
 16777215
 40
1.0
291
     1
 91
  2455826
 92
 54000000
292
     0
 70
     2
 71
   256
280
     1
  0
DICTIONARY
  5
D
102
{ACAD_REACTORS
330
C
102
}
330
C
100
AcDbDictionary
281
     1
  0
DICTIONARY
  5
1A
102
{ACAD_REACTORS
330
C
102
}
330
C
100
AcDbDictionary
281
     1
  3
Layout1
350
1E
  3
Layout2
350
26
  3
Model
350
22
  0
DICTIONARY
  5
3B
102
{ACAD_REACTORS
330
C
102
}
330
C
100
AcDbDictionary
281
     1
  3
ByBlock
350
3D
  3
ByLayer
350
3C
  3
Global
350
3E
  0
DICTIONARY
  5
141
102
{ACAD_REACTORS
330
C
102
}
330
C
100
AcDbDictionary
281
     1
  0
DICTIONARY
  5
17
102
{ACAD_REACTORS
330
C
102
}
330
C
100
AcDbDictionary
281
     1
  3
Standard
350
18
  0
DICTIONARY
  5
19
102
{ACAD_REACTORS
330
C
102
}
330
C
100
AcDbDictionary
281
     1
  0
ACDBDICTIONARYWDFLT
  5
E
102
{ACAD_REACTORS
330
C
102
}
330
C
100
AcDbDictionary
281
     1
  3
Normal
350
F
100
AcDbDictionaryWithDefault
340
F
  0
DICTIONARY
  5
140
102
{ACAD_REACTORS
330
C
102
}
330
C
100
AcDbDictionary
281
     1
  0
DICTIONARY
  5
2A
102
{ACAD_REACTORS
330
C
102
}
330
C
100
AcDbDictionary
281
     1
  3
2dWireframe
350
2F
  3
3D Hidden
350
31
  3
3dWireframe
350
30
  3
Basic
350
32
  3
Brighten
350
36
  3
ColorChange
350
3A
  3
Conceptual
350
34
  3
Dim
350
35
  3
Facepattern
350
39
  3
Flat
350
2B
  3
FlatWithEdges
350
2C
  3
Gouraud
350
2D
  3
GouraudWithEdges
350
2E
  3
Linepattern
350
38
  3
Realistic
350
33
  3
Thicken
350
37
  0
LAYOUT
  5
1E
102
{ACAD_REACTORS
330
1A
102
}
330
1A
100
AcDbPlotSettings
  1

  2
none_device
  4

  6

 40
0.0
 41
0.0
 42
0.0
 43
0.0
 44
0.0
 45
0.0
 46
0.0
 47
0.0
 48
0.0
 49
0.0
140
0.0
141
0.0
142
1.0
143
1.0
 70
   688
 72
     0
 73
     0
 74
     5
  7

 75
    16
 76
     0
 77
     2
 78
   300
147
1.0
148
0.0
149
0.0
100
AcDbLayout
  1
Layout1
 70
     1
 71
     1
 10
0.0
 20
0.0
 11
12.0
 21
9.0
 12
0.0
 22
0.0
 32
0.0
 14
1.000000000000000E+20
 24
1.000000000000000E+20
 34
1.000000000000000E+20
 15
-1.000000000000000E+20
 25
-1.000000000000000E+20
 35
-1.000000000000000E+20
146
0.0
 13
0.0
 23
0.0
 33
0.0
 16
1.0
 26
0.0
 36
0.0
 17
0.0
 27
1.0
 37
0.0
 76
     0
330
1B
  0
LAYOUT
  5
26
102
{ACAD_REACTORS
330
1A
102
}
330
1A
100
AcDbPlotSettings
  1

  2
none_device
  4

  6

 40
0.0
 41
0.0
 42
0.0
 43
0.0
 44
0.0
 45
0.0
 46
0.0
 47
0.0
 48
0.0
 49
0.0
140
0.0
141
0.0
142
1.0
143
1.0
 70
   688
 72
     0
 73
     0
 74
     5
  7

 75
    16
 76
     0
 77
     2
 78
   300
147
1.0
148
0.0
149
0.0
100
AcDbLayout
  1
Layout2
 70
     1
 71
     2
 10
0.0
 20
0.0
 11
0.0
 21
0.0
 12
0.0
 22
0.0
 32
0.0
 14
0.0
 24
0.0
 34
0.0
 15
0.0
 25
0.0
 35
0.0
146
0.0
 13
0.0
 23
0.0
 33
0.0
 16
1.0
 26
0.0
 36
0.0
 17
0.0
 27
1.0
 37
0.0
 76
     0
330
23
  0
LAYOUT
  5
22
102
{ACAD_REACTORS
330
1A
102
}
330
1A
100
AcDbPlotSettings
  1

  2
none_device
  4

  6

 40
0.0
 41
0.0
 42
0.0
 43
0.0
 44
0.0
 45
0.0
 46
0.0
 47
0.0
 48
0.0
 49
0.0
140
0.0
141
0.0
142
1.0
143
1.0
 70
  1712
 72
     0
 73
     0
 74
     0
  7

 75
     0
 76
     0
 77
     2
 78
   300
147
1.0
148
0.0
149
0.0
100
AcDbLayout
  1
Model
 70
     1
 71
     0
 10
0.0
 20
0.0
 11
12.0
 21
9.0
 12
0.0
 22
0.0
 32
0.0
 14
1.000000000000000E+20
 24
1.000000000000000E+20
 34
1.000000000000000E+20
 15
-1.000000000000000E+20
 25
-1.000000000000000E+20
 35
-1.000000000000000E+20
146
0.0
 13
0.0
 23
0.0
 33
0.0
 16
1.0
 26
0.0
 36
0.0
 17
0.0
 27
1.0
 37
0.0
 76
     0
330
1F
331
29
  0
MATERIAL
  5
3D
102
{ACAD_REACTORS
330
3B
102
}
330
3B
100
AcDbMaterial
  1
ByBlock
 72
     1
 94
      127
  0
MATERIAL
  5
3C
102
{ACAD_REACTORS
330
3B
102
}
330
3B
100
AcDbMaterial
  1
ByLayer
 72
     1
 94
      127
  0
MATERIAL
  5
3E
102
{ACAD_REACTORS
330
3B
102
}
330
3B
100
AcDbMaterial
  1
Global
 72
     1
 94
      127
  0
MLINESTYLE
  5
18
102
{ACAD_REACTORS
330
17
102
}
330
17
100
AcDbMlineStyle
  2
Standard
 70
     0
  3

 62
   256
 51
90.0
 52
90.0
 71
     2
 49
0.5
 62
   256
  6
BYLAYER
 49
-0.5
 62
   256
  6
BYLAYER
  0
ACDBPLACEHOLDER
  5
F
102
{ACAD_REACTORS
330
E
102
}
330
E
  0
VISUALSTYLE
  5
2F
102
{ACAD_REACTORS
330
2A
102
}
330
2A
100
AcDbVisualStyle
  2
2dWireframe
 70
     4
177
     2
291
     0
 71
     0
176
     1
 72
     2
176
     1
 73
     0
176
     1
 90
        0
176
     1
 40
-0.6
176
     1
 41
-30.0
176
     1
 62
     5
 63
     7
421
 16777215
176
     1
 74
     1
176
     1
 91
        4
176
     1
 64
     7
176
     1
 65
   257
176
     1
 75
     1
176
     1
175
     1
176
     1
 42
1.0
176
     1
 92
        0
176
     1
 66
   257
176
     1
 43
1.0
176
     1
 76
     1
176
     1
 77
     6
176
     1
 78
     2
176
     1
 67
     7
176
     1
 79
     5
176
     1
170
     0
176
     1
171
     0
176
     1
290
     0
176
     1
 93
        1
176
     1
 44
0.0
176
     1
173
     0
176
     1
  0
VISUALSTYLE
  5
31
102
{ACAD_REACTORS
330
2A
102
}
330
2A
100
AcDbVisualStyle
  2
3D Hidden
 70
     6
177
     2
291
     0
 71
     1
176
     1
 72
     2
176
     1
 73
     2
176
     1
 90
        0
176
     1
 40
-0.6
176
     1
 41
-30.0
176
     1
 62
     5
 63
     7
421
 16777215
176
     1
 74
     2
176
     1
 91
        2
176
     1
 64
     7
176
     1
 65
   257
176
     1
 75
     2
176
     1
175
     1
176
     1
 42
40.0
176
     1
 92
        0
176
     1
 66
   257
176
     1
 43
1.0
176
     1
 76
     1
176
     1
 77
     6
176
     1
 78
     2
176
     1
 67
     7
176
     1
 79
     3
176
     1
170
     0
176
     1
171
     0
176
     1
290
     0
176
     1
 93
        1
176
     1
 44
0.0
176
     1
173
     0
176
     1
  0
VISUALSTYLE
  5
30
102
{ACAD_REACTORS
330
2A
102
}
330
2A
100
AcDbVisualStyle
  2
3dWireframe
 70
     5
177
     2
291
     0
 71
     0
176
     1
 72
     2
176
     1
 73
     0
176
     1
 90
        0
176
     1
 40
-0.6
176
     1
 41
-30.0
176
     1
 62
     5
 63
     7
421
 16777215
176
     1
 74
     1
176
     1
 91
        4
176
     1
 64
     7
176
     1
 65
   257
176
     1
 75
     1
176
     1
175
     1
176
     1
 42
1.0
176
     1
 92
        0
176
     1
 66
   257
176
     1
 43
1.0
176
     1
 76
     1
176
     1
 77
     6
176
     1
 78
     2
176
     1
 67
     7
176
     1
 79
     5
176
     1
170
     0
176
     1
171
     0
176
     1
290
     0
176
     1
 93
        1
176
     1
 44
0.0
176
     1
173
     0
176
     1
  0
VISUALSTYLE
  5
32
102
{ACAD_REACTORS
330
2A
102
}
330
2A
100
AcDbVisualStyle
  2
Basic
 70
     7
177
     2
291
     1
 71
     1
176
     1
 72
     0
176
     1
 73
     1
176
     1
 90
        0
176
     1
 40
-0.6
176
     1
 41
-30.0
176
     1
 62
     5
 63
     7
421
 16777215
176
     1
 74
     0
176
     1
 91
        4
176
     1
 64
     7
176
     1
 65
   257
176
     1
 75
     1
176
     1
175
     1
176
     1
 42
1.0
176
     1
 92
        8
176
     1
 66
     7
176
     1
 43
1.0
176
     1
 76
     1
176
     1
 77
     6
176
     1
 78
     2
176
     1
 67
     7
176
     1
 79
     5
176
     1
170
     0
176
     1
171
     0
176
     1
290
     0
176
     1
 93
        1
176
     1
 44
0.0
176
     1
173
     0
176
     1
  0
VISUALSTYLE
  5
36
102
{ACAD_REACTORS
330
2A
102
}
330
2A
100
AcDbVisualStyle
  2
Brighten
 70
    12
177
     2
291
     1
 71
     2
176
     1
 72
     2
176
     1
 73
     0
176
     1
 90
        0
176
     1
 40
-0.6
176
     1
 41
-30.0
176
     1
 62
     5
 63
     7
421
 16777215
176
     1
 74
     1
176
     1
 91
        4
176
     1
 64
     7
176
     1
 65
   257
176
     1
 75
     1
176
     1
175
     1
176
     1
 42
1.0
176
     1
 92
        8
176
     1
 66
     7
176
     1
 43
1.0
176
     1
 76
     1
176
     1
 77
     6
176
     1
 78
     2
176
     1
 67
     7
176
     1
 79
     5
176
     1
170
     0
176
     1
171
     0
176
     1
290
     0
176
     1
 93
        1
176
     1
 44
50.0
176
     1
173
     0
176
     1
  0
VISUALSTYLE
  5
3A
102
{ACAD_REACTORS
330
2A
102
}
330
2A
100
AcDbVisualStyle
  2
ColorChange
 70
    16
177
     2
291
     1
 71
     2
176
     1
 72
     2
176
     1
 73
     3
176
     1
 90
        0
176
     1
 40
-0.6
176
     1
 41
-30.0
176
     1
 62
     5
 63
     8
421
  8421504
176
     1
 74
     1
176
     1
 91
        4
176
     1
 64
     7
176
     1
 65
   257
176
     1
 75
     1
176
     1
175
     1
176
     1
 42
1.0
176
     1
 92
        8
176
     1
 66
     8
424
  8421504
176
     1
 43
1.0
176
     1
 76
     1
176
     1
 77
     6
176
     1
 78
     2
176
     1
 67
     7
176
     1
 79
     5
176
     1
170
     0
176
     1
171
     0
176
     1
290
     0
176
     1
 93
        1
176
     1
 44
0.0
176
     1
173
     0
176
     1
  0
VISUALSTYLE
  5
34
102
{ACAD_REACTORS
330
2A
102
}
330
2A
100
AcDbVisualStyle
  2
Conceptual
 70
     9
177
     2
291
     0
 71
     3
176
     1
 72
     2
176
     1
 73
     0
176
     1
 90
        0
176
     1
 40
-0.6
176
     1
 41
-30.0
176
     1
 62
     5
 63
     7
421
 16777215
176
     1
 74
     2
176
     1
 91
        2
176
     1
 64
     7
176
     1
 65
   257
176
     1
 75
     1
176
     1
175
     1
176
     1
 42
40.0
176
     1
 92
        8
176
     1
 66
     7
176
     1
 43
1.0
176
     1
 76
     1
176
     1
 77
     6
176
     1
 78
     2
176
     1
 67
     7
176
     1
 79
     3
176
     1
170
     0
176
     1
171
     0
176
     1
290
     0
176
     1
 93
        1
176
     1
 44
0.0
176
     1
173
     0
176
     1
  0
VISUALSTYLE
  5
35
102
{ACAD_REACTORS
330
2A
102
}
330
2A
100
AcDbVisualStyle
  2
Dim
 70
    11
177
     2
291
     1
 71
     2
176
     1
 72
     2
176
     1
 73
     0
176
     1
 90
        0
176
     1
 40
-0.6
176
     1
 41
-30.0
176
     1
 62
     5
 63
     7
421
 16777215
176
     1
 74
     1
176
     1
 91
        4
176
     1
 64
     7
176
     1
 65
   257
176
     1
 75
     1
176
     1
175
     1
176
     1
 42
1.0
176
     1
 92
        8
176
     1
 66
     7
176
     1
 43
1.0
176
     1
 76
     1
176
     1
 77
     6
176
     1
 78
     2
176
     1
 67
     7
176
     1
 79
     5
176
     1
170
     0
176
     1
171
     0
176
     1
290
     0
176
     1
 93
        1
176
     1
 44
-50.0
176
     1
173
     0
176
     1
  0
VISUALSTYLE
  5
39
102
{ACAD_REACTORS
330
2A
102
}
330
2A
100
AcDbVisualStyle
  2
Facepattern
 70
    15
177
     2
291
     1
 71
     2
176
     1
 72
     2
176
     1
 73
     0
176
     1
 90
        0
176
     1
 40
-0.6
176
     1
 41
-30.0
176
     1
 62
     5
 63
     7
421
 16777215
176
     1
 74
     1
176
     1
 91
        4
176
     1
 64
     7
176
     1
 65
   257
176
     1
 75
     1
176
     1
175
     1
176
     1
 42
1.0
176
     1
 92
        8
176
     1
 66
     7
176
     1
 43
1.0
176
     1
 76
     1
176
     1
 77
     6
176
     1
 78
     2
176
     1
 67
     7
176
     1
 79
     5
176
     1
170
     0
176
     1
171
     0
176
     1
290
     0
176
     1
 93
        1
176
     1
 44
0.0
176
     1
173
     0
176
     1
  0
VISUALSTYLE
  5
2B
102
{ACAD_REACTORS
330
2A
102
}
330
2A
100
AcDbVisualStyle
  2
Flat
 70
     0
177
     2
291
     1
 71
     2
176
     1
 72
     1
176
     1
 73
     1
176
     1
 90
        2
176
     1
 40
-0.6
176
     1
 41
30.0
176
     1
 62
     5
 63
     7
421
 16777215
176
     1
 74
     0
176
     1
 91
        4
176
     1
 64
     7
176
     1
 65
   257
176
     1
 75
     1
176
     1
175
     1
176
     1
 42
1.0
176
     1
 92
        8
176
     1
 66
     7
176
     1
 43
1.0
176
     1
 76
     1
176
     1
 77
     6
176
     1
 78
     2
176
     1
 67
     7
176
     1
 79
     5
176
     1
170
     0
176
     1
171
     0
176
     1
290
     0
176
     1
 93
       13
176
     1
 44
0.0
176
     1
173
     0
176
     1
  0
VISUALSTYLE
  5
2C
102
{ACAD_REACTORS
330
2A
102
}
330
2A
100
AcDbVisualStyle
  2
FlatWithEdges
 70
     1
177
     2
291
     1
 71
     2
176
     1
 72
     1
176
     1
 73
     1
176
     1
 90
        2
176
     1
 40
-0.6
176
     1
 41
30.0
176
     1
 62
     5
 63
     7
421
 16777215
176
     1
 74
     1
176
     1
 91
        4
176
     1
 64
     7
176
     1
 65
   257
176
     1
 75
     1
176
     1
175
     1
176
     1
 42
1.0
176
     1
 92
        0
176
     1
 66
   257
176
     1
 43
1.0
176
     1
 76
     1
176
     1
 77
     6
176
     1
 78
     2
176
     1
 67
     7
176
     1
 79
     5
176
     1
170
     0
176
     1
171
     0
176
     1
290
     0
176
     1
 93
       13
176
     1
 44
0.0
176
     1
173
     0
176
     1
  0
VISUALSTYLE
  5
2D
102
{ACAD_REACTORS
330
2A
102
}
330
2A
100
AcDbVisualStyle
  2
Gouraud
 70
     2
177
     2
291
     1
 71
     2
176
     1
 72
     2
176
     1
 73
     1
176
     1
 90
        2
176
     1
 40
-0.6
176
     1
 41
30.0
176
     1
 62
     5
 63
     7
421
 16777215
176
     1
 74
     0
176
     1
 91
        4
176
     1
 64
     7
176
     1
 65
   257
176
     1
 75
     1
176
     1
175
     1
176
     1
 42
1.0
176
     1
 92
        0
176
     1
 66
     7
176
     1
 43
1.0
176
     1
 76
     1
176
     1
 77
     6
176
     1
 78
     2
176
     1
 67
     7
176
     1
 79
     5
176
     1
170
     0
176
     1
171
     0
176
     1
290
     0
176
     1
 93
       13
176
     1
 44
0.0
176
     1
173
     0
176
     1
  0
VISUALSTYLE
  5
2E
102
{ACAD_REACTORS
330
2A
102
}
330
2A
100
AcDbVisualStyle
  2
GouraudWithEdges
 70
     3
177
     2
291
     1
 71
     2
176
     1
 72
     2
176
     1
 73
     1
176
     1
 90
        2
176
     1
 40
-0.6
176
     1
 41
30.0
176
     1
 62
     5
 63
     7
421
 16777215
176
     1
 74
     1
176
     1
 91
        4
176
     1
 64
     7
176
     1
 65
   257
176
     1
 75
     1
176
     1
175
     1
176
     1
 42
1.0
176
     1
 92
        0
176
     1
 66
   257
176
     1
 43
1.0
176
     1
 76
     1
176
     1
 77
     6
176
     1
 78
     2
176
     1
 67
     7
176
     1
 79
     5
176
     1
170
     0
176
     1
171
     0
176
     1
290
     0
176
     1
 93
       13
176
     1
 44
0.0
176
     1
173
     0
176
     1
  0
VISUALSTYLE
  5
38
102
{ACAD_REACTORS
330
2A
102
}
330
2A
100
AcDbVisualStyle
  2
Linepattern
 70
    14
177
     2
291
     1
 71
     2
176
     1
 72
     2
176
     1
 73
     0
176
     1
 90
        0
176
     1
 40
-0.6
176
     1
 41
-30.0
176
     1
 62
     5
 63
     7
421
 16777215
176
     1
 74
     1
176
     1
 91
        4
176
     1
 64
     7
176
     1
 65
   257
176
     1
 75
     7
176
     1
175
     7
176
     1
 42
1.0
176
     1
 92
        8
176
     1
 66
     7
176
     1
 43
1.0
176
     1
 76
     1
176
     1
 77
     6
176
     1
 78
     2
176
     1
 67
     7
176
     1
 79
     5
176
     1
170
     0
176
     1
171
     0
176
     1
290
     0
176
     1
 93
        1
176
     1
 44
0.0
176
     1
173
     0
176
     1
  0
VISUALSTYLE
  5
33
102
{ACAD_REACTORS
330
2A
102
}
330
2A
100
AcDbVisualStyle
  2
Realistic
 70
     8
177
     2
291
     0
 71
     2
176
     1
 72
     2
176
     1
 73
     0
176
     1
 90
        0
176
     1
 40
-0.6
176
     1
 41
-30.0
176
     1
 62
     5
 63
     7
421
 16777215
176
     1
 74
     1
176
     1
 91
        0
176
     1
 64
     7
176
     1
 65
   257
176
     1
 75
     1
176
     1
175
     1
176
     1
 42
1.0
176
     1
 92
        8
176
     1
 66
     8
424
  7895160
176
     1
 43
1.0
176
     1
 76
     1
176
     1
 77
     6
176
     1
 78
     2
176
     1
 67
     7
176
     1
 79
     5
176
     1
170
     0
176
     1
171
     0
176
     1
290
     0
176
     1
 93
       13
176
     1
 44
0.0
176
     1
173
     0
176
     1
  0
VISUALSTYLE
  5
37
102
{ACAD_REACTORS
330
2A
102
}
330
2A
100
AcDbVisualStyle
  2
Thicken
 70
    13
177
     2
291
     1
 71
     2
176
     1
 72
     2
176
     1
 73
     0
176
     1
 90
        0
176
     1
 40
-0.6
176
     1
 41
-30.0
176
     1
 62
     5
 63
     7
421
 16777215
176
     1
 74
     1
176
     1
 91
        4
176
     1
 64
     7
176
     1
 65
   257
176
     1
 75
     1
176
     1
175
     1
176
     1
 42
1.0
176
     1
 92
       12
176
     1
 66
     7
176
     1
 43
1.0
176
     1
 76
     1
176
     1
 77
     6
176
     1
 78
     2
176
     1
 67
     7
176
     1
 79
     5
176
     1
170
     0
176
     1
171
     0
176
     1
290
     0
176
     1
 93
        1
176
     1
 44
0.0
176
     1
173
     0
176
     1
  0
ENDSEC
  0
EOF
