  0
SECTION
  2
HEADER
  9
$ACADVER
  1
AC1024
  9
$ACADMAINTVER
 70
     6
  9
$DWGCODEPAGE
  3
UNDEFINED
  9
$INSBASE
 10
0.0
 20
0.0
 30
0.0
  9
$EXTMIN
 10
1.000000000000000E+20
 20
1.000000000000000E+20
 30
1.000000000000000E+20
  9
$EXTMAX
 10
-1.000000000000000E+20
 20
-1.000000000000000E+20
 30
-1.000000000000000E+20
  9
$LIMMIN
 10
0.0
 20
0.0
  9
$LIMMAX
 10
12.0
 20
9.0
  9
$ORTHOMODE
 70
     0
  9
$REGENMODE
 70
     1
  9
$FILLMODE
 70
     1
  9
$QTEXTMODE
 70
     0
  9
$MIRRTEXT
 70
     1
  9
$LTSCALE
 40
1.0
  9
$ATTMODE
 70
     1
  9
$TEXTSIZE
 40
0.2
  9
$TRACEWID
 40
0.05
  9
$TEXTSTYLE
  7
Standard
  9
$CLAYER
  8
0
  9
$CELTYPE
  6
ByLayer
  9
$CECOLOR
 62
   256
  9
$CELTSCALE
 40
1.0
  9
$DISPSILH
 70
     0
  9
$DIMSCALE
 40
1.0
  9
$DIMASZ
 40
0.18
  9
$DIMEXO
 40
0.0625
  9
$DIMDLI
 40
0.38
  9
$DIMRND
 40
0.0
  9
$DIMDLE
 40
0.0
  9
$DIMEXE
 40
0.18
  9
$DIMTP
 40
0.0
  9
$DIMTM
 40
0.0
  9
$DIMTXT
 40
0.18
  9
$DIMCEN
 40
0.09
  9
$DIMTSZ
 40
0.0
  9
$DIMTOL
 70
     0
  9
$DIMLIM
 70
     0
  9
$DIMTIH
 70
     1
  9
$DIMTOH
 70
     1
  9
$DIMSE1
 70
     0
  9
$DIMSE2
 70
     0
  9
$DIMTAD
 70
     0
  9
$DIMZIN
 70
     0
  9
$DIMBLK
  1

  9
$DIMASO
 70
     1
  9
$DIMSHO
 70
     1
  9
$DIMPOST
  1

  9
$DIMAPOST
  1

  9
$DIMALT
 70
     0
  9
$DIMALTD
 70
     2
  9
$DIMALTF
 40
25.4
  9
$DIMLFAC
 40
1.0
  9
$DIMTOFL
 70
     0
  9
$DIMTVP
 40
0.0
  9
$DIMTIX
 70
     0
  9
$DIMSOXD
 70
     0
  9
$DIMSAH
 70
     0
  9
$DIMBLK1
  1

  9
$DIMBLK2
  1

  9
$DIMSTYLE
  2
Standard
  9
$DIMCLRD
 70
     0
  9
$DIMCLRE
 70
     0
  9
$DIMCLRT
 70
     0
  9
$DIMTFAC
 40
1.0
  9
$DIMGAP
 40
0.09
  9
$DIMJUST
 70
     0
  9
$DIMSD1
 70
     0
  9
$DIMSD2
 70
     0
  9
$DIMTOLJ
 70
     1
  9
$DIMTZIN
 70
     0
  9
$DIMALTZ
 70
     0
  9
$DIMALTTZ
 70
     0
  9
$DIMUPT
 70
     0
  9
$DIMDEC
 70
     4
  9
$DIMTDEC
 70
     4
  9
$DIMALTU
 70
     2
  9
$DIMALTTD
 70
     2
  9
$DIMTXSTY
  7
Standard
  9
$DIMAUNIT
 70
     0
  9
$DIMADEC
 70
     0
  9
$DIMALTRND
 40
0.0
  9
$DIMAZIN
 70
     0
  9
$DIMDSEP
 70
    46
  9
$DIMATFIT
 70
     3
  9
$DIMFRAC
 70
     0
  9
$DIMLDRBLK
  1

  9
$DIMLUNIT
 70
     2
  9
$DIMLWD
 70
    -2
  9
$DIMLWE
 70
    -2
  9
$DIMTMOVE
 70
     0
  9
$DIMFXL
 40
1.0
  9
$DIMFXLON
 70
     0
  9
$DIMJOGANG
 40
0.7853981633974483
  9
$DIMTFILL
 70
     0
  9
$DIMTFILLCLR
 70
     0
  9
$DIMARCSYM
 70
     0
  9
$DIMLTYPE
  6

  9
$DIMLTEX1
  6

  9
$DIMLTEX2
  6

  9
$DIMTXTDIRECTION
 70
     0
  9
$LUNITS
 70
     2
  9
$LUPREC
 70
     4
  9
$SKETCHINC
 40
0.1
  9
$FILLETRAD
 40
0.5
  9
$AUNITS
 70
     0
  9
$AUPREC
 70
     0
  9
$MENU
  1
.
  9
$ELEVATION
 40
0.0
  9
$PELEVATION
 40
0.0
  9
$THICKNESS
 40
0.0
  9
$LIMCHECK
 70
     0
  9
$CHAMFERA
 40
0.5
  9
$CHAMFERB
 40
0.5
  9
$CHAMFERC
 40
1.0
  9
$CHAMFERD
 40
0.0
  9
$SKPOLY
 70
     0
  9
$TDCREATE
 40
2457917.587476852
  9
$TDUCREATE
 40
2457917.212476852
  9
$TDUPDATE
 40
2457917.587476852
  9
$TDUUPDATE
 40
2457917.212476852
  9
$TDINDWG
 40
0.0000000116
  9
$TDUSRTIMER
 40
0.0000000116
  9
$USRTIMER
 70
     1
  9
$ANGBASE
 50
0.0
  9
$ANGDIR
 70
     0
  9
$PDMODE
 70
     0
  9
$PDSIZE
 40
0.0
  9
$PLINEWID
 40
0.0
  9
$SPLFRAME
 70
     0
  9
$SPLINETYPE
 70
     6
  9
$SPLINESEGS
 70
     8
  9
$HANDSEED
  5
12B
  9
$SURFTAB1
 70
     6
  9
$SURFTAB2
 70
     6
  9
$SURFTYPE
 70
     6
  9
$SURFU
 70
     6
  9
$SURFV
 70
     6
  9
$UCSBASE
  2

  9
$UCSNAME
  2

  9
$UCSORG
 10
0.0
 20
0.0
 30
0.0
  9
$UCSXDIR
 10
1.0
 20
0.0
 30
0.0
  9
$UCSYDIR
 10
0.0
 20
1.0
 30
0.0
  9
$UCSORTHOREF
  2

  9
$UCSORTHOVIEW
 70
     0
  9
$UCSORGTOP
 10
0.0
 20
0.0
 30
0.0
  9
$UCSORGBOTTOM
 10
0.0
 20
0.0
 30
0.0
  9
$UCSORGLEFT
 10
0.0
 20
0.0
 30
0.0
  9
$UCSORGRIGHT
 10
0.0
 20
0.0
 30
0.0
  9
$UCSORGFRONT
 10
0.0
 20
0.0
 30
0.0
  9
$UCSORGBACK
 10
0.0
 20
0.0
 30
0.0
  9
$PUCSBASE
  2

  9
$PUCSNAME
  2

  9
$PUCSORG
 10
0.0
 20
0.0
 30
0.0
  9
$PUCSXDIR
 10
1.0
 20
0.0
 30
0.0
  9
$PUCSYDIR
 10
0.0
 20
1.0
 30
0.0
  9
$PUCSORTHOREF
  2

  9
$PUCSORTHOVIEW
 70
     0
  9
$PUCSORGTOP
 10
0.0
 20
0.0
 30
0.0
  9
$PUCSORGBOTTOM
 10
0.0
 20
0.0
 30
0.0
  9
$PUCSORGLEFT
 10
0.0
 20
0.0
 30
0.0
  9
$PUCSORGRIGHT
 10
0.0
 20
0.0
 30
0.0
  9
$PUCSORGFRONT
 10
0.0
 20
0.0
 30
0.0
  9
$PUCSORGBACK
 10
0.0
 20
0.0
 30
0.0
  9
$USERI1
 70
     0
  9
$USERI2
 70
     0
  9
$USERI3
 70
     0
  9
$USERI4
 70
     0
  9
$USERI5
 70
     0
  9
$USERR1
 40
0.0
  9
$USERR2
 40
0.0
  9
$USERR3
 40
0.0
  9
$USERR4
 40
0.0
  9
$USERR5
 40
0.0
  9
$WORLDVIEW
 70
     1
  9
$SHADEDGE
 70
     3
  9
$SHADEDIF
 70
    70
  9
$TILEMODE
 70
     1
  9
$MAXACTVP
 70
    64
  9
$PINSBASE
 10
0.0
 20
0.0
 30
0.0
  9
$PLIMCHECK
 70
     0
  9
$PEXTMIN
 10
1.000000000000000E+20
 20
1.000000000000000E+20
 30
1.000000000000000E+20
  9
$PEXTMAX
 10
-1.000000000000000E+20
 20
-1.000000000000000E+20
 30
-1.000000000000000E+20
  9
$PLIMMIN
 10
0.0
 20
0.0
  9
$PLIMMAX
 10
12.0
 20
9.0
  9
$UNITMODE
 70
     0
  9
$VISRETAIN
 70
     1
  9
$PLINEGEN
 70
     0
  9
$PSLTSCALE
 70
     1
  9
$TREEDEPTH
 70
  3020
  9
$CMLSTYLE
  2
Standard
  9
$CMLJUST
 70
     0
  9
$CMLSCALE
 40
1.0
  9
$PROXYGRAPHICS
 70
     1
  9
$MEASUREMENT
 70
     0
  9
$CELWEIGHT
370
    -1
  9
$ENDCAPS
280
     0
  9
$JOINSTYLE
280
     0
  9
$LWDISPLAY
290
     1
  9
$INSUNITS
 70
     1
  9
$HYPERLINKBASE
  1

  9
$STYLESHEET
  1

  9
$XEDIT
290
     1
  9
$CEPSNTYPE
380
     0
  9
$PSTYLEMODE
290
     1
  9
$FINGERPRINTGUID
  2
{00D3DDCD-A536-213A-45A0-36368D5D3DA2}
  9
$VERSIONGUID
  2
{FAEB1C32-E019-11D5-929B-00C0DF256EC4}
  9
$EXTNAMES
290
     1
  9
$PSVPSCALE
 40
0.0
  9
$OLESTARTUP
290
     0
  9
$SORTENTS
280
   127
  9
$INDEXCTL
280
     0
  9
$HIDETEXT
280
     1
  9
$XCLIPFRAME
280
     2
  9
$HALOGAP
280
     0
  9
$OBSCOLOR
 70
   257
  9
$OBSLTYPE
280
     0
  9
$INTERSECTIONDISPLAY
280
     0
  9
$INTERSECTIONCOLOR
 70
   257
  9
$DIMASSOC
280
     2
  9
$PROJECTNAME
  1

  9
$CAMERADISPLAY
290
     0
  9
$LENSLENGTH
 40
50.0
  9
$CAMERAHEIGHT
 40
0.0
  9
$STEPSPERSEC
 40
2.0
  9
$STEPSIZE
 40
6.0
  9
$3DDWFPREC
 40
2.0
  9
$PSOLWIDTH
 40
0.25
  9
$PSOLHEIGHT
 40
4.0
  9
$LOFTANG1
 40
1.570796326794897
  9
$LOFTANG2
 40
1.570796326794897
  9
$LOFTMAG1
 40
0.0
  9
$LOFTMAG2
 40
0.0
  9
$LOFTPARAM
 70
     7
  9
$LOFTNORMALS
280
     1
  9
$LATITUDE
 40
37.795
  9
$LONGITUDE
 40
-122.394
  9
$NORTHDIRECTION
 40
0.0
  9
$TIMEZONE
 70
 -8000
  9
$LIGHTGLYPHDISPLAY
280
     1
  9
$TILEMODELIGHTSYNCH
280
     1
  9
$CMATERIAL
347
3C
  9
$SOLIDHIST
280
     1
  9
$SHOWHIST
280
     1
  9
$DWFFRAME
280
     2
  9
$DGNFRAME
280
     2
  9
$REALWORLDSCALE
290
     1
  9
$INTERFERECOLOR
 62
   256
  9
$CSHADOW
280
     0
  9
$SHADOWPLANELOCATION
 40
0.0
  0
ENDSEC
  0
SECTION
  2
CLASSES
  0
CLASS
  1
ACDBDICTIONARYWDFLT
  2
AcDbDictionaryWithDefault
  3
ObjectDBX Classes
 90
        0
 91
        4
280
     0
281
     0
  0
CLASS
  1
VISUALSTYLE
  2
AcDbVisualStyle
  3
ObjectDBX Classes
 90
     4095
 91
        4
280
     0
281
     0
  0
CLASS
  1
MATERIAL
  2
AcDbMaterial
  3
ObjectDBX Classes
 90
     1153
 91
        4
280
     0
281
     0
  0
CLASS
  1
SUN
  2
AcDbSun
  3
SCENEOE
 90
     1024
 91
        4
280
     0
281
     0
  0
ENDSEC
  0
SECTION
  2
TABLES
  0
TABLE
  2
VPORT
  5
8
330
0
100
AcDbSymbolTable
 70
     1
  0
VPORT
  5
29
330
8
100
AcDbSymbolTableRecord
100
AcDbViewportTableRecord
  2
*Active
 70
     0
 10
0.0
 20
0.0
 11
1.0
 21
1.0
 12
0.0
 22
0.0
 13
0.0
 23
0.0
 14
0.5
 24
0.5
 15
0.5
 25
0.5
 16
0.0
 26
0.0
 36
1.0
 17
63.499999984125
 27
-89.00059456108309
 37
0.0
 40
178.0011891221662
 41
0.7134783795241226
 42
50.0
 43
0.0
 44
0.0
 50
0.0
 51
0.0
 71
     0
 72
   100
 73
     1
 74
     3
 75
     0
 76
     0
 77
     0
 78
     0
281
     0
 65
     1
110
0.0
120
0.0
130
0.0
111
1.0
121
0.0
131
0.0
112
0.0
122
1.0
132
0.0
 79
     0
146
0.0
 60
     3
 61
     5
292
     1
282
     1
141
0.0
142
0.0
 63
   250
361
3F
  0
ENDTAB
  0
TABLE
  2
LTYPE
  5
5
330
0
100
AcDbSymbolTable
 70
     1
  0
LTYPE
  5
14
330
5
100
AcDbSymbolTableRecord
100
AcDbLinetypeTableRecord
  2
ByBlock
 70
     0
  3

 72
    65
 73
     0
 40
0.0
  0
LTYPE
  5
15
330
5
100
AcDbSymbolTableRecord
100
AcDbLinetypeTableRecord
  2
ByLayer
 70
     0
  3

 72
    65
 73
     0
 40
0.0
  0
LTYPE
  5
16
330
5
100
AcDbSymbolTableRecord
100
AcDbLinetypeTableRecord
  2
Continuous
 70
     0
  3
Solid line
 72
    65
 73
     0
 40
0.0
  0
ENDTAB
  0
TABLE
  2
LAYER
  5
2
330
0
100
AcDbSymbolTable
 70
     2
  0
LAYER
  5
10
330
2
100
AcDbSymbolTableRecord
100
AcDbLayerTableRecord
  2
0
 70
     0
 62
     7
  6
Continuous
370
    -3
390
F
347
3E
  0
LAYER
  5
40
330
2
100
AcDbSymbolTableRecord
100
AcDbLayerTableRecord
  2
_U+30EC_U+30A4_U+30E4_U+30FC 1
 70
     0
 62
     7
  6
Continuous
370
    -3
390
F
347
3E
  0
ENDTAB
  0
TABLE
  2
STYLE
  5
3
330
0
100
AcDbSymbolTable
 70
     1
  0
STYLE
  5
11
330
3
100
AcDbSymbolTableRecord
100
AcDbTextStyleTableRecord
  2
Standard
 70
     0
 40
0.0
 41
1.0
 50
0.0
 71
     0
 42
0.2
  3
txt
  4

  0
ENDTAB
  0
TABLE
  2
VIEW
  5
6
330
0
100
AcDbSymbolTable
 70
     0
  0
ENDTAB
  0
TABLE
  2
UCS
  5
7
330
0
100
AcDbSymbolTable
 70
     0
  0
ENDTAB
  0
TABLE
  2
APPID
  5
9
330
0
100
AcDbSymbolTable
 70
     1
  0
APPID
  5
12
330
9
100
AcDbSymbolTableRecord
100
AcDbRegAppTableRecord
  2
ACAD
 70
     0
  0
ENDTAB
  0
TABLE
  2
DIMSTYLE
  5
A
330
0
100
AcDbSymbolTable
 70
     1
100
AcDbDimStyleTable
  0
DIMSTYLE
105
27
330
A
100
AcDbSymbolTableRecord
100
AcDbDimStyleTableRecord
  2
Standard
 70
     0
178
     0
340
11
  0
ENDTAB
  0
TABLE
  2
BLOCK_RECORD
  5
1
330
0
100
AcDbSymbolTable
 70
    13
  0
BLOCK_RECORD
  5
1F
330
1
100
AcDbSymbolTableRecord
100
AcDbBlockTableRecord
  2
*Model_Space
340
22
 70
     0
280
     1
281
     0
  0
BLOCK_RECORD
  5
1B
330
1
100
AcDbSymbolTableRecord
100
AcDbBlockTableRecord
  2
*Paper_Space
340
1E
 70
     0
280
     1
281
     0
  0
BLOCK_RECORD
  5
23
330
1
100
AcDbSymbolTableRecord
100
AcDbBlockTableRecord
  2
*Paper_Space0
340
26
 70
     0
280
     1
281
     0
  0
BLOCK_RECORD
  5
83
330
1
100
AcDbSymbolTableRecord
100
AcDbBlockTableRecord
  2
block 2
340
0
102
{BLKREFS
331
84
102
}
 70
     0
280
     1
281
     0
  0
BLOCK_RECORD
  5
97
330
1
100
AcDbSymbolTableRecord
100
AcDbBlockTableRecord
  2
block 3
340
0
102
{BLKREFS
331
98
102
}
 70
     0
280
     1
281
     0
  0
BLOCK_RECORD
  5
9D
330
1
100
AcDbSymbolTableRecord
100
AcDbBlockTableRecord
  2
block 4
340
0
102
{BLKREFS
331
9E
102
}
 70
     0
280
     1
281
     0
  0
BLOCK_RECORD
  5
AD
330
1
100
AcDbSymbolTableRecord
100
AcDbBlockTableRecord
  2
block 5
340
0
102
{BLKREFS
331
AE
102
}
 70
     0
280
     1
281
     0
  0
BLOCK_RECORD
  5
B5
330
1
100
AcDbSymbolTableRecord
100
AcDbBlockTableRecord
  2
block 6
340
0
102
{BLKREFS
331
B6
102
}
 70
     0
280
     1
281
     0
  0
BLOCK_RECORD
  5
C9
330
1
100
AcDbSymbolTableRecord
100
AcDbBlockTableRecord
  2
block 7
340
0
102
{BLKREFS
331
CA
102
}
 70
     0
280
     1
281
     0
  0
BLOCK_RECORD
  5
DA
330
1
100
AcDbSymbolTableRecord
100
AcDbBlockTableRecord
  2
block 8
340
0
102
{BLKREFS
331
DB
102
}
 70
     0
280
     1
281
     0
  0
BLOCK_RECORD
  5
EA
330
1
100
AcDbSymbolTableRecord
100
AcDbBlockTableRecord
  2
block 9
340
0
102
{BLKREFS
331
EB
102
}
 70
     0
280
     1
281
     0
  0
BLOCK_RECORD
  5
F3
330
1
100
AcDbSymbolTableRecord
100
AcDbBlockTableRecord
  2
block 10
340
0
102
{BLKREFS
331
F4
102
}
 70
     0
280
     1
281
     0
  0
BLOCK_RECORD
  5
FF
330
1
100
AcDbSymbolTableRecord
100
AcDbBlockTableRecord
  2
block 11
340
0
102
{BLKREFS
331
100
102
}
 70
     0
280
     1
281
     0
  0
BLOCK_RECORD
  5
107
330
1
100
AcDbSymbolTableRecord
100
AcDbBlockTableRecord
  2
block 12
340
0
102
{BLKREFS
331
108
102
}
 70
     0
280
     1
281
     0
  0
BLOCK_RECORD
  5
117
330
1
100
AcDbSymbolTableRecord
100
AcDbBlockTableRecord
  2
block 13
340
0
102
{BLKREFS
331
118
102
}
 70
     0
280
     1
281
     0
  0
ENDTAB
  0
ENDSEC
  0
SECTION
  2
BLOCKS
  0
BLOCK
  5
20
330
1F
100
AcDbEntity
  8
0
100
AcDbBlockBegin
  2
*Model_Space
 70
     0
 10
0.0
 20
0.0
 30
0.0
  3
*Model_Space
  1

  0
ENDBLK
  5
21
330
1F
100
AcDbEntity
  8
0
100
AcDbBlockEnd
  0
BLOCK
  5
1C
330
1B
100
AcDbEntity
 67
     1
  8
0
100
AcDbBlockBegin
  2
*Paper_Space
 70
     0
 10
0.0
 20
0.0
 30
0.0
  3
*Paper_Space
  1

  0
ENDBLK
  5
1D
330
1B
100
AcDbEntity
 67
     1
  8
0
100
AcDbBlockEnd
  0
BLOCK
  5
24
330
23
100
AcDbEntity
  8
0
100
AcDbBlockBegin
  2
*Paper_Space0
 70
     0
 10
0.0
 20
0.0
 30
0.0
  3
*Paper_Space0
  1

  0
ENDBLK
  5
25
330
23
100
AcDbEntity
  8
0
100
AcDbBlockEnd
  0
BLOCK
  5
85
330
83
100
AcDbEntity
  8
0
100
AcDbBlockBegin
  2
block 2
 70
     0
 10
0.0
 20
0.0
 30
0.0
  3
block 2
  1

  0
POLYLINE
  5
87
330
83
100
AcDbEntity
  8
_U+30EC_U+30A4_U+30E4_U+30FC 1
 62
   179
420
  2234388
370
     9
100
AcDb2dPolyline
 66
     1
 10
0.0
 20
0.0
 30
0.0
  0
VERTEX
  5
88
330
87
100
AcDbEntity
  8
_U+30EC_U+30A4_U+30E4_U+30FC 1
 62
   179
420
  2234388
370
     9
100
AcDbVertex
100
AcDb2dVertex
 10
83.46535037062151
 20
-82.19101331278554
 30
0.0
  0
VERTEX
  5
89
330
87
100
AcDbEntity
  8
_U+30EC_U+30A4_U+30E4_U+30FC 1
 62
   179
420
  2234388
370
     9
100
AcDbVertex
100
AcDb2dVertex
 10
83.46535037062151
 20
-78.42070081372812
 30
0.0
  0
SEQEND
  5
8A
330
87
100
AcDbEntity
  8
_U+30EC_U+30A4_U+30E4_U+30FC 1
 62
   179
420
  2234388
370
     9
  0
POLYLINE
  5
8B
330
83
100
AcDbEntity
  8
_U+30EC_U+30A4_U+30E4_U+30FC 1
 62
   179
420
  2234388
370
     9
100
AcDb2dPolyline
 66
     1
 10
0.0
 20
0.0
 30
0.0
  0
VERTEX
  5
8C
330
8B
100
AcDbEntity
  8
_U+30EC_U+30A4_U+30E4_U+30FC 1
 62
   179
420
  2234388
370
     9
100
AcDbVertex
100
AcDb2dVertex
 10
83.46535037062151
 20
-82.19101331278554
 30
0.0
  0
VERTEX
  5
8D
330
8B
100
AcDbEntity
  8
_U+30EC_U+30A4_U+30E4_U+30FC 1
 62
   179
420
  2234388
370
     9
100
AcDbVertex
100
AcDb2dVertex
 10
83.46535037062151
 20
-83.19078553475777
 30
0.0
  0
SEQEND
  5
8E
330
8B
100
AcDbEntity
  8
_U+30EC_U+30A4_U+30E4_U+30FC 1
 62
   179
420
  2234388
370
     9
  0
POLYLINE
  5
8F
330
83
100
AcDbEntity
  8
_U+30EC_U+30A4_U+30E4_U+30FC 1
 62
   179
420
  2234388
370
     9
100
AcDb2dPolyline
 66
     1
 10
0.0
 20
0.0
 30
0.0
  0
VERTEX
  5
90
330
8F
100
AcDbEntity
  8
_U+30EC_U+30A4_U+30E4_U+30FC 1
 62
   179
420
  2234388
370
     9
100
AcDbVertex
100
AcDb2dVertex
 10
82.00534429675825
 20
-82.19101331278554
 30
0.0
  0
VERTEX
  5
91
330
8F
100
AcDbEntity
  8
_U+30EC_U+30A4_U+30E4_U+30FC 1
 62
   179
420
  2234388
370
     9
100
AcDbVertex
100
AcDb2dVertex
 10
84.46512256733742
 20
-82.19101331278554
 30
0.0
  0
SEQEND
  5
92
330
8F
100
AcDbEntity
  8
_U+30EC_U+30A4_U+30E4_U+30FC 1
 62
   179
420
  2234388
370
     9
  0
POLYLINE
  5
93
330
83
100
AcDbEntity
  8
_U+30EC_U+30A4_U+30E4_U+30FC 1
 62
   179
420
  2234388
370
     9
100
AcDb2dPolyline
 66
     1
 10
0.0
 20
0.0
 30
0.0
  0
VERTEX
  5
94
330
93
100
AcDbEntity
  8
_U+30EC_U+30A4_U+30E4_U+30FC 1
 62
   179
420
  2234388
370
     9
100
AcDbVertex
100
AcDb2dVertex
 10
82.00534429675825
 20
-83.19078553475777
 30
0.0
  0
VERTEX
  5
95
330
93
100
AcDbEntity
  8
_U+30EC_U+30A4_U+30E4_U+30FC 1
 62
   179
420
  2234388
370
     9
100
AcDbVertex
100
AcDb2dVertex
 10
84.46512256733742
 20
-83.19078553475777
 30
0.0
  0
SEQEND
  5
96
330
93
100
AcDbEntity
  8
_U+30EC_U+30A4_U+30E4_U+30FC 1
 62
   179
420
  2234388
370
     9
  0
INSERT
  5
98
330
83
100
AcDbEntity
  8
_U+30EC_U+30A4_U+30E4_U+30FC 1
100
AcDbBlockReference
  2
block 3
 10
0.0
 20
0.0
 30
0.0
  0
ENDBLK
  5
86
330
83
100
AcDbEntity
  8
0
100
AcDbBlockEnd
  0
BLOCK
  5
99
330
97
100
AcDbEntity
  8
0
100
AcDbBlockBegin
  2
block 3
 70
     0
 10
0.0
 20
0.0
 30
0.0
  3
block 3
  1

  0
SPLINE
  5
9B
330
97
100
AcDbEntity
  8
_U+30EC_U+30A4_U+30E4_U+30FC 1
370
     0
100
AcDbSpline
210
0.0
220
0.0
230
1.0
 70
    11
 71
     3
 72
    26
 73
    22
 74
     0
 42
0.0000000001
 43
0.0000000001
 12
1.0
 22
0.0
 32
0.0
 13
1.0
 23
0.0
 33
0.0
 40
0.0
 40
0.0
 40
0.0
 40
0.0
 40
1.0
 40
1.0
 40
1.0
 40
2.0
 40
2.0
 40
2.0
 40
3.0
 40
3.0
 40
3.0
 40
4.0
 40
4.0
 40
4.0
 40
5.0
 40
5.0
 40
5.0
 40
6.0
 40
6.0
 40
6.0
 40
7.0
 40
7.0
 40
7.0
 40
7.0
 10
82.11385089092987
 20
-79.24305282307118
 30
0.0
 10
82.11385089092987
 20
-79.24305282307118
 30
0.0
 10
81.0096977879073
 20
-79.24305282307118
 30
0.0
 10
81.0096977879073
 20
-79.24305282307118
 30
0.0
 10
81.0096977879073
 20
-79.24305282307118
 30
0.0
 10
81.0096977879073
 20
-79.59548609121224
 30
0.0
 10
81.0096977879073
 20
-79.59548609121224
 30
0.0
 10
81.0096977879073
 20
-79.59548609121224
 30
0.0
 10
80.86155868204156
 20
-79.59548609121224
 30
0.0
 10
80.86155868204156
 20
-79.59548609121224
 30
0.0
 10
80.84674477145498
 20
-79.24064125623151
 30
0.0
 10
80.68379175500267
 20
-79.19103188124392
 30
0.0
 10
80.56941458489237
 20
-79.15933700277961
 30
0.0
 10
80.56941458489237
 20
-79.15933700277961
 30
0.0
 10
80.56941458489237
 20
-79.0032741772978
 30
0.0
 10
80.56941458489237
 20
-79.0032741772978
 30
0.0
 10
80.56941458489237
 20
-79.0032741772978
 30
0.0
 10
82.11385089092987
 20
-79.0032741772978
 30
0.0
 10
82.11385089092987
 20
-79.0032741772978
 30
0.0
 10
82.11385089092987
 20
-79.0032741772978
 30
0.0
 10
82.11385089092987
 20
-79.24305282307118
 30
0.0
 10
82.11385089092987
 20
-79.24305282307118
 30
0.0
  0
HATCH
  5
9C
330
97
100
AcDbEntity
  8
_U+30EC_U+30A4_U+30E4_U+30FC 1
 62
   179
420
  2234388
100
AcDbHatch
 10
0.0
 20
0.0
 30
0.0
210
0.0
220
0.0
230
1.0
  2
SOLID
 70
     1
 71
     0
 91
        1
 92
        1
 93
        1
 72
     4
 94
        3
 73
     0
 74
     1
 95
       26
 96
       22
 40
0.0
 40
0.0
 40
0.0
 40
0.0
 40
1.0
 40
1.0
 40
1.0
 40
2.0
 40
2.0
 40
2.0
 40
3.0
 40
3.0
 40
3.0
 40
4.0
 40
4.0
 40
4.0
 40
5.0
 40
5.0
 40
5.0
 40
6.0
 40
6.0
 40
6.0
 40
7.0
 40
7.0
 40
7.0
 40
7.0
 10
82.11385089092987
 20
-79.24305282307118
 10
82.11385089092987
 20
-79.24305282307118
 10
81.0096977879073
 20
-79.24305282307118
 10
81.0096977879073
 20
-79.24305282307118
 10
81.0096977879073
 20
-79.24305282307118
 10
81.0096977879073
 20
-79.59548609121224
 10
81.0096977879073
 20
-79.59548609121224
 10
81.0096977879073
 20
-79.59548609121224
 10
80.86155868204156
 20
-79.59548609121224
 10
80.86155868204156
 20
-79.59548609121224
 10
80.84674477145498
 20
-79.24064125623151
 10
80.68379175500267
 20
-79.19103188124392
 10
80.56941458489237
 20
-79.15933700277961
 10
80.56941458489237
 20
-79.15933700277961
 10
80.56941458489237
 20
-79.0032741772978
 10
80.56941458489237
 20
-79.0032741772978
 10
80.56941458489237
 20
-79.0032741772978
 10
82.11385089092987
 20
-79.0032741772978
 10
82.11385089092987
 20
-79.0032741772978
 10
82.11385089092987
 20
-79.0032741772978
 10
82.11385089092987
 20
-79.24305282307118
 10
82.11385089092987
 20
-79.24305282307118
 97
        0
 97
        0
 75
     2
 76
     1
 98
        0
  0
ENDBLK
  5
9A
330
97
100
AcDbEntity
  8
0
100
AcDbBlockEnd
  0
BLOCK
  5
9F
330
9D
100
AcDbEntity
  8
0
100
AcDbBlockBegin
  2
block 4
 70
     0
 10
0.0
 20
0.0
 30
0.0
  3
block 4
  1

  0
POLYLINE
  5
A1
330
9D
100
AcDbEntity
  8
_U+30EC_U+30A4_U+30E4_U+30FC 1
 62
   179
420
  2234388
370
     9
100
AcDb2dPolyline
 66
     1
 10
0.0
 20
0.0
 30
0.0
  0
VERTEX
  5
A2
330
A1
100
AcDbEntity
  8
_U+30EC_U+30A4_U+30E4_U+30FC 1
 62
   179
420
  2234388
370
     9
100
AcDbVertex
100
AcDb2dVertex
 10
79.4655913059972
 20
-78.19093664711906
 30
0.0
  0
VERTEX
  5
A3
330
A1
100
AcDbEntity
  8
_U+30EC_U+30A4_U+30E4_U+30FC 1
 62
   179
420
  2234388
370
     9
100
AcDbVertex
100
AcDb2dVertex
 10
42.46527221160584
 20
-78.19093664711906
 30
0.0
  0
SEQEND
  5
A4
330
A1
100
AcDbEntity
  8
_U+30EC_U+30A4_U+30E4_U+30FC 1
 62
   179
420
  2234388
370
     9
  0
POLYLINE
  5
A5
330
9D
100
AcDbEntity
  8
_U+30EC_U+30A4_U+30E4_U+30FC 1
 62
   179
420
  2234388
370
     9
100
AcDb2dPolyline
 66
     1
 10
0.0
 20
0.0
 30
0.0
  0
VERTEX
  5
A6
330
A5
100
AcDbEntity
  8
_U+30EC_U+30A4_U+30E4_U+30FC 1
 62
   179
420
  2234388
370
     9
100
AcDbVertex
100
AcDb2dVertex
 10
79.4655913059972
 20
-79.650625257865
 30
0.0
  0
VERTEX
  5
A7
330
A5
100
AcDbEntity
  8
_U+30EC_U+30A4_U+30E4_U+30FC 1
 62
   179
420
  2234388
370
     9
100
AcDbVertex
100
AcDb2dVertex
 10
79.4655913059972
 20
-77.19081164736907
 30
0.0
  0
SEQEND
  5
A8
330
A5
100
AcDbEntity
  8
_U+30EC_U+30A4_U+30E4_U+30FC 1
 62
   179
420
  2234388
370
     9
  0
POLYLINE
  5
A9
330
9D
100
AcDbEntity
  8
_U+30EC_U+30A4_U+30E4_U+30FC 1
 62
   179
420
  2234388
370
     9
100
AcDb2dPolyline
 66
     1
 10
0.0
 20
0.0
 30
0.0
  0
VERTEX
  5
AA
330
A9
100
AcDbEntity
  8
_U+30EC_U+30A4_U+30E4_U+30FC 1
 62
   179
420
  2234388
370
     9
100
AcDbVertex
100
AcDb2dVertex
 10
42.46527221160584
 20
-79.650625257865
 30
0.0
  0
VERTEX
  5
AB
330
A9
100
AcDbEntity
  8
_U+30EC_U+30A4_U+30E4_U+30FC 1
 62
   179
420
  2234388
370
     9
100
AcDbVertex
100
AcDb2dVertex
 10
42.46527221160584
 20
-77.19081164736907
 30
0.0
  0
SEQEND
  5
AC
330
A9
100
AcDbEntity
  8
_U+30EC_U+30A4_U+30E4_U+30FC 1
 62
   179
420
  2234388
370
     9
  0
INSERT
  5
AE
330
9D
100
AcDbEntity
  8
_U+30EC_U+30A4_U+30E4_U+30FC 1
100
AcDbBlockReference
  2
block 5
 10
0.0
 20
0.0
 30
0.0
  0
ENDBLK
  5
A0
330
9D
100
AcDbEntity
  8
0
100
AcDbBlockEnd
  0
BLOCK
  5
AF
330
AD
100
AcDbEntity
  8
0
100
AcDbBlockBegin
  2
block 5
 70
     0
 10
0.0
 20
0.0
 30
0.0
  3
block 5
  1

  0
SPLINE
  5
B1
330
AD
100
AcDbEntity
  8
_U+30EC_U+30A4_U+30E4_U+30FC 1
370
     0
100
AcDbSpline
210
0.0
220
0.0
230
1.0
 70
    11
 71
     3
 72
    62
 73
    58
 74
     0
 42
0.0000000001
 43
0.0000000001
 12
1.0
 22
0.0
 32
0.0
 13
1.0
 23
0.0
 33
0.0
 40
0.0
 40
0.0
 40
0.0
 40
0.0
 40
1.0
 40
1.0
 40
1.0
 40
2.0
 40
2.0
 40
2.0
 40
3.0
 40
3.0
 40
3.0
 40
4.0
 40
4.0
 40
4.0
 40
5.0
 40
5.0
 40
5.0
 40
6.0
 40
6.0
 40
6.0
 40
7.0
 40
7.0
 40
7.0
 40
8.0
 40
8.0
 40
8.0
 40
9.0
 40
9.0
 40
9.0
 40
10.0
 40
10.0
 40
10.0
 40
11.0
 40
11.0
 40
11.0
 40
12.0
 40
12.0
 40
12.0
 40
13.0
 40
13.0
 40
13.0
 40
14.0
 40
14.0
 40
14.0
 40
15.0
 40
15.0
 40
15.0
 40
16.0
 40
16.0
 40
16.0
 40
17.0
 40
17.0
 40
17.0
 40
18.0
 40
18.0
 40
18.0
 40
19.0
 40
19.0
 40
19.0
 40
19.0
 10
60.32689478743564
 20
-76.89022486141981
 30
0.0
 10
60.22526447062077
 20
-76.89022486141981
 30
0.0
 10
59.99237601581788
 20
-76.86903752418552
 30
0.0
 10
59.85887856576445
 20
-76.68283011320777
 30
0.0
 10
59.77981362437797
 20
-76.57069225516288
 30
0.0
 10
59.77533500024714
 20
-76.47130125041343
 30
0.0
 10
59.77085637611631
 20
-76.38672415625055
 30
0.0
 10
59.77085637611631
 20
-76.38672415625055
 30
0.0
 10
60.00581188821035
 20
-76.38672415625055
 30
0.0
 10
60.00581188821035
 20
-76.38672415625055
 30
0.0
 10
60.00822345505003
 20
-76.46079370918342
 30
0.0
 10
60.01942001537709
 20
-76.6955769665032
 30
0.0
 10
60.32241616330482
 20
-76.6955769665032
 30
0.0
 10
60.46934948575072
 20
-76.6955769665032
 30
0.0
 10
60.63213024742878
 20
-76.62581378292688
 30
0.0
 10
60.63213024742878
 20
-76.39723169748056
 30
0.0
 10
60.63213024742878
 20
-76.28095972485337
 30
0.0
 10
60.59147812070283
 20
-76.23221162373709
 30
0.0
 10
60.55754393017312
 20
-76.2005167452728
 30
0.0
 10
60.47847898878663
 20
-76.12644719233992
 30
0.0
 10
60.35411104176912
 20
-76.11387259381875
 30
0.0
 10
60.29519990897134
 20
-76.11387259381875
 30
0.0
 10
60.27487384560837
 20
-76.11387259381875
 30
0.0
 10
60.23646103094783
 20
-76.11593965110991
 30
0.0
 10
60.20717771932321
 20
-76.12007376569221
 30
0.0
 10
60.20717771932321
 20
-76.12007376569221
 30
0.0
 10
60.20717771932321
 20
-75.9254258707756
 30
0.0
 10
60.20717771932321
 20
-75.9254258707756
 30
0.0
 10
60.24782984604916
 20
-75.93179929742331
 30
0.0
 10
60.29296059690593
 20
-75.93403860948871
 30
0.0
 10
60.29985078787643
 20
-75.93403860948871
 30
0.0
 10
60.36995848100126
 20
-75.93403860948871
 30
0.0
 10
60.58234861766692
 20
-75.91285127225443
 30
0.0
 10
60.58234861766692
 20
-75.67582870286924
 30
0.0
 10
60.58234861766692
 20
-75.4982340306046
 30
0.0
 10
60.44230548619151
 20
-75.44311250284062
 30
0.0
 10
60.32465547537023
 20
-75.44311250284062
 30
0.0
 10
60.04198539080548
 20
-75.44311250284062
 30
0.0
 10
60.03302814254383
 20
-75.67582870286924
 30
0.0
 10
60.028549518413
 20
-75.74783119851097
 30
0.0
 10
60.028549518413
 20
-75.74783119851097
 30
0.0
 10
59.81150850284227
 20
-75.74783119851097
 30
0.0
 10
59.81150850284227
 20
-75.74783119851097
 30
0.0
 10
59.82046575110392
 20
-75.62294648717065
 30
0.0
 10
59.8499213175028
 20
-75.24639755063285
 30
0.0
 10
60.33826360253696
 20
-75.24639755063285
 30
0.0
 10
60.57786999353609
 20
-75.24639755063285
 30
0.0
 10
60.83556313583278
 20
-75.3733493192643
 30
0.0
 10
60.83556313583278
 20
-75.66945527622153
 30
0.0
 10
60.83556313583278
 20
-75.85566268719928
 30
0.0
 10
60.73393281901791
 20
-75.93817272407101
 30
0.0
 10
60.62765162329795
 20
-75.99949542370847
 30
0.0
 10
60.6931084375177
 20
-76.02705618759046
 30
0.0
 10
60.88758407766005
 20
-76.10749916717104
 30
0.0
 10
60.88758407766005
 20
-76.3846570989594
 30
0.0
 10
60.88758407766005
 20
-76.72313773038519
 30
0.0
 10
60.62317299916712
 20
-76.89022486141981
 30
0.0
 10
60.32689478743564
 20
-76.89022486141981
 30
0.0
  0
HATCH
  5
B2
330
AD
100
AcDbEntity
  8
_U+30EC_U+30A4_U+30E4_U+30FC 1
 62
   179
420
  2234388
100
AcDbHatch
 10
0.0
 20
0.0
 30
0.0
210
0.0
220
0.0
230
1.0
  2
SOLID
 70
     1
 71
     0
 91
        1
 92
        1
 93
        1
 72
     4
 94
        3
 73
     0
 74
     1
 95
       62
 96
       58
 40
0.0
 40
0.0
 40
0.0
 40
0.0
 40
1.0
 40
1.0
 40
1.0
 40
2.0
 40
2.0
 40
2.0
 40
3.0
 40
3.0
 40
3.0
 40
4.0
 40
4.0
 40
4.0
 40
5.0
 40
5.0
 40
5.0
 40
6.0
 40
6.0
 40
6.0
 40
7.0
 40
7.0
 40
7.0
 40
8.0
 40
8.0
 40
8.0
 40
9.0
 40
9.0
 40
9.0
 40
10.0
 40
10.0
 40
10.0
 40
11.0
 40
11.0
 40
11.0
 40
12.0
 40
12.0
 40
12.0
 40
13.0
 40
13.0
 40
13.0
 40
14.0
 40
14.0
 40
14.0
 40
15.0
 40
15.0
 40
15.0
 40
16.0
 40
16.0
 40
16.0
 40
17.0
 40
17.0
 40
17.0
 40
18.0
 40
18.0
 40
18.0
 40
19.0
 40
19.0
 40
19.0
 40
19.0
 10
60.32689478743564
 20
-76.89022486141981
 10
60.22526447062077
 20
-76.89022486141981
 10
59.99237601581788
 20
-76.86903752418552
 10
59.85887856576445
 20
-76.68283011320777
 10
59.77981362437797
 20
-76.57069225516288
 10
59.77533500024714
 20
-76.47130125041343
 10
59.77085637611631
 20
-76.38672415625055
 10
59.77085637611631
 20
-76.38672415625055
 10
60.00581188821035
 20
-76.38672415625055
 10
60.00581188821035
 20
-76.38672415625055
 10
60.00822345505003
 20
-76.46079370918342
 10
60.01942001537709
 20
-76.6955769665032
 10
60.32241616330482
 20
-76.6955769665032
 10
60.46934948575072
 20
-76.6955769665032
 10
60.63213024742878
 20
-76.62581378292688
 10
60.63213024742878
 20
-76.39723169748056
 10
60.63213024742878
 20
-76.28095972485337
 10
60.59147812070283
 20
-76.23221162373709
 10
60.55754393017312
 20
-76.2005167452728
 10
60.47847898878663
 20
-76.12644719233992
 10
60.35411104176912
 20
-76.11387259381875
 10
60.29519990897134
 20
-76.11387259381875
 10
60.27487384560837
 20
-76.11387259381875
 10
60.23646103094783
 20
-76.11593965110991
 10
60.20717771932321
 20
-76.12007376569221
 10
60.20717771932321
 20
-76.12007376569221
 10
60.20717771932321
 20
-75.9254258707756
 10
60.20717771932321
 20
-75.9254258707756
 10
60.24782984604916
 20
-75.93179929742331
 10
60.29296059690593
 20
-75.93403860948871
 10
60.29985078787643
 20
-75.93403860948871
 10
60.36995848100126
 20
-75.93403860948871
 10
60.58234861766692
 20
-75.91285127225443
 10
60.58234861766692
 20
-75.67582870286924
 10
60.58234861766692
 20
-75.4982340306046
 10
60.44230548619151
 20
-75.44311250284062
 10
60.32465547537023
 20
-75.44311250284062
 10
60.04198539080548
 20
-75.44311250284062
 10
60.03302814254383
 20
-75.67582870286924
 10
60.028549518413
 20
-75.74783119851097
 10
60.028549518413
 20
-75.74783119851097
 10
59.81150850284227
 20
-75.74783119851097
 10
59.81150850284227
 20
-75.74783119851097
 10
59.82046575110392
 20
-75.62294648717065
 10
59.8499213175028
 20
-75.24639755063285
 10
60.33826360253696
 20
-75.24639755063285
 10
60.57786999353609
 20
-75.24639755063285
 10
60.83556313583278
 20
-75.3733493192643
 10
60.83556313583278
 20
-75.66945527622153
 10
60.83556313583278
 20
-75.85566268719928
 10
60.73393281901791
 20
-75.93817272407101
 10
60.62765162329795
 20
-75.99949542370847
 10
60.6931084375177
 20
-76.02705618759046
 10
60.88758407766005
 20
-76.10749916717104
 10
60.88758407766005
 20
-76.3846570989594
 10
60.88758407766005
 20
-76.72313773038519
 10
60.62317299916712
 20
-76.89022486141981
 10
60.32689478743564
 20
-76.89022486141981
 97
        0
 97
        0
 75
     2
 76
     1
 98
        0
  0
SPLINE
  5
B3
330
AD
100
AcDbEntity
  8
_U+30EC_U+30A4_U+30E4_U+30FC 1
370
     0
100
AcDbSpline
210
0.0
220
0.0
230
1.0
 70
    11
 71
     3
 72
    26
 73
    22
 74
     0
 42
0.0000000001
 43
0.0000000001
 12
1.0
 22
0.0
 32
0.0
 13
1.0
 23
0.0
 33
0.0
 40
0.0
 40
0.0
 40
0.0
 40
0.0
 40
1.0
 40
1.0
 40
1.0
 40
2.0
 40
2.0
 40
2.0
 40
3.0
 40
3.0
 40
3.0
 40
4.0
 40
4.0
 40
4.0
 40
5.0
 40
5.0
 40
5.0
 40
6.0
 40
6.0
 40
6.0
 40
7.0
 40
7.0
 40
7.0
 40
7.0
 10
61.49891627151764
 20
-76.83940970301238
 30
0.0
 10
61.49891627151764
 20
-76.83940970301238
 30
0.0
 10
61.24570175335177
 20
-76.83940970301238
 30
0.0
 10
61.24570175335177
 20
-76.83940970301238
 30
0.0
 10
61.27274575291099
 20
-76.53055689275972
 30
0.0
 10
61.4784179533804
 20
-76.01224227700389
 30
0.0
 10
61.91249998452188
 20
-75.50667451454348
 30
0.0
 10
61.91249998452188
 20
-75.50667451454348
 30
0.0
 10
61.01729192267971
 20
-75.50667451454348
 30
0.0
 10
61.01729192267971
 20
-75.50667451454348
 30
0.0
 10
61.01729192267971
 20
-75.50667451454348
 30
0.0
 10
61.01729192267971
 20
-75.29514565174914
 30
0.0
 10
61.01729192267971
 20
-75.29514565174914
 30
0.0
 10
61.01729192267971
 20
-75.29514565174914
 30
0.0
 10
62.16571450268774
 20
-75.29514565174914
 30
0.0
 10
62.16571450268774
 20
-75.29514565174914
 30
0.0
 10
62.16571450268774
 20
-75.29514565174914
 30
0.0
 10
62.16571450268774
 20
-75.50667451454348
 30
0.0
 10
62.16571450268774
 20
-75.50667451454348
 30
0.0
 10
61.81982691596865
 20
-75.79640704485298
 30
0.0
 10
61.53508977411276
 20
-76.3887912135417
 30
0.0
 10
61.49891627151764
 20
-76.83940970301238
 30
0.0
  0
HATCH
  5
B4
330
AD
100
AcDbEntity
  8
_U+30EC_U+30A4_U+30E4_U+30FC 1
 62
   179
420
  2234388
100
AcDbHatch
 10
0.0
 20
0.0
 30
0.0
210
0.0
220
0.0
230
1.0
  2
SOLID
 70
     1
 71
     0
 91
        1
 92
        1
 93
        1
 72
     4
 94
        3
 73
     0
 74
     1
 95
       26
 96
       22
 40
0.0
 40
0.0
 40
0.0
 40
0.0
 40
1.0
 40
1.0
 40
1.0
 40
2.0
 40
2.0
 40
2.0
 40
3.0
 40
3.0
 40
3.0
 40
4.0
 40
4.0
 40
4.0
 40
5.0
 40
5.0
 40
5.0
 40
6.0
 40
6.0
 40
6.0
 40
7.0
 40
7.0
 40
7.0
 40
7.0
 10
61.49891627151764
 20
-76.83940970301238
 10
61.49891627151764
 20
-76.83940970301238
 10
61.24570175335177
 20
-76.83940970301238
 10
61.24570175335177
 20
-76.83940970301238
 10
61.27274575291099
 20
-76.53055689275972
 10
61.4784179533804
 20
-76.01224227700389
 10
61.91249998452188
 20
-75.50667451454348
 10
61.91249998452188
 20
-75.50667451454348
 10
61.01729192267971
 20
-75.50667451454348
 10
61.01729192267971
 20
-75.50667451454348
 10
61.01729192267971
 20
-75.50667451454348
 10
61.01729192267971
 20
-75.29514565174914
 10
61.01729192267971
 20
-75.29514565174914
 10
61.01729192267971
 20
-75.29514565174914
 10
62.16571450268774
 20
-75.29514565174914
 10
62.16571450268774
 20
-75.29514565174914
 10
62.16571450268774
 20
-75.29514565174914
 10
62.16571450268774
 20
-75.50667451454348
 10
62.16571450268774
 20
-75.50667451454348
 10
61.81982691596865
 20
-75.79640704485298
 10
61.53508977411276
 20
-76.3887912135417
 10
61.49891627151764
 20
-76.83940970301238
 97
        0
 97
        0
 75
     2
 76
     1
 98
        0
  0
ENDBLK
  5
B0
330
AD
100
AcDbEntity
  8
0
100
AcDbBlockEnd
  0
BLOCK
  5
B7
330
B5
100
AcDbEntity
  8
0
100
AcDbBlockBegin
  2
block 6
 70
     0
 10
0.0
 20
0.0
 30
0.0
  3
block 6
  1

  0
POLYLINE
  5
B9
330
B5
100
AcDbEntity
  8
_U+30EC_U+30A4_U+30E4_U+30FC 1
 62
   179
420
  2234388
370
     9
100
AcDb2dPolyline
 66
     1
 10
0.0
 20
0.0
 30
0.0
  0
VERTEX
  5
BA
330
B9
100
AcDbEntity
  8
_U+30EC_U+30A4_U+30E4_U+30FC 1
 62
   179
420
  2234388
370
     9
100
AcDbVertex
100
AcDb2dVertex
 10
68.4654160310795
 20
-98.69095914199383
 30
0.0
  0
VERTEX
  5
BB
330
B9
100
AcDbEntity
  8
_U+30EC_U+30A4_U+30E4_U+30FC 1
 62
   179
420
  2234388
370
     9
100
AcDbVertex
100
AcDb2dVertex
 10
68.4654160310795
 20
-93.43305330997492
 30
0.0
  0
SEQEND
  5
BC
330
B9
100
AcDbEntity
  8
_U+30EC_U+30A4_U+30E4_U+30FC 1
 62
   179
420
  2234388
370
     9
  0
POLYLINE
  5
BD
330
B5
100
AcDbEntity
  8
_U+30EC_U+30A4_U+30E4_U+30FC 1
 62
   179
420
  2234388
370
     9
100
AcDb2dPolyline
 66
     1
 10
0.0
 20
0.0
 30
0.0
  0
VERTEX
  5
BE
330
BD
100
AcDbEntity
  8
_U+30EC_U+30A4_U+30E4_U+30FC 1
 62
   179
420
  2234388
370
     9
100
AcDbVertex
100
AcDb2dVertex
 10
68.4654160310795
 20
-98.69095914199383
 30
0.0
  0
VERTEX
  5
BF
330
BD
100
AcDbEntity
  8
_U+30EC_U+30A4_U+30E4_U+30FC 1
 62
   179
420
  2234388
370
     9
100
AcDbVertex
100
AcDb2dVertex
 10
68.4654160310795
 20
-100.1906174749523
 30
0.0
  0
SEQEND
  5
C0
330
BD
100
AcDbEntity
  8
_U+30EC_U+30A4_U+30E4_U+30FC 1
 62
   179
420
  2234388
370
     9
  0
POLYLINE
  5
C1
330
B5
100
AcDbEntity
  8
_U+30EC_U+30A4_U+30E4_U+30FC 1
 62
   179
420
  2234388
370
     9
100
AcDb2dPolyline
 66
     1
 10
0.0
 20
0.0
 30
0.0
  0
VERTEX
  5
C2
330
C1
100
AcDbEntity
  8
_U+30EC_U+30A4_U+30E4_U+30FC 1
 62
   179
420
  2234388
370
     9
100
AcDbVertex
100
AcDb2dVertex
 10
67.00537467943937
 20
-98.69095914199383
 30
0.0
  0
VERTEX
  5
C3
330
C1
100
AcDbEntity
  8
_U+30EC_U+30A4_U+30E4_U+30FC 1
 62
   179
420
  2234388
370
     9
100
AcDbVertex
100
AcDb2dVertex
 10
69.46518822779541
 20
-98.69095914199383
 30
0.0
  0
SEQEND
  5
C4
330
C1
100
AcDbEntity
  8
_U+30EC_U+30A4_U+30E4_U+30FC 1
 62
   179
420
  2234388
370
     9
  0
POLYLINE
  5
C5
330
B5
100
AcDbEntity
  8
_U+30EC_U+30A4_U+30E4_U+30FC 1
 62
   179
420
  2234388
370
     9
100
AcDb2dPolyline
 66
     1
 10
0.0
 20
0.0
 30
0.0
  0
VERTEX
  5
C6
330
C5
100
AcDbEntity
  8
_U+30EC_U+30A4_U+30E4_U+30FC 1
 62
   179
420
  2234388
370
     9
100
AcDbVertex
100
AcDb2dVertex
 10
67.00537467943937
 20
-99.1901396974249
 30
0.0
  0
VERTEX
  5
C7
330
C5
100
AcDbEntity
  8
_U+30EC_U+30A4_U+30E4_U+30FC 1
 62
   179
420
  2234388
370
     9
100
AcDbVertex
100
AcDb2dVertex
 10
69.46518822779541
 20
-99.1901396974249
 30
0.0
  0
SEQEND
  5
C8
330
C5
100
AcDbEntity
  8
_U+30EC_U+30A4_U+30E4_U+30FC 1
 62
   179
420
  2234388
370
     9
  0
INSERT
  5
CA
330
B5
100
AcDbEntity
  8
_U+30EC_U+30A4_U+30E4_U+30FC 1
100
AcDbBlockReference
  2
block 7
 10
0.0
 20
0.0
 30
0.0
  0
ENDBLK
  5
B8
330
B5
100
AcDbEntity
  8
0
100
AcDbBlockEnd
  0
BLOCK
  5
CB
330
C9
100
AcDbEntity
  8
0
100
AcDbBlockBegin
  2
block 7
 70
     0
 10
0.0
 20
0.0
 30
0.0
  3
block 7
  1

  0
SPLINE
  5
CD
330
C9
100
AcDbEntity
  8
_U+30EC_U+30A4_U+30E4_U+30FC 1
370
     0
100
AcDbSpline
210
0.0
220
0.0
230
1.0
 70
    11
 71
     3
 72
    29
 73
    25
 74
     0
 42
0.0000000001
 43
0.0000000001
 12
1.0
 22
0.0
 32
0.0
 13
1.0
 23
0.0
 33
0.0
 40
0.0
 40
0.0
 40
0.0
 40
0.0
 40
1.0
 40
1.0
 40
1.0
 40
2.0
 40
2.0
 40
2.0
 40
3.0
 40
3.0
 40
3.0
 40
4.0
 40
4.0
 40
4.0
 40
5.0
 40
5.0
 40
5.0
 40
6.0
 40
6.0
 40
6.0
 40
7.0
 40
7.0
 40
7.0
 40
8.0
 40
8.0
 40
8.0
 40
8.0
 10
66.93544920201614
 20
-96.18775496727251
 30
0.0
 10
67.14491100751933
 20
-96.30316566602838
 30
0.0
 10
67.16385903268821
 20
-96.48851180313483
 30
0.0
 10
67.16385903268821
 20
-96.61287975015235
 30
0.0
 10
67.16385903268821
 20
-96.78444550531778
 30
0.0
 10
67.11735024363733
 20
-96.93602970666878
 30
0.0
 10
66.93544920201614
 20
-97.03766002348364
 30
0.0
 10
66.74080130709953
 20
-97.1485920981087
 30
0.0
 10
66.50377873771434
 20
-97.16891816147167
 30
0.0
 10
66.34117023081055
 20
-97.16891816147167
 30
0.0
 10
66.1971652395271
 20
-97.16891816147167
 30
0.0
 10
65.94532875955534
 20
-97.15100366494836
 30
0.0
 10
65.74654675005642
 20
-97.03766002348364
 30
0.0
 10
65.54363062597521
 20
-96.9225938342763
 30
0.0
 10
65.5202039766755
 20
-96.75068356956233
 30
0.0
 10
65.5202039766755
 20
-96.61287975015235
 30
0.0
 10
65.5202039766755
 20
-96.44303654272953
 30
0.0
 10
65.56464570843524
 20
-96.28938528408737
 30
0.0
 10
65.74654675005642
 20
-96.18775496727251
 30
0.0
 10
65.93912758768188
 20
-96.0813015167783
 30
0.0
 10
66.16753741835396
 20
-96.0564968292845
 30
0.0
 10
66.34117023081055
 20
-96.0564968292845
 30
0.0
 10
66.51239147642747
 20
-96.0564968292845
 30
0.0
 10
66.74286836439067
 20
-96.07923445948714
 30
0.0
 10
66.93544920201614
 20
-96.18775496727251
 30
0.0
  0
SPLINE
  5
CE
330
C9
100
AcDbEntity
  8
_U+30EC_U+30A4_U+30E4_U+30FC 1
370
     0
100
AcDbSpline
210
0.0
220
0.0
230
1.0
 70
    11
 71
     3
 72
    17
 73
    13
 74
     0
 42
0.0000000001
 43
0.0000000001
 12
1.0
 22
0.0
 32
0.0
 13
1.0
 23
0.0
 33
0.0
 40
0.0
 40
0.0
 40
0.0
 40
0.0
 40
1.0
 40
1.0
 40
1.0
 40
2.0
 40
2.0
 40
2.0
 40
3.0
 40
3.0
 40
3.0
 40
4.0
 40
4.0
 40
4.0
 40
4.0
 10
65.71278481430097
 20
-96.61287975015235
 30
0.0
 10
65.71278481430097
 20
-96.87953014071067
 30
0.0
 10
65.99631617273704
 20
-96.92913951569828
 30
0.0
 10
66.34117023081055
 20
-96.92913951569828
 30
0.0
 10
66.6605305822932
 20
-96.92913951569828
 30
0.0
 10
66.9692111377716
 20
-96.890898955812
 30
0.0
 10
66.9692111377716
 20
-96.61287975015235
 30
0.0
 10
66.9692111377716
 20
-96.34829641688515
 30
0.0
 10
66.6880913461752
 20
-96.29627547505788
 30
0.0
 10
66.34117023081055
 20
-96.29627547505788
 30
0.0
 10
66.02146536977936
 20
-96.29627547505788
 30
0.0
 10
65.71278481430097
 20
-96.33692760178383
 30
0.0
 10
65.71278481430097
 20
-96.61287975015235
 30
0.0
  0
HATCH
  5
CF
330
C9
100
AcDbEntity
  8
_U+30EC_U+30A4_U+30E4_U+30FC 1
 62
   179
420
  2234388
100
AcDbHatch
 10
0.0
 20
0.0
 30
0.0
210
0.0
220
0.0
230
1.0
  2
SOLID
 70
     1
 71
     0
 91
        2
 92
        1
 93
        1
 72
     4
 94
        3
 73
     0
 74
     1
 95
       29
 96
       25
 40
0.0
 40
0.0
 40
0.0
 40
0.0
 40
1.0
 40
1.0
 40
1.0
 40
2.0
 40
2.0
 40
2.0
 40
3.0
 40
3.0
 40
3.0
 40
4.0
 40
4.0
 40
4.0
 40
5.0
 40
5.0
 40
5.0
 40
6.0
 40
6.0
 40
6.0
 40
7.0
 40
7.0
 40
7.0
 40
8.0
 40
8.0
 40
8.0
 40
8.0
 10
66.93544920201614
 20
-96.18775496727251
 10
67.14491100751933
 20
-96.30316566602838
 10
67.16385903268821
 20
-96.48851180313483
 10
67.16385903268821
 20
-96.61287975015235
 10
67.16385903268821
 20
-96.78444550531778
 10
67.11735024363733
 20
-96.93602970666878
 10
66.93544920201614
 20
-97.03766002348364
 10
66.74080130709953
 20
-97.1485920981087
 10
66.50377873771434
 20
-97.16891816147167
 10
66.34117023081055
 20
-97.16891816147167
 10
66.1971652395271
 20
-97.16891816147167
 10
65.94532875955534
 20
-97.15100366494836
 10
65.74654675005642
 20
-97.03766002348364
 10
65.54363062597521
 20
-96.9225938342763
 10
65.5202039766755
 20
-96.75068356956233
 10
65.5202039766755
 20
-96.61287975015235
 10
65.5202039766755
 20
-96.44303654272953
 10
65.56464570843524
 20
-96.28938528408737
 10
65.74654675005642
 20
-96.18775496727251
 10
65.93912758768188
 20
-96.0813015167783
 10
66.16753741835396
 20
-96.0564968292845
 10
66.34117023081055
 20
-96.0564968292845
 10
66.51239147642747
 20
-96.0564968292845
 10
66.74286836439067
 20
-96.07923445948714
 10
66.93544920201614
 20
-96.18775496727251
 97
        0
 97
        0
 92
        1
 93
        1
 72
     4
 94
        3
 73
     0
 74
     1
 95
       17
 96
       13
 40
0.0
 40
0.0
 40
0.0
 40
0.0
 40
1.0
 40
1.0
 40
1.0
 40
2.0
 40
2.0
 40
2.0
 40
3.0
 40
3.0
 40
3.0
 40
4.0
 40
4.0
 40
4.0
 40
4.0
 10
65.71278481430097
 20
-96.61287975015235
 10
65.71278481430097
 20
-96.87953014071067
 10
65.99631617273704
 20
-96.92913951569828
 10
66.34117023081055
 20
-96.92913951569828
 10
66.6605305822932
 20
-96.92913951569828
 10
66.9692111377716
 20
-96.890898955812
 10
66.9692111377716
 20
-96.61287975015235
 10
66.9692111377716
 20
-96.34829641688515
 10
66.6880913461752
 20
-96.29627547505788
 10
66.34117023081055
 20
-96.29627547505788
 10
66.02146536977936
 20
-96.29627547505788
 10
65.71278481430097
 20
-96.33692760178383
 10
65.71278481430097
 20
-96.61287975015235
 97
        0
 97
        0
 75
     2
 76
     1
 98
        0
  0
POLYLINE
  5
D0
330
C9
100
AcDbEntity
  8
_U+30EC_U+30A4_U+30E4_U+30FC 1
370
     0
100
AcDb2dPolyline
 66
     1
 10
0.0
 20
0.0
 30
0.0
  0
VERTEX
  5
D1
330
D0
100
AcDbEntity
  8
_U+30EC_U+30A4_U+30E4_U+30FC 1
370
     0
100
AcDbVertex
100
AcDb2dVertex
 10
67.11321612905503
 20
-95.82533092222423
 30
0.0
  0
VERTEX
  5
D2
330
D0
100
AcDbEntity
  8
_U+30EC_U+30A4_U+30E4_U+30FC 1
370
     0
100
AcDbVertex
100
AcDb2dVertex
 10
66.86137964908328
 20
-95.82533092222423
 30
0.0
  0
VERTEX
  5
D3
330
D0
100
AcDbEntity
  8
_U+30EC_U+30A4_U+30E4_U+30FC 1
370
     0
100
AcDbVertex
100
AcDb2dVertex
 10
66.86137964908328
 20
-95.55626896482622
 30
0.0
  0
VERTEX
  5
D4
330
D0
100
AcDbEntity
  8
_U+30EC_U+30A4_U+30E4_U+30FC 1
370
     0
100
AcDbVertex
100
AcDb2dVertex
 10
67.11321612905503
 20
-95.55626896482622
 30
0.0
  0
VERTEX
  5
D5
330
D0
100
AcDbEntity
  8
_U+30EC_U+30A4_U+30E4_U+30FC 1
370
     0
100
AcDbVertex
100
AcDb2dVertex
 10
67.11321612905503
 20
-95.82533092222423
 30
0.0
  0
SEQEND
  5
D6
330
D0
100
AcDbEntity
  8
_U+30EC_U+30A4_U+30E4_U+30FC 1
370
     0
  0
HATCH
  5
D7
330
C9
100
AcDbEntity
  8
_U+30EC_U+30A4_U+30E4_U+30FC 1
 62
   179
420
  2234388
100
AcDbHatch
 10
0.0
 20
0.0
 30
0.0
210
0.0
220
0.0
230
1.0
  2
SOLID
 70
     1
 71
     0
 91
        1
 92
        1
 93
        4
 72
     1
 10
67.11321612905503
 20
-95.82533092222423
 11
66.86137964908328
 21
-95.82533092222423
 72
     1
 10
66.86137964908328
 20
-95.82533092222423
 11
66.86137964908328
 21
-95.55626896482622
 72
     1
 10
66.86137964908328
 20
-95.55626896482622
 11
67.11321612905503
 21
-95.55626896482622
 72
     1
 10
67.11321612905503
 20
-95.55626896482622
 11
67.11321612905503
 21
-95.82533092222423
 97
        0
 75
     2
 76
     1
 98
        0
  0
SPLINE
  5
D8
330
C9
100
AcDbEntity
  8
_U+30EC_U+30A4_U+30E4_U+30FC 1
370
     0
100
AcDbSpline
210
0.0
220
0.0
230
1.0
 70
    11
 71
     3
 72
    53
 73
    49
 74
     0
 42
0.0000000001
 43
0.0000000001
 12
1.0
 22
0.0
 32
0.0
 13
1.0
 23
0.0
 33
0.0
 40
0.0
 40
0.0
 40
0.0
 40
0.0
 40
1.0
 40
1.0
 40
1.0
 40
2.0
 40
2.0
 40
2.0
 40
3.0
 40
3.0
 40
3.0
 40
4.0
 40
4.0
 40
4.0
 40
5.0
 40
5.0
 40
5.0
 40
6.0
 40
6.0
 40
6.0
 40
7.0
 40
7.0
 40
7.0
 40
8.0
 40
8.0
 40
8.0
 40
9.0
 40
9.0
 40
9.0
 40
10.0
 40
10.0
 40
10.0
 40
11.0
 40
11.0
 40
11.0
 40
12.0
 40
12.0
 40
12.0
 40
13.0
 40
13.0
 40
13.0
 40
14.0
 40
14.0
 40
14.0
 40
15.0
 40
15.0
 40
15.0
 40
16.0
 40
16.0
 40
16.0
 40
16.0
 10
67.16385903268821
 20
-94.7893907098096
 30
0.0
 10
67.16385903268821
 20
-94.87310653010117
 30
0.0
 10
67.14697806481048
 20
-94.98128252833801
 30
0.0
 10
67.08358830788188
 20
-95.09014754567191
 30
0.0
 10
66.97368976190242
 20
-95.27549368277835
 30
0.0
 10
66.8424316239144
 20
-95.29788680343248
 30
0.0
 10
66.73460013522607
 20
-95.31821286679545
 30
0.0
 10
66.73460013522607
 20
-95.31821286679545
 30
0.0
 10
66.73460013522607
 20
-95.08084578786173
 30
0.0
 10
66.73460013522607
 20
-95.08084578786173
 30
0.0
 10
66.93338214472499
 20
-95.02227916461248
 30
0.0
 10
66.96300996589814
 20
-94.88654240249365
 30
0.0
 10
66.96300996589814
 20
-94.78697914296993
 30
0.0
 10
66.96300996589814
 20
-94.63780650845861
 30
0.0
 10
66.86344670637442
 20
-94.47485349200629
 30
0.0
 10
66.63090276112005
 20
-94.47485349200629
 30
0.0
 10
66.374932166566
 20
-94.47485349200629
 30
0.0
 10
66.30499672821541
 20
-94.66708982008323
 30
0.0
 10
66.30499672821541
 20
-94.79593639123158
 30
0.0
 10
66.30499672821541
 20
-94.83004283653555
 30
0.0
 10
66.30499672821541
 20
-94.98128252833801
 30
0.0
 10
66.43418780891228
 20
-95.07636716373091
 30
0.0
 10
66.43418780891228
 20
-95.07636716373091
 30
0.0
 10
66.41523978374342
 20
-95.26412486767703
 30
0.0
 10
66.41523978374342
 20
-95.26412486767703
 30
0.0
 10
66.41523978374342
 20
-95.26412486767703
 30
0.0
 10
65.56877982301754
 20
-95.13527829652868
 30
0.0
 10
65.56877982301754
 20
-95.13527829652868
 30
0.0
 10
65.56877982301754
 20
-95.13527829652868
 30
0.0
 10
65.56877982301754
 20
-94.30328773684084
 30
0.0
 10
65.56877982301754
 20
-94.30328773684084
 30
0.0
 10
65.56877982301754
 20
-94.30328773684084
 30
0.0
 10
65.76342771793415
 20
-94.30328773684084
 30
0.0
 10
65.76342771793415
 20
-94.30328773684084
 30
0.0
 10
65.76342771793415
 20
-94.30328773684084
 30
0.0
 10
65.76342771793415
 20
-94.96095646497504
 30
0.0
 10
65.76342771793415
 20
-94.96095646497504
 30
0.0
 10
65.76342771793415
 20
-94.96095646497504
 30
0.0
 10
66.18648544352283
 20
-95.03123641287414
 30
0.0
 10
66.18648544352283
 20
-95.03123641287414
 30
0.0
 10
66.15272350776738
 20
-94.9657795986544
 30
0.0
 10
66.11241589058996
 20
-94.877585154232
 30
0.0
 10
66.11241589058996
 20
-94.75080564037481
 30
0.0
 10
66.11241589058996
 20
-94.47967662568564
 30
0.0
 10
66.29879555634197
 20
-94.22646210751978
 30
0.0
 10
66.61195473595119
 20
-94.22646210751978
 30
0.0
 10
66.92924803014269
 20
-94.22646210751978
 30
0.0
 10
67.16385903268821
 20
-94.46589624374464
 30
0.0
 10
67.16385903268821
 20
-94.7893907098096
 30
0.0
  0
HATCH
  5
D9
330
C9
100
AcDbEntity
  8
_U+30EC_U+30A4_U+30E4_U+30FC 1
 62
   179
420
  2234388
100
AcDbHatch
 10
0.0
 20
0.0
 30
0.0
210
0.0
220
0.0
230
1.0
  2
SOLID
 70
     1
 71
     0
 91
        1
 92
        1
 93
        1
 72
     4
 94
        3
 73
     0
 74
     1
 95
       53
 96
       49
 40
0.0
 40
0.0
 40
0.0
 40
0.0
 40
1.0
 40
1.0
 40
1.0
 40
2.0
 40
2.0
 40
2.0
 40
3.0
 40
3.0
 40
3.0
 40
4.0
 40
4.0
 40
4.0
 40
5.0
 40
5.0
 40
5.0
 40
6.0
 40
6.0
 40
6.0
 40
7.0
 40
7.0
 40
7.0
 40
8.0
 40
8.0
 40
8.0
 40
9.0
 40
9.0
 40
9.0
 40
10.0
 40
10.0
 40
10.0
 40
11.0
 40
11.0
 40
11.0
 40
12.0
 40
12.0
 40
12.0
 40
13.0
 40
13.0
 40
13.0
 40
14.0
 40
14.0
 40
14.0
 40
15.0
 40
15.0
 40
15.0
 40
16.0
 40
16.0
 40
16.0
 40
16.0
 10
67.16385903268821
 20
-94.7893907098096
 10
67.16385903268821
 20
-94.87310653010117
 10
67.14697806481048
 20
-94.98128252833801
 10
67.08358830788188
 20
-95.09014754567191
 10
66.97368976190242
 20
-95.27549368277835
 10
66.8424316239144
 20
-95.29788680343248
 10
66.73460013522607
 20
-95.31821286679545
 10
66.73460013522607
 20
-95.31821286679545
 10
66.73460013522607
 20
-95.08084578786173
 10
66.73460013522607
 20
-95.08084578786173
 10
66.93338214472499
 20
-95.02227916461248
 10
66.96300996589814
 20
-94.88654240249365
 10
66.96300996589814
 20
-94.78697914296993
 10
66.96300996589814
 20
-94.63780650845861
 10
66.86344670637442
 20
-94.47485349200629
 10
66.63090276112005
 20
-94.47485349200629
 10
66.374932166566
 20
-94.47485349200629
 10
66.30499672821541
 20
-94.66708982008323
 10
66.30499672821541
 20
-94.79593639123158
 10
66.30499672821541
 20
-94.83004283653555
 10
66.30499672821541
 20
-94.98128252833801
 10
66.43418780891228
 20
-95.07636716373091
 10
66.43418780891228
 20
-95.07636716373091
 10
66.41523978374342
 20
-95.26412486767703
 10
66.41523978374342
 20
-95.26412486767703
 10
66.41523978374342
 20
-95.26412486767703
 10
65.56877982301754
 20
-95.13527829652868
 10
65.56877982301754
 20
-95.13527829652868
 10
65.56877982301754
 20
-95.13527829652868
 10
65.56877982301754
 20
-94.30328773684084
 10
65.56877982301754
 20
-94.30328773684084
 10
65.56877982301754
 20
-94.30328773684084
 10
65.76342771793415
 20
-94.30328773684084
 10
65.76342771793415
 20
-94.30328773684084
 10
65.76342771793415
 20
-94.30328773684084
 10
65.76342771793415
 20
-94.96095646497504
 10
65.76342771793415
 20
-94.96095646497504
 10
65.76342771793415
 20
-94.96095646497504
 10
66.18648544352283
 20
-95.03123641287414
 10
66.18648544352283
 20
-95.03123641287414
 10
66.15272350776738
 20
-94.9657795986544
 10
66.11241589058996
 20
-94.877585154232
 10
66.11241589058996
 20
-94.75080564037481
 10
66.11241589058996
 20
-94.47967662568564
 10
66.29879555634197
 20
-94.22646210751978
 10
66.61195473595119
 20
-94.22646210751978
 10
66.92924803014269
 20
-94.22646210751978
 10
67.16385903268821
 20
-94.46589624374464
 10
67.16385903268821
 20
-94.7893907098096
 97
        0
 97
        0
 75
     2
 76
     1
 98
        0
  0
ENDBLK
  5
CC
330
C9
100
AcDbEntity
  8
0
100
AcDbBlockEnd
  0
BLOCK
  5
DC
330
DA
100
AcDbEntity
  8
0
100
AcDbBlockBegin
  2
block 8
 70
     0
 10
0.0
 20
0.0
 30
0.0
  3
block 8
  1

  0
POLYLINE
  5
DE
330
DA
100
AcDbEntity
  8
_U+30EC_U+30A4_U+30E4_U+30FC 1
 62
   179
420
  2234388
370
     9
100
AcDb2dPolyline
 66
     1
 10
0.0
 20
0.0
 30
0.0
  0
VERTEX
  5
DF
330
DE
100
AcDbEntity
  8
_U+30EC_U+30A4_U+30E4_U+30FC 1
 62
   179
420
  2234388
370
     9
100
AcDbVertex
100
AcDb2dVertex
 10
54.46521861047651
 20
-103.6911608074106
 30
0.0
  0
VERTEX
  5
E0
330
DE
100
AcDbEntity
  8
_U+30EC_U+30A4_U+30E4_U+30FC 1
 62
   179
420
  2234388
370
     9
100
AcDbVertex
100
AcDb2dVertex
 10
64.46565696645519
 20
-103.6911608074106
 30
0.0
  0
SEQEND
  5
E1
330
DE
100
AcDbEntity
  8
_U+30EC_U+30A4_U+30E4_U+30FC 1
 62
   179
420
  2234388
370
     9
  0
POLYLINE
  5
E2
330
DA
100
AcDbEntity
  8
_U+30EC_U+30A4_U+30E4_U+30FC 1
 62
   179
420
  2234388
370
     9
100
AcDb2dPolyline
 66
     1
 10
0.0
 20
0.0
 30
0.0
  0
VERTEX
  5
E3
330
E2
100
AcDbEntity
  8
_U+30EC_U+30A4_U+30E4_U+30FC 1
 62
   179
420
  2234388
370
     9
100
AcDbVertex
100
AcDb2dVertex
 10
54.46521861047651
 20
-102.2311546966644
 30
0.0
  0
VERTEX
  5
E4
330
E2
100
AcDbEntity
  8
_U+30EC_U+30A4_U+30E4_U+30FC 1
 62
   179
420
  2234388
370
     9
100
AcDbVertex
100
AcDb2dVertex
 10
54.46521861047651
 20
-104.6909330293825
 30
0.0
  0
SEQEND
  5
E5
330
E2
100
AcDbEntity
  8
_U+30EC_U+30A4_U+30E4_U+30FC 1
 62
   179
420
  2234388
370
     9
  0
POLYLINE
  5
E6
330
DA
100
AcDbEntity
  8
_U+30EC_U+30A4_U+30E4_U+30FC 1
 62
   179
420
  2234388
370
     9
100
AcDb2dPolyline
 66
     1
 10
0.0
 20
0.0
 30
0.0
  0
VERTEX
  5
E7
330
E6
100
AcDbEntity
  8
_U+30EC_U+30A4_U+30E4_U+30FC 1
 62
   179
420
  2234388
370
     9
100
AcDbVertex
100
AcDb2dVertex
 10
64.46565696645519
 20
-101.5311024746174
 30
0.0
  0
VERTEX
  5
E8
330
E6
100
AcDbEntity
  8
_U+30EC_U+30A4_U+30E4_U+30FC 1
 62
   179
420
  2234388
370
     9
100
AcDbVertex
100
AcDb2dVertex
 10
64.46565696645519
 20
-104.6909330293825
 30
0.0
  0
SEQEND
  5
E9
330
E6
100
AcDbEntity
  8
_U+30EC_U+30A4_U+30E4_U+30FC 1
 62
   179
420
  2234388
370
     9
  0
INSERT
  5
EB
330
DA
100
AcDbEntity
  8
_U+30EC_U+30A4_U+30E4_U+30FC 1
100
AcDbBlockReference
  2
block 9
 10
0.0
 20
0.0
 30
0.0
  0
ENDBLK
  5
DD
330
DA
100
AcDbEntity
  8
0
100
AcDbBlockEnd
  0
BLOCK
  5
EC
330
EA
100
AcDbEntity
  8
0
100
AcDbBlockBegin
  2
block 9
 70
     0
 10
0.0
 20
0.0
 30
0.0
  3
block 9
  1

  0
SPLINE
  5
EE
330
EA
100
AcDbEntity
  8
_U+30EC_U+30A4_U+30E4_U+30FC 1
370
     0
100
AcDbSpline
210
0.0
220
0.0
230
1.0
 70
    11
 71
     3
 72
    26
 73
    22
 74
     0
 42
0.0000000001
 43
0.0000000001
 12
1.0
 22
0.0
 32
0.0
 13
1.0
 23
0.0
 33
0.0
 40
0.0
 40
0.0
 40
0.0
 40
0.0
 40
1.0
 40
1.0
 40
1.0
 40
2.0
 40
2.0
 40
2.0
 40
3.0
 40
3.0
 40
3.0
 40
4.0
 40
4.0
 40
4.0
 40
5.0
 40
5.0
 40
5.0
 40
6.0
 40
6.0
 40
6.0
 40
7.0
 40
7.0
 40
7.0
 40
7.0
 10
58.7840087743665
 20
-102.3396619752831
 30
0.0
 10
58.7840087743665
 20
-102.3396619752831
 30
0.0
 10
58.7840087743665
 20
-101.2355088722606
 30
0.0
 10
58.7840087743665
 20
-101.2355088722606
 30
0.0
 10
58.7840087743665
 20
-101.2355088722606
 30
0.0
 10
58.43123099667692
 20
-101.2355088722606
 30
0.0
 10
58.43123099667692
 20
-101.2355088722606
 30
0.0
 10
58.43123099667692
 20
-101.2355088722606
 30
0.0
 10
58.43123099667692
 20
-101.0873697663948
 30
0.0
 10
58.43123099667692
 20
-101.0873697663948
 30
0.0
 10
58.78624808643191
 20
-101.0725558558083
 30
0.0
 10
58.83602971619377
 20
-100.9096028393559
 30
0.0
 10
58.86755233988381
 20
-100.7952256692456
 30
0.0
 10
58.86755233988381
 20
-100.7952256692456
 30
0.0
 10
59.02361516536563
 20
-100.7952256692456
 30
0.0
 10
59.02361516536563
 20
-100.7952256692456
 30
0.0
 10
59.02361516536563
 20
-100.7952256692456
 30
0.0
 10
59.02361516536563
 20
-102.3396619752831
 30
0.0
 10
59.02361516536563
 20
-102.3396619752831
 30
0.0
 10
59.02361516536563
 20
-102.3396619752831
 30
0.0
 10
58.7840087743665
 20
-102.3396619752831
 30
0.0
 10
58.7840087743665
 20
-102.3396619752831
 30
0.0
  0
HATCH
  5
EF
330
EA
100
AcDbEntity
  8
_U+30EC_U+30A4_U+30E4_U+30FC 1
 62
   179
420
  2234388
100
AcDbHatch
 10
0.0
 20
0.0
 30
0.0
210
0.0
220
0.0
230
1.0
  2
SOLID
 70
     1
 71
     0
 91
        1
 92
        1
 93
        1
 72
     4
 94
        3
 73
     0
 74
     1
 95
       26
 96
       22
 40
0.0
 40
0.0
 40
0.0
 40
0.0
 40
1.0
 40
1.0
 40
1.0
 40
2.0
 40
2.0
 40
2.0
 40
3.0
 40
3.0
 40
3.0
 40
4.0
 40
4.0
 40
4.0
 40
5.0
 40
5.0
 40
5.0
 40
6.0
 40
6.0
 40
6.0
 40
7.0
 40
7.0
 40
7.0
 40
7.0
 10
58.7840087743665
 20
-102.3396619752831
 10
58.7840087743665
 20
-102.3396619752831
 10
58.7840087743665
 20
-101.2355088722606
 10
58.7840087743665
 20
-101.2355088722606
 10
58.7840087743665
 20
-101.2355088722606
 10
58.43123099667692
 20
-101.2355088722606
 10
58.43123099667692
 20
-101.2355088722606
 10
58.43123099667692
 20
-101.2355088722606
 10
58.43123099667692
 20
-101.0873697663948
 10
58.43123099667692
 20
-101.0873697663948
 10
58.78624808643191
 20
-101.0725558558083
 10
58.83602971619377
 20
-100.9096028393559
 10
58.86755233988381
 20
-100.7952256692456
 10
58.86755233988381
 20
-100.7952256692456
 10
59.02361516536563
 20
-100.7952256692456
 10
59.02361516536563
 20
-100.7952256692456
 10
59.02361516536563
 20
-100.7952256692456
 10
59.02361516536563
 20
-102.3396619752831
 10
59.02361516536563
 20
-102.3396619752831
 10
59.02361516536563
 20
-102.3396619752831
 10
58.7840087743665
 20
-102.3396619752831
 10
58.7840087743665
 20
-102.3396619752831
 97
        0
 97
        0
 75
     2
 76
     1
 98
        0
  0
SPLINE
  5
F0
330
EA
100
AcDbEntity
  8
_U+30EC_U+30A4_U+30E4_U+30FC 1
370
     0
100
AcDbSpline
210
0.0
220
0.0
230
1.0
 70
    11
 71
     3
 72
    29
 73
    25
 74
     0
 42
0.0000000001
 43
0.0000000001
 12
1.0
 22
0.0
 32
0.0
 13
1.0
 23
0.0
 33
0.0
 40
0.0
 40
0.0
 40
0.0
 40
0.0
 40
1.0
 40
1.0
 40
1.0
 40
2.0
 40
2.0
 40
2.0
 40
3.0
 40
3.0
 40
3.0
 40
4.0
 40
4.0
 40
4.0
 40
5.0
 40
5.0
 40
5.0
 40
6.0
 40
6.0
 40
6.0
 40
7.0
 40
7.0
 40
7.0
 40
8.0
 40
8.0
 40
8.0
 40
8.0
 10
60.51878660596405
 20
-102.1618950482442
 30
0.0
 10
60.40354816198245
 20
-102.3713568537474
 30
0.0
 10
60.21820202487601
 20
-102.3903048789163
 30
0.0
 10
60.09383407785849
 20
-102.3903048789163
 30
0.0
 10
59.92192381314452
 20
-102.3903048789163
 30
0.0
 10
59.77051186656779
 20
-102.3437960898654
 30
0.0
 10
59.66870929497866
 20
-102.1618950482442
 30
0.0
 10
59.55794947512788
 20
-101.9672471533276
 30
0.0
 10
59.5376234117649
 20
-101.7302245839424
 30
0.0
 10
59.5376234117649
 20
-101.5676160770387
 30
0.0
 10
59.5376234117649
 20
-101.4236110857552
 30
0.0
 10
59.55571016306246
 20
-101.1717746057835
 30
0.0
 10
59.66870929497866
 20
-100.9729925962845
 30
0.0
 10
59.78411999373453
 20
-100.7700764722033
 30
0.0
 10
59.95585800367423
 20
-100.7466498229036
 30
0.0
 10
60.09383407785849
 20
-100.7466498229036
 30
0.0
 10
60.26333277573278
 20
-100.7466498229036
 30
0.0
 10
60.41715628914918
 20
-100.7910915546633
 30
0.0
 10
60.51878660596405
 20
-100.9729925962845
 30
0.0
 10
60.62506780168401
 20
-101.16557343391
 30
0.0
 10
60.65004474395207
 20
-101.3939832645821
 30
0.0
 10
60.65004474395207
 20
-101.5676160770387
 30
0.0
 10
60.65004474395207
 20
-101.7388373226556
 30
0.0
 10
60.62730711374942
 20
-101.9693142106188
 30
0.0
 10
60.51878660596405
 20
-102.1618950482442
 30
0.0
  0
SPLINE
  5
F1
330
EA
100
AcDbEntity
  8
_U+30EC_U+30A4_U+30E4_U+30FC 1
370
     0
100
AcDbSpline
210
0.0
220
0.0
230
1.0
 70
    11
 71
     3
 72
    17
 73
    13
 74
     0
 42
0.0000000001
 43
0.0000000001
 12
1.0
 22
0.0
 32
0.0
 13
1.0
 23
0.0
 33
0.0
 40
0.0
 40
0.0
 40
0.0
 40
0.0
 40
1.0
 40
1.0
 40
1.0
 40
2.0
 40
2.0
 40
2.0
 40
3.0
 40
3.0
 40
3.0
 40
4.0
 40
4.0
 40
4.0
 40
4.0
 10
60.09383407785849
 20
-100.9392306605291
 30
0.0
 10
59.82701143252589
 20
-100.9392306605291
 30
0.0
 10
59.77722980276403
 20
-101.2227620189651
 30
0.0
 10
59.77722980276403
 20
-101.5676160770387
 30
0.0
 10
59.77722980276403
 20
-101.8869764285213
 30
0.0
 10
59.81564261742457
 20
-102.1956569839997
 30
0.0
 10
60.09383407785849
 20
-102.1956569839997
 30
0.0
 10
60.35824515635142
 20
-102.1956569839997
 30
0.0
 10
60.41026609817869
 20
-101.9145371924033
 30
0.0
 10
60.41026609817869
 20
-101.5676160770387
 30
0.0
 10
60.41026609817869
 20
-101.2479112160075
 30
0.0
 10
60.36961397145274
 20
-100.9392306605291
 30
0.0
 10
60.09383407785849
 20
-100.9392306605291
 30
0.0
  0
HATCH
  5
F2
330
EA
100
AcDbEntity
  8
_U+30EC_U+30A4_U+30E4_U+30FC 1
 62
   179
420
  2234388
100
AcDbHatch
 10
0.0
 20
0.0
 30
0.0
210
0.0
220
0.0
230
1.0
  2
SOLID
 70
     1
 71
     0
 91
        2
 92
        1
 93
        1
 72
     4
 94
        3
 73
     0
 74
     1
 95
       29
 96
       25
 40
0.0
 40
0.0
 40
0.0
 40
0.0
 40
1.0
 40
1.0
 40
1.0
 40
2.0
 40
2.0
 40
2.0
 40
3.0
 40
3.0
 40
3.0
 40
4.0
 40
4.0
 40
4.0
 40
5.0
 40
5.0
 40
5.0
 40
6.0
 40
6.0
 40
6.0
 40
7.0
 40
7.0
 40
7.0
 40
8.0
 40
8.0
 40
8.0
 40
8.0
 10
60.51878660596405
 20
-102.1618950482442
 10
60.40354816198245
 20
-102.3713568537474
 10
60.21820202487601
 20
-102.3903048789163
 10
60.09383407785849
 20
-102.3903048789163
 10
59.92192381314452
 20
-102.3903048789163
 10
59.77051186656779
 20
-102.3437960898654
 10
59.66870929497866
 20
-102.1618950482442
 10
59.55794947512788
 20
-101.9672471533276
 10
59.5376234117649
 20
-101.7302245839424
 10
59.5376234117649
 20
-101.5676160770387
 10
59.5376234117649
 20
-101.4236110857552
 10
59.55571016306246
 20
-101.1717746057835
 10
59.66870929497866
 20
-100.9729925962845
 10
59.78411999373453
 20
-100.7700764722033
 10
59.95585800367423
 20
-100.7466498229036
 10
60.09383407785849
 20
-100.7466498229036
 10
60.26333277573278
 20
-100.7466498229036
 10
60.41715628914918
 20
-100.7910915546633
 10
60.51878660596405
 20
-100.9729925962845
 10
60.62506780168401
 20
-101.16557343391
 10
60.65004474395207
 20
-101.3939832645821
 10
60.65004474395207
 20
-101.5676160770387
 10
60.65004474395207
 20
-101.7388373226556
 10
60.62730711374942
 20
-101.9693142106188
 10
60.51878660596405
 20
-102.1618950482442
 97
        0
 97
        0
 92
        1
 93
        1
 72
     4
 94
        3
 73
     0
 74
     1
 95
       17
 96
       13
 40
0.0
 40
0.0
 40
0.0
 40
0.0
 40
1.0
 40
1.0
 40
1.0
 40
2.0
 40
2.0
 40
2.0
 40
3.0
 40
3.0
 40
3.0
 40
4.0
 40
4.0
 40
4.0
 40
4.0
 10
60.09383407785849
 20
-100.9392306605291
 10
59.82701143252589
 20
-100.9392306605291
 10
59.77722980276403
 20
-101.2227620189651
 10
59.77722980276403
 20
-101.5676160770387
 10
59.77722980276403
 20
-101.8869764285213
 10
59.81564261742457
 20
-102.1956569839997
 10
60.09383407785849
 20
-102.1956569839997
 10
60.35824515635142
 20
-102.1956569839997
 10
60.41026609817869
 20
-101.9145371924033
 10
60.41026609817869
 20
-101.5676160770387
 10
60.41026609817869
 20
-101.2479112160075
 10
60.36961397145274
 20
-100.9392306605291
 10
60.09383407785849
 20
-100.9392306605291
 97
        0
 97
        0
 75
     2
 76
     1
 98
        0
  0
ENDBLK
  5
ED
330
EA
100
AcDbEntity
  8
0
100
AcDbBlockEnd
  0
BLOCK
  5
F5
330
F3
100
AcDbEntity
  8
0
100
AcDbBlockBegin
  2
block 10
 70
     0
 10
0.0
 20
0.0
 30
0.0
  3
block 10
  1

  0
POLYLINE
  5
F7
330
F3
100
AcDbEntity
  8
_U+30EC_U+30A4_U+30E4_U+30FC 1
 62
   179
420
  2234388
370
     9
100
AcDb2dPolyline
 66
     1
 10
0.0
 20
0.0
 30
0.0
  0
VERTEX
  5
F8
330
F7
100
AcDbEntity
  8
_U+30EC_U+30A4_U+30E4_U+30FC 1
 62
   179
420
  2234388
370
     9
100
AcDbVertex
100
AcDb2dVertex
 10
42.46527221160584
 20
-103.6911608074106
 30
0.0
  0
VERTEX
  5
F9
330
F7
100
AcDbEntity
  8
_U+30EC_U+30A4_U+30E4_U+30FC 1
 62
   179
420
  2234388
370
     9
100
AcDbVertex
100
AcDb2dVertex
 10
54.46521861047651
 20
-103.6911608074106
 30
0.0
  0
SEQEND
  5
FA
330
F7
100
AcDbEntity
  8
_U+30EC_U+30A4_U+30E4_U+30FC 1
 62
   179
420
  2234388
370
     9
  0
POLYLINE
  5
FB
330
F3
100
AcDbEntity
  8
_U+30EC_U+30A4_U+30E4_U+30FC 1
 62
   179
420
  2234388
370
     9
100
AcDb2dPolyline
 66
     1
 10
0.0
 20
0.0
 30
0.0
  0
VERTEX
  5
FC
330
FB
100
AcDbEntity
  8
_U+30EC_U+30A4_U+30E4_U+30FC 1
 62
   179
420
  2234388
370
     9
100
AcDbVertex
100
AcDb2dVertex
 10
42.46527221160584
 20
-86.23074220066465
 30
0.0
  0
VERTEX
  5
FD
330
FB
100
AcDbEntity
  8
_U+30EC_U+30A4_U+30E4_U+30FC 1
 62
   179
420
  2234388
370
     9
100
AcDbVertex
100
AcDb2dVertex
 10
42.46527221160584
 20
-104.6909330293825
 30
0.0
  0
SEQEND
  5
FE
330
FB
100
AcDbEntity
  8
_U+30EC_U+30A4_U+30E4_U+30FC 1
 62
   179
420
  2234388
370
     9
  0
INSERT
  5
100
330
F3
100
AcDbEntity
  8
_U+30EC_U+30A4_U+30E4_U+30FC 1
100
AcDbBlockReference
  2
block 11
 10
0.0
 20
0.0
 30
0.0
  0
ENDBLK
  5
F6
330
F3
100
AcDbEntity
  8
0
100
AcDbBlockEnd
  0
BLOCK
  5
101
330
FF
100
AcDbEntity
  8
0
100
AcDbBlockBegin
  2
block 11
 70
     0
 10
0.0
 20
0.0
 30
0.0
  3
block 11
  1

  0
SPLINE
  5
103
330
FF
100
AcDbEntity
  8
_U+30EC_U+30A4_U+30E4_U+30FC 1
370
     0
100
AcDbSpline
210
0.0
220
0.0
230
1.0
 70
    11
 71
     3
 72
    26
 73
    22
 74
     0
 42
0.0000000001
 43
0.0000000001
 12
1.0
 22
0.0
 32
0.0
 13
1.0
 23
0.0
 33
0.0
 40
0.0
 40
0.0
 40
0.0
 40
0.0
 40
1.0
 40
1.0
 40
1.0
 40
2.0
 40
2.0
 40
2.0
 40
3.0
 40
3.0
 40
3.0
 40
4.0
 40
4.0
 40
4.0
 40
5.0
 40
5.0
 40
5.0
 40
6.0
 40
6.0
 40
6.0
 40
7.0
 40
7.0
 40
7.0
 40
7.0
 10
47.78416339951229
 20
-102.3396619752831
 30
0.0
 10
47.78416339951229
 20
-102.3396619752831
 30
0.0
 10
47.78416339951229
 20
-101.2355088722606
 30
0.0
 10
47.78416339951229
 20
-101.2355088722606
 30
0.0
 10
47.78416339951229
 20
-101.2355088722606
 30
0.0
 10
47.43138562182271
 20
-101.2355088722606
 30
0.0
 10
47.43138562182271
 20
-101.2355088722606
 30
0.0
 10
47.43138562182271
 20
-101.2355088722606
 30
0.0
 10
47.43138562182271
 20
-101.0873697663948
 30
0.0
 10
47.43138562182271
 20
-101.0873697663948
 30
0.0
 10
47.78640271157771
 20
-101.0725558558083
 30
0.0
 10
47.83618434133957
 20
-100.9096028393559
 30
0.0
 10
47.8677069650296
 20
-100.7952256692456
 30
0.0
 10
47.8677069650296
 20
-100.7952256692456
 30
0.0
 10
48.02376979051142
 20
-100.7952256692456
 30
0.0
 10
48.02376979051142
 20
-100.7952256692456
 30
0.0
 10
48.02376979051142
 20
-100.7952256692456
 30
0.0
 10
48.02376979051142
 20
-102.3396619752831
 30
0.0
 10
48.02376979051142
 20
-102.3396619752831
 30
0.0
 10
48.02376979051142
 20
-102.3396619752831
 30
0.0
 10
47.78416339951229
 20
-102.3396619752831
 30
0.0
 10
47.78416339951229
 20
-102.3396619752831
 30
0.0
  0
HATCH
  5
104
330
FF
100
AcDbEntity
  8
_U+30EC_U+30A4_U+30E4_U+30FC 1
 62
   179
420
  2234388
100
AcDbHatch
 10
0.0
 20
0.0
 30
0.0
210
0.0
220
0.0
230
1.0
  2
SOLID
 70
     1
 71
     0
 91
        1
 92
        1
 93
        1
 72
     4
 94
        3
 73
     0
 74
     1
 95
       26
 96
       22
 40
0.0
 40
0.0
 40
0.0
 40
0.0
 40
1.0
 40
1.0
 40
1.0
 40
2.0
 40
2.0
 40
2.0
 40
3.0
 40
3.0
 40
3.0
 40
4.0
 40
4.0
 40
4.0
 40
5.0
 40
5.0
 40
5.0
 40
6.0
 40
6.0
 40
6.0
 40
7.0
 40
7.0
 40
7.0
 40
7.0
 10
47.78416339951229
 20
-102.3396619752831
 10
47.78416339951229
 20
-102.3396619752831
 10
47.78416339951229
 20
-101.2355088722606
 10
47.78416339951229
 20
-101.2355088722606
 10
47.78416339951229
 20
-101.2355088722606
 10
47.43138562182271
 20
-101.2355088722606
 10
47.43138562182271
 20
-101.2355088722606
 10
47.43138562182271
 20
-101.2355088722606
 10
47.43138562182271
 20
-101.0873697663948
 10
47.43138562182271
 20
-101.0873697663948
 10
47.78640271157771
 20
-101.0725558558083
 10
47.83618434133957
 20
-100.9096028393559
 10
47.8677069650296
 20
-100.7952256692456
 10
47.8677069650296
 20
-100.7952256692456
 10
48.02376979051142
 20
-100.7952256692456
 10
48.02376979051142
 20
-100.7952256692456
 10
48.02376979051142
 20
-100.7952256692456
 10
48.02376979051142
 20
-102.3396619752831
 10
48.02376979051142
 20
-102.3396619752831
 10
48.02376979051142
 20
-102.3396619752831
 10
47.78416339951229
 20
-102.3396619752831
 10
47.78416339951229
 20
-102.3396619752831
 97
        0
 97
        0
 75
     2
 76
     1
 98
        0
  0
SPLINE
  5
105
330
FF
100
AcDbEntity
  8
_U+30EC_U+30A4_U+30E4_U+30FC 1
370
     0
100
AcDbSpline
210
0.0
220
0.0
230
1.0
 70
    11
 71
     3
 72
    44
 73
    40
 74
     0
 42
0.0000000001
 43
0.0000000001
 12
1.0
 22
0.0
 32
0.0
 13
1.0
 23
0.0
 33
0.0
 40
0.0
 40
0.0
 40
0.0
 40
0.0
 40
1.0
 40
1.0
 40
1.0
 40
2.0
 40
2.0
 40
2.0
 40
3.0
 40
3.0
 40
3.0
 40
4.0
 40
4.0
 40
4.0
 40
5.0
 40
5.0
 40
5.0
 40
6.0
 40
6.0
 40
6.0
 40
7.0
 40
7.0
 40
7.0
 40
8.0
 40
8.0
 40
8.0
 40
9.0
 40
9.0
 40
9.0
 40
10.0
 40
10.0
 40
10.0
 40
11.0
 40
11.0
 40
11.0
 40
12.0
 40
12.0
 40
12.0
 40
13.0
 40
13.0
 40
13.0
 40
13.0
 10
49.19337970775374
 20
-101.7577853478245
 30
0.0
 10
48.96049125295085
 20
-101.9166042496945
 30
0.0
 10
48.8611002482014
 20
-101.9906738026273
 30
0.0
 10
48.80907930637412
 20
-102.1343342843623
 30
0.0
 10
48.80907930637412
 20
-102.1343342843623
 30
0.0
 10
49.64106986606195
 20
-102.1343342843623
 30
0.0
 10
49.64106986606195
 20
-102.1343342843623
 30
0.0
 10
49.64106986606195
 20
-102.1343342843623
 30
0.0
 10
49.64106986606195
 20
-102.3396619752831
 30
0.0
 10
49.64106986606195
 20
-102.3396619752831
 30
0.0
 10
49.64106986606195
 20
-102.3396619752831
 30
0.0
 10
48.54225666104152
 20
-102.3396619752831
 30
0.0
 10
48.54225666104152
 20
-102.3396619752831
 30
0.0
 10
48.57619085157123
 20
-101.9820610639142
 30
0.0
 10
48.64629854469607
 20
-101.903857396399
 30
0.0
 10
49.05781520040916
 20
-101.6055121273764
 30
0.0
 10
49.33135578193799
 20
-101.4067301178775
 30
0.0
 10
49.40146347506283
 20
-101.3388617368181
 30
0.0
 10
49.40146347506283
 20
-101.2014024269566
 30
0.0
 10
49.40146347506283
 20
-101.082891142264
 30
0.0
 10
49.32463784574176
 20
-100.9519775138245
 30
0.0
 10
49.11431476636726
 20
-100.9519775138245
 30
0.0
 10
48.83612330593333
 20
-100.9519775138245
 30
0.0
 10
48.82716605767168
 20
-101.1824544017877
 30
0.0
 10
48.82268743354086
 20
-101.2988986291892
 30
0.0
 10
48.82268743354086
 20
-101.2988986291892
 30
0.0
 10
48.58290878776747
 20
-101.2988986291892
 30
0.0
 10
48.58290878776747
 20
-101.2988986291892
 30
0.0
 10
48.59203829080338
 20
-101.1717746057835
 30
0.0
 10
48.60340710590471
 20
-101.0598090025128
 30
0.0
 10
48.68918998348742
 20
-100.9412977178202
 30
0.0
 10
48.80683999430871
 20
-100.7804117586591
 30
0.0
 10
49.00579425858189
 20
-100.7466498229036
 30
0.0
 10
49.1301622055994
 20
-100.7466498229036
 30
0.0
 10
49.42626816255663
 20
-100.7466498229036
 30
0.0
 10
49.64778780225819
 20
-100.930617921816
 30
0.0
 10
49.64778780225819
 20
-101.2034694842477
 30
0.0
 10
49.64778780225819
 20
-101.4322238244683
 30
0.0
 10
49.52341985524068
 20
-101.5314425744435
 30
0.0
 10
49.19337970775374
 20
-101.7577853478245
 30
0.0
  0
HATCH
  5
106
330
FF
100
AcDbEntity
  8
_U+30EC_U+30A4_U+30E4_U+30FC 1
 62
   179
420
  2234388
100
AcDbHatch
 10
0.0
 20
0.0
 30
0.0
210
0.0
220
0.0
230
1.0
  2
SOLID
 70
     1
 71
     0
 91
        1
 92
        1
 93
        1
 72
     4
 94
        3
 73
     0
 74
     1
 95
       44
 96
       40
 40
0.0
 40
0.0
 40
0.0
 40
0.0
 40
1.0
 40
1.0
 40
1.0
 40
2.0
 40
2.0
 40
2.0
 40
3.0
 40
3.0
 40
3.0
 40
4.0
 40
4.0
 40
4.0
 40
5.0
 40
5.0
 40
5.0
 40
6.0
 40
6.0
 40
6.0
 40
7.0
 40
7.0
 40
7.0
 40
8.0
 40
8.0
 40
8.0
 40
9.0
 40
9.0
 40
9.0
 40
10.0
 40
10.0
 40
10.0
 40
11.0
 40
11.0
 40
11.0
 40
12.0
 40
12.0
 40
12.0
 40
13.0
 40
13.0
 40
13.0
 40
13.0
 10
49.19337970775374
 20
-101.7577853478245
 10
48.96049125295085
 20
-101.9166042496945
 10
48.8611002482014
 20
-101.9906738026273
 10
48.80907930637412
 20
-102.1343342843623
 10
48.80907930637412
 20
-102.1343342843623
 10
49.64106986606195
 20
-102.1343342843623
 10
49.64106986606195
 20
-102.1343342843623
 10
49.64106986606195
 20
-102.1343342843623
 10
49.64106986606195
 20
-102.3396619752831
 10
49.64106986606195
 20
-102.3396619752831
 10
49.64106986606195
 20
-102.3396619752831
 10
48.54225666104152
 20
-102.3396619752831
 10
48.54225666104152
 20
-102.3396619752831
 10
48.57619085157123
 20
-101.9820610639142
 10
48.64629854469607
 20
-101.903857396399
 10
49.05781520040916
 20
-101.6055121273764
 10
49.33135578193799
 20
-101.4067301178775
 10
49.40146347506283
 20
-101.3388617368181
 10
49.40146347506283
 20
-101.2014024269566
 10
49.40146347506283
 20
-101.082891142264
 10
49.32463784574176
 20
-100.9519775138245
 10
49.11431476636726
 20
-100.9519775138245
 10
48.83612330593333
 20
-100.9519775138245
 10
48.82716605767168
 20
-101.1824544017877
 10
48.82268743354086
 20
-101.2988986291892
 10
48.82268743354086
 20
-101.2988986291892
 10
48.58290878776747
 20
-101.2988986291892
 10
48.58290878776747
 20
-101.2988986291892
 10
48.59203829080338
 20
-101.1717746057835
 10
48.60340710590471
 20
-101.0598090025128
 10
48.68918998348742
 20
-100.9412977178202
 10
48.80683999430871
 20
-100.7804117586591
 10
49.00579425858189
 20
-100.7466498229036
 10
49.1301622055994
 20
-100.7466498229036
 10
49.42626816255663
 20
-100.7466498229036
 10
49.64778780225819
 20
-100.930617921816
 10
49.64778780225819
 20
-101.2034694842477
 10
49.64778780225819
 20
-101.4322238244683
 10
49.52341985524068
 20
-101.5314425744435
 10
49.19337970775374
 20
-101.7577853478245
 97
        0
 97
        0
 75
     2
 76
     1
 98
        0
  0
ENDBLK
  5
102
330
FF
100
AcDbEntity
  8
0
100
AcDbBlockEnd
  0
BLOCK
  5
109
330
107
100
AcDbEntity
  8
0
100
AcDbBlockBegin
  2
block 12
 70
     0
 10
0.0
 20
0.0
 30
0.0
  3
block 12
  1

  0
POLYLINE
  5
10B
330
107
100
AcDbEntity
  8
_U+30EC_U+30A4_U+30E4_U+30FC 1
 62
   179
420
  2234388
370
     9
100
AcDb2dPolyline
 66
     1
 10
0.0
 20
0.0
 30
0.0
  0
VERTEX
  5
10C
330
10B
100
AcDbEntity
  8
_U+30EC_U+30A4_U+30E4_U+30FC 1
 62
   179
420
  2234388
370
     9
100
AcDbVertex
100
AcDb2dVertex
 10
83.46535037062151
 20
-83.19078553475777
 30
0.0
  0
VERTEX
  5
10D
330
10B
100
AcDbEntity
  8
_U+30EC_U+30A4_U+30E4_U+30FC 1
 62
   179
420
  2234388
370
     9
100
AcDbVertex
100
AcDb2dVertex
 10
83.46535037062151
 20
-98.69095914199383
 30
0.0
  0
SEQEND
  5
10E
330
10B
100
AcDbEntity
  8
_U+30EC_U+30A4_U+30E4_U+30FC 1
 62
   179
420
  2234388
370
     9
  0
POLYLINE
  5
10F
330
107
100
AcDbEntity
  8
_U+30EC_U+30A4_U+30E4_U+30FC 1
 62
   179
420
  2234388
370
     9
100
AcDb2dPolyline
 66
     1
 10
0.0
 20
0.0
 30
0.0
  0
VERTEX
  5
110
330
10F
100
AcDbEntity
  8
_U+30EC_U+30A4_U+30E4_U+30FC 1
 62
   179
420
  2234388
370
     9
100
AcDbVertex
100
AcDb2dVertex
 10
82.00534429675825
 20
-83.19078553475777
 30
0.0
  0
VERTEX
  5
111
330
10F
100
AcDbEntity
  8
_U+30EC_U+30A4_U+30E4_U+30FC 1
 62
   179
420
  2234388
370
     9
100
AcDbVertex
100
AcDb2dVertex
 10
84.46512256733742
 20
-83.19078553475777
 30
0.0
  0
SEQEND
  5
112
330
10F
100
AcDbEntity
  8
_U+30EC_U+30A4_U+30E4_U+30FC 1
 62
   179
420
  2234388
370
     9
  0
POLYLINE
  5
113
330
107
100
AcDbEntity
  8
_U+30EC_U+30A4_U+30E4_U+30FC 1
 62
   179
420
  2234388
370
     9
100
AcDb2dPolyline
 66
     1
 10
0.0
 20
0.0
 30
0.0
  0
VERTEX
  5
114
330
113
100
AcDbEntity
  8
_U+30EC_U+30A4_U+30E4_U+30FC 1
 62
   179
420
  2234388
370
     9
100
AcDbVertex
100
AcDb2dVertex
 10
67.00537467943937
 20
-98.69095914199383
 30
0.0
  0
VERTEX
  5
115
330
113
100
AcDbEntity
  8
_U+30EC_U+30A4_U+30E4_U+30FC 1
 62
   179
420
  2234388
370
     9
100
AcDbVertex
100
AcDb2dVertex
 10
84.46512256733742
 20
-98.69095914199383
 30
0.0
  0
SEQEND
  5
116
330
113
100
AcDbEntity
  8
_U+30EC_U+30A4_U+30E4_U+30FC 1
 62
   179
420
  2234388
370
     9
  0
INSERT
  5
118
330
107
100
AcDbEntity
  8
_U+30EC_U+30A4_U+30E4_U+30FC 1
100
AcDbBlockReference
  2
block 13
 10
0.0
 20
0.0
 30
0.0
  0
ENDBLK
  5
10A
330
107
100
AcDbEntity
  8
0
100
AcDbBlockEnd
  0
BLOCK
  5
119
330
117
100
AcDbEntity
  8
0
100
AcDbBlockBegin
  2
block 13
 70
     0
 10
0.0
 20
0.0
 30
0.0
  3
block 13
  1

  0
SPLINE
  5
11B
330
117
100
AcDbEntity
  8
_U+30EC_U+30A4_U+30E4_U+30FC 1
370
     0
100
AcDbSpline
210
0.0
220
0.0
230
1.0
 70
    11
 71
     3
 72
    26
 73
    22
 74
     0
 42
0.0000000001
 43
0.0000000001
 12
1.0
 22
0.0
 32
0.0
 13
1.0
 23
0.0
 33
0.0
 40
0.0
 40
0.0
 40
0.0
 40
0.0
 40
1.0
 40
1.0
 40
1.0
 40
2.0
 40
2.0
 40
2.0
 40
3.0
 40
3.0
 40
3.0
 40
4.0
 40
4.0
 40
4.0
 40
5.0
 40
5.0
 40
5.0
 40
6.0
 40
6.0
 40
6.0
 40
7.0
 40
7.0
 40
7.0
 40
7.0
 10
82.11385089092987
 20
-92.54353296297523
 30
0.0
 10
82.11385089092987
 20
-92.54353296297523
 30
0.0
 10
81.0096977879073
 20
-92.54353296297523
 30
0.0
 10
81.0096977879073
 20
-92.54353296297523
 30
0.0
 10
81.0096977879073
 20
-92.54353296297523
 30
0.0
 10
81.0096977879073
 20
-92.89596623111629
 30
0.0
 10
81.0096977879073
 20
-92.89596623111629
 30
0.0
 10
81.0096977879073
 20
-92.89596623111629
 30
0.0
 10
80.86155868204156
 20
-92.89596623111629
 30
0.0
 10
80.86155868204156
 20
-92.89596623111629
 30
0.0
 10
80.84674477145498
 20
-92.54112139613555
 30
0.0
 10
80.68379175500267
 20
-92.49151202114795
 30
0.0
 10
80.56941458489237
 20
-92.45981714268366
 30
0.0
 10
80.56941458489237
 20
-92.45981714268366
 30
0.0
 10
80.56941458489237
 20
-92.30375431720185
 30
0.0
 10
80.56941458489237
 20
-92.30375431720185
 30
0.0
 10
80.56941458489237
 20
-92.30375431720185
 30
0.0
 10
82.11385089092987
 20
-92.30375431720185
 30
0.0
 10
82.11385089092987
 20
-92.30375431720185
 30
0.0
 10
82.11385089092987
 20
-92.30375431720185
 30
0.0
 10
82.11385089092987
 20
-92.54353296297523
 30
0.0
 10
82.11385089092987
 20
-92.54353296297523
 30
0.0
  0
HATCH
  5
11C
330
117
100
AcDbEntity
  8
_U+30EC_U+30A4_U+30E4_U+30FC 1
 62
   179
420
  2234388
100
AcDbHatch
 10
0.0
 20
0.0
 30
0.0
210
0.0
220
0.0
230
1.0
  2
SOLID
 70
     1
 71
     0
 91
        1
 92
        1
 93
        1
 72
     4
 94
        3
 73
     0
 74
     1
 95
       26
 96
       22
 40
0.0
 40
0.0
 40
0.0
 40
0.0
 40
1.0
 40
1.0
 40
1.0
 40
2.0
 40
2.0
 40
2.0
 40
3.0
 40
3.0
 40
3.0
 40
4.0
 40
4.0
 40
4.0
 40
5.0
 40
5.0
 40
5.0
 40
6.0
 40
6.0
 40
6.0
 40
7.0
 40
7.0
 40
7.0
 40
7.0
 10
82.11385089092987
 20
-92.54353296297523
 10
82.11385089092987
 20
-92.54353296297523
 10
81.0096977879073
 20
-92.54353296297523
 10
81.0096977879073
 20
-92.54353296297523
 10
81.0096977879073
 20
-92.54353296297523
 10
81.0096977879073
 20
-92.89596623111629
 10
81.0096977879073
 20
-92.89596623111629
 10
81.0096977879073
 20
-92.89596623111629
 10
80.86155868204156
 20
-92.89596623111629
 10
80.86155868204156
 20
-92.89596623111629
 10
80.84674477145498
 20
-92.54112139613555
 10
80.68379175500267
 20
-92.49151202114795
 10
80.56941458489237
 20
-92.45981714268366
 10
80.56941458489237
 20
-92.45981714268366
 10
80.56941458489237
 20
-92.30375431720185
 10
80.56941458489237
 20
-92.30375431720185
 10
80.56941458489237
 20
-92.30375431720185
 10
82.11385089092987
 20
-92.30375431720185
 10
82.11385089092987
 20
-92.30375431720185
 10
82.11385089092987
 20
-92.30375431720185
 10
82.11385089092987
 20
-92.54353296297523
 10
82.11385089092987
 20
-92.54353296297523
 97
        0
 97
        0
 75
     2
 76
     1
 98
        0
  0
SPLINE
  5
11D
330
117
100
AcDbEntity
  8
_U+30EC_U+30A4_U+30E4_U+30FC 1
370
     0
100
AcDbSpline
210
0.0
220
0.0
230
1.0
 70
    11
 71
     3
 72
    53
 73
    49
 74
     0
 42
0.0000000001
 43
0.0000000001
 12
1.0
 22
0.0
 32
0.0
 13
1.0
 23
0.0
 33
0.0
 40
0.0
 40
0.0
 40
0.0
 40
0.0
 40
1.0
 40
1.0
 40
1.0
 40
2.0
 40
2.0
 40
2.0
 40
3.0
 40
3.0
 40
3.0
 40
4.0
 40
4.0
 40
4.0
 40
5.0
 40
5.0
 40
5.0
 40
6.0
 40
6.0
 40
6.0
 40
7.0
 40
7.0
 40
7.0
 40
8.0
 40
8.0
 40
8.0
 40
9.0
 40
9.0
 40
9.0
 40
10.0
 40
10.0
 40
10.0
 40
11.0
 40
11.0
 40
11.0
 40
12.0
 40
12.0
 40
12.0
 40
13.0
 40
13.0
 40
13.0
 40
14.0
 40
14.0
 40
14.0
 40
15.0
 40
15.0
 40
15.0
 40
16.0
 40
16.0
 40
16.0
 40
16.0
 10
82.16449379456304
 20
-91.25403372284622
 30
0.0
 10
82.16449379456304
 20
-91.33774954313779
 30
0.0
 10
82.14761282668532
 20
-91.44592554137463
 30
0.0
 10
82.08422306975673
 20
-91.55479055870853
 30
0.0
 10
81.97432452377726
 20
-91.74013669581497
 30
0.0
 10
81.84306638578924
 20
-91.7625298164691
 30
0.0
 10
81.73523489710092
 20
-91.78285587983207
 30
0.0
 10
81.73523489710092
 20
-91.78285587983207
 30
0.0
 10
81.73523489710092
 20
-91.54548880089835
 30
0.0
 10
81.73523489710092
 20
-91.54548880089835
 30
0.0
 10
81.93401690659984
 20
-91.4869221776491
 30
0.0
 10
81.96364472777299
 20
-91.35118541553027
 30
0.0
 10
81.96364472777299
 20
-91.25162215600655
 30
0.0
 10
81.96364472777299
 20
-91.10244952149523
 30
0.0
 10
81.86408146824927
 20
-90.93949650504291
 30
0.0
 10
81.6315375229949
 20
-90.93949650504291
 30
0.0
 10
81.37556692844083
 20
-90.93949650504291
 30
0.0
 10
81.30563149009026
 20
-91.13173283311986
 30
0.0
 10
81.30563149009026
 20
-91.2605794042682
 30
0.0
 10
81.30563149009026
 20
-91.29468584957216
 30
0.0
 10
81.30563149009026
 20
-91.44592554137463
 30
0.0
 10
81.43482257078713
 20
-91.54101017676753
 30
0.0
 10
81.43482257078713
 20
-91.54101017676753
 30
0.0
 10
81.41587454561825
 20
-91.72876788071365
 30
0.0
 10
81.41587454561825
 20
-91.72876788071365
 30
0.0
 10
81.41587454561825
 20
-91.72876788071365
 30
0.0
 10
80.56941458489237
 20
-91.5999213095653
 30
0.0
 10
80.56941458489237
 20
-91.5999213095653
 30
0.0
 10
80.56941458489237
 20
-91.5999213095653
 30
0.0
 10
80.56941458489237
 20
-90.76793074987746
 30
0.0
 10
80.56941458489237
 20
-90.76793074987746
 30
0.0
 10
80.56941458489237
 20
-90.76793074987746
 30
0.0
 10
80.76406247980898
 20
-90.76793074987746
 30
0.0
 10
80.76406247980898
 20
-90.76793074987746
 30
0.0
 10
80.76406247980898
 20
-90.76793074987746
 30
0.0
 10
80.76406247980898
 20
-91.42559947801166
 30
0.0
 10
80.76406247980898
 20
-91.42559947801166
 30
0.0
 10
80.76406247980898
 20
-91.42559947801166
 30
0.0
 10
81.18712020539766
 20
-91.49587942591076
 30
0.0
 10
81.18712020539766
 20
-91.49587942591076
 30
0.0
 10
81.15335826964223
 20
-91.43042261169101
 30
0.0
 10
81.11305065246479
 20
-91.34222816726862
 30
0.0
 10
81.11305065246479
 20
-91.21544865341141
 30
0.0
 10
81.11305065246479
 20
-90.94431963872226
 30
0.0
 10
81.2994303182168
 20
-90.6911051205564
 30
0.0
 10
81.61258949782602
 20
-90.6911051205564
 30
0.0
 10
81.92988279201754
 20
-90.6911051205564
 30
0.0
 10
82.16449379456304
 20
-90.93053925678126
 30
0.0
 10
82.16449379456304
 20
-91.25403372284622
 30
0.0
  0
HATCH
  5
11E
330
117
100
AcDbEntity
  8
_U+30EC_U+30A4_U+30E4_U+30FC 1
 62
   179
420
  2234388
100
AcDbHatch
 10
0.0
 20
0.0
 30
0.0
210
0.0
220
0.0
230
1.0
  2
SOLID
 70
     1
 71
     0
 91
        1
 92
        1
 93
        1
 72
     4
 94
        3
 73
     0
 74
     1
 95
       53
 96
       49
 40
0.0
 40
0.0
 40
0.0
 40
0.0
 40
1.0
 40
1.0
 40
1.0
 40
2.0
 40
2.0
 40
2.0
 40
3.0
 40
3.0
 40
3.0
 40
4.0
 40
4.0
 40
4.0
 40
5.0
 40
5.0
 40
5.0
 40
6.0
 40
6.0
 40
6.0
 40
7.0
 40
7.0
 40
7.0
 40
8.0
 40
8.0
 40
8.0
 40
9.0
 40
9.0
 40
9.0
 40
10.0
 40
10.0
 40
10.0
 40
11.0
 40
11.0
 40
11.0
 40
12.0
 40
12.0
 40
12.0
 40
13.0
 40
13.0
 40
13.0
 40
14.0
 40
14.0
 40
14.0
 40
15.0
 40
15.0
 40
15.0
 40
16.0
 40
16.0
 40
16.0
 40
16.0
 10
82.16449379456304
 20
-91.25403372284622
 10
82.16449379456304
 20
-91.33774954313779
 10
82.14761282668532
 20
-91.44592554137463
 10
82.08422306975673
 20
-91.55479055870853
 10
81.97432452377726
 20
-91.74013669581497
 10
81.84306638578924
 20
-91.7625298164691
 10
81.73523489710092
 20
-91.78285587983207
 10
81.73523489710092
 20
-91.78285587983207
 10
81.73523489710092
 20
-91.54548880089835
 10
81.73523489710092
 20
-91.54548880089835
 10
81.93401690659984
 20
-91.4869221776491
 10
81.96364472777299
 20
-91.35118541553027
 10
81.96364472777299
 20
-91.25162215600655
 10
81.96364472777299
 20
-91.10244952149523
 10
81.86408146824927
 20
-90.93949650504291
 10
81.6315375229949
 20
-90.93949650504291
 10
81.37556692844083
 20
-90.93949650504291
 10
81.30563149009026
 20
-91.13173283311986
 10
81.30563149009026
 20
-91.2605794042682
 10
81.30563149009026
 20
-91.29468584957216
 10
81.30563149009026
 20
-91.44592554137463
 10
81.43482257078713
 20
-91.54101017676753
 10
81.43482257078713
 20
-91.54101017676753
 10
81.41587454561825
 20
-91.72876788071365
 10
81.41587454561825
 20
-91.72876788071365
 10
81.41587454561825
 20
-91.72876788071365
 10
80.56941458489237
 20
-91.5999213095653
 10
80.56941458489237
 20
-91.5999213095653
 10
80.56941458489237
 20
-91.5999213095653
 10
80.56941458489237
 20
-90.76793074987746
 10
80.56941458489237
 20
-90.76793074987746
 10
80.56941458489237
 20
-90.76793074987746
 10
80.76406247980898
 20
-90.76793074987746
 10
80.76406247980898
 20
-90.76793074987746
 10
80.76406247980898
 20
-90.76793074987746
 10
80.76406247980898
 20
-91.42559947801166
 10
80.76406247980898
 20
-91.42559947801166
 10
80.76406247980898
 20
-91.42559947801166
 10
81.18712020539766
 20
-91.49587942591076
 10
81.18712020539766
 20
-91.49587942591076
 10
81.15335826964223
 20
-91.43042261169101
 10
81.11305065246479
 20
-91.34222816726862
 10
81.11305065246479
 20
-91.21544865341141
 10
81.11305065246479
 20
-90.94431963872226
 10
81.2994303182168
 20
-90.6911051205564
 10
81.61258949782602
 20
-90.6911051205564
 10
81.92988279201754
 20
-90.6911051205564
 10
82.16449379456304
 20
-90.93053925678126
 10
82.16449379456304
 20
-91.25403372284622
 97
        0
 97
        0
 75
     2
 76
     1
 98
        0
  0
POLYLINE
  5
11F
330
117
100
AcDbEntity
  8
_U+30EC_U+30A4_U+30E4_U+30FC 1
370
     0
100
AcDb2dPolyline
 66
     1
 10
0.0
 20
0.0
 30
0.0
  0
VERTEX
  5
120
330
11F
100
AcDbEntity
  8
_U+30EC_U+30A4_U+30E4_U+30FC 1
370
     0
100
AcDbVertex
100
AcDb2dVertex
 10
82.11385089092987
 20
-90.44615883155514
 30
0.0
  0
VERTEX
  5
121
330
11F
100
AcDbEntity
  8
_U+30EC_U+30A4_U+30E4_U+30FC 1
370
     0
100
AcDbVertex
100
AcDb2dVertex
 10
81.86201441095811
 20
-90.44615883155514
 30
0.0
  0
VERTEX
  5
122
330
11F
100
AcDbEntity
  8
_U+30EC_U+30A4_U+30E4_U+30FC 1
370
     0
100
AcDbVertex
100
AcDb2dVertex
 10
81.86201441095811
 20
-90.17709687415712
 30
0.0
  0
VERTEX
  5
123
330
11F
100
AcDbEntity
  8
_U+30EC_U+30A4_U+30E4_U+30FC 1
370
     0
100
AcDbVertex
100
AcDb2dVertex
 10
82.11385089092987
 20
-90.17709687415712
 30
0.0
  0
VERTEX
  5
124
330
11F
100
AcDbEntity
  8
_U+30EC_U+30A4_U+30E4_U+30FC 1
370
     0
100
AcDbVertex
100
AcDb2dVertex
 10
82.11385089092987
 20
-90.44615883155514
 30
0.0
  0
SEQEND
  5
125
330
11F
100
AcDbEntity
  8
_U+30EC_U+30A4_U+30E4_U+30FC 1
370
     0
  0
HATCH
  5
126
330
117
100
AcDbEntity
  8
_U+30EC_U+30A4_U+30E4_U+30FC 1
 62
   179
420
  2234388
100
AcDbHatch
 10
0.0
 20
0.0
 30
0.0
210
0.0
220
0.0
230
1.0
  2
SOLID
 70
     1
 71
     0
 91
        1
 92
        1
 93
        4
 72
     1
 10
82.11385089092987
 20
-90.44615883155514
 11
81.86201441095811
 21
-90.44615883155514
 72
     1
 10
81.86201441095811
 20
-90.44615883155514
 11
81.86201441095811
 21
-90.17709687415712
 72
     1
 10
81.86201441095811
 20
-90.17709687415712
 11
82.11385089092987
 21
-90.17709687415712
 72
     1
 10
82.11385089092987
 20
-90.17709687415712
 11
82.11385089092987
 21
-90.44615883155514
 97
        0
 75
     2
 76
     1
 98
        0
  0
SPLINE
  5
127
330
117
100
AcDbEntity
  8
_U+30EC_U+30A4_U+30E4_U+30FC 1
370
     0
100
AcDbSpline
210
0.0
220
0.0
230
1.0
 70
    11
 71
     3
 72
    53
 73
    49
 74
     0
 42
0.0000000001
 43
0.0000000001
 12
1.0
 22
0.0
 32
0.0
 13
1.0
 23
0.0
 33
0.0
 40
0.0
 40
0.0
 40
0.0
 40
0.0
 40
1.0
 40
1.0
 40
1.0
 40
2.0
 40
2.0
 40
2.0
 40
3.0
 40
3.0
 40
3.0
 40
4.0
 40
4.0
 40
4.0
 40
5.0
 40
5.0
 40
5.0
 40
6.0
 40
6.0
 40
6.0
 40
7.0
 40
7.0
 40
7.0
 40
8.0
 40
8.0
 40
8.0
 40
9.0
 40
9.0
 40
9.0
 40
10.0
 40
10.0
 40
10.0
 40
11.0
 40
11.0
 40
11.0
 40
12.0
 40
12.0
 40
12.0
 40
13.0
 40
13.0
 40
13.0
 40
14.0
 40
14.0
 40
14.0
 40
15.0
 40
15.0
 40
15.0
 40
16.0
 40
16.0
 40
16.0
 40
16.0
 10
82.16449379456304
 20
-89.41021861914051
 30
0.0
 10
82.16449379456304
 20
-89.49393443943208
 30
0.0
 10
82.14761282668532
 20
-89.60211043766893
 30
0.0
 10
82.08422306975673
 20
-89.71097545500281
 30
0.0
 10
81.97432452377726
 20
-89.89632159210926
 30
0.0
 10
81.84306638578924
 20
-89.91871471276338
 30
0.0
 10
81.73523489710092
 20
-89.93904077612636
 30
0.0
 10
81.73523489710092
 20
-89.93904077612636
 30
0.0
 10
81.73523489710092
 20
-89.70167369719265
 30
0.0
 10
81.73523489710092
 20
-89.70167369719265
 30
0.0
 10
81.93401690659984
 20
-89.6431070739434
 30
0.0
 10
81.96364472777299
 20
-89.50737031182454
 30
0.0
 10
81.96364472777299
 20
-89.40780705230083
 30
0.0
 10
81.96364472777299
 20
-89.25863441778951
 30
0.0
 10
81.86408146824927
 20
-89.09568140133719
 30
0.0
 10
81.6315375229949
 20
-89.09568140133719
 30
0.0
 10
81.37556692844083
 20
-89.09568140133719
 30
0.0
 10
81.30563149009026
 20
-89.28791772941413
 30
0.0
 10
81.30563149009026
 20
-89.41676430056248
 30
0.0
 10
81.30563149009026
 20
-89.45087074586645
 30
0.0
 10
81.30563149009026
 20
-89.60211043766893
 30
0.0
 10
81.43482257078713
 20
-89.69719507306182
 30
0.0
 10
81.43482257078713
 20
-89.69719507306182
 30
0.0
 10
81.41587454561825
 20
-89.88495277700794
 30
0.0
 10
81.41587454561825
 20
-89.88495277700794
 30
0.0
 10
81.41587454561825
 20
-89.88495277700794
 30
0.0
 10
80.56941458489237
 20
-89.7561062058596
 30
0.0
 10
80.56941458489237
 20
-89.7561062058596
 30
0.0
 10
80.56941458489237
 20
-89.7561062058596
 30
0.0
 10
80.56941458489237
 20
-88.92411564617176
 30
0.0
 10
80.56941458489237
 20
-88.92411564617176
 30
0.0
 10
80.56941458489237
 20
-88.92411564617176
 30
0.0
 10
80.76406247980898
 20
-88.92411564617176
 30
0.0
 10
80.76406247980898
 20
-88.92411564617176
 30
0.0
 10
80.76406247980898
 20
-88.92411564617176
 30
0.0
 10
80.76406247980898
 20
-89.58178437430594
 30
0.0
 10
80.76406247980898
 20
-89.58178437430594
 30
0.0
 10
80.76406247980898
 20
-89.58178437430594
 30
0.0
 10
81.18712020539766
 20
-89.65206432220505
 30
0.0
 10
81.18712020539766
 20
-89.65206432220505
 30
0.0
 10
81.15335826964223
 20
-89.58660750798529
 30
0.0
 10
81.11305065246479
 20
-89.49841306356291
 30
0.0
 10
81.11305065246479
 20
-89.3716335497057
 30
0.0
 10
81.11305065246479
 20
-89.10050453501654
 30
0.0
 10
81.2994303182168
 20
-88.84729001685068
 30
0.0
 10
81.61258949782602
 20
-88.84729001685068
 30
0.0
 10
81.92988279201754
 20
-88.84729001685068
 30
0.0
 10
82.16449379456304
 20
-89.08672415307555
 30
0.0
 10
82.16449379456304
 20
-89.41021861914051
 30
0.0
  0
HATCH
  5
128
330
117
100
AcDbEntity
  8
_U+30EC_U+30A4_U+30E4_U+30FC 1
 62
   179
420
  2234388
100
AcDbHatch
 10
0.0
 20
0.0
 30
0.0
210
0.0
220
0.0
230
1.0
  2
SOLID
 70
     1
 71
     0
 91
        1
 92
        1
 93
        1
 72
     4
 94
        3
 73
     0
 74
     1
 95
       53
 96
       49
 40
0.0
 40
0.0
 40
0.0
 40
0.0
 40
1.0
 40
1.0
 40
1.0
 40
2.0
 40
2.0
 40
2.0
 40
3.0
 40
3.0
 40
3.0
 40
4.0
 40
4.0
 40
4.0
 40
5.0
 40
5.0
 40
5.0
 40
6.0
 40
6.0
 40
6.0
 40
7.0
 40
7.0
 40
7.0
 40
8.0
 40
8.0
 40
8.0
 40
9.0
 40
9.0
 40
9.0
 40
10.0
 40
10.0
 40
10.0
 40
11.0
 40
11.0
 40
11.0
 40
12.0
 40
12.0
 40
12.0
 40
13.0
 40
13.0
 40
13.0
 40
14.0
 40
14.0
 40
14.0
 40
15.0
 40
15.0
 40
15.0
 40
16.0
 40
16.0
 40
16.0
 40
16.0
 10
82.16449379456304
 20
-89.41021861914051
 10
82.16449379456304
 20
-89.49393443943208
 10
82.14761282668532
 20
-89.60211043766893
 10
82.08422306975673
 20
-89.71097545500281
 10
81.97432452377726
 20
-89.89632159210926
 10
81.84306638578924
 20
-89.91871471276338
 10
81.73523489710092
 20
-89.93904077612636
 10
81.73523489710092
 20
-89.93904077612636
 10
81.73523489710092
 20
-89.70167369719265
 10
81.73523489710092
 20
-89.70167369719265
 10
81.93401690659984
 20
-89.6431070739434
 10
81.96364472777299
 20
-89.50737031182454
 10
81.96364472777299
 20
-89.40780705230083
 10
81.96364472777299
 20
-89.25863441778951
 10
81.86408146824927
 20
-89.09568140133719
 10
81.6315375229949
 20
-89.09568140133719
 10
81.37556692844083
 20
-89.09568140133719
 10
81.30563149009026
 20
-89.28791772941413
 10
81.30563149009026
 20
-89.41676430056248
 10
81.30563149009026
 20
-89.45087074586645
 10
81.30563149009026
 20
-89.60211043766893
 10
81.43482257078713
 20
-89.69719507306182
 10
81.43482257078713
 20
-89.69719507306182
 10
81.41587454561825
 20
-89.88495277700794
 10
81.41587454561825
 20
-89.88495277700794
 10
81.41587454561825
 20
-89.88495277700794
 10
80.56941458489237
 20
-89.7561062058596
 10
80.56941458489237
 20
-89.7561062058596
 10
80.56941458489237
 20
-89.7561062058596
 10
80.56941458489237
 20
-88.92411564617176
 10
80.56941458489237
 20
-88.92411564617176
 10
80.56941458489237
 20
-88.92411564617176
 10
80.76406247980898
 20
-88.92411564617176
 10
80.76406247980898
 20
-88.92411564617176
 10
80.76406247980898
 20
-88.92411564617176
 10
80.76406247980898
 20
-89.58178437430594
 10
80.76406247980898
 20
-89.58178437430594
 10
80.76406247980898
 20
-89.58178437430594
 10
81.18712020539766
 20
-89.65206432220505
 10
81.18712020539766
 20
-89.65206432220505
 10
81.15335826964223
 20
-89.58660750798529
 10
81.11305065246479
 20
-89.49841306356291
 10
81.11305065246479
 20
-89.3716335497057
 10
81.11305065246479
 20
-89.10050453501654
 10
81.2994303182168
 20
-88.84729001685068
 10
81.61258949782602
 20
-88.84729001685068
 10
81.92988279201754
 20
-88.84729001685068
 10
82.16449379456304
 20
-89.08672415307555
 10
82.16449379456304
 20
-89.41021861914051
 97
        0
 97
        0
 75
     2
 76
     1
 98
        0
  0
ENDBLK
  5
11A
330
117
100
AcDbEntity
  8
0
100
AcDbBlockEnd
  0
ENDSEC
  0
SECTION
  2
ENTITIES
  0
POLYLINE
  5
41
330
1F
100
AcDbEntity
  8
_U+30EC_U+30A4_U+30E4_U+30FC 1
 62
   179
420
  2234388
370
    25
100
AcDb2dPolyline
 66
     1
 10
0.0
 20
0.0
 30
0.0
  0
VERTEX
  5
42
330
41
100
AcDbEntity
  8
_U+30EC_U+30A4_U+30E4_U+30FC 1
 62
   179
420
  2234388
370
    25
100
AcDbVertex
100
AcDb2dVertex
 10
42.46527221160584
 20
-82.19101331278554
 30
0.0
  0
VERTEX
  5
43
330
41
100
AcDbEntity
  8
_U+30EC_U+30A4_U+30E4_U+30FC 1
 62
   179
420
  2234388
370
    25
100
AcDbVertex
100
AcDb2dVertex
 10
55.46569636272997
 20
-82.19101331278554
 30
0.0
  0
SEQEND
  5
44
330
41
100
AcDbEntity
  8
_U+30EC_U+30A4_U+30E4_U+30FC 1
 62
   179
420
  2234388
370
    25
  0
POLYLINE
  5
45
330
1F
100
AcDbEntity
  8
_U+30EC_U+30A4_U+30E4_U+30FC 1
 62
   179
420
  2234388
370
    25
100
AcDb2dPolyline
 66
     1
 10
0.0
 20
0.0
 30
0.0
  0
VERTEX
  5
46
330
45
100
AcDbEntity
  8
_U+30EC_U+30A4_U+30E4_U+30FC 1
 62
   179
420
  2234388
370
    25
100
AcDbVertex
100
AcDb2dVertex
 10
79.4655913059972
 20
-82.19101331278554
 30
0.0
  0
VERTEX
  5
47
330
45
100
AcDbEntity
  8
_U+30EC_U+30A4_U+30E4_U+30FC 1
 62
   179
420
  2234388
370
    25
100
AcDbVertex
100
AcDb2dVertex
 10
79.4655913059972
 20
-83.19078553475777
 30
0.0
  0
SEQEND
  5
48
330
45
100
AcDbEntity
  8
_U+30EC_U+30A4_U+30E4_U+30FC 1
 62
   179
420
  2234388
370
    25
  0
POLYLINE
  5
49
330
1F
100
AcDbEntity
  8
_U+30EC_U+30A4_U+30E4_U+30FC 1
 62
   179
420
  2234388
370
    25
100
AcDb2dPolyline
 66
     1
 10
0.0
 20
0.0
 30
0.0
  0
VERTEX
  5
4A
330
49
100
AcDbEntity
  8
_U+30EC_U+30A4_U+30E4_U+30FC 1
 62
   179
420
  2234388
370
    25
100
AcDbVertex
100
AcDb2dVertex
 10
57.46524075616179
 20
-83.19078553475777
 30
0.0
  0
VERTEX
  5
4B
330
49
100
AcDbEntity
  8
_U+30EC_U+30A4_U+30E4_U+30FC 1
 62
   179
420
  2234388
370
    25
100
AcDbVertex
100
AcDb2dVertex
 10
79.4655913059972
 20
-83.19078553475777
 30
0.0
  0
SEQEND
  5
4C
330
49
100
AcDbEntity
  8
_U+30EC_U+30A4_U+30E4_U+30FC 1
 62
   179
420
  2234388
370
    25
  0
POLYLINE
  5
4D
330
1F
100
AcDbEntity
  8
_U+30EC_U+30A4_U+30E4_U+30FC 1
 62
   179
420
  2234388
370
    25
100
AcDb2dPolyline
 66
     1
 10
0.0
 20
0.0
 30
0.0
  0
VERTEX
  5
4E
330
4D
100
AcDbEntity
  8
_U+30EC_U+30A4_U+30E4_U+30FC 1
 62
   179
420
  2234388
370
    25
100
AcDbVertex
100
AcDb2dVertex
 10
42.46527221160584
 20
-82.19101331278554
 30
0.0
  0
VERTEX
  5
4F
330
4D
100
AcDbEntity
  8
_U+30EC_U+30A4_U+30E4_U+30FC 1
 62
   179
420
  2234388
370
    25
100
AcDbVertex
100
AcDb2dVertex
 10
42.46527221160584
 20
-83.19096192364664
 30
0.0
  0
SEQEND
  5
50
330
4D
100
AcDbEntity
  8
_U+30EC_U+30A4_U+30E4_U+30FC 1
 62
   179
420
  2234388
370
    25
  0
POLYLINE
  5
51
330
1F
100
AcDbEntity
  8
_U+30EC_U+30A4_U+30E4_U+30FC 1
 62
   179
420
  2234388
370
    25
100
AcDb2dPolyline
 66
     1
 10
0.0
 20
0.0
 30
0.0
  0
VERTEX
  5
52
330
51
100
AcDbEntity
  8
_U+30EC_U+30A4_U+30E4_U+30FC 1
 62
   179
420
  2234388
370
    25
100
AcDbVertex
100
AcDb2dVertex
 10
54.46521861047651
 20
-83.19096192364664
 30
0.0
  0
VERTEX
  5
53
330
51
100
AcDbEntity
  8
_U+30EC_U+30A4_U+30E4_U+30FC 1
 62
   179
420
  2234388
370
    25
100
AcDbVertex
100
AcDb2dVertex
 10
54.46521861047651
 20
-99.69073136396636
 30
0.0
  0
SEQEND
  5
54
330
51
100
AcDbEntity
  8
_U+30EC_U+30A4_U+30E4_U+30FC 1
 62
   179
420
  2234388
370
    25
  0
POLYLINE
  5
55
330
1F
100
AcDbEntity
  8
_U+30EC_U+30A4_U+30E4_U+30FC 1
 62
   179
420
  2234388
370
    25
100
AcDb2dPolyline
 66
     1
 10
0.0
 20
0.0
 30
0.0
  0
VERTEX
  5
56
330
55
100
AcDbEntity
  8
_U+30EC_U+30A4_U+30E4_U+30FC 1
 62
   179
420
  2234388
370
    25
100
AcDbVertex
100
AcDb2dVertex
 10
64.46565696645519
 20
-98.69095914199383
 30
0.0
  0
VERTEX
  5
57
330
55
100
AcDbEntity
  8
_U+30EC_U+30A4_U+30E4_U+30FC 1
 62
   179
420
  2234388
370
    25
100
AcDbVertex
100
AcDb2dVertex
 10
64.46565696645519
 20
-99.19084525297977
 30
0.0
  0
SEQEND
  5
58
330
55
100
AcDbEntity
  8
_U+30EC_U+30A4_U+30E4_U+30FC 1
 62
   179
420
  2234388
370
    25
  0
POLYLINE
  5
59
330
1F
100
AcDbEntity
  8
_U+30EC_U+30A4_U+30E4_U+30FC 1
 62
   179
420
  2234388
370
    25
100
AcDb2dPolyline
 66
     1
 10
0.0
 20
0.0
 30
0.0
  0
VERTEX
  5
5A
330
59
100
AcDbEntity
  8
_U+30EC_U+30A4_U+30E4_U+30FC 1
 62
   179
420
  2234388
370
    25
100
AcDbVertex
100
AcDb2dVertex
 10
57.46524075616179
 20
-98.69095914199383
 30
0.0
  0
VERTEX
  5
5B
330
59
100
AcDbEntity
  8
_U+30EC_U+30A4_U+30E4_U+30FC 1
 62
   179
420
  2234388
370
    25
100
AcDbVertex
100
AcDb2dVertex
 10
64.46565696645519
 20
-98.69095914199383
 30
0.0
  0
SEQEND
  5
5C
330
59
100
AcDbEntity
  8
_U+30EC_U+30A4_U+30E4_U+30FC 1
 62
   179
420
  2234388
370
    25
  0
POLYLINE
  5
5D
330
1F
100
AcDbEntity
  8
_U+30EC_U+30A4_U+30E4_U+30FC 1
 62
   179
420
  2234388
370
    25
100
AcDb2dPolyline
 66
     1
 10
0.0
 20
0.0
 30
0.0
  0
VERTEX
  5
5E
330
5D
100
AcDbEntity
  8
_U+30EC_U+30A4_U+30E4_U+30FC 1
 62
   179
420
  2234388
370
    25
100
AcDbVertex
100
AcDb2dVertex
 10
56.46546855944588
 20
-82.19101331278554
 30
0.0
  0
VERTEX
  5
5F
330
5D
100
AcDbEntity
  8
_U+30EC_U+30A4_U+30E4_U+30FC 1
 62
   179
420
  2234388
370
    25
100
AcDbVertex
100
AcDb2dVertex
 10
79.4655913059972
 20
-82.19101331278554
 30
0.0
  0
SEQEND
  5
60
330
5D
100
AcDbEntity
  8
_U+30EC_U+30A4_U+30E4_U+30FC 1
 62
   179
420
  2234388
370
    25
  0
POLYLINE
  5
61
330
1F
100
AcDbEntity
  8
_U+30EC_U+30A4_U+30E4_U+30FC 1
 62
   179
420
  2234388
370
    25
100
AcDb2dPolyline
 66
     1
 10
0.0
 20
0.0
 30
0.0
  0
VERTEX
  5
62
330
61
100
AcDbEntity
  8
_U+30EC_U+30A4_U+30E4_U+30FC 1
 62
   179
420
  2234388
370
    25
100
AcDbVertex
100
AcDb2dVertex
 10
42.46527221160584
 20
-83.19096192364664
 30
0.0
  0
VERTEX
  5
63
330
61
100
AcDbEntity
  8
_U+30EC_U+30A4_U+30E4_U+30FC 1
 62
   179
420
  2234388
370
    25
100
AcDbVertex
100
AcDb2dVertex
 10
54.46521861047651
 20
-83.19096192364664
 30
0.0
  0
SEQEND
  5
64
330
61
100
AcDbEntity
  8
_U+30EC_U+30A4_U+30E4_U+30FC 1
 62
   179
420
  2234388
370
    25
  0
POLYLINE
  5
65
330
1F
100
AcDbEntity
  8
_U+30EC_U+30A4_U+30E4_U+30FC 1
 62
   179
420
  2234388
370
    25
100
AcDb2dPolyline
 66
     1
 10
0.0
 20
0.0
 30
0.0
  0
VERTEX
  5
66
330
65
100
AcDbEntity
  8
_U+30EC_U+30A4_U+30E4_U+30FC 1
 62
   179
420
  2234388
370
    25
100
AcDbVertex
100
AcDb2dVertex
 10
55.46569636272997
 20
-82.19101331278554
 30
0.0
  0
VERTEX
  5
67
330
65
100
AcDbEntity
  8
_U+30EC_U+30A4_U+30E4_U+30FC 1
 62
   179
420
  2234388
370
    25
100
AcDbVertex
100
AcDb2dVertex
 10
55.46569636272997
 20
-98.69095914199383
 30
0.0
  0
SEQEND
  5
68
330
65
100
AcDbEntity
  8
_U+30EC_U+30A4_U+30E4_U+30FC 1
 62
   179
420
  2234388
370
    25
  0
POLYLINE
  5
69
330
1F
100
AcDbEntity
  8
_U+30EC_U+30A4_U+30E4_U+30FC 1
 62
   179
420
  2234388
370
    25
100
AcDb2dPolyline
 66
     1
 10
0.0
 20
0.0
 30
0.0
  0
VERTEX
  5
6A
330
69
100
AcDbEntity
  8
_U+30EC_U+30A4_U+30E4_U+30FC 1
 62
   179
420
  2234388
370
    25
100
AcDbVertex
100
AcDb2dVertex
 10
56.46546855944588
 20
-82.19101331278554
 30
0.0
  0
VERTEX
  5
6B
330
69
100
AcDbEntity
  8
_U+30EC_U+30A4_U+30E4_U+30FC 1
 62
   179
420
  2234388
370
    25
100
AcDbVertex
100
AcDb2dVertex
 10
56.46546855944588
 20
-98.69095914199383
 30
0.0
  0
SEQEND
  5
6C
330
69
100
AcDbEntity
  8
_U+30EC_U+30A4_U+30E4_U+30FC 1
 62
   179
420
  2234388
370
    25
  0
POLYLINE
  5
6D
330
1F
100
AcDbEntity
  8
_U+30EC_U+30A4_U+30E4_U+30FC 1
 62
   179
420
  2234388
370
    25
100
AcDb2dPolyline
 66
     1
 10
0.0
 20
0.0
 30
0.0
  0
VERTEX
  5
6E
330
6D
100
AcDbEntity
  8
_U+30EC_U+30A4_U+30E4_U+30FC 1
 62
   179
420
  2234388
370
    25
100
AcDbVertex
100
AcDb2dVertex
 10
57.46524075616179
 20
-83.19078553475777
 30
0.0
  0
VERTEX
  5
6F
330
6D
100
AcDbEntity
  8
_U+30EC_U+30A4_U+30E4_U+30FC 1
 62
   179
420
  2234388
370
    25
100
AcDbVertex
100
AcDb2dVertex
 10
57.46524075616179
 20
-98.69095914199383
 30
0.0
  0
SEQEND
  5
70
330
6D
100
AcDbEntity
  8
_U+30EC_U+30A4_U+30E4_U+30FC 1
 62
   179
420
  2234388
370
    25
  0
POLYLINE
  5
71
330
1F
100
AcDbEntity
  8
_U+30EC_U+30A4_U+30E4_U+30FC 1
 62
   179
420
  2234388
370
    25
100
AcDb2dPolyline
 66
     1
 10
0.0
 20
0.0
 30
0.0
  0
VERTEX
  5
72
330
71
100
AcDbEntity
  8
_U+30EC_U+30A4_U+30E4_U+30FC 1
 62
   179
420
  2234388
370
    25
100
AcDbVertex
100
AcDb2dVertex
 10
55.46569636272997
 20
-98.69095914199383
 30
0.0
  0
VERTEX
  5
73
330
71
100
AcDbEntity
  8
_U+30EC_U+30A4_U+30E4_U+30FC 1
 62
   179
420
  2234388
370
    25
100
AcDbVertex
100
AcDb2dVertex
 10
56.46546855944588
 20
-98.69095914199383
 30
0.0
  0
SEQEND
  5
74
330
71
100
AcDbEntity
  8
_U+30EC_U+30A4_U+30E4_U+30FC 1
 62
   179
420
  2234388
370
    25
  0
POLYLINE
  5
75
330
1F
100
AcDbEntity
  8
_U+30EC_U+30A4_U+30E4_U+30FC 1
 62
   179
420
  2234388
370
    25
100
AcDb2dPolyline
 66
     1
 10
0.0
 20
0.0
 30
0.0
  0
VERTEX
  5
76
330
75
100
AcDbEntity
  8
_U+30EC_U+30A4_U+30E4_U+30FC 1
 62
   179
420
  2234388
370
    25
100
AcDbVertex
100
AcDb2dVertex
 10
54.46521861047651
 20
-99.69073136396636
 30
0.0
  0
VERTEX
  5
77
330
75
100
AcDbEntity
  8
_U+30EC_U+30A4_U+30E4_U+30FC 1
 62
   179
420
  2234388
370
    25
100
AcDbVertex
100
AcDb2dVertex
 10
64.46565696645519
 20
-99.19084525297977
 30
0.0
  0
SEQEND
  5
78
330
75
100
AcDbEntity
  8
_U+30EC_U+30A4_U+30E4_U+30FC 1
 62
   179
420
  2234388
370
    25
  0
SPLINE
  5
79
330
1F
100
AcDbEntity
  8
_U+30EC_U+30A4_U+30E4_U+30FC 1
 62
   179
420
  2234388
370
     9
100
AcDbSpline
210
0.0
220
0.0
230
1.0
 70
    11
 71
     3
 72
    17
 73
    13
 74
     0
 42
0.0000000001
 43
0.0000000001
 12
1.0
 22
0.0
 32
0.0
 13
1.0
 23
0.0
 33
0.0
 40
0.0
 40
0.0
 40
0.0
 40
0.0
 40
1.0
 40
1.0
 40
1.0
 40
2.0
 40
2.0
 40
2.0
 40
3.0
 40
3.0
 40
3.0
 40
4.0
 40
4.0
 40
4.0
 40
4.0
 10
79.56549998010894
 20
-78.19093664711906
 30
0.0
 10
79.56549998010894
 20
-78.13544470268822
 30
0.0
 10
79.52073047125715
 20
-78.09067720269965
 30
0.0
 10
79.4655913059972
 20
-78.09067720269965
 30
0.0
 10
79.41048741851412
 20
-78.09067720269965
 30
0.0
 10
79.36568464187937
 20
-78.13544470268822
 30
0.0
 10
79.36568464187937
 20
-78.19093664711906
 30
0.0
 10
79.36568464187937
 20
-78.24604053599397
 30
0.0
 10
79.41048741851412
 20
-78.29084331376069
 30
0.0
 10
79.4655913059972
 20
-78.29084331376069
 30
0.0
 10
79.52073047125715
 20
-78.29084331376069
 30
0.0
 10
79.56549998010894
 20
-78.24604053599397
 30
0.0
 10
79.56549998010894
 20
-78.19093664711906
 30
0.0
  0
SPLINE
  5
7A
330
1F
100
AcDbEntity
  8
_U+30EC_U+30A4_U+30E4_U+30FC 1
 62
   179
420
  2234388
370
     9
100
AcDbSpline
210
0.0
220
0.0
230
1.0
 70
    11
 71
     3
 72
    17
 73
    13
 74
     0
 42
0.0000000001
 43
0.0000000001
 12
1.0
 22
0.0
 32
0.0
 13
1.0
 23
0.0
 33
0.0
 40
0.0
 40
0.0
 40
0.0
 40
0.0
 40
1.0
 40
1.0
 40
1.0
 40
2.0
 40
2.0
 40
2.0
 40
3.0
 40
3.0
 40
3.0
 40
4.0
 40
4.0
 40
4.0
 40
4.0
 10
83.56525703473935
 20
-82.19101331278554
 30
0.0
 10
83.56525703473935
 20
-82.13520386835509
 30
0.0
 10
83.52049164578662
 20
-82.0911066461439
 30
0.0
 10
83.46535037062151
 20
-82.0911066461439
 30
0.0
 10
83.41024648313844
 20
-82.0911066461439
 30
0.0
 10
83.36544370650368
 20
-82.13520386835509
 30
0.0
 10
83.36544370650368
 20
-82.19101331278554
 30
0.0
 10
83.36544370650368
 20
-82.24615247943862
 30
0.0
 10
83.41024648313844
 20
-82.29091997942717
 30
0.0
 10
83.46535037062151
 20
-82.29091997942717
 30
0.0
 10
83.52049164578662
 20
-82.29091997942717
 30
0.0
 10
83.56525703473935
 20
-82.24615247943862
 30
0.0
 10
83.56525703473935
 20
-82.19101331278554
 30
0.0
  0
SPLINE
  5
7B
330
1F
100
AcDbEntity
  8
_U+30EC_U+30A4_U+30E4_U+30FC 1
 62
   179
420
  2234388
370
     9
100
AcDbSpline
210
0.0
220
0.0
230
1.0
 70
    11
 71
     3
 72
    17
 73
    13
 74
     0
 42
0.0000000001
 43
0.0000000001
 12
1.0
 22
0.0
 32
0.0
 13
1.0
 23
0.0
 33
0.0
 40
0.0
 40
0.0
 40
0.0
 40
0.0
 40
1.0
 40
1.0
 40
1.0
 40
2.0
 40
2.0
 40
2.0
 40
3.0
 40
3.0
 40
3.0
 40
4.0
 40
4.0
 40
4.0
 40
4.0
 10
83.56525703473935
 20
-83.19078553475777
 30
0.0
 10
83.56525703473935
 20
-83.13568164588284
 30
0.0
 10
83.52049164578662
 20
-83.09087886811612
 30
0.0
 10
83.46535037062151
 20
-83.09087886811612
 30
0.0
 10
83.41024648313844
 20
-83.09087886811612
 30
0.0
 10
83.36544370650368
 20
-83.13568164588284
 30
0.0
 10
83.36544370650368
 20
-83.19078553475777
 30
0.0
 10
83.36544370650368
 20
-83.24592470141084
 30
0.0
 10
83.41024648313844
 20
-83.2906922013994
 30
0.0
 10
83.46535037062151
 20
-83.2906922013994
 30
0.0
 10
83.52049164578662
 20
-83.2906922013994
 30
0.0
 10
83.56525703473935
 20
-83.24592470141084
 30
0.0
 10
83.56525703473935
 20
-83.19078553475777
 30
0.0
  0
SPLINE
  5
7C
330
1F
100
AcDbEntity
  8
_U+30EC_U+30A4_U+30E4_U+30FC 1
 62
   179
420
  2234388
370
     9
100
AcDbSpline
210
0.0
220
0.0
230
1.0
 70
    11
 71
     3
 72
    17
 73
    13
 74
     0
 42
0.0000000001
 43
0.0000000001
 12
1.0
 22
0.0
 32
0.0
 13
1.0
 23
0.0
 33
0.0
 40
0.0
 40
0.0
 40
0.0
 40
0.0
 40
1.0
 40
1.0
 40
1.0
 40
2.0
 40
2.0
 40
2.0
 40
3.0
 40
3.0
 40
3.0
 40
4.0
 40
4.0
 40
4.0
 40
4.0
 10
42.56517780296073
 20
-78.19093664711906
 30
0.0
 10
42.56517780296073
 20
-78.13544470268822
 30
0.0
 10
42.52041030410285
 20
-78.09067720269965
 30
0.0
 10
42.46527221160584
 20
-78.09067720269965
 30
0.0
 10
42.41016725135983
 20
-78.09067720269965
 30
0.0
 10
42.36536447472506
 20
-78.13544470268822
 30
0.0
 10
42.36536447472506
 20
-78.19093664711906
 30
0.0
 10
42.36536447472506
 20
-78.24604053599397
 30
0.0
 10
42.41016725135983
 20
-78.29084331376069
 30
0.0
 10
42.46527221160584
 20
-78.29084331376069
 30
0.0
 10
42.52041030410285
 20
-78.29084331376069
 30
0.0
 10
42.56517780296073
 20
-78.24604053599397
 30
0.0
 10
42.56517780296073
 20
-78.19093664711906
 30
0.0
  0
SPLINE
  5
7D
330
1F
100
AcDbEntity
  8
_U+30EC_U+30A4_U+30E4_U+30FC 1
 62
   179
420
  2234388
370
     9
100
AcDbSpline
210
0.0
220
0.0
230
1.0
 70
    11
 71
     3
 72
    17
 73
    13
 74
     0
 42
0.0000000001
 43
0.0000000001
 12
1.0
 22
0.0
 32
0.0
 13
1.0
 23
0.0
 33
0.0
 40
0.0
 40
0.0
 40
0.0
 40
0.0
 40
1.0
 40
1.0
 40
1.0
 40
2.0
 40
2.0
 40
2.0
 40
3.0
 40
3.0
 40
3.0
 40
4.0
 40
4.0
 40
4.0
 40
4.0
 10
64.56556363057302
 20
-103.6911608074106
 30
0.0
 10
64.56556363057302
 20
-103.6353513629802
 30
0.0
 10
64.52079613171513
 20
-103.590583862991
 30
0.0
 10
64.46565696645519
 20
-103.590583862991
 30
0.0
 10
64.41055307897211
 20
-103.590583862991
 30
0.0
 10
64.36575030233735
 20
-103.6353513629802
 30
0.0
 10
64.36575030233735
 20
-103.6911608074106
 30
0.0
 10
64.36575030233735
 20
-103.7462999740637
 30
0.0
 10
64.41055307897211
 20
-103.7910674740523
 30
0.0
 10
64.46565696645519
 20
-103.7910674740523
 30
0.0
 10
64.52079613171513
 20
-103.7910674740523
 30
0.0
 10
64.56556363057302
 20
-103.7462999740637
 30
0.0
 10
64.56556363057302
 20
-103.6911608074106
 30
0.0
  0
SPLINE
  5
7E
330
1F
100
AcDbEntity
  8
_U+30EC_U+30A4_U+30E4_U+30FC 1
 62
   179
420
  2234388
370
     9
100
AcDbSpline
210
0.0
220
0.0
230
1.0
 70
    11
 71
     3
 72
    17
 73
    13
 74
     0
 42
0.0000000001
 43
0.0000000001
 12
1.0
 22
0.0
 32
0.0
 13
1.0
 23
0.0
 33
0.0
 40
0.0
 40
0.0
 40
0.0
 40
0.0
 40
1.0
 40
1.0
 40
1.0
 40
2.0
 40
2.0
 40
2.0
 40
3.0
 40
3.0
 40
3.0
 40
4.0
 40
4.0
 40
4.0
 40
4.0
 10
54.56516055237122
 20
-103.6911608074106
 30
0.0
 10
54.56516055237122
 20
-103.6353513629802
 30
0.0
 10
54.52035777573646
 20
-103.590583862991
 30
0.0
 10
54.46521861047651
 20
-103.590583862991
 30
0.0
 10
54.41011472299344
 20
-103.590583862991
 30
0.0
 10
54.36531194635867
 20
-103.6353513629802
 30
0.0
 10
54.36531194635867
 20
-103.6911608074106
 30
0.0
 10
54.36531194635867
 20
-103.7462999740637
 30
0.0
 10
54.41011472299344
 20
-103.7910674740523
 30
0.0
 10
54.46521861047651
 20
-103.7910674740523
 30
0.0
 10
54.52035777573646
 20
-103.7910674740523
 30
0.0
 10
54.56516055237122
 20
-103.7462999740637
 30
0.0
 10
54.56516055237122
 20
-103.6911608074106
 30
0.0
  0
SPLINE
  5
7F
330
1F
100
AcDbEntity
  8
_U+30EC_U+30A4_U+30E4_U+30FC 1
 62
   179
420
  2234388
370
     9
100
AcDbSpline
210
0.0
220
0.0
230
1.0
 70
    11
 71
     3
 72
    17
 73
    13
 74
     0
 42
0.0000000001
 43
0.0000000001
 12
1.0
 22
0.0
 32
0.0
 13
1.0
 23
0.0
 33
0.0
 40
0.0
 40
0.0
 40
0.0
 40
0.0
 40
1.0
 40
1.0
 40
1.0
 40
2.0
 40
2.0
 40
2.0
 40
3.0
 40
3.0
 40
3.0
 40
4.0
 40
4.0
 40
4.0
 40
4.0
 10
42.56517780296073
 20
-103.6911608074106
 30
0.0
 10
42.56517780296073
 20
-103.6353513629802
 30
0.0
 10
42.52041030410285
 20
-103.590583862991
 30
0.0
 10
42.46527221160584
 20
-103.590583862991
 30
0.0
 10
42.41016725135983
 20
-103.590583862991
 30
0.0
 10
42.36536447472506
 20
-103.6353513629802
 30
0.0
 10
42.36536447472506
 20
-103.6911608074106
 30
0.0
 10
42.36536447472506
 20
-103.7462999740637
 30
0.0
 10
42.41016725135983
 20
-103.7910674740523
 30
0.0
 10
42.46527221160584
 20
-103.7910674740523
 30
0.0
 10
42.52041030410285
 20
-103.7910674740523
 30
0.0
 10
42.56517780296073
 20
-103.7462999740637
 30
0.0
 10
42.56517780296073
 20
-103.6911608074106
 30
0.0
  0
SPLINE
  5
80
330
1F
100
AcDbEntity
  8
_U+30EC_U+30A4_U+30E4_U+30FC 1
 62
   179
420
  2234388
370
     9
100
AcDbSpline
210
0.0
220
0.0
230
1.0
 70
    11
 71
     3
 72
    17
 73
    13
 74
     0
 42
0.0000000001
 43
0.0000000001
 12
1.0
 22
0.0
 32
0.0
 13
1.0
 23
0.0
 33
0.0
 40
0.0
 40
0.0
 40
0.0
 40
0.0
 40
1.0
 40
1.0
 40
1.0
 40
2.0
 40
2.0
 40
2.0
 40
3.0
 40
3.0
 40
3.0
 40
4.0
 40
4.0
 40
4.0
 40
4.0
 10
68.56532269519734
 20
-98.69095914199383
 30
0.0
 10
68.56532269519734
 20
-98.6358552531189
 30
0.0
 10
68.52051991856257
 20
-98.59105247535219
 30
0.0
 10
68.4654160310795
 20
-98.59105247535219
 30
0.0
 10
68.41027686581954
 20
-98.59105247535219
 30
0.0
 10
68.36551109401955
 20
-98.6358552531189
 30
0.0
 10
68.36551109401955
 20
-98.69095914199383
 30
0.0
 10
68.36551109401955
 20
-98.7460983086469
 30
0.0
 10
68.41027686581954
 20
-98.79086580863546
 30
0.0
 10
68.4654160310795
 20
-98.79086580863546
 30
0.0
 10
68.52051991856257
 20
-98.79086580863546
 30
0.0
 10
68.56532269519734
 20
-98.7460983086469
 30
0.0
 10
68.56532269519734
 20
-98.69095914199383
 30
0.0
  0
SPLINE
  5
81
330
1F
100
AcDbEntity
  8
_U+30EC_U+30A4_U+30E4_U+30FC 1
 62
   179
420
  2234388
370
     9
100
AcDbSpline
210
0.0
220
0.0
230
1.0
 70
    11
 71
     3
 72
    17
 73
    13
 74
     0
 42
0.0000000001
 43
0.0000000001
 12
1.0
 22
0.0
 32
0.0
 13
1.0
 23
0.0
 33
0.0
 40
0.0
 40
0.0
 40
0.0
 40
0.0
 40
1.0
 40
1.0
 40
1.0
 40
2.0
 40
2.0
 40
2.0
 40
3.0
 40
3.0
 40
3.0
 40
4.0
 40
4.0
 40
4.0
 40
4.0
 10
68.56532269519734
 20
-99.1901396974249
 30
0.0
 10
68.56532269519734
 20
-99.13503580854933
 30
0.0
 10
68.52051991856257
 20
-99.09023303078325
 30
0.0
 10
68.4654160310795
 20
-99.09023303078325
 30
0.0
 10
68.41027686581954
 20
-99.09023303078325
 30
0.0
 10
68.36551109401955
 20
-99.13503580854933
 30
0.0
 10
68.36551109401955
 20
-99.1901396974249
 30
0.0
 10
68.36551109401955
 20
-99.24527886407733
 30
0.0
 10
68.41027686581954
 20
-99.29004636406653
 30
0.0
 10
68.4654160310795
 20
-99.29004636406653
 30
0.0
 10
68.52051991856257
 20
-99.29004636406653
 30
0.0
 10
68.56532269519734
 20
-99.24527886407733
 30
0.0
 10
68.56532269519734
 20
-99.1901396974249
 30
0.0
  0
SPLINE
  5
82
330
1F
100
AcDbEntity
  8
_U+30EC_U+30A4_U+30E4_U+30FC 1
 62
   179
420
  2234388
370
     9
100
AcDbSpline
210
0.0
220
0.0
230
1.0
 70
    11
 71
     3
 72
    17
 73
    13
 74
     0
 42
0.0000000001
 43
0.0000000001
 12
1.0
 22
0.0
 32
0.0
 13
1.0
 23
0.0
 33
0.0
 40
0.0
 40
0.0
 40
0.0
 40
0.0
 40
1.0
 40
1.0
 40
1.0
 40
2.0
 40
2.0
 40
2.0
 40
3.0
 40
3.0
 40
3.0
 40
4.0
 40
4.0
 40
4.0
 40
4.0
 10
83.56525703473935
 20
-98.69095914199383
 30
0.0
 10
83.56525703473935
 20
-98.6358552531189
 30
0.0
 10
83.52049164578662
 20
-98.59105247535219
 30
0.0
 10
83.46535037062151
 20
-98.59105247535219
 30
0.0
 10
83.41024648313844
 20
-98.59105247535219
 30
0.0
 10
83.36544370650368
 20
-98.6358552531189
 30
0.0
 10
83.36544370650368
 20
-98.69095914199383
 30
0.0
 10
83.36544370650368
 20
-98.7460983086469
 30
0.0
 10
83.41024648313844
 20
-98.79086580863546
 30
0.0
 10
83.46535037062151
 20
-98.79086580863546
 30
0.0
 10
83.52049164578662
 20
-98.79086580863546
 30
0.0
 10
83.56525703473935
 20
-98.7460983086469
 30
0.0
 10
83.56525703473935
 20
-98.69095914199383
 30
0.0
  0
INSERT
  5
84
330
1F
100
AcDbEntity
  8
_U+30EC_U+30A4_U+30E4_U+30FC 1
100
AcDbBlockReference
  2
block 2
 10
0.0
 20
0.0
 30
0.0
  0
INSERT
  5
9E
330
1F
100
AcDbEntity
  8
_U+30EC_U+30A4_U+30E4_U+30FC 1
100
AcDbBlockReference
  2
block 4
 10
0.0
 20
0.0
 30
0.0
  0
INSERT
  5
B6
330
1F
100
AcDbEntity
  8
_U+30EC_U+30A4_U+30E4_U+30FC 1
100
AcDbBlockReference
  2
block 6
 10
0.0
 20
0.0
 30
0.0
  0
INSERT
  5
DB
330
1F
100
AcDbEntity
  8
_U+30EC_U+30A4_U+30E4_U+30FC 1
100
AcDbBlockReference
  2
block 8
 10
0.0
 20
0.0
 30
0.0
  0
INSERT
  5
F4
330
1F
100
AcDbEntity
  8
_U+30EC_U+30A4_U+30E4_U+30FC 1
100
AcDbBlockReference
  2
block 10
 10
0.0
 20
0.0
 30
0.0
  0
INSERT
  5
108
330
1F
100
AcDbEntity
  8
_U+30EC_U+30A4_U+30E4_U+30FC 1
100
AcDbBlockReference
  2
block 12
 10
0.0
 20
0.0
 30
0.0
  0
ENDSEC
  0
SECTION
  2
OBJECTS
  0
DICTIONARY
  5
C
330
0
100
AcDbDictionary
281
     1
  3
ACAD_GROUP
350
D
  3
ACAD_LAYOUT
350
1A
  3
ACAD_MATERIAL
350
3B
  3
ACAD_MLEADERSTYLE
350
12A
  3
ACAD_MLINESTYLE
350
17
  3
ACAD_PLOTSETTINGS
350
19
  3
ACAD_PLOTSTYLENAME
350
E
  3
ACAD_TABLESTYLE
350
129
  3
ACAD_VISUALSTYLE
350
2A
  0
SUN
  5
3F
330
29
100
AcDbSun
 90
        1
290
     0
 63
     7
421
 16777215
 40
1.0
291
     1
 91
  2455826
 92
 54000000
292
     0
 70
     2
 71
   256
280
     1
  0
DICTIONARY
  5
D
102
{ACAD_REACTORS
330
C
102
}
330
C
100
AcDbDictionary
281
     1
  0
DICTIONARY
  5
1A
102
{ACAD_REACTORS
330
C
102
}
330
C
100
AcDbDictionary
281
     1
  3
Layout1
350
1E
  3
Layout2
350
26
  3
Model
350
22
  0
DICTIONARY
  5
3B
102
{ACAD_REACTORS
330
C
102
}
330
C
100
AcDbDictionary
281
     1
  3
ByBlock
350
3D
  3
ByLayer
350
3C
  3
Global
350
3E
  0
DICTIONARY
  5
12A
102
{ACAD_REACTORS
330
C
102
}
330
C
100
AcDbDictionary
281
     1
  0
DICTIONARY
  5
17
102
{ACAD_REACTORS
330
C
102
}
330
C
100
AcDbDictionary
281
     1
  3
Standard
350
18
  0
DICTIONARY
  5
19
102
{ACAD_REACTORS
330
C
102
}
330
C
100
AcDbDictionary
281
     1
  0
ACDBDICTIONARYWDFLT
  5
E
102
{ACAD_REACTORS
330
C
102
}
330
C
100
AcDbDictionary
281
     1
  3
Normal
350
F
100
AcDbDictionaryWithDefault
340
F
  0
DICTIONARY
  5
129
102
{ACAD_REACTORS
330
C
102
}
330
C
100
AcDbDictionary
281
     1
  0
DICTIONARY
  5
2A
102
{ACAD_REACTORS
330
C
102
}
330
C
100
AcDbDictionary
281
     1
  3
2dWireframe
350
2F
  3
3D Hidden
350
31
  3
3dWireframe
350
30
  3
Basic
350
32
  3
Brighten
350
36
  3
ColorChange
350
3A
  3
Conceptual
350
34
  3
Dim
350
35
  3
Facepattern
350
39
  3
Flat
350
2B
  3
FlatWithEdges
350
2C
  3
Gouraud
350
2D
  3
GouraudWithEdges
350
2E
  3
Linepattern
350
38
  3
Realistic
350
33
  3
Thicken
350
37
  0
LAYOUT
  5
1E
102
{ACAD_REACTORS
330
1A
102
}
330
1A
100
AcDbPlotSettings
  1

  2
none_device
  4

  6

 40
0.0
 41
0.0
 42
0.0
 43
0.0
 44
0.0
 45
0.0
 46
0.0
 47
0.0
 48
0.0
 49
0.0
140
0.0
141
0.0
142
1.0
143
1.0
 70
   688
 72
     0
 73
     0
 74
     5
  7

 75
    16
 76
     0
 77
     2
 78
   300
147
1.0
148
0.0
149
0.0
100
AcDbLayout
  1
Layout1
 70
     1
 71
     1
 10
0.0
 20
0.0
 11
12.0
 21
9.0
 12
0.0
 22
0.0
 32
0.0
 14
1.000000000000000E+20
 24
1.000000000000000E+20
 34
1.000000000000000E+20
 15
-1.000000000000000E+20
 25
-1.000000000000000E+20
 35
-1.000000000000000E+20
146
0.0
 13
0.0
 23
0.0
 33
0.0
 16
1.0
 26
0.0
 36
0.0
 17
0.0
 27
1.0
 37
0.0
 76
     0
330
1B
  0
LAYOUT
  5
26
102
{ACAD_REACTORS
330
1A
102
}
330
1A
100
AcDbPlotSettings
  1

  2
none_device
  4

  6

 40
0.0
 41
0.0
 42
0.0
 43
0.0
 44
0.0
 45
0.0
 46
0.0
 47
0.0
 48
0.0
 49
0.0
140
0.0
141
0.0
142
1.0
143
1.0
 70
   688
 72
     0
 73
     0
 74
     5
  7

 75
    16
 76
     0
 77
     2
 78
   300
147
1.0
148
0.0
149
0.0
100
AcDbLayout
  1
Layout2
 70
     1
 71
     2
 10
0.0
 20
0.0
 11
0.0
 21
0.0
 12
0.0
 22
0.0
 32
0.0
 14
0.0
 24
0.0
 34
0.0
 15
0.0
 25
0.0
 35
0.0
146
0.0
 13
0.0
 23
0.0
 33
0.0
 16
1.0
 26
0.0
 36
0.0
 17
0.0
 27
1.0
 37
0.0
 76
     0
330
23
  0
LAYOUT
  5
22
102
{ACAD_REACTORS
330
1A
102
}
330
1A
100
AcDbPlotSettings
  1

  2
none_device
  4

  6

 40
0.0
 41
0.0
 42
0.0
 43
0.0
 44
0.0
 45
0.0
 46
0.0
 47
0.0
 48
0.0
 49
0.0
140
0.0
141
0.0
142
1.0
143
1.0
 70
  1712
 72
     0
 73
     0
 74
     0
  7

 75
     0
 76
     0
 77
     2
 78
   300
147
1.0
148
0.0
149
0.0
100
AcDbLayout
  1
Model
 70
     1
 71
     0
 10
0.0
 20
0.0
 11
12.0
 21
9.0
 12
0.0
 22
0.0
 32
0.0
 14
1.000000000000000E+20
 24
1.000000000000000E+20
 34
1.000000000000000E+20
 15
-1.000000000000000E+20
 25
-1.000000000000000E+20
 35
-1.000000000000000E+20
146
0.0
 13
0.0
 23
0.0
 33
0.0
 16
1.0
 26
0.0
 36
0.0
 17
0.0
 27
1.0
 37
0.0
 76
     0
330
1F
331
29
  0
MATERIAL
  5
3D
102
{ACAD_REACTORS
330
3B
102
}
330
3B
100
AcDbMaterial
  1
ByBlock
 72
     1
 94
      127
  0
MATERIAL
  5
3C
102
{ACAD_REACTORS
330
3B
102
}
330
3B
100
AcDbMaterial
  1
ByLayer
 72
     1
 94
      127
  0
MATERIAL
  5
3E
102
{ACAD_REACTORS
330
3B
102
}
330
3B
100
AcDbMaterial
  1
Global
 72
     1
 94
      127
  0
MLINESTYLE
  5
18
102
{ACAD_REACTORS
330
17
102
}
330
17
100
AcDbMlineStyle
  2
Standard
 70
     0
  3

 62
   256
 51
90.0
 52
90.0
 71
     2
 49
0.5
 62
   256
  6
BYLAYER
 49
-0.5
 62
   256
  6
BYLAYER
  0
ACDBPLACEHOLDER
  5
F
102
{ACAD_REACTORS
330
E
102
}
330
E
  0
VISUALSTYLE
  5
2F
102
{ACAD_REACTORS
330
2A
102
}
330
2A
100
AcDbVisualStyle
  2
2dWireframe
 70
     4
177
     2
291
     0
 71
     0
176
     1
 72
     2
176
     1
 73
     0
176
     1
 90
        0
176
     1
 40
-0.6
176
     1
 41
-30.0
176
     1
 62
     5
 63
     7
421
 16777215
176
     1
 74
     1
176
     1
 91
        4
176
     1
 64
     7
176
     1
 65
   257
176
     1
 75
     1
176
     1
175
     1
176
     1
 42
1.0
176
     1
 92
        0
176
     1
 66
   257
176
     1
 43
1.0
176
     1
 76
     1
176
     1
 77
     6
176
     1
 78
     2
176
     1
 67
     7
176
     1
 79
     5
176
     1
170
     0
176
     1
171
     0
176
     1
290
     0
176
     1
 93
        1
176
     1
 44
0.0
176
     1
173
     0
176
     1
  0
VISUALSTYLE
  5
31
102
{ACAD_REACTORS
330
2A
102
}
330
2A
100
AcDbVisualStyle
  2
3D Hidden
 70
     6
177
     2
291
     0
 71
     1
176
     1
 72
     2
176
     1
 73
     2
176
     1
 90
        0
176
     1
 40
-0.6
176
     1
 41
-30.0
176
     1
 62
     5
 63
     7
421
 16777215
176
     1
 74
     2
176
     1
 91
        2
176
     1
 64
     7
176
     1
 65
   257
176
     1
 75
     2
176
     1
175
     1
176
     1
 42
40.0
176
     1
 92
        0
176
     1
 66
   257
176
     1
 43
1.0
176
     1
 76
     1
176
     1
 77
     6
176
     1
 78
     2
176
     1
 67
     7
176
     1
 79
     3
176
     1
170
     0
176
     1
171
     0
176
     1
290
     0
176
     1
 93
        1
176
     1
 44
0.0
176
     1
173
     0
176
     1
  0
VISUALSTYLE
  5
30
102
{ACAD_REACTORS
330
2A
102
}
330
2A
100
AcDbVisualStyle
  2
3dWireframe
 70
     5
177
     2
291
     0
 71
     0
176
     1
 72
     2
176
     1
 73
     0
176
     1
 90
        0
176
     1
 40
-0.6
176
     1
 41
-30.0
176
     1
 62
     5
 63
     7
421
 16777215
176
     1
 74
     1
176
     1
 91
        4
176
     1
 64
     7
176
     1
 65
   257
176
     1
 75
     1
176
     1
175
     1
176
     1
 42
1.0
176
     1
 92
        0
176
     1
 66
   257
176
     1
 43
1.0
176
     1
 76
     1
176
     1
 77
     6
176
     1
 78
     2
176
     1
 67
     7
176
     1
 79
     5
176
     1
170
     0
176
     1
171
     0
176
     1
290
     0
176
     1
 93
        1
176
     1
 44
0.0
176
     1
173
     0
176
     1
  0
VISUALSTYLE
  5
32
102
{ACAD_REACTORS
330
2A
102
}
330
2A
100
AcDbVisualStyle
  2
Basic
 70
     7
177
     2
291
     1
 71
     1
176
     1
 72
     0
176
     1
 73
     1
176
     1
 90
        0
176
     1
 40
-0.6
176
     1
 41
-30.0
176
     1
 62
     5
 63
     7
421
 16777215
176
     1
 74
     0
176
     1
 91
        4
176
     1
 64
     7
176
     1
 65
   257
176
     1
 75
     1
176
     1
175
     1
176
     1
 42
1.0
176
     1
 92
        8
176
     1
 66
     7
176
     1
 43
1.0
176
     1
 76
     1
176
     1
 77
     6
176
     1
 78
     2
176
     1
 67
     7
176
     1
 79
     5
176
     1
170
     0
176
     1
171
     0
176
     1
290
     0
176
     1
 93
        1
176
     1
 44
0.0
176
     1
173
     0
176
     1
  0
VISUALSTYLE
  5
36
102
{ACAD_REACTORS
330
2A
102
}
330
2A
100
AcDbVisualStyle
  2
Brighten
 70
    12
177
     2
291
     1
 71
     2
176
     1
 72
     2
176
     1
 73
     0
176
     1
 90
        0
176
     1
 40
-0.6
176
     1
 41
-30.0
176
     1
 62
     5
 63
     7
421
 16777215
176
     1
 74
     1
176
     1
 91
        4
176
     1
 64
     7
176
     1
 65
   257
176
     1
 75
     1
176
     1
175
     1
176
     1
 42
1.0
176
     1
 92
        8
176
     1
 66
     7
176
     1
 43
1.0
176
     1
 76
     1
176
     1
 77
     6
176
     1
 78
     2
176
     1
 67
     7
176
     1
 79
     5
176
     1
170
     0
176
     1
171
     0
176
     1
290
     0
176
     1
 93
        1
176
     1
 44
50.0
176
     1
173
     0
176
     1
  0
VISUALSTYLE
  5
3A
102
{ACAD_REACTORS
330
2A
102
}
330
2A
100
AcDbVisualStyle
  2
ColorChange
 70
    16
177
     2
291
     1
 71
     2
176
     1
 72
     2
176
     1
 73
     3
176
     1
 90
        0
176
     1
 40
-0.6
176
     1
 41
-30.0
176
     1
 62
     5
 63
     8
421
  8421504
176
     1
 74
     1
176
     1
 91
        4
176
     1
 64
     7
176
     1
 65
   257
176
     1
 75
     1
176
     1
175
     1
176
     1
 42
1.0
176
     1
 92
        8
176
     1
 66
     8
424
  8421504
176
     1
 43
1.0
176
     1
 76
     1
176
     1
 77
     6
176
     1
 78
     2
176
     1
 67
     7
176
     1
 79
     5
176
     1
170
     0
176
     1
171
     0
176
     1
290
     0
176
     1
 93
        1
176
     1
 44
0.0
176
     1
173
     0
176
     1
  0
VISUALSTYLE
  5
34
102
{ACAD_REACTORS
330
2A
102
}
330
2A
100
AcDbVisualStyle
  2
Conceptual
 70
     9
177
     2
291
     0
 71
     3
176
     1
 72
     2
176
     1
 73
     0
176
     1
 90
        0
176
     1
 40
-0.6
176
     1
 41
-30.0
176
     1
 62
     5
 63
     7
421
 16777215
176
     1
 74
     2
176
     1
 91
        2
176
     1
 64
     7
176
     1
 65
   257
176
     1
 75
     1
176
     1
175
     1
176
     1
 42
40.0
176
     1
 92
        8
176
     1
 66
     7
176
     1
 43
1.0
176
     1
 76
     1
176
     1
 77
     6
176
     1
 78
     2
176
     1
 67
     7
176
     1
 79
     3
176
     1
170
     0
176
     1
171
     0
176
     1
290
     0
176
     1
 93
        1
176
     1
 44
0.0
176
     1
173
     0
176
     1
  0
VISUALSTYLE
  5
35
102
{ACAD_REACTORS
330
2A
102
}
330
2A
100
AcDbVisualStyle
  2
Dim
 70
    11
177
     2
291
     1
 71
     2
176
     1
 72
     2
176
     1
 73
     0
176
     1
 90
        0
176
     1
 40
-0.6
176
     1
 41
-30.0
176
     1
 62
     5
 63
     7
421
 16777215
176
     1
 74
     1
176
     1
 91
        4
176
     1
 64
     7
176
     1
 65
   257
176
     1
 75
     1
176
     1
175
     1
176
     1
 42
1.0
176
     1
 92
        8
176
     1
 66
     7
176
     1
 43
1.0
176
     1
 76
     1
176
     1
 77
     6
176
     1
 78
     2
176
     1
 67
     7
176
     1
 79
     5
176
     1
170
     0
176
     1
171
     0
176
     1
290
     0
176
     1
 93
        1
176
     1
 44
-50.0
176
     1
173
     0
176
     1
  0
VISUALSTYLE
  5
39
102
{ACAD_REACTORS
330
2A
102
}
330
2A
100
AcDbVisualStyle
  2
Facepattern
 70
    15
177
     2
291
     1
 71
     2
176
     1
 72
     2
176
     1
 73
     0
176
     1
 90
        0
176
     1
 40
-0.6
176
     1
 41
-30.0
176
     1
 62
     5
 63
     7
421
 16777215
176
     1
 74
     1
176
     1
 91
        4
176
     1
 64
     7
176
     1
 65
   257
176
     1
 75
     1
176
     1
175
     1
176
     1
 42
1.0
176
     1
 92
        8
176
     1
 66
     7
176
     1
 43
1.0
176
     1
 76
     1
176
     1
 77
     6
176
     1
 78
     2
176
     1
 67
     7
176
     1
 79
     5
176
     1
170
     0
176
     1
171
     0
176
     1
290
     0
176
     1
 93
        1
176
     1
 44
0.0
176
     1
173
     0
176
     1
  0
VISUALSTYLE
  5
2B
102
{ACAD_REACTORS
330
2A
102
}
330
2A
100
AcDbVisualStyle
  2
Flat
 70
     0
177
     2
291
     1
 71
     2
176
     1
 72
     1
176
     1
 73
     1
176
     1
 90
        2
176
     1
 40
-0.6
176
     1
 41
30.0
176
     1
 62
     5
 63
     7
421
 16777215
176
     1
 74
     0
176
     1
 91
        4
176
     1
 64
     7
176
     1
 65
   257
176
     1
 75
     1
176
     1
175
     1
176
     1
 42
1.0
176
     1
 92
        8
176
     1
 66
     7
176
     1
 43
1.0
176
     1
 76
     1
176
     1
 77
     6
176
     1
 78
     2
176
     1
 67
     7
176
     1
 79
     5
176
     1
170
     0
176
     1
171
     0
176
     1
290
     0
176
     1
 93
       13
176
     1
 44
0.0
176
     1
173
     0
176
     1
  0
VISUALSTYLE
  5
2C
102
{ACAD_REACTORS
330
2A
102
}
330
2A
100
AcDbVisualStyle
  2
FlatWithEdges
 70
     1
177
     2
291
     1
 71
     2
176
     1
 72
     1
176
     1
 73
     1
176
     1
 90
        2
176
     1
 40
-0.6
176
     1
 41
30.0
176
     1
 62
     5
 63
     7
421
 16777215
176
     1
 74
     1
176
     1
 91
        4
176
     1
 64
     7
176
     1
 65
   257
176
     1
 75
     1
176
     1
175
     1
176
     1
 42
1.0
176
     1
 92
        0
176
     1
 66
   257
176
     1
 43
1.0
176
     1
 76
     1
176
     1
 77
     6
176
     1
 78
     2
176
     1
 67
     7
176
     1
 79
     5
176
     1
170
     0
176
     1
171
     0
176
     1
290
     0
176
     1
 93
       13
176
     1
 44
0.0
176
     1
173
     0
176
     1
  0
VISUALSTYLE
  5
2D
102
{ACAD_REACTORS
330
2A
102
}
330
2A
100
AcDbVisualStyle
  2
Gouraud
 70
     2
177
     2
291
     1
 71
     2
176
     1
 72
     2
176
     1
 73
     1
176
     1
 90
        2
176
     1
 40
-0.6
176
     1
 41
30.0
176
     1
 62
     5
 63
     7
421
 16777215
176
     1
 74
     0
176
     1
 91
        4
176
     1
 64
     7
176
     1
 65
   257
176
     1
 75
     1
176
     1
175
     1
176
     1
 42
1.0
176
     1
 92
        0
176
     1
 66
     7
176
     1
 43
1.0
176
     1
 76
     1
176
     1
 77
     6
176
     1
 78
     2
176
     1
 67
     7
176
     1
 79
     5
176
     1
170
     0
176
     1
171
     0
176
     1
290
     0
176
     1
 93
       13
176
     1
 44
0.0
176
     1
173
     0
176
     1
  0
VISUALSTYLE
  5
2E
102
{ACAD_REACTORS
330
2A
102
}
330
2A
100
AcDbVisualStyle
  2
GouraudWithEdges
 70
     3
177
     2
291
     1
 71
     2
176
     1
 72
     2
176
     1
 73
     1
176
     1
 90
        2
176
     1
 40
-0.6
176
     1
 41
30.0
176
     1
 62
     5
 63
     7
421
 16777215
176
     1
 74
     1
176
     1
 91
        4
176
     1
 64
     7
176
     1
 65
   257
176
     1
 75
     1
176
     1
175
     1
176
     1
 42
1.0
176
     1
 92
        0
176
     1
 66
   257
176
     1
 43
1.0
176
     1
 76
     1
176
     1
 77
     6
176
     1
 78
     2
176
     1
 67
     7
176
     1
 79
     5
176
     1
170
     0
176
     1
171
     0
176
     1
290
     0
176
     1
 93
       13
176
     1
 44
0.0
176
     1
173
     0
176
     1
  0
VISUALSTYLE
  5
38
102
{ACAD_REACTORS
330
2A
102
}
330
2A
100
AcDbVisualStyle
  2
Linepattern
 70
    14
177
     2
291
     1
 71
     2
176
     1
 72
     2
176
     1
 73
     0
176
     1
 90
        0
176
     1
 40
-0.6
176
     1
 41
-30.0
176
     1
 62
     5
 63
     7
421
 16777215
176
     1
 74
     1
176
     1
 91
        4
176
     1
 64
     7
176
     1
 65
   257
176
     1
 75
     7
176
     1
175
     7
176
     1
 42
1.0
176
     1
 92
        8
176
     1
 66
     7
176
     1
 43
1.0
176
     1
 76
     1
176
     1
 77
     6
176
     1
 78
     2
176
     1
 67
     7
176
     1
 79
     5
176
     1
170
     0
176
     1
171
     0
176
     1
290
     0
176
     1
 93
        1
176
     1
 44
0.0
176
     1
173
     0
176
     1
  0
VISUALSTYLE
  5
33
102
{ACAD_REACTORS
330
2A
102
}
330
2A
100
AcDbVisualStyle
  2
Realistic
 70
     8
177
     2
291
     0
 71
     2
176
     1
 72
     2
176
     1
 73
     0
176
     1
 90
        0
176
     1
 40
-0.6
176
     1
 41
-30.0
176
     1
 62
     5
 63
     7
421
 16777215
176
     1
 74
     1
176
     1
 91
        0
176
     1
 64
     7
176
     1
 65
   257
176
     1
 75
     1
176
     1
175
     1
176
     1
 42
1.0
176
     1
 92
        8
176
     1
 66
     8
424
  7895160
176
     1
 43
1.0
176
     1
 76
     1
176
     1
 77
     6
176
     1
 78
     2
176
     1
 67
     7
176
     1
 79
     5
176
     1
170
     0
176
     1
171
     0
176
     1
290
     0
176
     1
 93
       13
176
     1
 44
0.0
176
     1
173
     0
176
     1
  0
VISUALSTYLE
  5
37
102
{ACAD_REACTORS
330
2A
102
}
330
2A
100
AcDbVisualStyle
  2
Thicken
 70
    13
177
     2
291
     1
 71
     2
176
     1
 72
     2
176
     1
 73
     0
176
     1
 90
        0
176
     1
 40
-0.6
176
     1
 41
-30.0
176
     1
 62
     5
 63
     7
421
 16777215
176
     1
 74
     1
176
     1
 91
        4
176
     1
 64
     7
176
     1
 65
   257
176
     1
 75
     1
176
     1
175
     1
176
     1
 42
1.0
176
     1
 92
       12
176
     1
 66
     7
176
     1
 43
1.0
176
     1
 76
     1
176
     1
 77
     6
176
     1
 78
     2
176
     1
 67
     7
176
     1
 79
     5
176
     1
170
     0
176
     1
171
     0
176
     1
290
     0
176
     1
 93
        1
176
     1
 44
0.0
176
     1
173
     0
176
     1
  0
ENDSEC
  0
EOF
