  0
SECTION
  2
HEADER
  9
$ACADVER
  1
AC1024
  9
$ACADMAINTVER
 70
     6
  9
$DWGCODEPAGE
  3
UNDEFINED
  9
$INSBASE
 10
0.0
 20
0.0
 30
0.0
  9
$EXTMIN
 10
1.000000000000000E+20
 20
1.000000000000000E+20
 30
1.000000000000000E+20
  9
$EXTMAX
 10
-1.000000000000000E+20
 20
-1.000000000000000E+20
 30
-1.000000000000000E+20
  9
$LIMMIN
 10
0.0
 20
0.0
  9
$LIMMAX
 10
12.0
 20
9.0
  9
$ORTHOMODE
 70
     0
  9
$REGENMODE
 70
     1
  9
$FILLMODE
 70
     1
  9
$QTEXTMODE
 70
     0
  9
$MIRRTEXT
 70
     1
  9
$LTSCALE
 40
1.0
  9
$ATTMODE
 70
     1
  9
$TEXTSIZE
 40
0.2
  9
$TRACEWID
 40
0.05
  9
$TEXTSTYLE
  7
Standard
  9
$CLAYER
  8
0
  9
$CELTYPE
  6
ByLayer
  9
$CECOLOR
 62
   256
  9
$CELTSCALE
 40
1.0
  9
$DISPSILH
 70
     0
  9
$DIMSCALE
 40
1.0
  9
$DIMASZ
 40
0.18
  9
$DIMEXO
 40
0.0625
  9
$DIMDLI
 40
0.38
  9
$DIMRND
 40
0.0
  9
$DIMDLE
 40
0.0
  9
$DIMEXE
 40
0.18
  9
$DIMTP
 40
0.0
  9
$DIMTM
 40
0.0
  9
$DIMTXT
 40
0.18
  9
$DIMCEN
 40
0.09
  9
$DIMTSZ
 40
0.0
  9
$DIMTOL
 70
     0
  9
$DIMLIM
 70
     0
  9
$DIMTIH
 70
     1
  9
$DIMTOH
 70
     1
  9
$DIMSE1
 70
     0
  9
$DIMSE2
 70
     0
  9
$DIMTAD
 70
     0
  9
$DIMZIN
 70
     0
  9
$DIMBLK
  1

  9
$DIMASO
 70
     1
  9
$DIMSHO
 70
     1
  9
$DIMPOST
  1

  9
$DIMAPOST
  1

  9
$DIMALT
 70
     0
  9
$DIMALTD
 70
     2
  9
$DIMALTF
 40
25.4
  9
$DIMLFAC
 40
1.0
  9
$DIMTOFL
 70
     0
  9
$DIMTVP
 40
0.0
  9
$DIMTIX
 70
     0
  9
$DIMSOXD
 70
     0
  9
$DIMSAH
 70
     0
  9
$DIMBLK1
  1

  9
$DIMBLK2
  1

  9
$DIMSTYLE
  2
Standard
  9
$DIMCLRD
 70
     0
  9
$DIMCLRE
 70
     0
  9
$DIMCLRT
 70
     0
  9
$DIMTFAC
 40
1.0
  9
$DIMGAP
 40
0.09
  9
$DIMJUST
 70
     0
  9
$DIMSD1
 70
     0
  9
$DIMSD2
 70
     0
  9
$DIMTOLJ
 70
     1
  9
$DIMTZIN
 70
     0
  9
$DIMALTZ
 70
     0
  9
$DIMALTTZ
 70
     0
  9
$DIMUPT
 70
     0
  9
$DIMDEC
 70
     4
  9
$DIMTDEC
 70
     4
  9
$DIMALTU
 70
     2
  9
$DIMALTTD
 70
     2
  9
$DIMTXSTY
  7
Standard
  9
$DIMAUNIT
 70
     0
  9
$DIMADEC
 70
     0
  9
$DIMALTRND
 40
0.0
  9
$DIMAZIN
 70
     0
  9
$DIMDSEP
 70
    46
  9
$DIMATFIT
 70
     3
  9
$DIMFRAC
 70
     0
  9
$DIMLDRBLK
  1

  9
$DIMLUNIT
 70
     2
  9
$DIMLWD
 70
    -2
  9
$DIMLWE
 70
    -2
  9
$DIMTMOVE
 70
     0
  9
$DIMFXL
 40
1.0
  9
$DIMFXLON
 70
     0
  9
$DIMJOGANG
 40
0.7853981633974483
  9
$DIMTFILL
 70
     0
  9
$DIMTFILLCLR
 70
     0
  9
$DIMARCSYM
 70
     0
  9
$DIMLTYPE
  6

  9
$DIMLTEX1
  6

  9
$DIMLTEX2
  6

  9
$DIMTXTDIRECTION
 70
     0
  9
$LUNITS
 70
     2
  9
$LUPREC
 70
     4
  9
$SKETCHINC
 40
0.1
  9
$FILLETRAD
 40
0.5
  9
$AUNITS
 70
     0
  9
$AUPREC
 70
     0
  9
$MENU
  1
.
  9
$ELEVATION
 40
0.0
  9
$PELEVATION
 40
0.0
  9
$THICKNESS
 40
0.0
  9
$LIMCHECK
 70
     0
  9
$CHAMFERA
 40
0.5
  9
$CHAMFERB
 40
0.5
  9
$CHAMFERC
 40
1.0
  9
$CHAMFERD
 40
0.0
  9
$SKPOLY
 70
     0
  9
$TDCREATE
 40
2457917.587465278
  9
$TDUCREATE
 40
2457917.212465278
  9
$TDUPDATE
 40
2457917.587465278
  9
$TDUUPDATE
 40
2457917.212465278
  9
$TDINDWG
 40
0.0000000116
  9
$TDUSRTIMER
 40
0.0000000116
  9
$USRTIMER
 70
     1
  9
$ANGBASE
 50
0.0
  9
$ANGDIR
 70
     0
  9
$PDMODE
 70
     0
  9
$PDSIZE
 40
0.0
  9
$PLINEWID
 40
0.0
  9
$SPLFRAME
 70
     0
  9
$SPLINETYPE
 70
     6
  9
$SPLINESEGS
 70
     8
  9
$HANDSEED
  5
E7
  9
$SURFTAB1
 70
     6
  9
$SURFTAB2
 70
     6
  9
$SURFTYPE
 70
     6
  9
$SURFU
 70
     6
  9
$SURFV
 70
     6
  9
$UCSBASE
  2

  9
$UCSNAME
  2

  9
$UCSORG
 10
0.0
 20
0.0
 30
0.0
  9
$UCSXDIR
 10
1.0
 20
0.0
 30
0.0
  9
$UCSYDIR
 10
0.0
 20
1.0
 30
0.0
  9
$UCSORTHOREF
  2

  9
$UCSORTHOVIEW
 70
     0
  9
$UCSORGTOP
 10
0.0
 20
0.0
 30
0.0
  9
$UCSORGBOTTOM
 10
0.0
 20
0.0
 30
0.0
  9
$UCSORGLEFT
 10
0.0
 20
0.0
 30
0.0
  9
$UCSORGRIGHT
 10
0.0
 20
0.0
 30
0.0
  9
$UCSORGFRONT
 10
0.0
 20
0.0
 30
0.0
  9
$UCSORGBACK
 10
0.0
 20
0.0
 30
0.0
  9
$PUCSBASE
  2

  9
$PUCSNAME
  2

  9
$PUCSORG
 10
0.0
 20
0.0
 30
0.0
  9
$PUCSXDIR
 10
1.0
 20
0.0
 30
0.0
  9
$PUCSYDIR
 10
0.0
 20
1.0
 30
0.0
  9
$PUCSORTHOREF
  2

  9
$PUCSORTHOVIEW
 70
     0
  9
$PUCSORGTOP
 10
0.0
 20
0.0
 30
0.0
  9
$PUCSORGBOTTOM
 10
0.0
 20
0.0
 30
0.0
  9
$PUCSORGLEFT
 10
0.0
 20
0.0
 30
0.0
  9
$PUCSORGRIGHT
 10
0.0
 20
0.0
 30
0.0
  9
$PUCSORGFRONT
 10
0.0
 20
0.0
 30
0.0
  9
$PUCSORGBACK
 10
0.0
 20
0.0
 30
0.0
  9
$USERI1
 70
     0
  9
$USERI2
 70
     0
  9
$USERI3
 70
     0
  9
$USERI4
 70
     0
  9
$USERI5
 70
     0
  9
$USERR1
 40
0.0
  9
$USERR2
 40
0.0
  9
$USERR3
 40
0.0
  9
$USERR4
 40
0.0
  9
$USERR5
 40
0.0
  9
$WORLDVIEW
 70
     1
  9
$SHADEDGE
 70
     3
  9
$SHADEDIF
 70
    70
  9
$TILEMODE
 70
     1
  9
$MAXACTVP
 70
    64
  9
$PINSBASE
 10
0.0
 20
0.0
 30
0.0
  9
$PLIMCHECK
 70
     0
  9
$PEXTMIN
 10
1.000000000000000E+20
 20
1.000000000000000E+20
 30
1.000000000000000E+20
  9
$PEXTMAX
 10
-1.000000000000000E+20
 20
-1.000000000000000E+20
 30
-1.000000000000000E+20
  9
$PLIMMIN
 10
0.0
 20
0.0
  9
$PLIMMAX
 10
12.0
 20
9.0
  9
$UNITMODE
 70
     0
  9
$VISRETAIN
 70
     1
  9
$PLINEGEN
 70
     0
  9
$PSLTSCALE
 70
     1
  9
$TREEDEPTH
 70
  3020
  9
$CMLSTYLE
  2
Standard
  9
$CMLJUST
 70
     0
  9
$CMLSCALE
 40
1.0
  9
$PROXYGRAPHICS
 70
     1
  9
$MEASUREMENT
 70
     0
  9
$CELWEIGHT
370
    -1
  9
$ENDCAPS
280
     0
  9
$JOINSTYLE
280
     0
  9
$LWDISPLAY
290
     1
  9
$INSUNITS
 70
     1
  9
$HYPERLINKBASE
  1

  9
$STYLESHEET
  1

  9
$XEDIT
290
     1
  9
$CEPSNTYPE
380
     0
  9
$PSTYLEMODE
290
     1
  9
$FINGERPRINTGUID
  2
{A9929A1B-488E-FC0E-4878-B686687FE0E2}
  9
$VERSIONGUID
  2
{FAEB1C32-E019-11D5-929B-00C0DF256EC4}
  9
$EXTNAMES
290
     1
  9
$PSVPSCALE
 40
0.0
  9
$OLESTARTUP
290
     0
  9
$SORTENTS
280
   127
  9
$INDEXCTL
280
     0
  9
$HIDETEXT
280
     1
  9
$XCLIPFRAME
280
     2
  9
$HALOGAP
280
     0
  9
$OBSCOLOR
 70
   257
  9
$OBSLTYPE
280
     0
  9
$INTERSECTIONDISPLAY
280
     0
  9
$INTERSECTIONCOLOR
 70
   257
  9
$DIMASSOC
280
     2
  9
$PROJECTNAME
  1

  9
$CAMERADISPLAY
290
     0
  9
$LENSLENGTH
 40
50.0
  9
$CAMERAHEIGHT
 40
0.0
  9
$STEPSPERSEC
 40
2.0
  9
$STEPSIZE
 40
6.0
  9
$3DDWFPREC
 40
2.0
  9
$PSOLWIDTH
 40
0.25
  9
$PSOLHEIGHT
 40
4.0
  9
$LOFTANG1
 40
1.570796326794897
  9
$LOFTANG2
 40
1.570796326794897
  9
$LOFTMAG1
 40
0.0
  9
$LOFTMAG2
 40
0.0
  9
$LOFTPARAM
 70
     7
  9
$LOFTNORMALS
280
     1
  9
$LATITUDE
 40
37.795
  9
$LONGITUDE
 40
-122.394
  9
$NORTHDIRECTION
 40
0.0
  9
$TIMEZONE
 70
 -8000
  9
$LIGHTGLYPHDISPLAY
280
     1
  9
$TILEMODELIGHTSYNCH
280
     1
  9
$CMATERIAL
347
3C
  9
$SOLIDHIST
280
     1
  9
$SHOWHIST
280
     1
  9
$DWFFRAME
280
     2
  9
$DGNFRAME
280
     2
  9
$REALWORLDSCALE
290
     1
  9
$INTERFERECOLOR
 62
   256
  9
$CSHADOW
280
     0
  9
$SHADOWPLANELOCATION
 40
0.0
  0
ENDSEC
  0
SECTION
  2
CLASSES
  0
CLASS
  1
ACDBDICTIONARYWDFLT
  2
AcDbDictionaryWithDefault
  3
ObjectDBX Classes
 90
        0
 91
        4
280
     0
281
     0
  0
CLASS
  1
VISUALSTYLE
  2
AcDbVisualStyle
  3
ObjectDBX Classes
 90
     4095
 91
        4
280
     0
281
     0
  0
CLASS
  1
MATERIAL
  2
AcDbMaterial
  3
ObjectDBX Classes
 90
     1153
 91
        4
280
     0
281
     0
  0
CLASS
  1
SUN
  2
AcDbSun
  3
SCENEOE
 90
     1024
 91
        4
280
     0
281
     0
  0
ENDSEC
  0
SECTION
  2
TABLES
  0
TABLE
  2
VPORT
  5
8
330
0
100
AcDbSymbolTable
 70
     1
  0
VPORT
  5
29
330
8
100
AcDbSymbolTableRecord
100
AcDbViewportTableRecord
  2
*Active
 70
     0
 10
0.0
 20
0.0
 11
1.0
 21
1.0
 12
0.0
 22
0.0
 13
0.0
 23
0.0
 14
0.5
 24
0.5
 15
0.5
 25
0.5
 16
0.0
 26
0.0
 36
1.0
 17
105.0008280156501
 27
-148.4999710739862
 37
0.0
 40
296.9999421479724
 41
0.7070764206636528
 42
50.0
 43
0.0
 44
0.0
 50
0.0
 51
0.0
 71
     0
 72
   100
 73
     1
 74
     3
 75
     0
 76
     0
 77
     0
 78
     0
281
     0
 65
     1
110
0.0
120
0.0
130
0.0
111
1.0
121
0.0
131
0.0
112
0.0
122
1.0
132
0.0
 79
     0
146
0.0
 60
     3
 61
     5
292
     1
282
     1
141
0.0
142
0.0
 63
   250
361
3F
  0
ENDTAB
  0
TABLE
  2
LTYPE
  5
5
330
0
100
AcDbSymbolTable
 70
     1
  0
LTYPE
  5
14
330
5
100
AcDbSymbolTableRecord
100
AcDbLinetypeTableRecord
  2
ByBlock
 70
     0
  3

 72
    65
 73
     0
 40
0.0
  0
LTYPE
  5
15
330
5
100
AcDbSymbolTableRecord
100
AcDbLinetypeTableRecord
  2
ByLayer
 70
     0
  3

 72
    65
 73
     0
 40
0.0
  0
LTYPE
  5
16
330
5
100
AcDbSymbolTableRecord
100
AcDbLinetypeTableRecord
  2
Continuous
 70
     0
  3
Solid line
 72
    65
 73
     0
 40
0.0
  0
ENDTAB
  0
TABLE
  2
LAYER
  5
2
330
0
100
AcDbSymbolTable
 70
     2
  0
LAYER
  5
10
330
2
100
AcDbSymbolTableRecord
100
AcDbLayerTableRecord
  2
0
 70
     0
 62
     7
  6
Continuous
370
    -3
390
F
347
3E
  0
LAYER
  5
40
330
2
100
AcDbSymbolTableRecord
100
AcDbLayerTableRecord
  2
_U+30EC_U+30A4_U+30E4_U+30FC 1
 70
     0
 62
     7
  6
Continuous
370
    -3
390
F
347
3E
  0
ENDTAB
  0
TABLE
  2
STYLE
  5
3
330
0
100
AcDbSymbolTable
 70
     1
  0
STYLE
  5
11
330
3
100
AcDbSymbolTableRecord
100
AcDbTextStyleTableRecord
  2
Standard
 70
     0
 40
0.0
 41
1.0
 50
0.0
 71
     0
 42
0.2
  3
txt
  4

  0
ENDTAB
  0
TABLE
  2
VIEW
  5
6
330
0
100
AcDbSymbolTable
 70
     0
  0
ENDTAB
  0
TABLE
  2
UCS
  5
7
330
0
100
AcDbSymbolTable
 70
     0
  0
ENDTAB
  0
TABLE
  2
APPID
  5
9
330
0
100
AcDbSymbolTable
 70
     1
  0
APPID
  5
12
330
9
100
AcDbSymbolTableRecord
100
AcDbRegAppTableRecord
  2
ACAD
 70
     0
  0
ENDTAB
  0
TABLE
  2
DIMSTYLE
  5
A
330
0
100
AcDbSymbolTable
 70
     1
100
AcDbDimStyleTable
  0
DIMSTYLE
105
27
330
A
100
AcDbSymbolTableRecord
100
AcDbDimStyleTableRecord
  2
Standard
 70
     0
178
     0
340
11
  0
ENDTAB
  0
TABLE
  2
BLOCK_RECORD
  5
1
330
0
100
AcDbSymbolTable
 70
     6
  0
BLOCK_RECORD
  5
1F
330
1
100
AcDbSymbolTableRecord
100
AcDbBlockTableRecord
  2
*Model_Space
340
22
 70
     0
280
     1
281
     0
  0
BLOCK_RECORD
  5
1B
330
1
100
AcDbSymbolTableRecord
100
AcDbBlockTableRecord
  2
*Paper_Space
340
1E
 70
     0
280
     1
281
     0
  0
BLOCK_RECORD
  5
23
330
1
100
AcDbSymbolTableRecord
100
AcDbBlockTableRecord
  2
*Paper_Space0
340
26
 70
     0
280
     1
281
     0
  0
BLOCK_RECORD
  5
41
330
1
100
AcDbSymbolTableRecord
100
AcDbBlockTableRecord
  2
block 2
340
0
102
{BLKREFS
331
42
102
}
 70
     0
280
     1
281
     0
  0
BLOCK_RECORD
  5
5C
330
1
100
AcDbSymbolTableRecord
100
AcDbBlockTableRecord
  2
block 3
340
0
102
{BLKREFS
331
5D
102
}
 70
     0
280
     1
281
     0
  0
BLOCK_RECORD
  5
62
330
1
100
AcDbSymbolTableRecord
100
AcDbBlockTableRecord
  2
block 4
340
0
102
{BLKREFS
331
63
102
}
 70
     0
280
     1
281
     0
  0
BLOCK_RECORD
  5
68
330
1
100
AcDbSymbolTableRecord
100
AcDbBlockTableRecord
  2
block 5
340
0
102
{BLKREFS
331
69
102
}
 70
     0
280
     1
281
     0
  0
BLOCK_RECORD
  5
7A
330
1
100
AcDbSymbolTableRecord
100
AcDbBlockTableRecord
  2
block 6
340
0
102
{BLKREFS
331
7B
102
}
 70
     0
280
     1
281
     0
  0
ENDTAB
  0
ENDSEC
  0
SECTION
  2
BLOCKS
  0
BLOCK
  5
20
330
1F
100
AcDbEntity
  8
0
100
AcDbBlockBegin
  2
*Model_Space
 70
     0
 10
0.0
 20
0.0
 30
0.0
  3
*Model_Space
  1

  0
ENDBLK
  5
21
330
1F
100
AcDbEntity
  8
0
100
AcDbBlockEnd
  0
BLOCK
  5
1C
330
1B
100
AcDbEntity
 67
     1
  8
0
100
AcDbBlockBegin
  2
*Paper_Space
 70
     0
 10
0.0
 20
0.0
 30
0.0
  3
*Paper_Space
  1

  0
ENDBLK
  5
1D
330
1B
100
AcDbEntity
 67
     1
  8
0
100
AcDbBlockEnd
  0
BLOCK
  5
24
330
23
100
AcDbEntity
  8
0
100
AcDbBlockBegin
  2
*Paper_Space0
 70
     0
 10
0.0
 20
0.0
 30
0.0
  3
*Paper_Space0
  1

  0
ENDBLK
  5
25
330
23
100
AcDbEntity
  8
0
100
AcDbBlockEnd
  0
BLOCK
  5
43
330
41
100
AcDbEntity
  8
0
100
AcDbBlockBegin
  2
block 2
 70
     0
 10
0.0
 20
0.0
 30
0.0
  3
block 2
  1

  0
SPLINE
  5
45
330
41
100
AcDbEntity
  8
_U+30EC_U+30A4_U+30E4_U+30FC 1
370
     0
100
AcDbSpline
210
0.0
220
0.0
230
1.0
 70
    11
 71
     3
 72
    44
 73
    40
 74
     0
 42
0.0000000001
 43
0.0000000001
 12
1.0
 22
0.0
 32
0.0
 13
1.0
 23
0.0
 33
0.0
 40
0.0
 40
0.0
 40
0.0
 40
0.0
 40
1.0
 40
1.0
 40
1.0
 40
2.0
 40
2.0
 40
2.0
 40
3.0
 40
3.0
 40
3.0
 40
4.0
 40
4.0
 40
4.0
 40
5.0
 40
5.0
 40
5.0
 40
6.0
 40
6.0
 40
6.0
 40
7.0
 40
7.0
 40
7.0
 40
8.0
 40
8.0
 40
8.0
 40
9.0
 40
9.0
 40
9.0
 40
10.0
 40
10.0
 40
10.0
 40
11.0
 40
11.0
 40
11.0
 40
12.0
 40
12.0
 40
12.0
 40
13.0
 40
13.0
 40
13.0
 40
13.0
 10
105.2331976733445
 20
-136.1725666977277
 30
0.0
 10
105.0154676386767
 20
-136.3313855995977
 30
0.0
 10
104.9224500605749
 20
-136.4054551525306
 30
0.0
 10
104.8735297046844
 20
-136.5491156342655
 30
0.0
 10
104.8735297046844
 20
-136.5491156342655
 30
0.0
 10
105.6521212843509
 20
-136.5491156342655
 30
0.0
 10
105.6521212843509
 20
-136.5491156342655
 30
0.0
 10
105.6521212843509
 20
-136.5491156342655
 30
0.0
 10
105.6521212843509
 20
-136.7544433251864
 30
0.0
 10
105.6521212843509
 20
-136.7544433251864
 30
0.0
 10
105.6521212843509
 20
-136.7544433251864
 30
0.0
 10
104.6241047915523
 20
-136.7544433251864
 30
0.0
 10
104.6241047915523
 20
-136.7544433251864
 30
0.0
 10
104.6557996700166
 20
-136.3968424138175
 30
0.0
 10
104.7212564842364
 20
-136.3186387463023
 30
0.0
 10
105.1064181594873
 20
-136.0202934772797
 30
0.0
 10
105.3623887540413
 20
-135.8215114677807
 30
0.0
 10
105.4278455682611
 20
-135.7536430867213
 30
0.0
 10
105.4278455682611
 20
-135.6161837768599
 30
0.0
 10
105.4278455682611
 20
-135.4976724921673
 30
0.0
 10
105.3558430726194
 20
-135.3667588637278
 30
0.0
 10
105.1591281204116
 20
-135.3667588637278
 30
0.0
 10
104.8990234112753
 20
-135.3667588637278
 30
0.0
 10
104.8904106725621
 20
-135.597235751691
 30
0.0
 10
104.8862765579798
 20
-135.7136799790924
 30
0.0
 10
104.8862765579798
 20
-135.7136799790924
 30
0.0
 10
104.6620008418901
 20
-135.7136799790924
 30
0.0
 10
104.6620008418901
 20
-135.7136799790924
 30
0.0
 10
104.6706135806032
 20
-135.5865559556867
 30
0.0
 10
104.6812933766075
 20
-135.4745903524161
 30
0.0
 10
104.7615641014138
 20
-135.3560790677235
 30
0.0
 10
104.8714626473932
 20
-135.1951931085623
 30
0.0
 10
105.0578423131453
 20
-135.1614311728069
 30
0.0
 10
105.1739420309982
 20
-135.1614311728069
 30
0.0
 10
105.4512722175608
 20
-135.1614311728069
 30
0.0
 10
105.6586669657728
 20
-135.3453992717192
 30
0.0
 10
105.6586669657728
 20
-135.618250834151
 30
0.0
 10
105.6586669657728
 20
-135.8470051743716
 30
0.0
 10
105.5422227383714
 20
-135.9462239243468
 30
0.0
 10
105.2331976733445
 20
-136.1725666977277
 30
0.0
  0
HATCH
  5
46
330
41
100
AcDbEntity
  8
_U+30EC_U+30A4_U+30E4_U+30FC 1
 62
   179
420
  2234388
100
AcDbHatch
 10
0.0
 20
0.0
 30
0.0
210
0.0
220
0.0
230
1.0
  2
SOLID
 70
     1
 71
     0
 91
        1
 92
        1
 93
        1
 72
     4
 94
        3
 73
     0
 74
     1
 95
       44
 96
       40
 40
0.0
 40
0.0
 40
0.0
 40
0.0
 40
1.0
 40
1.0
 40
1.0
 40
2.0
 40
2.0
 40
2.0
 40
3.0
 40
3.0
 40
3.0
 40
4.0
 40
4.0
 40
4.0
 40
5.0
 40
5.0
 40
5.0
 40
6.0
 40
6.0
 40
6.0
 40
7.0
 40
7.0
 40
7.0
 40
8.0
 40
8.0
 40
8.0
 40
9.0
 40
9.0
 40
9.0
 40
10.0
 40
10.0
 40
10.0
 40
11.0
 40
11.0
 40
11.0
 40
12.0
 40
12.0
 40
12.0
 40
13.0
 40
13.0
 40
13.0
 40
13.0
 10
105.2331976733445
 20
-136.1725666977277
 10
105.0154676386767
 20
-136.3313855995977
 10
104.9224500605749
 20
-136.4054551525306
 10
104.8735297046844
 20
-136.5491156342655
 10
104.8735297046844
 20
-136.5491156342655
 10
105.6521212843509
 20
-136.5491156342655
 10
105.6521212843509
 20
-136.5491156342655
 10
105.6521212843509
 20
-136.5491156342655
 10
105.6521212843509
 20
-136.7544433251864
 10
105.6521212843509
 20
-136.7544433251864
 10
105.6521212843509
 20
-136.7544433251864
 10
104.6241047915523
 20
-136.7544433251864
 10
104.6241047915523
 20
-136.7544433251864
 10
104.6557996700166
 20
-136.3968424138175
 10
104.7212564842364
 20
-136.3186387463023
 10
105.1064181594873
 20
-136.0202934772797
 10
105.3623887540413
 20
-135.8215114677807
 10
105.4278455682611
 20
-135.7536430867213
 10
105.4278455682611
 20
-135.6161837768599
 10
105.4278455682611
 20
-135.4976724921673
 10
105.3558430726194
 20
-135.3667588637278
 10
105.1591281204116
 20
-135.3667588637278
 10
104.8990234112753
 20
-135.3667588637278
 10
104.8904106725621
 20
-135.597235751691
 10
104.8862765579798
 20
-135.7136799790924
 10
104.8862765579798
 20
-135.7136799790924
 10
104.6620008418901
 20
-135.7136799790924
 10
104.6620008418901
 20
-135.7136799790924
 10
104.6706135806032
 20
-135.5865559556867
 10
104.6812933766075
 20
-135.4745903524161
 10
104.7615641014138
 20
-135.3560790677235
 10
104.8714626473932
 20
-135.1951931085623
 10
105.0578423131453
 20
-135.1614311728069
 10
105.1739420309982
 20
-135.1614311728069
 10
105.4512722175608
 20
-135.1614311728069
 10
105.6586669657728
 20
-135.3453992717192
 10
105.6586669657728
 20
-135.618250834151
 10
105.6586669657728
 20
-135.8470051743716
 10
105.5422227383714
 20
-135.9462239243468
 10
105.2331976733445
 20
-136.1725666977277
 97
        0
 97
        0
 75
     2
 76
     1
 98
        0
  0
POLYLINE
  5
47
330
41
100
AcDbEntity
  8
_U+30EC_U+30A4_U+30E4_U+30FC 1
370
     0
100
AcDb2dPolyline
 66
     1
 10
0.0
 20
0.0
 30
0.0
  0
VERTEX
  5
48
330
47
100
AcDbEntity
  8
_U+30EC_U+30A4_U+30E4_U+30FC 1
370
     0
100
AcDbVertex
100
AcDb2dVertex
 10
106.6491319177822
 20
-136.4075222098217
 30
0.0
  0
VERTEX
  5
49
330
47
100
AcDbEntity
  8
_U+30EC_U+30A4_U+30E4_U+30FC 1
370
     0
100
AcDbVertex
100
AcDb2dVertex
 10
106.6491319177822
 20
-136.7544433251864
 30
0.0
  0
VERTEX
  5
4A
330
47
100
AcDbEntity
  8
_U+30EC_U+30A4_U+30E4_U+30FC 1
370
     0
100
AcDbVertex
100
AcDb2dVertex
 10
106.4314018831144
 20
-136.7544433251864
 30
0.0
  0
VERTEX
  5
4B
330
47
100
AcDbEntity
  8
_U+30EC_U+30A4_U+30E4_U+30FC 1
370
     0
100
AcDbVertex
100
AcDb2dVertex
 10
106.4314018831144
 20
-136.4075222098217
 30
0.0
  0
VERTEX
  5
4C
330
47
100
AcDbEntity
  8
_U+30EC_U+30A4_U+30E4_U+30FC 1
370
     0
100
AcDbVertex
100
AcDb2dVertex
 10
105.7754557027228
 20
-136.4075222098217
 30
0.0
  0
VERTEX
  5
4D
330
47
100
AcDbEntity
  8
_U+30EC_U+30A4_U+30E4_U+30FC 1
370
     0
100
AcDbVertex
100
AcDb2dVertex
 10
105.7754557027228
 20
-136.183246493732
 30
0.0
  0
VERTEX
  5
4E
330
47
100
AcDbEntity
  8
_U+30EC_U+30A4_U+30E4_U+30FC 1
370
     0
100
AcDbVertex
100
AcDb2dVertex
 10
106.4544840228656
 20
-135.2100070191489
 30
0.0
  0
VERTEX
  5
4F
330
47
100
AcDbEntity
  8
_U+30EC_U+30A4_U+30E4_U+30FC 1
370
     0
100
AcDbVertex
100
AcDb2dVertex
 10
106.6491319177822
 20
-135.2100070191489
 30
0.0
  0
VERTEX
  5
50
330
47
100
AcDbEntity
  8
_U+30EC_U+30A4_U+30E4_U+30FC 1
370
     0
100
AcDbVertex
100
AcDb2dVertex
 10
106.6491319177822
 20
-136.2087402003228
 30
0.0
  0
VERTEX
  5
51
330
47
100
AcDbEntity
  8
_U+30EC_U+30A4_U+30E4_U+30FC 1
370
     0
100
AcDbVertex
100
AcDb2dVertex
 10
106.8565266659942
 20
-136.2087402003228
 30
0.0
  0
VERTEX
  5
52
330
47
100
AcDbEntity
  8
_U+30EC_U+30A4_U+30E4_U+30FC 1
370
     0
100
AcDbVertex
100
AcDb2dVertex
 10
106.8565266659942
 20
-136.4075222098217
 30
0.0
  0
VERTEX
  5
53
330
47
100
AcDbEntity
  8
_U+30EC_U+30A4_U+30E4_U+30FC 1
370
     0
100
AcDbVertex
100
AcDb2dVertex
 10
106.6491319177822
 20
-136.4075222098217
 30
0.0
  0
SEQEND
  5
54
330
47
100
AcDbEntity
  8
_U+30EC_U+30A4_U+30E4_U+30FC 1
370
     0
  0
POLYLINE
  5
55
330
41
100
AcDbEntity
  8
_U+30EC_U+30A4_U+30E4_U+30FC 1
370
     0
100
AcDb2dPolyline
 66
     1
 10
0.0
 20
0.0
 30
0.0
  0
VERTEX
  5
56
330
55
100
AcDbEntity
  8
_U+30EC_U+30A4_U+30E4_U+30FC 1
370
     0
100
AcDbVertex
100
AcDb2dVertex
 10
106.4314018831144
 20
-135.5527940199312
 30
0.0
  0
VERTEX
  5
57
330
55
100
AcDbEntity
  8
_U+30EC_U+30A4_U+30E4_U+30FC 1
370
     0
100
AcDbVertex
100
AcDb2dVertex
 10
105.9742377122217
 20
-136.2087402003228
 30
0.0
  0
VERTEX
  5
58
330
55
100
AcDbEntity
  8
_U+30EC_U+30A4_U+30E4_U+30FC 1
370
     0
100
AcDbVertex
100
AcDb2dVertex
 10
106.4314018831144
 20
-136.2087402003228
 30
0.0
  0
VERTEX
  5
59
330
55
100
AcDbEntity
  8
_U+30EC_U+30A4_U+30E4_U+30FC 1
370
     0
100
AcDbVertex
100
AcDb2dVertex
 10
106.4314018831144
 20
-135.5527940199312
 30
0.0
  0
SEQEND
  5
5A
330
55
100
AcDbEntity
  8
_U+30EC_U+30A4_U+30E4_U+30FC 1
370
     0
  0
HATCH
  5
5B
330
41
100
AcDbEntity
  8
_U+30EC_U+30A4_U+30E4_U+30FC 1
 62
   179
420
  2234388
100
AcDbHatch
 10
0.0
 20
0.0
 30
0.0
210
0.0
220
0.0
230
1.0
  2
SOLID
 70
     1
 71
     0
 91
        2
 92
        1
 93
       11
 72
     1
 10
106.6491319177822
 20
-136.4075222098217
 11
106.6491319177822
 21
-136.7544433251864
 72
     1
 10
106.6491319177822
 20
-136.7544433251864
 11
106.4314018831144
 21
-136.7544433251864
 72
     1
 10
106.4314018831144
 20
-136.7544433251864
 11
106.4314018831144
 21
-136.4075222098217
 72
     1
 10
106.4314018831144
 20
-136.4075222098217
 11
105.7754557027228
 21
-136.4075222098217
 72
     1
 10
105.7754557027228
 20
-136.4075222098217
 11
105.7754557027228
 21
-136.183246493732
 72
     1
 10
105.7754557027228
 20
-136.183246493732
 11
106.4544840228656
 21
-135.2100070191489
 72
     1
 10
106.4544840228656
 20
-135.2100070191489
 11
106.6491319177822
 21
-135.2100070191489
 72
     1
 10
106.6491319177822
 20
-135.2100070191489
 11
106.6491319177822
 21
-136.2087402003228
 72
     1
 10
106.6491319177822
 20
-136.2087402003228
 11
106.8565266659942
 21
-136.2087402003228
 72
     1
 10
106.8565266659942
 20
-136.2087402003228
 11
106.8565266659942
 21
-136.4075222098217
 72
     1
 10
106.8565266659942
 20
-136.4075222098217
 11
106.6491319177822
 21
-136.4075222098217
 97
        0
 92
        1
 93
        3
 72
     1
 10
106.4314018831144
 20
-135.5527940199312
 11
105.9742377122217
 21
-136.2087402003228
 72
     1
 10
105.9742377122217
 20
-136.2087402003228
 11
106.4314018831144
 21
-136.2087402003228
 72
     1
 10
106.4314018831144
 20
-136.2087402003228
 11
106.4314018831144
 21
-135.5527940199312
 97
        0
 75
     2
 76
     1
 98
        0
  0
ENDBLK
  5
44
330
41
100
AcDbEntity
  8
0
100
AcDbBlockEnd
  0
BLOCK
  5
5E
330
5C
100
AcDbEntity
  8
0
100
AcDbBlockBegin
  2
block 3
 70
     0
 10
0.0
 20
0.0
 30
0.0
  3
block 3
  1

  0
SPLINE
  5
60
330
5C
100
AcDbEntity
  8
_U+30EC_U+30A4_U+30E4_U+30FC 1
370
     0
100
AcDbSpline
210
0.0
220
0.0
230
1.0
 70
    11
 71
     3
 72
    53
 73
    49
 74
     0
 42
0.0000000001
 43
0.0000000001
 12
1.0
 22
0.0
 32
0.0
 13
1.0
 23
0.0
 33
0.0
 40
0.0
 40
0.0
 40
0.0
 40
0.0
 40
1.0
 40
1.0
 40
1.0
 40
2.0
 40
2.0
 40
2.0
 40
3.0
 40
3.0
 40
3.0
 40
4.0
 40
4.0
 40
4.0
 40
5.0
 40
5.0
 40
5.0
 40
6.0
 40
6.0
 40
6.0
 40
7.0
 40
7.0
 40
7.0
 40
8.0
 40
8.0
 40
8.0
 40
9.0
 40
9.0
 40
9.0
 40
10.0
 40
10.0
 40
10.0
 40
11.0
 40
11.0
 40
11.0
 40
12.0
 40
12.0
 40
12.0
 40
13.0
 40
13.0
 40
13.0
 40
14.0
 40
14.0
 40
14.0
 40
15.0
 40
15.0
 40
15.0
 40
16.0
 40
16.0
 40
16.0
 40
16.0
 10
88.40666230428722
 20
-152.9849771752954
 30
0.0
 10
88.40666230428722
 20
-153.0631808428106
 30
0.0
 10
88.3897813364095
 20
-153.1648111596255
 30
0.0
 10
88.32639157948091
 20
-153.2664414764403
 30
0.0
 10
88.21649303350144
 20
-153.4397297793484
 30
0.0
 10
88.08523489551342
 20
-153.461089371357
 30
0.0
 10
87.9774034068251
 20
-153.4800373965258
 30
0.0
 10
87.9774034068251
 20
-153.4800373965258
 30
0.0
 10
87.9774034068251
 20
-153.2578287377272
 30
0.0
 10
87.9774034068251
 20
-153.2578287377272
 30
0.0
 10
88.17618541632402
 20
-153.2030517195117
 30
0.0
 10
88.20581323749717
 20
-153.075927696106
 30
0.0
 10
88.20581323749717
 20
-152.9829101180043
 30
0.0
 10
88.20581323749717
 20
-152.8433837508517
 30
0.0
 10
88.10624997797345
 20
-152.6911105304036
 30
0.0
 10
87.87370603271907
 20
-152.6911105304036
 30
0.0
 10
87.61773543816501
 20
-152.6911105304036
 30
0.0
 10
87.54779999981444
 20
-152.8709445147337
 30
0.0
 10
87.54779999981444
 20
-152.9915228567174
 30
0.0
 10
87.54779999981444
 20
-153.0232177351817
 30
0.0
 10
87.54779999981444
 20
-153.1648111596255
 30
0.0
 10
87.67699108051131
 20
-153.2536946231449
 30
0.0
 10
87.67699108051131
 20
-153.2536946231449
 30
0.0
 10
87.65804305534243
 20
-153.4293944928927
 30
0.0
 10
87.65804305534243
 20
-153.4293944928927
 30
0.0
 10
87.65804305534243
 20
-153.4293944928927
 30
0.0
 10
86.81158309461655
 20
-153.3088161509089
 30
0.0
 10
86.81158309461655
 20
-153.3088161509089
 30
0.0
 10
86.81158309461655
 20
-153.3088161509089
 30
0.0
 10
86.81158309461655
 20
-152.5302245712425
 30
0.0
 10
86.81158309461655
 20
-152.5302245712425
 30
0.0
 10
86.81158309461655
 20
-152.5302245712425
 30
0.0
 10
87.00623098953317
 20
-152.5302245712425
 30
0.0
 10
87.00623098953317
 20
-152.5302245712425
 30
0.0
 10
87.00623098953317
 20
-152.5302245712425
 30
0.0
 10
87.00623098953317
 20
-153.1458631344566
 30
0.0
 10
87.00623098953317
 20
-153.1458631344566
 30
0.0
 10
87.00623098953317
 20
-153.1458631344566
 30
0.0
 10
87.42928871512184
 20
-153.2113199486763
 30
0.0
 10
87.42928871512184
 20
-153.2113199486763
 30
0.0
 10
87.3955267793664
 20
-153.1499972490389
 30
0.0
 10
87.35521916218897
 20
-153.0676594669414
 30
0.0
 10
87.35521916218897
 20
-152.9491481822488
 30
0.0
 10
87.35521916218897
 20
-152.6952446449859
 30
0.0
 10
87.54159882794099
 20
-152.4582220756007
 30
0.0
 10
87.8547580075502
 20
-152.4582220756007
 30
0.0
 10
88.17205130174172
 20
-152.4582220756007
 30
0.0
 10
88.40666230428722
 20
-152.6824977916905
 30
0.0
 10
88.40666230428722
 20
-152.9849771752954
 30
0.0
  0
HATCH
  5
61
330
5C
100
AcDbEntity
  8
_U+30EC_U+30A4_U+30E4_U+30FC 1
 62
   179
420
  2234388
100
AcDbHatch
 10
0.0
 20
0.0
 30
0.0
210
0.0
220
0.0
230
1.0
  2
SOLID
 70
     1
 71
     0
 91
        1
 92
        1
 93
        1
 72
     4
 94
        3
 73
     0
 74
     1
 95
       53
 96
       49
 40
0.0
 40
0.0
 40
0.0
 40
0.0
 40
1.0
 40
1.0
 40
1.0
 40
2.0
 40
2.0
 40
2.0
 40
3.0
 40
3.0
 40
3.0
 40
4.0
 40
4.0
 40
4.0
 40
5.0
 40
5.0
 40
5.0
 40
6.0
 40
6.0
 40
6.0
 40
7.0
 40
7.0
 40
7.0
 40
8.0
 40
8.0
 40
8.0
 40
9.0
 40
9.0
 40
9.0
 40
10.0
 40
10.0
 40
10.0
 40
11.0
 40
11.0
 40
11.0
 40
12.0
 40
12.0
 40
12.0
 40
13.0
 40
13.0
 40
13.0
 40
14.0
 40
14.0
 40
14.0
 40
15.0
 40
15.0
 40
15.0
 40
16.0
 40
16.0
 40
16.0
 40
16.0
 10
88.40666230428722
 20
-152.9849771752954
 10
88.40666230428722
 20
-153.0631808428106
 10
88.3897813364095
 20
-153.1648111596255
 10
88.32639157948091
 20
-153.2664414764403
 10
88.21649303350144
 20
-153.4397297793484
 10
88.08523489551342
 20
-153.461089371357
 10
87.9774034068251
 20
-153.4800373965258
 10
87.9774034068251
 20
-153.4800373965258
 10
87.9774034068251
 20
-153.2578287377272
 10
87.9774034068251
 20
-153.2578287377272
 10
88.17618541632402
 20
-153.2030517195117
 10
88.20581323749717
 20
-153.075927696106
 10
88.20581323749717
 20
-152.9829101180043
 10
88.20581323749717
 20
-152.8433837508517
 10
88.10624997797345
 20
-152.6911105304036
 10
87.87370603271907
 20
-152.6911105304036
 10
87.61773543816501
 20
-152.6911105304036
 10
87.54779999981444
 20
-152.8709445147337
 10
87.54779999981444
 20
-152.9915228567174
 10
87.54779999981444
 20
-153.0232177351817
 10
87.54779999981444
 20
-153.1648111596255
 10
87.67699108051131
 20
-153.2536946231449
 10
87.67699108051131
 20
-153.2536946231449
 10
87.65804305534243
 20
-153.4293944928927
 10
87.65804305534243
 20
-153.4293944928927
 10
87.65804305534243
 20
-153.4293944928927
 10
86.81158309461655
 20
-153.3088161509089
 10
86.81158309461655
 20
-153.3088161509089
 10
86.81158309461655
 20
-153.3088161509089
 10
86.81158309461655
 20
-152.5302245712425
 10
86.81158309461655
 20
-152.5302245712425
 10
86.81158309461655
 20
-152.5302245712425
 10
87.00623098953317
 20
-152.5302245712425
 10
87.00623098953317
 20
-152.5302245712425
 10
87.00623098953317
 20
-152.5302245712425
 10
87.00623098953317
 20
-153.1458631344566
 10
87.00623098953317
 20
-153.1458631344566
 10
87.00623098953317
 20
-153.1458631344566
 10
87.42928871512184
 20
-153.2113199486763
 10
87.42928871512184
 20
-153.2113199486763
 10
87.3955267793664
 20
-153.1499972490389
 10
87.35521916218897
 20
-153.0676594669414
 10
87.35521916218897
 20
-152.9491481822488
 10
87.35521916218897
 20
-152.6952446449859
 10
87.54159882794099
 20
-152.4582220756007
 10
87.8547580075502
 20
-152.4582220756007
 10
88.17205130174172
 20
-152.4582220756007
 10
88.40666230428722
 20
-152.6824977916905
 10
88.40666230428722
 20
-152.9849771752954
 97
        0
 97
        0
 75
     2
 76
     1
 98
        0
  0
ENDBLK
  5
5F
330
5C
100
AcDbEntity
  8
0
100
AcDbBlockEnd
  0
BLOCK
  5
64
330
62
100
AcDbEntity
  8
0
100
AcDbBlockBegin
  2
block 4
 70
     0
 10
0.0
 20
0.0
 30
0.0
  3
block 4
  1

  0
SPLINE
  5
66
330
62
100
AcDbEntity
  8
_U+30EC_U+30A4_U+30E4_U+30FC 1
370
     0
100
AcDbSpline
210
0.0
220
0.0
230
1.0
 70
    11
 71
     3
 72
    44
 73
    40
 74
     0
 42
0.0000000001
 43
0.0000000001
 12
1.0
 22
0.0
 32
0.0
 13
1.0
 23
0.0
 33
0.0
 40
0.0
 40
0.0
 40
0.0
 40
0.0
 40
1.0
 40
1.0
 40
1.0
 40
2.0
 40
2.0
 40
2.0
 40
3.0
 40
3.0
 40
3.0
 40
4.0
 40
4.0
 40
4.0
 40
5.0
 40
5.0
 40
5.0
 40
6.0
 40
6.0
 40
6.0
 40
7.0
 40
7.0
 40
7.0
 40
8.0
 40
8.0
 40
8.0
 40
9.0
 40
9.0
 40
9.0
 40
10.0
 40
10.0
 40
10.0
 40
11.0
 40
11.0
 40
11.0
 40
12.0
 40
12.0
 40
12.0
 40
13.0
 40
13.0
 40
13.0
 40
13.0
 10
92.25517847085982
 20
-160.7991427549391
 30
0.0
 10
92.03744843619204
 20
-160.9576171472606
 30
0.0
 10
91.94443085809029
 20
-161.032031209742
 30
0.0
 10
91.89551050219974
 20
-161.1753471819284
 30
0.0
 10
91.89551050219974
 20
-161.1753471819284
 30
0.0
 10
92.6741020818662
 20
-161.1753471819284
 30
0.0
 10
92.6741020818662
 20
-161.1753471819284
 30
0.0
 10
92.6741020818662
 20
-161.1753471819284
 30
0.0
 10
92.6741020818662
 20
-161.3806748728493
 30
0.0
 10
92.6741020818662
 20
-161.3806748728493
 30
0.0
 10
92.6741020818662
 20
-161.3806748728493
 30
0.0
 10
91.64608558906765
 20
-161.3806748728493
 30
0.0
 10
91.64608558906765
 20
-161.3806748728493
 30
0.0
 10
91.67778046753195
 20
-161.0230739614803
 30
0.0
 10
91.74323728175169
 20
-160.9452148035137
 30
0.0
 10
92.12839895700263
 20
-160.6468695344911
 30
0.0
 10
92.38436955155669
 20
-160.4477430154436
 30
0.0
 10
92.44982636577643
 20
-160.3802191439327
 30
0.0
 10
92.44982636577643
 20
-160.2424153245227
 30
0.0
 10
92.44982636577643
 20
-160.1239040398301
 30
0.0
 10
92.37782387013472
 20
-159.9929904113907
 30
0.0
 10
92.18110891792695
 20
-159.9929904113907
 30
0.0
 10
91.92100420879059
 20
-159.9929904113907
 30
0.0
 10
91.91239147007747
 20
-160.2238118089024
 30
0.0
 10
91.90825735549517
 20
-160.3402560363038
 30
0.0
 10
91.90825735549517
 20
-160.3402560363038
 30
0.0
 10
91.6839816394054
 20
-160.3402560363038
 30
0.0
 10
91.6839816394054
 20
-160.3402560363038
 30
0.0
 10
91.69259437811853
 20
-160.2127875033496
 30
0.0
 10
91.7032741741228
 20
-160.1011664096275
 30
0.0
 10
91.78354489892912
 20
-159.9826551249349
 30
0.0
 10
91.89344344490858
 20
-159.8214246562252
 30
0.0
 10
92.0798231106606
 20
-159.7876627204698
 30
0.0
 10
92.19592282851352
 20
-159.7876627204698
 30
0.0
 10
92.47325301507614
 20
-159.7876627204698
 30
0.0
 10
92.68064776328818
 20
-159.9716308193821
 30
0.0
 10
92.68064776328818
 20
-160.2444823818139
 30
0.0
 10
92.68064776328818
 20
-160.4732367220345
 30
0.0
 10
92.56420353588673
 20
-160.5724554720097
 30
0.0
 10
92.25517847085982
 20
-160.7991427549391
 30
0.0
  0
HATCH
  5
67
330
62
100
AcDbEntity
  8
_U+30EC_U+30A4_U+30E4_U+30FC 1
 62
   179
420
  2234388
100
AcDbHatch
 10
0.0
 20
0.0
 30
0.0
210
0.0
220
0.0
230
1.0
  2
SOLID
 70
     1
 71
     0
 91
        1
 92
        1
 93
        1
 72
     4
 94
        3
 73
     0
 74
     1
 95
       44
 96
       40
 40
0.0
 40
0.0
 40
0.0
 40
0.0
 40
1.0
 40
1.0
 40
1.0
 40
2.0
 40
2.0
 40
2.0
 40
3.0
 40
3.0
 40
3.0
 40
4.0
 40
4.0
 40
4.0
 40
5.0
 40
5.0
 40
5.0
 40
6.0
 40
6.0
 40
6.0
 40
7.0
 40
7.0
 40
7.0
 40
8.0
 40
8.0
 40
8.0
 40
9.0
 40
9.0
 40
9.0
 40
10.0
 40
10.0
 40
10.0
 40
11.0
 40
11.0
 40
11.0
 40
12.0
 40
12.0
 40
12.0
 40
13.0
 40
13.0
 40
13.0
 40
13.0
 10
92.25517847085982
 20
-160.7991427549391
 10
92.03744843619204
 20
-160.9576171472606
 10
91.94443085809029
 20
-161.032031209742
 10
91.89551050219974
 20
-161.1753471819284
 10
91.89551050219974
 20
-161.1753471819284
 10
92.6741020818662
 20
-161.1753471819284
 10
92.6741020818662
 20
-161.1753471819284
 10
92.6741020818662
 20
-161.1753471819284
 10
92.6741020818662
 20
-161.3806748728493
 10
92.6741020818662
 20
-161.3806748728493
 10
92.6741020818662
 20
-161.3806748728493
 10
91.64608558906765
 20
-161.3806748728493
 10
91.64608558906765
 20
-161.3806748728493
 10
91.67778046753195
 20
-161.0230739614803
 10
91.74323728175169
 20
-160.9452148035137
 10
92.12839895700263
 20
-160.6468695344911
 10
92.38436955155669
 20
-160.4477430154436
 10
92.44982636577643
 20
-160.3802191439327
 10
92.44982636577643
 20
-160.2424153245227
 10
92.44982636577643
 20
-160.1239040398301
 10
92.37782387013472
 20
-159.9929904113907
 10
92.18110891792695
 20
-159.9929904113907
 10
91.92100420879059
 20
-159.9929904113907
 10
91.91239147007747
 20
-160.2238118089024
 10
91.90825735549517
 20
-160.3402560363038
 10
91.90825735549517
 20
-160.3402560363038
 10
91.6839816394054
 20
-160.3402560363038
 10
91.6839816394054
 20
-160.3402560363038
 10
91.69259437811853
 20
-160.2127875033496
 10
91.7032741741228
 20
-160.1011664096275
 10
91.78354489892912
 20
-159.9826551249349
 10
91.89344344490858
 20
-159.8214246562252
 10
92.0798231106606
 20
-159.7876627204698
 10
92.19592282851352
 20
-159.7876627204698
 10
92.47325301507614
 20
-159.7876627204698
 10
92.68064776328818
 20
-159.9716308193821
 10
92.68064776328818
 20
-160.2444823818139
 10
92.68064776328818
 20
-160.4732367220345
 10
92.56420353588673
 20
-160.5724554720097
 10
92.25517847085982
 20
-160.7991427549391
 97
        0
 97
        0
 75
     2
 76
     1
 98
        0
  0
ENDBLK
  5
65
330
62
100
AcDbEntity
  8
0
100
AcDbBlockEnd
  0
BLOCK
  5
6A
330
68
100
AcDbEntity
  8
0
100
AcDbBlockBegin
  2
block 5
 70
     0
 10
0.0
 20
0.0
 30
0.0
  3
block 5
  1

  0
SPLINE
  5
6C
330
68
100
AcDbEntity
  8
_U+30EC_U+30A4_U+30E4_U+30FC 1
370
     0
100
AcDbSpline
210
0.0
220
0.0
230
1.0
 70
    11
 71
     3
 72
    26
 73
    22
 74
     0
 42
0.0000000001
 43
0.0000000001
 12
1.0
 22
0.0
 32
0.0
 13
1.0
 23
0.0
 33
0.0
 40
0.0
 40
0.0
 40
0.0
 40
0.0
 40
1.0
 40
1.0
 40
1.0
 40
2.0
 40
2.0
 40
2.0
 40
3.0
 40
3.0
 40
3.0
 40
4.0
 40
4.0
 40
4.0
 40
5.0
 40
5.0
 40
5.0
 40
6.0
 40
6.0
 40
6.0
 40
7.0
 40
7.0
 40
7.0
 40
7.0
 10
123.1711208459433
 20
-151.5304578614229
 30
0.0
 10
123.1711208459433
 20
-151.5304578614229
 30
0.0
 10
122.0669677429208
 20
-151.5304578614229
 30
0.0
 10
122.0669677429208
 20
-151.5304578614229
 30
0.0
 10
122.0669677429208
 20
-151.5304578614229
 30
0.0
 10
122.0669677429208
 20
-151.8604980089099
 30
0.0
 10
122.0669677429208
 20
-151.8604980089099
 30
0.0
 10
122.0669677429208
 20
-151.8604980089099
 30
0.0
 10
121.918828637055
 20
-151.8604980089099
 30
0.0
 10
121.918828637055
 20
-151.8604980089099
 30
0.0
 10
121.9040147264684
 20
-151.5283908041318
 30
0.0
 10
121.7410617100161
 20
-151.4818820150809
 30
0.0
 10
121.6266845399058
 20
-151.4522541939078
 30
0.0
 10
121.6266845399058
 20
-151.4522541939078
 30
0.0
 10
121.6266845399058
 20
-151.3061821453332
 30
0.0
 10
121.6266845399058
 20
-151.3061821453332
 30
0.0
 10
121.6266845399058
 20
-151.3061821453332
 30
0.0
 10
123.1711208459433
 20
-151.3061821453332
 30
0.0
 10
123.1711208459433
 20
-151.3061821453332
 30
0.0
 10
123.1711208459433
 20
-151.3061821453332
 30
0.0
 10
123.1711208459433
 20
-151.5304578614229
 30
0.0
 10
123.1711208459433
 20
-151.5304578614229
 30
0.0
  0
HATCH
  5
6D
330
68
100
AcDbEntity
  8
_U+30EC_U+30A4_U+30E4_U+30FC 1
 62
   179
420
  2234388
100
AcDbHatch
 10
0.0
 20
0.0
 30
0.0
210
0.0
220
0.0
230
1.0
  2
SOLID
 70
     1
 71
     0
 91
        1
 92
        1
 93
        1
 72
     4
 94
        3
 73
     0
 74
     1
 95
       26
 96
       22
 40
0.0
 40
0.0
 40
0.0
 40
0.0
 40
1.0
 40
1.0
 40
1.0
 40
2.0
 40
2.0
 40
2.0
 40
3.0
 40
3.0
 40
3.0
 40
4.0
 40
4.0
 40
4.0
 40
5.0
 40
5.0
 40
5.0
 40
6.0
 40
6.0
 40
6.0
 40
7.0
 40
7.0
 40
7.0
 40
7.0
 10
123.1711208459433
 20
-151.5304578614229
 10
123.1711208459433
 20
-151.5304578614229
 10
122.0669677429208
 20
-151.5304578614229
 10
122.0669677429208
 20
-151.5304578614229
 10
122.0669677429208
 20
-151.5304578614229
 10
122.0669677429208
 20
-151.8604980089099
 10
122.0669677429208
 20
-151.8604980089099
 10
122.0669677429208
 20
-151.8604980089099
 10
121.918828637055
 20
-151.8604980089099
 10
121.918828637055
 20
-151.8604980089099
 10
121.9040147264684
 20
-151.5283908041318
 10
121.7410617100161
 20
-151.4818820150809
 10
121.6266845399058
 20
-151.4522541939078
 10
121.6266845399058
 20
-151.4522541939078
 10
121.6266845399058
 20
-151.3061821453332
 10
121.6266845399058
 20
-151.3061821453332
 10
121.6266845399058
 20
-151.3061821453332
 10
123.1711208459433
 20
-151.3061821453332
 10
123.1711208459433
 20
-151.3061821453332
 10
123.1711208459433
 20
-151.3061821453332
 10
123.1711208459433
 20
-151.5304578614229
 10
123.1711208459433
 20
-151.5304578614229
 97
        0
 97
        0
 75
     2
 76
     1
 98
        0
  0
SPLINE
  5
6E
330
68
100
AcDbEntity
  8
_U+30EC_U+30A4_U+30E4_U+30FC 1
370
     0
100
AcDbSpline
210
0.0
220
0.0
230
1.0
 70
    11
 71
     3
 72
    44
 73
    40
 74
     0
 42
0.0000000001
 43
0.0000000001
 12
1.0
 22
0.0
 32
0.0
 13
1.0
 23
0.0
 33
0.0
 40
0.0
 40
0.0
 40
0.0
 40
0.0
 40
1.0
 40
1.0
 40
1.0
 40
2.0
 40
2.0
 40
2.0
 40
3.0
 40
3.0
 40
3.0
 40
4.0
 40
4.0
 40
4.0
 40
5.0
 40
5.0
 40
5.0
 40
6.0
 40
6.0
 40
6.0
 40
7.0
 40
7.0
 40
7.0
 40
8.0
 40
8.0
 40
8.0
 40
9.0
 40
9.0
 40
9.0
 40
10.0
 40
10.0
 40
10.0
 40
11.0
 40
11.0
 40
11.0
 40
12.0
 40
12.0
 40
12.0
 40
13.0
 40
13.0
 40
13.0
 40
13.0
 10
122.5892442184846
 20
-150.2120198192178
 30
0.0
 10
122.7480631203547
 20
-150.4297498538856
 30
0.0
 10
122.8221326732875
 20
-150.5227674319874
 30
0.0
 10
122.9657931550225
 20
-150.5716877878779
 30
0.0
 10
122.9657931550225
 20
-150.5716877878779
 30
0.0
 10
122.9657931550225
 20
-149.7930962082115
 30
0.0
 10
122.9657931550225
 20
-149.7930962082115
 30
0.0
 10
122.9657931550225
 20
-149.7930962082115
 30
0.0
 10
123.1711208459433
 20
-149.7930962082115
 30
0.0
 10
123.1711208459433
 20
-149.7930962082115
 30
0.0
 10
123.1711208459433
 20
-149.7930962082115
 30
0.0
 10
123.1711208459433
 20
-150.82111270101
 30
0.0
 10
123.1711208459433
 20
-150.82111270101
 30
0.0
 10
122.8135199345744
 20
-150.7894178225457
 30
0.0
 10
122.7353162670592
 20
-150.723961008326
 30
0.0
 10
122.4369709980366
 20
-150.338799333075
 30
0.0
 10
122.2381889885377
 20
-150.082828738521
 30
0.0
 10
122.1703206074783
 20
-150.0173719243012
 30
0.0
 10
122.0328612976168
 20
-150.0173719243012
 30
0.0
 10
121.9143500129242
 20
-150.0173719243012
 30
0.0
 10
121.7834363844847
 20
-150.0893744199429
 30
0.0
 10
121.7834363844847
 20
-150.2860893721507
 30
0.0
 10
121.7834363844847
 20
-150.5461940812871
 30
0.0
 10
122.0139132724479
 20
-150.5548068200002
 30
0.0
 10
122.1303574998494
 20
-150.5589409345825
 30
0.0
 10
122.1303574998494
 20
-150.5589409345825
 30
0.0
 10
122.1303574998494
 20
-150.7832166506722
 30
0.0
 10
122.1303574998494
 20
-150.7832166506722
 30
0.0
 10
122.0032334764436
 20
-150.7746039119591
 30
0.0
 10
121.891267873173
 20
-150.7639241159549
 30
0.0
 10
121.7727565884804
 20
-150.6836533911485
 30
0.0
 10
121.6118706293193
 20
-150.5737548451691
 30
0.0
 10
121.5781086935638
 20
-150.3873751794171
 30
0.0
 10
121.5781086935638
 20
-150.2712754615641
 30
0.0
 10
121.5781086935638
 20
-149.9939452750015
 30
0.0
 10
121.7620767924762
 20
-149.7865505267895
 30
0.0
 10
122.0349283549079
 20
-149.7865505267895
 30
0.0
 10
122.2636826951285
 20
-149.7865505267895
 30
0.0
 10
122.3629014451037
 20
-149.9029947541909
 30
0.0
 10
122.5892442184846
 20
-150.2120198192178
 30
0.0
  0
HATCH
  5
6F
330
68
100
AcDbEntity
  8
_U+30EC_U+30A4_U+30E4_U+30FC 1
 62
   179
420
  2234388
100
AcDbHatch
 10
0.0
 20
0.0
 30
0.0
210
0.0
220
0.0
230
1.0
  2
SOLID
 70
     1
 71
     0
 91
        1
 92
        1
 93
        1
 72
     4
 94
        3
 73
     0
 74
     1
 95
       44
 96
       40
 40
0.0
 40
0.0
 40
0.0
 40
0.0
 40
1.0
 40
1.0
 40
1.0
 40
2.0
 40
2.0
 40
2.0
 40
3.0
 40
3.0
 40
3.0
 40
4.0
 40
4.0
 40
4.0
 40
5.0
 40
5.0
 40
5.0
 40
6.0
 40
6.0
 40
6.0
 40
7.0
 40
7.0
 40
7.0
 40
8.0
 40
8.0
 40
8.0
 40
9.0
 40
9.0
 40
9.0
 40
10.0
 40
10.0
 40
10.0
 40
11.0
 40
11.0
 40
11.0
 40
12.0
 40
12.0
 40
12.0
 40
13.0
 40
13.0
 40
13.0
 40
13.0
 10
122.5892442184846
 20
-150.2120198192178
 10
122.7480631203547
 20
-150.4297498538856
 10
122.8221326732875
 20
-150.5227674319874
 10
122.9657931550225
 20
-150.5716877878779
 10
122.9657931550225
 20
-150.5716877878779
 10
122.9657931550225
 20
-149.7930962082115
 10
122.9657931550225
 20
-149.7930962082115
 10
122.9657931550225
 20
-149.7930962082115
 10
123.1711208459433
 20
-149.7930962082115
 10
123.1711208459433
 20
-149.7930962082115
 10
123.1711208459433
 20
-149.7930962082115
 10
123.1711208459433
 20
-150.82111270101
 10
123.1711208459433
 20
-150.82111270101
 10
122.8135199345744
 20
-150.7894178225457
 10
122.7353162670592
 20
-150.723961008326
 10
122.4369709980366
 20
-150.338799333075
 10
122.2381889885377
 20
-150.082828738521
 10
122.1703206074783
 20
-150.0173719243012
 10
122.0328612976168
 20
-150.0173719243012
 10
121.9143500129242
 20
-150.0173719243012
 10
121.7834363844847
 20
-150.0893744199429
 10
121.7834363844847
 20
-150.2860893721507
 10
121.7834363844847
 20
-150.5461940812871
 10
122.0139132724479
 20
-150.5548068200002
 10
122.1303574998494
 20
-150.5589409345825
 10
122.1303574998494
 20
-150.5589409345825
 10
122.1303574998494
 20
-150.7832166506722
 10
122.1303574998494
 20
-150.7832166506722
 10
122.0032334764436
 20
-150.7746039119591
 10
121.891267873173
 20
-150.7639241159549
 10
121.7727565884804
 20
-150.6836533911485
 10
121.6118706293193
 20
-150.5737548451691
 10
121.5781086935638
 20
-150.3873751794171
 10
121.5781086935638
 20
-150.2712754615641
 10
121.5781086935638
 20
-149.9939452750015
 10
121.7620767924762
 20
-149.7865505267895
 10
122.0349283549079
 20
-149.7865505267895
 10
122.2636826951285
 20
-149.7865505267895
 10
122.3629014451037
 20
-149.9029947541909
 10
122.5892442184846
 20
-150.2120198192178
 97
        0
 97
        0
 75
     2
 76
     1
 98
        0
  0
POLYLINE
  5
70
330
68
100
AcDbEntity
  8
_U+30EC_U+30A4_U+30E4_U+30FC 1
370
     0
100
AcDb2dPolyline
 66
     1
 10
0.0
 20
0.0
 30
0.0
  0
VERTEX
  5
71
330
70
100
AcDbEntity
  8
_U+30EC_U+30A4_U+30E4_U+30FC 1
370
     0
100
AcDbVertex
100
AcDb2dVertex
 10
123.1711208459433
 20
-149.5681314730246
 30
0.0
  0
VERTEX
  5
72
330
70
100
AcDbEntity
  8
_U+30EC_U+30A4_U+30E4_U+30FC 1
370
     0
100
AcDbVertex
100
AcDb2dVertex
 10
122.9192843659716
 20
-149.5681314730246
 30
0.0
  0
VERTEX
  5
73
330
70
100
AcDbEntity
  8
_U+30EC_U+30A4_U+30E4_U+30FC 1
370
     0
100
AcDbVertex
100
AcDb2dVertex
 10
122.9192843659716
 20
-149.3162949930529
 30
0.0
  0
VERTEX
  5
74
330
70
100
AcDbEntity
  8
_U+30EC_U+30A4_U+30E4_U+30FC 1
370
     0
100
AcDbVertex
100
AcDb2dVertex
 10
123.1711208459433
 20
-149.3162949930529
 30
0.0
  0
VERTEX
  5
75
330
70
100
AcDbEntity
  8
_U+30EC_U+30A4_U+30E4_U+30FC 1
370
     0
100
AcDbVertex
100
AcDb2dVertex
 10
123.1711208459433
 20
-149.5681314730246
 30
0.0
  0
SEQEND
  5
76
330
70
100
AcDbEntity
  8
_U+30EC_U+30A4_U+30E4_U+30FC 1
370
     0
  0
HATCH
  5
77
330
68
100
AcDbEntity
  8
_U+30EC_U+30A4_U+30E4_U+30FC 1
 62
   179
420
  2234388
100
AcDbHatch
 10
0.0
 20
0.0
 30
0.0
210
0.0
220
0.0
230
1.0
  2
SOLID
 70
     1
 71
     0
 91
        1
 92
        1
 93
        4
 72
     1
 10
123.1711208459433
 20
-149.5681314730246
 11
122.9192843659716
 21
-149.5681314730246
 72
     1
 10
122.9192843659716
 20
-149.5681314730246
 11
122.9192843659716
 21
-149.3162949930529
 72
     1
 10
122.9192843659716
 20
-149.3162949930529
 11
123.1711208459433
 21
-149.3162949930529
 72
     1
 10
123.1711208459433
 20
-149.3162949930529
 11
123.1711208459433
 21
-149.5681314730246
 97
        0
 75
     2
 76
     1
 98
        0
  0
SPLINE
  5
78
330
68
100
AcDbEntity
  8
_U+30EC_U+30A4_U+30E4_U+30FC 1
370
     0
100
AcDbSpline
210
0.0
220
0.0
230
1.0
 70
    11
 71
     3
 72
    53
 73
    49
 74
     0
 42
0.0000000001
 43
0.0000000001
 12
1.0
 22
0.0
 32
0.0
 13
1.0
 23
0.0
 33
0.0
 40
0.0
 40
0.0
 40
0.0
 40
0.0
 40
1.0
 40
1.0
 40
1.0
 40
2.0
 40
2.0
 40
2.0
 40
3.0
 40
3.0
 40
3.0
 40
4.0
 40
4.0
 40
4.0
 40
5.0
 40
5.0
 40
5.0
 40
6.0
 40
6.0
 40
6.0
 40
7.0
 40
7.0
 40
7.0
 40
8.0
 40
8.0
 40
8.0
 40
9.0
 40
9.0
 40
9.0
 40
10.0
 40
10.0
 40
10.0
 40
11.0
 40
11.0
 40
11.0
 40
12.0
 40
12.0
 40
12.0
 40
13.0
 40
13.0
 40
13.0
 40
14.0
 40
14.0
 40
14.0
 40
15.0
 40
15.0
 40
15.0
 40
16.0
 40
16.0
 40
16.0
 40
16.0
 10
123.2217637495765
 20
-148.5990261130239
 30
0.0
 10
123.2217637495765
 20
-148.677229780539
 30
0.0
 10
123.2048827816988
 20
-148.7788600973539
 30
0.0
 10
123.1414930247702
 20
-148.8804904141688
 30
0.0
 10
123.0315944787907
 20
-149.0537787170769
 30
0.0
 10
122.9003363408027
 20
-149.0751383090854
 30
0.0
 10
122.7925048521144
 20
-149.0940863342543
 30
0.0
 10
122.7925048521144
 20
-149.0940863342543
 30
0.0
 10
122.7925048521144
 20
-148.8718776754556
 30
0.0
 10
122.7925048521144
 20
-148.8718776754556
 30
0.0
 10
122.9912868616133
 20
-148.8171006572402
 30
0.0
 10
123.0209146827864
 20
-148.6899766338344
 30
0.0
 10
123.0209146827864
 20
-148.5969590557327
 30
0.0
 10
123.0209146827864
 20
-148.4574326885801
 30
0.0
 10
122.9213514232627
 20
-148.305159468132
 30
0.0
 10
122.6888074780084
 20
-148.305159468132
 30
0.0
 10
122.4328368834543
 20
-148.305159468132
 30
0.0
 10
122.3629014451037
 20
-148.4849934524621
 30
0.0
 10
122.3629014451037
 20
-148.6055717944458
 30
0.0
 10
122.3629014451037
 20
-148.6372666729101
 30
0.0
 10
122.3629014451037
 20
-148.7788600973539
 30
0.0
 10
122.4920925258006
 20
-148.8677435608734
 30
0.0
 10
122.4920925258006
 20
-148.8677435608734
 30
0.0
 10
122.4731445006317
 20
-149.0434434306211
 30
0.0
 10
122.4731445006317
 20
-149.0434434306211
 30
0.0
 10
122.4731445006317
 20
-149.0434434306211
 30
0.0
 10
121.6266845399058
 20
-148.9228650886373
 30
0.0
 10
121.6266845399058
 20
-148.9228650886373
 30
0.0
 10
121.6266845399058
 20
-148.9228650886373
 30
0.0
 10
121.6266845399058
 20
-148.1442735089709
 30
0.0
 10
121.6266845399058
 20
-148.1442735089709
 30
0.0
 10
121.6266845399058
 20
-148.1442735089709
 30
0.0
 10
121.8213324348225
 20
-148.1442735089709
 30
0.0
 10
121.8213324348225
 20
-148.1442735089709
 30
0.0
 10
121.8213324348225
 20
-148.1442735089709
 30
0.0
 10
121.8213324348225
 20
-148.759912072185
 30
0.0
 10
121.8213324348225
 20
-148.759912072185
 30
0.0
 10
121.8213324348225
 20
-148.759912072185
 30
0.0
 10
122.2443901604111
 20
-148.8253688864048
 30
0.0
 10
122.2443901604111
 20
-148.8253688864048
 30
0.0
 10
122.2106282246557
 20
-148.7640461867673
 30
0.0
 10
122.1703206074783
 20
-148.6817084046698
 30
0.0
 10
122.1703206074783
 20
-148.5631971199773
 30
0.0
 10
122.1703206074783
 20
-148.3092935827144
 30
0.0
 10
122.3567002732303
 20
-148.0722710133292
 30
0.0
 10
122.6698594528395
 20
-148.0722710133292
 30
0.0
 10
122.987152747031
 20
-148.0722710133292
 30
0.0
 10
123.2217637495765
 20
-148.2965467294189
 30
0.0
 10
123.2217637495765
 20
-148.5990261130239
 30
0.0
  0
HATCH
  5
79
330
68
100
AcDbEntity
  8
_U+30EC_U+30A4_U+30E4_U+30FC 1
 62
   179
420
  2234388
100
AcDbHatch
 10
0.0
 20
0.0
 30
0.0
210
0.0
220
0.0
230
1.0
  2
SOLID
 70
     1
 71
     0
 91
        1
 92
        1
 93
        1
 72
     4
 94
        3
 73
     0
 74
     1
 95
       53
 96
       49
 40
0.0
 40
0.0
 40
0.0
 40
0.0
 40
1.0
 40
1.0
 40
1.0
 40
2.0
 40
2.0
 40
2.0
 40
3.0
 40
3.0
 40
3.0
 40
4.0
 40
4.0
 40
4.0
 40
5.0
 40
5.0
 40
5.0
 40
6.0
 40
6.0
 40
6.0
 40
7.0
 40
7.0
 40
7.0
 40
8.0
 40
8.0
 40
8.0
 40
9.0
 40
9.0
 40
9.0
 40
10.0
 40
10.0
 40
10.0
 40
11.0
 40
11.0
 40
11.0
 40
12.0
 40
12.0
 40
12.0
 40
13.0
 40
13.0
 40
13.0
 40
14.0
 40
14.0
 40
14.0
 40
15.0
 40
15.0
 40
15.0
 40
16.0
 40
16.0
 40
16.0
 40
16.0
 10
123.2217637495765
 20
-148.5990261130239
 10
123.2217637495765
 20
-148.677229780539
 10
123.2048827816988
 20
-148.7788600973539
 10
123.1414930247702
 20
-148.8804904141688
 10
123.0315944787907
 20
-149.0537787170769
 10
122.9003363408027
 20
-149.0751383090854
 10
122.7925048521144
 20
-149.0940863342543
 10
122.7925048521144
 20
-149.0940863342543
 10
122.7925048521144
 20
-148.8718776754556
 10
122.7925048521144
 20
-148.8718776754556
 10
122.9912868616133
 20
-148.8171006572402
 10
123.0209146827864
 20
-148.6899766338344
 10
123.0209146827864
 20
-148.5969590557327
 10
123.0209146827864
 20
-148.4574326885801
 10
122.9213514232627
 20
-148.305159468132
 10
122.6888074780084
 20
-148.305159468132
 10
122.4328368834543
 20
-148.305159468132
 10
122.3629014451037
 20
-148.4849934524621
 10
122.3629014451037
 20
-148.6055717944458
 10
122.3629014451037
 20
-148.6372666729101
 10
122.3629014451037
 20
-148.7788600973539
 10
122.4920925258006
 20
-148.8677435608734
 10
122.4920925258006
 20
-148.8677435608734
 10
122.4731445006317
 20
-149.0434434306211
 10
122.4731445006317
 20
-149.0434434306211
 10
122.4731445006317
 20
-149.0434434306211
 10
121.6266845399058
 20
-148.9228650886373
 10
121.6266845399058
 20
-148.9228650886373
 10
121.6266845399058
 20
-148.9228650886373
 10
121.6266845399058
 20
-148.1442735089709
 10
121.6266845399058
 20
-148.1442735089709
 10
121.6266845399058
 20
-148.1442735089709
 10
121.8213324348225
 20
-148.1442735089709
 10
121.8213324348225
 20
-148.1442735089709
 10
121.8213324348225
 20
-148.1442735089709
 10
121.8213324348225
 20
-148.759912072185
 10
121.8213324348225
 20
-148.759912072185
 10
121.8213324348225
 20
-148.759912072185
 10
122.2443901604111
 20
-148.8253688864048
 10
122.2443901604111
 20
-148.8253688864048
 10
122.2106282246557
 20
-148.7640461867673
 10
122.1703206074783
 20
-148.6817084046698
 10
122.1703206074783
 20
-148.5631971199773
 10
122.1703206074783
 20
-148.3092935827144
 10
122.3567002732303
 20
-148.0722710133292
 10
122.6698594528395
 20
-148.0722710133292
 10
122.987152747031
 20
-148.0722710133292
 10
123.2217637495765
 20
-148.2965467294189
 10
123.2217637495765
 20
-148.5990261130239
 97
        0
 97
        0
 75
     2
 76
     1
 98
        0
  0
ENDBLK
  5
6B
330
68
100
AcDbEntity
  8
0
100
AcDbBlockEnd
  0
BLOCK
  5
7C
330
7A
100
AcDbEntity
  8
0
100
AcDbBlockBegin
  2
block 6
 70
     0
 10
0.0
 20
0.0
 30
0.0
  3
block 6
  1

  0
SPLINE
  5
7E
330
7A
100
AcDbEntity
  8
_U+30EC_U+30A4_U+30E4_U+30FC 1
370
     0
100
AcDbSpline
210
0.0
220
0.0
230
1.0
 70
    11
 71
     3
 72
    26
 73
    22
 74
     0
 42
0.0000000001
 43
0.0000000001
 12
1.0
 22
0.0
 32
0.0
 13
1.0
 23
0.0
 33
0.0
 40
0.0
 40
0.0
 40
0.0
 40
0.0
 40
1.0
 40
1.0
 40
1.0
 40
2.0
 40
2.0
 40
2.0
 40
3.0
 40
3.0
 40
3.0
 40
4.0
 40
4.0
 40
4.0
 40
5.0
 40
5.0
 40
5.0
 40
6.0
 40
6.0
 40
6.0
 40
7.0
 40
7.0
 40
7.0
 40
7.0
 10
122.9905978425163
 20
-142.8687987924078
 30
0.0
 10
122.9905978425163
 20
-142.8687987924078
 30
0.0
 10
121.8864447394937
 20
-142.8687987924078
 30
0.0
 10
121.8864447394937
 20
-142.8687987924078
 30
0.0
 10
121.8864447394937
 20
-142.8687987924078
 30
0.0
 10
121.8864447394937
 20
-143.1988389398947
 30
0.0
 10
121.8864447394937
 20
-143.1988389398947
 30
0.0
 10
121.8864447394937
 20
-143.1988389398947
 30
0.0
 10
121.7383056336279
 20
-143.1988389398947
 30
0.0
 10
121.7383056336279
 20
-143.1988389398947
 30
0.0
 10
121.7234917230413
 20
-142.8667317351166
 30
0.0
 10
121.560538706589
 20
-142.8202229460658
 30
0.0
 10
121.4461615364787
 20
-142.7905951248926
 30
0.0
 10
121.4461615364787
 20
-142.7905951248926
 30
0.0
 10
121.4461615364787
 20
-142.6445230763181
 30
0.0
 10
121.4461615364787
 20
-142.6445230763181
 30
0.0
 10
121.4461615364787
 20
-142.6445230763181
 30
0.0
 10
122.9905978425163
 20
-142.6445230763181
 30
0.0
 10
122.9905978425163
 20
-142.6445230763181
 30
0.0
 10
122.9905978425163
 20
-142.6445230763181
 30
0.0
 10
122.9905978425163
 20
-142.8687987924078
 30
0.0
 10
122.9905978425163
 20
-142.8687987924078
 30
0.0
  0
HATCH
  5
7F
330
7A
100
AcDbEntity
  8
_U+30EC_U+30A4_U+30E4_U+30FC 1
 62
   179
420
  2234388
100
AcDbHatch
 10
0.0
 20
0.0
 30
0.0
210
0.0
220
0.0
230
1.0
  2
SOLID
 70
     1
 71
     0
 91
        1
 92
        1
 93
        1
 72
     4
 94
        3
 73
     0
 74
     1
 95
       26
 96
       22
 40
0.0
 40
0.0
 40
0.0
 40
0.0
 40
1.0
 40
1.0
 40
1.0
 40
2.0
 40
2.0
 40
2.0
 40
3.0
 40
3.0
 40
3.0
 40
4.0
 40
4.0
 40
4.0
 40
5.0
 40
5.0
 40
5.0
 40
6.0
 40
6.0
 40
6.0
 40
7.0
 40
7.0
 40
7.0
 40
7.0
 10
122.9905978425163
 20
-142.8687987924078
 10
122.9905978425163
 20
-142.8687987924078
 10
121.8864447394937
 20
-142.8687987924078
 10
121.8864447394937
 20
-142.8687987924078
 10
121.8864447394937
 20
-142.8687987924078
 10
121.8864447394937
 20
-143.1988389398947
 10
121.8864447394937
 20
-143.1988389398947
 10
121.8864447394937
 20
-143.1988389398947
 10
121.7383056336279
 20
-143.1988389398947
 10
121.7383056336279
 20
-143.1988389398947
 10
121.7234917230413
 20
-142.8667317351166
 10
121.560538706589
 20
-142.8202229460658
 10
121.4461615364787
 20
-142.7905951248926
 10
121.4461615364787
 20
-142.7905951248926
 10
121.4461615364787
 20
-142.6445230763181
 10
121.4461615364787
 20
-142.6445230763181
 10
121.4461615364787
 20
-142.6445230763181
 10
122.9905978425163
 20
-142.6445230763181
 10
122.9905978425163
 20
-142.6445230763181
 10
122.9905978425163
 20
-142.6445230763181
 10
122.9905978425163
 20
-142.8687987924078
 10
122.9905978425163
 20
-142.8687987924078
 97
        0
 97
        0
 75
     2
 76
     1
 98
        0
  0
ENDBLK
  5
7D
330
7A
100
AcDbEntity
  8
0
100
AcDbBlockEnd
  0
ENDSEC
  0
SECTION
  2
ENTITIES
  0
INSERT
  5
42
330
1F
100
AcDbEntity
  8
_U+30EC_U+30A4_U+30E4_U+30FC 1
100
AcDbBlockReference
  2
block 2
 10
0.0
 20
0.0
 30
0.0
  0
INSERT
  5
5D
330
1F
100
AcDbEntity
  8
_U+30EC_U+30A4_U+30E4_U+30FC 1
100
AcDbBlockReference
  2
block 3
 10
0.0
 20
0.0
 30
0.0
  0
INSERT
  5
63
330
1F
100
AcDbEntity
  8
_U+30EC_U+30A4_U+30E4_U+30FC 1
100
AcDbBlockReference
  2
block 4
 10
0.0
 20
0.0
 30
0.0
  0
INSERT
  5
69
330
1F
100
AcDbEntity
  8
_U+30EC_U+30A4_U+30E4_U+30FC 1
100
AcDbBlockReference
  2
block 5
 10
0.0
 20
0.0
 30
0.0
  0
INSERT
  5
7B
330
1F
100
AcDbEntity
  8
_U+30EC_U+30A4_U+30E4_U+30FC 1
100
AcDbBlockReference
  2
block 6
 10
0.0
 20
0.0
 30
0.0
  0
POLYLINE
  5
80
330
1F
100
AcDbEntity
  8
_U+30EC_U+30A4_U+30E4_U+30FC 1
 62
   179
420
  2234388
370
    25
100
AcDb2dPolyline
 66
     1
 10
0.0
 20
0.0
 30
0.0
  0
VERTEX
  5
81
330
80
100
AcDbEntity
  8
_U+30EC_U+30A4_U+30E4_U+30FC 1
 62
   179
420
  2234388
370
    25
100
AcDbVertex
100
AcDb2dVertex
 10
117.3661297835183
 20
-141.9405269089593
 30
0.0
  0
VERTEX
  5
82
330
80
100
AcDbEntity
  8
_U+30EC_U+30A4_U+30E4_U+30FC 1
 62
   179
420
  2234388
370
    25
100
AcDbVertex
100
AcDb2dVertex
 10
93.36637595135863
 20
-141.9405269089593
 30
0.0
  0
SEQEND
  5
83
330
80
100
AcDbEntity
  8
_U+30EC_U+30A4_U+30E4_U+30FC 1
 62
   179
420
  2234388
370
    25
  0
POLYLINE
  5
84
330
1F
100
AcDbEntity
  8
_U+30EC_U+30A4_U+30E4_U+30FC 1
 62
   179
420
  2234388
370
    25
100
AcDb2dPolyline
 66
     1
 10
0.0
 20
0.0
 30
0.0
  0
VERTEX
  5
85
330
84
100
AcDbEntity
  8
_U+30EC_U+30A4_U+30E4_U+30FC 1
 62
   179
420
  2234388
370
    25
100
AcDbVertex
100
AcDb2dVertex
 10
117.4880850581848
 20
-142.8810324642798
 30
0.0
  0
VERTEX
  5
86
330
84
100
AcDbEntity
  8
_U+30EC_U+30A4_U+30E4_U+30FC 1
 62
   179
420
  2234388
370
    25
100
AcDbVertex
100
AcDb2dVertex
 10
117.4880850581848
 20
-141.9405269089593
 30
0.0
  0
SEQEND
  5
87
330
84
100
AcDbEntity
  8
_U+30EC_U+30A4_U+30E4_U+30FC 1
 62
   179
420
  2234388
370
    25
  0
POLYLINE
  5
88
330
1F
100
AcDbEntity
  8
_U+30EC_U+30A4_U+30E4_U+30FC 1
 62
   179
420
  2234388
370
    25
100
AcDb2dPolyline
 66
     1
 10
0.0
 20
0.0
 30
0.0
  0
VERTEX
  5
89
330
88
100
AcDbEntity
  8
_U+30EC_U+30A4_U+30E4_U+30FC 1
 62
   179
420
  2234388
370
    25
100
AcDbVertex
100
AcDb2dVertex
 10
94.54221953247148
 20
-142.8810324642798
 30
0.0
  0
VERTEX
  5
8A
330
88
100
AcDbEntity
  8
_U+30EC_U+30A4_U+30E4_U+30FC 1
 62
   179
420
  2234388
370
    25
100
AcDbVertex
100
AcDb2dVertex
 10
117.5225514461944
 20
-142.8810324642798
 30
0.0
  0
SEQEND
  5
8B
330
88
100
AcDbEntity
  8
_U+30EC_U+30A4_U+30E4_U+30FC 1
 62
   179
420
  2234388
370
    25
  0
POLYLINE
  5
8C
330
1F
100
AcDbEntity
  8
_U+30EC_U+30A4_U+30E4_U+30FC 1
 62
   179
420
  2234388
370
    25
100
AcDb2dPolyline
 66
     1
 10
0.0
 20
0.0
 30
0.0
  0
VERTEX
  5
8D
330
8C
100
AcDbEntity
  8
_U+30EC_U+30A4_U+30E4_U+30FC 1
 62
   179
420
  2234388
370
    25
100
AcDbVertex
100
AcDb2dVertex
 10
94.54221953247148
 20
-155.3813955167101
 30
0.0
  0
VERTEX
  5
8E
330
8C
100
AcDbEntity
  8
_U+30EC_U+30A4_U+30E4_U+30FC 1
 62
   179
420
  2234388
370
    25
100
AcDbVertex
100
AcDb2dVertex
 10
94.54221953247148
 20
-142.8810324642798
 30
0.0
  0
SEQEND
  5
8F
330
8C
100
AcDbEntity
  8
_U+30EC_U+30A4_U+30E4_U+30FC 1
 62
   179
420
  2234388
370
    25
  0
POLYLINE
  5
90
330
1F
100
AcDbEntity
  8
_U+30EC_U+30A4_U+30E4_U+30FC 1
 62
   179
420
  2234388
370
    25
100
AcDb2dPolyline
 66
     1
 10
0.0
 20
0.0
 30
0.0
  0
VERTEX
  5
91
330
90
100
AcDbEntity
  8
_U+30EC_U+30A4_U+30E4_U+30FC 1
 62
   179
420
  2234388
370
    25
100
AcDbVertex
100
AcDb2dVertex
 10
93.54227094687118
 20
-155.4220355166999
 30
0.0
  0
VERTEX
  5
92
330
90
100
AcDbEntity
  8
_U+30EC_U+30A4_U+30E4_U+30FC 1
 62
   179
420
  2234388
370
    25
100
AcDbVertex
100
AcDb2dVertex
 10
94.54221953247148
 20
-155.4220355166999
 30
0.0
  0
SEQEND
  5
93
330
90
100
AcDbEntity
  8
_U+30EC_U+30A4_U+30E4_U+30FC 1
 62
   179
420
  2234388
370
    25
  0
POLYLINE
  5
94
330
1F
100
AcDbEntity
  8
_U+30EC_U+30A4_U+30E4_U+30FC 1
 62
   179
420
  2234388
370
    25
100
AcDb2dPolyline
 66
     1
 10
0.0
 20
0.0
 30
0.0
  0
VERTEX
  5
95
330
94
100
AcDbEntity
  8
_U+30EC_U+30A4_U+30E4_U+30FC 1
 62
   179
420
  2234388
370
    25
100
AcDbVertex
100
AcDb2dVertex
 10
93.48388622613848
 20
-150.2847091290954
 30
0.0
  0
VERTEX
  5
96
330
94
100
AcDbEntity
  8
_U+30EC_U+30A4_U+30E4_U+30FC 1
 62
   179
420
  2234388
370
    25
100
AcDbVertex
100
AcDb2dVertex
 10
93.48388622613848
 20
-155.2849107945122
 30
0.0
  0
SEQEND
  5
97
330
94
100
AcDbEntity
  8
_U+30EC_U+30A4_U+30E4_U+30FC 1
 62
   179
420
  2234388
370
    25
  0
POLYLINE
  5
98
330
1F
100
AcDbEntity
  8
_U+30EC_U+30A4_U+30E4_U+30FC 1
 62
   179
420
  2234388
370
    25
100
AcDb2dPolyline
 66
     1
 10
0.0
 20
0.0
 30
0.0
  0
VERTEX
  5
99
330
98
100
AcDbEntity
  8
_U+30EC_U+30A4_U+30E4_U+30FC 1
 62
   179
420
  2234388
370
    25
100
AcDbVertex
100
AcDb2dVertex
 10
91.4838126660535
 20
-150.2337327402191
 30
0.0
  0
VERTEX
  5
9A
330
98
100
AcDbEntity
  8
_U+30EC_U+30A4_U+30E4_U+30FC 1
 62
   179
420
  2234388
370
    25
100
AcDbVertex
100
AcDb2dVertex
 10
93.48388622613848
 20
-150.2337327402191
 30
0.0
  0
SEQEND
  5
9B
330
98
100
AcDbEntity
  8
_U+30EC_U+30A4_U+30E4_U+30FC 1
 62
   179
420
  2234388
370
    25
  0
POLYLINE
  5
9C
330
1F
100
AcDbEntity
  8
_U+30EC_U+30A4_U+30E4_U+30FC 1
 62
   179
420
  2234388
370
    25
100
AcDb2dPolyline
 66
     1
 10
0.0
 20
0.0
 30
0.0
  0
VERTEX
  5
9D
330
9C
100
AcDbEntity
  8
_U+30EC_U+30A4_U+30E4_U+30FC 1
 62
   179
420
  2234388
370
    25
100
AcDbVertex
100
AcDb2dVertex
 10
91.36721961347247
 20
-149.0513627405147
 30
0.0
  0
VERTEX
  5
9E
330
9C
100
AcDbEntity
  8
_U+30EC_U+30A4_U+30E4_U+30FC 1
 62
   179
420
  2234388
370
    25
100
AcDbVertex
100
AcDb2dVertex
 10
91.36721961347247
 20
-150.2509482957705
 30
0.0
  0
SEQEND
  5
9F
330
9C
100
AcDbEntity
  8
_U+30EC_U+30A4_U+30E4_U+30FC 1
 62
   179
420
  2234388
370
    25
  0
POLYLINE
  5
A0
330
1F
100
AcDbEntity
  8
_U+30EC_U+30A4_U+30E4_U+30FC 1
 62
   179
420
  2234388
370
    25
100
AcDb2dPolyline
 66
     1
 10
0.0
 20
0.0
 30
0.0
  0
VERTEX
  5
A1
330
A0
100
AcDbEntity
  8
_U+30EC_U+30A4_U+30E4_U+30FC 1
 62
   179
420
  2234388
370
    25
100
AcDbVertex
100
AcDb2dVertex
 10
93.48388622613848
 20
-149.0582419071798
 30
0.0
  0
VERTEX
  5
A2
330
A0
100
AcDbEntity
  8
_U+30EC_U+30A4_U+30E4_U+30FC 1
 62
   179
420
  2234388
370
    25
100
AcDbVertex
100
AcDb2dVertex
 10
91.4838126660535
 20
-149.0582419071798
 30
0.0
  0
SEQEND
  5
A3
330
A0
100
AcDbEntity
  8
_U+30EC_U+30A4_U+30E4_U+30FC 1
 62
   179
420
  2234388
370
    25
  0
POLYLINE
  5
A4
330
1F
100
AcDbEntity
  8
_U+30EC_U+30A4_U+30E4_U+30FC 1
 62
   179
420
  2234388
370
    25
100
AcDb2dPolyline
 66
     1
 10
0.0
 20
0.0
 30
0.0
  0
VERTEX
  5
A5
330
A4
100
AcDbEntity
  8
_U+30EC_U+30A4_U+30E4_U+30FC 1
 62
   179
420
  2234388
370
    25
100
AcDbVertex
100
AcDb2dVertex
 10
93.36637595135863
 20
-141.9405269089593
 30
0.0
  0
VERTEX
  5
A6
330
A4
100
AcDbEntity
  8
_U+30EC_U+30A4_U+30E4_U+30FC 1
 62
   179
420
  2234388
370
    25
100
AcDbVertex
100
AcDb2dVertex
 10
93.48388622613848
 20
-149.0582419071798
 30
0.0
  0
SEQEND
  5
A7
330
A4
100
AcDbEntity
  8
_U+30EC_U+30A4_U+30E4_U+30FC 1
 62
   179
420
  2234388
370
    25
  0
POLYLINE
  5
A8
330
1F
100
AcDbEntity
  8
_U+30EC_U+30A4_U+30E4_U+30FC 1
 62
   179
420
  2234388
370
     9
100
AcDb2dPolyline
 66
     1
 10
0.0
 20
0.0
 30
0.0
  0
VERTEX
  5
A9
330
A8
100
AcDbEntity
  8
_U+30EC_U+30A4_U+30E4_U+30FC 1
 62
   179
420
  2234388
370
     9
100
AcDbVertex
100
AcDb2dVertex
 10
88.35379191257364
 20
-150.4211282957283
 30
0.0
  0
VERTEX
  5
AA
330
A8
100
AcDbEntity
  8
_U+30EC_U+30A4_U+30E4_U+30FC 1
 62
   179
420
  2234388
370
     9
100
AcDbVertex
100
AcDb2dVertex
 10
90.00002937057462
 20
-150.4211282957283
 30
0.0
  0
SEQEND
  5
AB
330
A8
100
AcDbEntity
  8
_U+30EC_U+30A4_U+30E4_U+30FC 1
 62
   179
420
  2234388
370
     9
  0
POLYLINE
  5
AC
330
1F
100
AcDbEntity
  8
_U+30EC_U+30A4_U+30E4_U+30FC 1
 62
   179
420
  2234388
370
     9
100
AcDb2dPolyline
 66
     1
 10
0.0
 20
0.0
 30
0.0
  0
VERTEX
  5
AD
330
AC
100
AcDbEntity
  8
_U+30EC_U+30A4_U+30E4_U+30FC 1
 62
   179
420
  2234388
370
     9
100
AcDbVertex
100
AcDb2dVertex
 10
88.35379191257364
 20
-155.4124046833691
 30
0.0
  0
VERTEX
  5
AE
330
AC
100
AcDbEntity
  8
_U+30EC_U+30A4_U+30E4_U+30FC 1
 62
   179
420
  2234388
370
     9
100
AcDbVertex
100
AcDb2dVertex
 10
90.00002937057462
 20
-155.4124046833691
 30
0.0
  0
SEQEND
  5
AF
330
AC
100
AcDbEntity
  8
_U+30EC_U+30A4_U+30E4_U+30FC 1
 62
   179
420
  2234388
370
     9
  0
POLYLINE
  5
B0
330
1F
100
AcDbEntity
  8
_U+30EC_U+30A4_U+30E4_U+30FC 1
 62
   179
420
  2234388
370
     9
100
AcDb2dPolyline
 66
     1
 10
0.0
 20
0.0
 30
0.0
  0
VERTEX
  5
B1
330
B0
100
AcDbEntity
  8
_U+30EC_U+30A4_U+30E4_U+30FC 1
 62
   179
420
  2234388
370
     9
100
AcDbVertex
100
AcDb2dVertex
 10
89.23573633451781
 20
-150.4631794068286
 30
0.0
  0
VERTEX
  5
B2
330
B0
100
AcDbEntity
  8
_U+30EC_U+30A4_U+30E4_U+30FC 1
 62
   179
420
  2234388
370
     9
100
AcDbVertex
100
AcDb2dVertex
 10
89.23573633451781
 20
-155.4626755166898
 30
0.0
  0
SEQEND
  5
B3
330
B0
100
AcDbEntity
  8
_U+30EC_U+30A4_U+30E4_U+30FC 1
 62
   179
420
  2234388
370
     9
  0
POLYLINE
  5
B4
330
1F
100
AcDbEntity
  8
_U+30EC_U+30A4_U+30E4_U+30FC 1
 62
   179
420
  2234388
370
     9
100
AcDb2dPolyline
 66
     1
 10
0.0
 20
0.0
 30
0.0
  0
VERTEX
  5
B5
330
B4
100
AcDbEntity
  8
_U+30EC_U+30A4_U+30E4_U+30FC 1
 62
   179
420
  2234388
370
     9
100
AcDbVertex
100
AcDb2dVertex
 10
91.05352962147538
 20
-157.4539649606363
 30
0.0
  0
VERTEX
  5
B6
330
B4
100
AcDbEntity
  8
_U+30EC_U+30A4_U+30E4_U+30FC 1
 62
   179
420
  2234388
370
     9
100
AcDbVertex
100
AcDb2dVertex
 10
91.05352962147538
 20
-159.2764149601811
 30
0.0
  0
SEQEND
  5
B7
330
B4
100
AcDbEntity
  8
_U+30EC_U+30A4_U+30E4_U+30FC 1
 62
   179
420
  2234388
370
     9
  0
POLYLINE
  5
B8
330
1F
100
AcDbEntity
  8
_U+30EC_U+30A4_U+30E4_U+30FC 1
 62
   179
420
  2234388
370
     9
100
AcDb2dPolyline
 66
     1
 10
0.0
 20
0.0
 30
0.0
  0
VERTEX
  5
B9
330
B8
100
AcDbEntity
  8
_U+30EC_U+30A4_U+30E4_U+30FC 1
 62
   179
420
  2234388
370
     9
100
AcDbVertex
100
AcDb2dVertex
 10
93.19291512245066
 20
-157.4539649606363
 30
0.0
  0
VERTEX
  5
BA
330
B8
100
AcDbEntity
  8
_U+30EC_U+30A4_U+30E4_U+30FC 1
 62
   179
420
  2234388
370
     9
100
AcDbVertex
100
AcDb2dVertex
 10
93.19291512245066
 20
-159.2764149601811
 30
0.0
  0
SEQEND
  5
BB
330
B8
100
AcDbEntity
  8
_U+30EC_U+30A4_U+30E4_U+30FC 1
 62
   179
420
  2234388
370
     9
  0
POLYLINE
  5
BC
330
1F
100
AcDbEntity
  8
_U+30EC_U+30A4_U+30E4_U+30FC 1
 62
   179
420
  2234388
370
     9
100
AcDb2dPolyline
 66
     1
 10
0.0
 20
0.0
 30
0.0
  0
VERTEX
  5
BD
330
BC
100
AcDbEntity
  8
_U+30EC_U+30A4_U+30E4_U+30FC 1
 62
   179
420
  2234388
370
     9
100
AcDbVertex
100
AcDb2dVertex
 10
91.05352962147538
 20
-158.2773482937641
 30
0.0
  0
VERTEX
  5
BE
330
BC
100
AcDbEntity
  8
_U+30EC_U+30A4_U+30E4_U+30FC 1
 62
   179
420
  2234388
370
     9
100
AcDbVertex
100
AcDb2dVertex
 10
93.05356790378349
 20
-158.2773482937641
 30
0.0
  0
SEQEND
  5
BF
330
BC
100
AcDbEntity
  8
_U+30EC_U+30A4_U+30E4_U+30FC 1
 62
   179
420
  2234388
370
     9
  0
POLYLINE
  5
C0
330
1F
100
AcDbEntity
  8
_U+30EC_U+30A4_U+30E4_U+30FC 1
 62
   179
420
  2234388
370
     9
100
AcDb2dPolyline
 66
     1
 10
0.0
 20
0.0
 30
0.0
  0
VERTEX
  5
C1
330
C0
100
AcDbEntity
  8
_U+30EC_U+30A4_U+30E4_U+30FC 1
 62
   179
420
  2234388
370
     9
100
AcDbVertex
100
AcDb2dVertex
 10
93.1898459558623
 20
-136.7666880213638
 30
0.0
  0
VERTEX
  5
C2
330
C0
100
AcDbEntity
  8
_U+30EC_U+30A4_U+30E4_U+30FC 1
 62
   179
420
  2234388
370
     9
100
AcDbVertex
100
AcDb2dVertex
 10
93.1898459558623
 20
-139.1183046874426
 30
0.0
  0
SEQEND
  5
C3
330
C0
100
AcDbEntity
  8
_U+30EC_U+30A4_U+30E4_U+30FC 1
 62
   179
420
  2234388
370
     9
  0
POLYLINE
  5
C4
330
1F
100
AcDbEntity
  8
_U+30EC_U+30A4_U+30E4_U+30FC 1
 62
   179
420
  2234388
370
     9
100
AcDb2dPolyline
 66
     1
 10
0.0
 20
0.0
 30
0.0
  0
VERTEX
  5
C5
330
C4
100
AcDbEntity
  8
_U+30EC_U+30A4_U+30E4_U+30FC 1
 62
   179
420
  2234388
370
     9
100
AcDbVertex
100
AcDb2dVertex
 10
118.2711458715406
 20
-136.7666880213638
 30
0.0
  0
VERTEX
  5
C6
330
C4
100
AcDbEntity
  8
_U+30EC_U+30A4_U+30E4_U+30FC 1
 62
   179
420
  2234388
370
     9
100
AcDbVertex
100
AcDb2dVertex
 10
118.2711458715406
 20
-139.1183046874426
 30
0.0
  0
SEQEND
  5
C7
330
C4
100
AcDbEntity
  8
_U+30EC_U+30A4_U+30E4_U+30FC 1
 62
   179
420
  2234388
370
     9
  0
POLYLINE
  5
C8
330
1F
100
AcDbEntity
  8
_U+30EC_U+30A4_U+30E4_U+30FC 1
 62
   179
420
  2234388
370
     9
100
AcDb2dPolyline
 66
     1
 10
0.0
 20
0.0
 30
0.0
  0
VERTEX
  5
C9
330
C8
100
AcDbEntity
  8
_U+30EC_U+30A4_U+30E4_U+30FC 1
 62
   179
420
  2234388
370
     9
100
AcDbVertex
100
AcDb2dVertex
 10
93.1898459558623
 20
-138.0599713543739
 30
0.0
  0
VERTEX
  5
CA
330
C8
100
AcDbEntity
  8
_U+30EC_U+30A4_U+30E4_U+30FC 1
 62
   179
420
  2234388
370
     9
100
AcDbVertex
100
AcDb2dVertex
 10
118.1895130958454
 20
-138.0599713543739
 30
0.0
  0
SEQEND
  5
CB
330
C8
100
AcDbEntity
  8
_U+30EC_U+30A4_U+30E4_U+30FC 1
 62
   179
420
  2234388
370
     9
  0
POLYLINE
  5
CC
330
1F
100
AcDbEntity
  8
_U+30EC_U+30A4_U+30E4_U+30FC 1
 62
   179
420
  2234388
370
     9
100
AcDb2dPolyline
 66
     1
 10
0.0
 20
0.0
 30
0.0
  0
VERTEX
  5
CD
330
CC
100
AcDbEntity
  8
_U+30EC_U+30A4_U+30E4_U+30FC 1
 62
   179
420
  2234388
370
     9
100
AcDbVertex
100
AcDb2dVertex
 10
118.6049794741349
 20
-141.9997582978335
 30
0.0
  0
VERTEX
  5
CE
330
CC
100
AcDbEntity
  8
_U+30EC_U+30A4_U+30E4_U+30FC 1
 62
   179
420
  2234388
370
     9
100
AcDbVertex
100
AcDb2dVertex
 10
120.4277822054091
 20
-141.9997582978335
 30
0.0
  0
SEQEND
  5
CF
330
CC
100
AcDbEntity
  8
_U+30EC_U+30A4_U+30E4_U+30FC 1
 62
   179
420
  2234388
370
     9
  0
POLYLINE
  5
D0
330
1F
100
AcDbEntity
  8
_U+30EC_U+30A4_U+30E4_U+30FC 1
 62
   179
420
  2234388
370
     9
100
AcDb2dPolyline
 66
     1
 10
0.0
 20
0.0
 30
0.0
  0
VERTEX
  5
D1
330
D0
100
AcDbEntity
  8
_U+30EC_U+30A4_U+30E4_U+30FC 1
 62
   179
420
  2234388
370
     9
100
AcDbVertex
100
AcDb2dVertex
 10
118.6049794741349
 20
-143.0580916309022
 30
0.0
  0
VERTEX
  5
D2
330
D0
100
AcDbEntity
  8
_U+30EC_U+30A4_U+30E4_U+30FC 1
 62
   179
420
  2234388
370
     9
100
AcDbVertex
100
AcDb2dVertex
 10
120.4277822054091
 20
-143.0580916309022
 30
0.0
  0
SEQEND
  5
D3
330
D0
100
AcDbEntity
  8
_U+30EC_U+30A4_U+30E4_U+30FC 1
 62
   179
420
  2234388
370
     9
  0
POLYLINE
  5
D4
330
1F
100
AcDbEntity
  8
_U+30EC_U+30A4_U+30E4_U+30FC 1
 62
   179
420
  2234388
370
     9
100
AcDb2dPolyline
 66
     1
 10
0.0
 20
0.0
 30
0.0
  0
VERTEX
  5
D5
330
D4
100
AcDbEntity
  8
_U+30EC_U+30A4_U+30E4_U+30FC 1
 62
   179
420
  2234388
370
     9
100
AcDbVertex
100
AcDb2dVertex
 10
118.6049794741349
 20
-155.7224610721804
 30
0.0
  0
VERTEX
  5
D6
330
D4
100
AcDbEntity
  8
_U+30EC_U+30A4_U+30E4_U+30FC 1
 62
   179
420
  2234388
370
     9
100
AcDbVertex
100
AcDb2dVertex
 10
120.4277822054091
 20
-155.7224610721804
 30
0.0
  0
SEQEND
  5
D7
330
D4
100
AcDbEntity
  8
_U+30EC_U+30A4_U+30E4_U+30FC 1
 62
   179
420
  2234388
370
     9
  0
POLYLINE
  5
D8
330
1F
100
AcDbEntity
  8
_U+30EC_U+30A4_U+30E4_U+30FC 1
 62
   179
420
  2234388
370
     9
100
AcDb2dPolyline
 66
     1
 10
0.0
 20
0.0
 30
0.0
  0
VERTEX
  5
D9
330
D8
100
AcDbEntity
  8
_U+30EC_U+30A4_U+30E4_U+30FC 1
 62
   179
420
  2234388
370
     9
100
AcDbVertex
100
AcDb2dVertex
 10
119.604398893082
 20
-142.0583546867075
 30
0.0
  0
VERTEX
  5
DA
330
D8
100
AcDbEntity
  8
_U+30EC_U+30A4_U+30E4_U+30FC 1
 62
   179
420
  2234388
370
     9
100
AcDbVertex
100
AcDb2dVertex
 10
119.604398893082
 20
-155.5584546833328
 30
0.0
  0
SEQEND
  5
DB
330
D8
100
AcDbEntity
  8
_U+30EC_U+30A4_U+30E4_U+30FC 1
 62
   179
420
  2234388
370
     9
  0
SPLINE
  5
DC
330
1F
100
AcDbEntity
  8
_U+30EC_U+30A4_U+30E4_U+30FC 1
 62
   179
420
  2234388
370
     9
100
AcDbSpline
210
0.0
220
0.0
230
1.0
 70
    11
 71
     3
 72
    17
 73
    13
 74
     0
 42
0.0000000001
 43
0.0000000001
 12
1.0
 22
0.0
 32
0.0
 13
1.0
 23
0.0
 33
0.0
 40
0.0
 40
0.0
 40
0.0
 40
0.0
 40
1.0
 40
1.0
 40
1.0
 40
2.0
 40
2.0
 40
2.0
 40
3.0
 40
3.0
 40
3.0
 40
4.0
 40
4.0
 40
4.0
 40
4.0
 10
93.31211873052064
 20
-158.2773482937641
 30
0.0
 10
93.31211873052064
 20
-158.2215388493337
 30
0.0
 10
93.26770400943153
 20
-158.1767360715669
 30
0.0
 10
93.2122120664028
 20
-158.1767360715669
 30
0.0
 10
93.15710817891973
 20
-158.1767360715669
 30
0.0
 10
93.11230540228496
 20
-158.2215388493337
 30
0.0
 10
93.11230540228496
 20
-158.2773482937641
 30
0.0
 10
93.11230540228496
 20
-158.332452182639
 30
0.0
 10
93.15710817891973
 20
-158.3772549604057
 30
0.0
 10
93.2122120664028
 20
-158.3772549604057
 30
0.0
 10
93.26770400943153
 20
-158.3772549604057
 30
0.0
 10
93.31211873052064
 20
-158.332452182639
 30
0.0
 10
93.31211873052064
 20
-158.2773482937641
 30
0.0
  0
SPLINE
  5
DD
330
1F
100
AcDbEntity
  8
_U+30EC_U+30A4_U+30E4_U+30FC 1
 62
   179
420
  2234388
370
     9
100
AcDbSpline
210
0.0
220
0.0
230
1.0
 70
    11
 71
     3
 72
    17
 73
    13
 74
     0
 42
0.0000000001
 43
0.0000000001
 12
1.0
 22
0.0
 32
0.0
 13
1.0
 23
0.0
 33
0.0
 40
0.0
 40
0.0
 40
0.0
 40
0.0
 40
1.0
 40
1.0
 40
1.0
 40
2.0
 40
2.0
 40
2.0
 40
3.0
 40
3.0
 40
3.0
 40
4.0
 40
4.0
 40
4.0
 40
4.0
 10
91.15551767442899
 20
-158.2773482937641
 30
0.0
 10
91.15551767442899
 20
-158.2215388493337
 30
0.0
 10
91.111067675563
 20
-158.1767360715669
 30
0.0
 10
91.05561101031117
 20
-158.1767360715669
 30
0.0
 10
91.00047184505121
 20
-158.1767360715669
 30
0.0
 10
90.95566906841646
 20
-158.2215388493337
 30
0.0
 10
90.95566906841646
 20
-158.2773482937641
 30
0.0
 10
90.95566906841646
 20
-158.332452182639
 30
0.0
 10
91.00047184505121
 20
-158.3772549604057
 30
0.0
 10
91.05561101031117
 20
-158.3772549604057
 30
0.0
 10
91.111067675563
 20
-158.3772549604057
 30
0.0
 10
91.15551767442899
 20
-158.332452182639
 30
0.0
 10
91.15551767442899
 20
-158.2773482937641
 30
0.0
  0
SPLINE
  5
DE
330
1F
100
AcDbEntity
  8
_U+30EC_U+30A4_U+30E4_U+30FC 1
 62
   179
420
  2234388
370
     9
100
AcDbSpline
210
0.0
220
0.0
230
1.0
 70
    11
 71
     3
 72
    17
 73
    13
 74
     0
 42
0.0000000001
 43
0.0000000001
 12
1.0
 22
0.0
 32
0.0
 13
1.0
 23
0.0
 33
0.0
 40
0.0
 40
0.0
 40
0.0
 40
0.0
 40
1.0
 40
1.0
 40
1.0
 40
2.0
 40
2.0
 40
2.0
 40
3.0
 40
3.0
 40
3.0
 40
4.0
 40
4.0
 40
4.0
 40
4.0
 10
89.32788188772254
 20
-155.4434138500282
 30
0.0
 10
89.32788188772254
 20
-155.3882746833751
 30
0.0
 10
89.28343188885655
 20
-155.3435071833865
 30
0.0
 10
89.2279752236047
 20
-155.3435071833865
 30
0.0
 10
89.17283605834476
 20
-155.3435071833865
 30
0.0
 10
89.12806855948686
 20
-155.3882746833751
 30
0.0
 10
89.12806855948686
 20
-155.4434138500282
 30
0.0
 10
89.12806855948686
 20
-155.4992232944586
 30
0.0
 10
89.17283605834476
 20
-155.5433205166698
 30
0.0
 10
89.2279752236047
 20
-155.5433205166698
 30
0.0
 10
89.28343188885655
 20
-155.5433205166698
 30
0.0
 10
89.32788188772254
 20
-155.4992232944586
 30
0.0
 10
89.32788188772254
 20
-155.4434138500282
 30
0.0
  0
SPLINE
  5
DF
330
1F
100
AcDbEntity
  8
_U+30EC_U+30A4_U+30E4_U+30FC 1
 62
   179
420
  2234388
370
     9
100
AcDbSpline
210
0.0
220
0.0
230
1.0
 70
    11
 71
     3
 72
    17
 73
    13
 74
     0
 42
0.0000000001
 43
0.0000000001
 12
1.0
 22
0.0
 32
0.0
 13
1.0
 23
0.0
 33
0.0
 40
0.0
 40
0.0
 40
0.0
 40
0.0
 40
1.0
 40
1.0
 40
1.0
 40
2.0
 40
2.0
 40
2.0
 40
3.0
 40
3.0
 40
3.0
 40
4.0
 40
4.0
 40
4.0
 40
4.0
 10
89.32788188772254
 20
-150.4342163512804
 30
0.0
 10
89.32788188772254
 20
-150.37840690685
 30
0.0
 10
89.28343188885655
 20
-150.3336394068608
 30
0.0
 10
89.2279752236047
 20
-150.3336394068608
 30
0.0
 10
89.17283605834476
 20
-150.3336394068608
 30
0.0
 10
89.12806855948686
 20
-150.37840690685
 30
0.0
 10
89.12806855948686
 20
-150.4342163512804
 30
0.0
 10
89.12806855948686
 20
-150.4893555179335
 30
0.0
 10
89.17283605834476
 20
-150.534123017922
 30
0.0
 10
89.2279752236047
 20
-150.534123017922
 30
0.0
 10
89.28343188885655
 20
-150.534123017922
 30
0.0
 10
89.32788188772254
 20
-150.4893555179335
 30
0.0
 10
89.32788188772254
 20
-150.4342163512804
 30
0.0
  0
SPLINE
  5
E0
330
1F
100
AcDbEntity
  8
_U+30EC_U+30A4_U+30E4_U+30FC 1
 62
   179
420
  2234388
370
     9
100
AcDbSpline
210
0.0
220
0.0
230
1.0
 70
    11
 71
     3
 72
    17
 73
    13
 74
     0
 42
0.0000000001
 43
0.0000000001
 12
1.0
 22
0.0
 32
0.0
 13
1.0
 23
0.0
 33
0.0
 40
0.0
 40
0.0
 40
0.0
 40
0.0
 40
1.0
 40
1.0
 40
1.0
 40
2.0
 40
2.0
 40
2.0
 40
3.0
 40
3.0
 40
3.0
 40
4.0
 40
4.0
 40
4.0
 40
4.0
 10
93.30333456407807
 20
-138.0475535765991
 30
0.0
 10
93.30333456407807
 20
-137.9924496877242
 30
0.0
 10
93.25892219890741
 20
-137.9476469099575
 30
0.0
 10
93.20342789996023
 20
-137.9476469099575
 30
0.0
 10
93.14832401247716
 20
-137.9476469099575
 30
0.0
 10
93.1035212358424
 20
-137.9924496877242
 30
0.0
 10
93.1035212358424
 20
-138.0475535765991
 30
0.0
 10
93.1035212358424
 20
-138.1033630210298
 30
0.0
 10
93.14832401247716
 20
-138.1474602432411
 30
0.0
 10
93.20342789996023
 20
-138.1474602432411
 30
0.0
 10
93.25892219890741
 20
-138.1474602432411
 30
0.0
 10
93.30333456407807
 20
-138.1033630210298
 30
0.0
 10
93.30333456407807
 20
-138.0475535765991
 30
0.0
  0
SPLINE
  5
E1
330
1F
100
AcDbEntity
  8
_U+30EC_U+30A4_U+30E4_U+30FC 1
 62
   179
420
  2234388
370
     9
100
AcDbSpline
210
0.0
220
0.0
230
1.0
 70
    11
 71
     3
 72
    17
 73
    13
 74
     0
 42
0.0000000001
 43
0.0000000001
 12
1.0
 22
0.0
 32
0.0
 13
1.0
 23
0.0
 33
0.0
 40
0.0
 40
0.0
 40
0.0
 40
0.0
 40
1.0
 40
1.0
 40
1.0
 40
2.0
 40
2.0
 40
2.0
 40
3.0
 40
3.0
 40
3.0
 40
4.0
 40
4.0
 40
4.0
 40
4.0
 10
118.3545425360796
 20
-138.0778924654805
 30
0.0
 10
118.3545425360796
 20
-138.0227532988277
 30
0.0
 10
118.3100925372136
 20
-137.9779857988388
 30
0.0
 10
118.2546388593249
 20
-137.9779857988388
 30
0.0
 10
118.1994967067018
 20
-137.9779857988388
 30
0.0
 10
118.154729207844
 20
-138.0227532988277
 30
0.0
 10
118.154729207844
 20
-138.0778924654805
 30
0.0
 10
118.154729207844
 20
-138.1337019099109
 30
0.0
 10
118.1994967067018
 20
-138.1777991321221
 30
0.0
 10
118.2546388593249
 20
-138.1777991321221
 30
0.0
 10
118.3100925372136
 20
-138.1777991321221
 30
0.0
 10
118.3545425360796
 20
-138.1337019099109
 30
0.0
 10
118.3545425360796
 20
-138.0778924654805
 30
0.0
  0
SPLINE
  5
E2
330
1F
100
AcDbEntity
  8
_U+30EC_U+30A4_U+30E4_U+30FC 1
 62
   179
420
  2234388
370
     9
100
AcDbSpline
210
0.0
220
0.0
230
1.0
 70
    11
 71
     3
 72
    17
 73
    13
 74
     0
 42
0.0000000001
 43
0.0000000001
 12
1.0
 22
0.0
 32
0.0
 13
1.0
 23
0.0
 33
0.0
 40
0.0
 40
0.0
 40
0.0
 40
0.0
 40
1.0
 40
1.0
 40
1.0
 40
2.0
 40
2.0
 40
2.0
 40
3.0
 40
3.0
 40
3.0
 40
4.0
 40
4.0
 40
4.0
 40
4.0
 10
119.7053638905062
 20
-142.0108002422751
 30
0.0
 10
119.7053638905062
 20
-141.9556610756223
 30
0.0
 10
119.6605611138714
 20
-141.9108935756334
 30
0.0
 10
119.6054572263884
 20
-141.9108935756334
 30
0.0
 10
119.5503180611284
 20
-141.9108935756334
 30
0.0
 10
119.5055505622705
 20
-141.9556610756223
 30
0.0
 10
119.5055505622705
 20
-142.0108002422751
 30
0.0
 10
119.5055505622705
 20
-142.0666096867055
 30
0.0
 10
119.5503180611284
 20
-142.1107069089167
 30
0.0
 10
119.6054572263884
 20
-142.1107069089167
 30
0.0
 10
119.6605611138714
 20
-142.1107069089167
 30
0.0
 10
119.7053638905062
 20
-142.0666096867055
 30
0.0
 10
119.7053638905062
 20
-142.0108002422751
 30
0.0
  0
SPLINE
  5
E3
330
1F
100
AcDbEntity
  8
_U+30EC_U+30A4_U+30E4_U+30FC 1
 62
   179
420
  2234388
370
     9
100
AcDbSpline
210
0.0
220
0.0
230
1.0
 70
    11
 71
     3
 72
    17
 73
    13
 74
     0
 42
0.0000000001
 43
0.0000000001
 12
1.0
 22
0.0
 32
0.0
 13
1.0
 23
0.0
 33
0.0
 40
0.0
 40
0.0
 40
0.0
 40
0.0
 40
1.0
 40
1.0
 40
1.0
 40
2.0
 40
2.0
 40
2.0
 40
3.0
 40
3.0
 40
3.0
 40
4.0
 40
4.0
 40
4.0
 40
4.0
 10
119.7053638905062
 20
-143.0553399642361
 30
0.0
 10
119.7053638905062
 20
-142.9995305198057
 30
0.0
 10
119.6605611138714
 20
-142.9547630198168
 30
0.0
 10
119.6054572263884
 20
-142.9547630198168
 30
0.0
 10
119.5503180611284
 20
-142.9547630198168
 30
0.0
 10
119.5055505622705
 20
-142.9995305198057
 30
0.0
 10
119.5055505622705
 20
-143.0553399642361
 30
0.0
 10
119.5055505622705
 20
-143.1104791308889
 30
0.0
 10
119.5503180611284
 20
-143.1552466308778
 30
0.0
 10
119.6054572263884
 20
-143.1552466308778
 30
0.0
 10
119.6605611138714
 20
-143.1552466308778
 30
0.0
 10
119.7053638905062
 20
-143.1104791308889
 30
0.0
 10
119.7053638905062
 20
-143.0553399642361
 30
0.0
  0
SPLINE
  5
E4
330
1F
100
AcDbEntity
  8
_U+30EC_U+30A4_U+30E4_U+30FC 1
 62
   179
420
  2234388
370
     9
100
AcDbSpline
210
0.0
220
0.0
230
1.0
 70
    11
 71
     3
 72
    17
 73
    13
 74
     0
 42
0.0000000001
 43
0.0000000001
 12
1.0
 22
0.0
 32
0.0
 13
1.0
 23
0.0
 33
0.0
 40
0.0
 40
0.0
 40
0.0
 40
0.0
 40
1.0
 40
1.0
 40
1.0
 40
2.0
 40
2.0
 40
2.0
 40
3.0
 40
3.0
 40
3.0
 40
4.0
 40
4.0
 40
4.0
 40
4.0
 10
119.7053638905062
 20
-155.7017882944077
 30
0.0
 10
119.7053638905062
 20
-155.6466491277552
 30
0.0
 10
119.6605611138714
 20
-155.601881627766
 30
0.0
 10
119.6054572263884
 20
-155.601881627766
 30
0.0
 10
119.5503180611284
 20
-155.601881627766
 30
0.0
 10
119.5055505622705
 20
-155.6466491277552
 30
0.0
 10
119.5055505622705
 20
-155.7017882944077
 30
0.0
 10
119.5055505622705
 20
-155.7575977388381
 30
0.0
 10
119.5503180611284
 20
-155.8016949610493
 30
0.0
 10
119.6054572263884
 20
-155.8016949610493
 30
0.0
 10
119.6605611138714
 20
-155.8016949610493
 30
0.0
 10
119.7053638905062
 20
-155.7575977388381
 30
0.0
 10
119.7053638905062
 20
-155.7017882944077
 30
0.0
  0
ENDSEC
  0
SECTION
  2
OBJECTS
  0
DICTIONARY
  5
C
330
0
100
AcDbDictionary
281
     1
  3
ACAD_GROUP
350
D
  3
ACAD_LAYOUT
350
1A
  3
ACAD_MATERIAL
350
3B
  3
ACAD_MLEADERSTYLE
350
E6
  3
ACAD_MLINESTYLE
350
17
  3
ACAD_PLOTSETTINGS
350
19
  3
ACAD_PLOTSTYLENAME
350
E
  3
ACAD_TABLESTYLE
350
E5
  3
ACAD_VISUALSTYLE
350
2A
  0
SUN
  5
3F
330
29
100
AcDbSun
 90
        1
290
     0
 63
     7
421
 16777215
 40
1.0
291
     1
 91
  2455826
 92
 54000000
292
     0
 70
     2
 71
   256
280
     1
  0
DICTIONARY
  5
D
102
{ACAD_REACTORS
330
C
102
}
330
C
100
AcDbDictionary
281
     1
  0
DICTIONARY
  5
1A
102
{ACAD_REACTORS
330
C
102
}
330
C
100
AcDbDictionary
281
     1
  3
Layout1
350
1E
  3
Layout2
350
26
  3
Model
350
22
  0
DICTIONARY
  5
3B
102
{ACAD_REACTORS
330
C
102
}
330
C
100
AcDbDictionary
281
     1
  3
ByBlock
350
3D
  3
ByLayer
350
3C
  3
Global
350
3E
  0
DICTIONARY
  5
E6
102
{ACAD_REACTORS
330
C
102
}
330
C
100
AcDbDictionary
281
     1
  0
DICTIONARY
  5
17
102
{ACAD_REACTORS
330
C
102
}
330
C
100
AcDbDictionary
281
     1
  3
Standard
350
18
  0
DICTIONARY
  5
19
102
{ACAD_REACTORS
330
C
102
}
330
C
100
AcDbDictionary
281
     1
  0
ACDBDICTIONARYWDFLT
  5
E
102
{ACAD_REACTORS
330
C
102
}
330
C
100
AcDbDictionary
281
     1
  3
Normal
350
F
100
AcDbDictionaryWithDefault
340
F
  0
DICTIONARY
  5
E5
102
{ACAD_REACTORS
330
C
102
}
330
C
100
AcDbDictionary
281
     1
  0
DICTIONARY
  5
2A
102
{ACAD_REACTORS
330
C
102
}
330
C
100
AcDbDictionary
281
     1
  3
2dWireframe
350
2F
  3
3D Hidden
350
31
  3
3dWireframe
350
30
  3
Basic
350
32
  3
Brighten
350
36
  3
ColorChange
350
3A
  3
Conceptual
350
34
  3
Dim
350
35
  3
Facepattern
350
39
  3
Flat
350
2B
  3
FlatWithEdges
350
2C
  3
Gouraud
350
2D
  3
GouraudWithEdges
350
2E
  3
Linepattern
350
38
  3
Realistic
350
33
  3
Thicken
350
37
  0
LAYOUT
  5
1E
102
{ACAD_REACTORS
330
1A
102
}
330
1A
100
AcDbPlotSettings
  1

  2
none_device
  4

  6

 40
0.0
 41
0.0
 42
0.0
 43
0.0
 44
0.0
 45
0.0
 46
0.0
 47
0.0
 48
0.0
 49
0.0
140
0.0
141
0.0
142
1.0
143
1.0
 70
   688
 72
     0
 73
     0
 74
     5
  7

 75
    16
 76
     0
 77
     2
 78
   300
147
1.0
148
0.0
149
0.0
100
AcDbLayout
  1
Layout1
 70
     1
 71
     1
 10
0.0
 20
0.0
 11
12.0
 21
9.0
 12
0.0
 22
0.0
 32
0.0
 14
1.000000000000000E+20
 24
1.000000000000000E+20
 34
1.000000000000000E+20
 15
-1.000000000000000E+20
 25
-1.000000000000000E+20
 35
-1.000000000000000E+20
146
0.0
 13
0.0
 23
0.0
 33
0.0
 16
1.0
 26
0.0
 36
0.0
 17
0.0
 27
1.0
 37
0.0
 76
     0
330
1B
  0
LAYOUT
  5
26
102
{ACAD_REACTORS
330
1A
102
}
330
1A
100
AcDbPlotSettings
  1

  2
none_device
  4

  6

 40
0.0
 41
0.0
 42
0.0
 43
0.0
 44
0.0
 45
0.0
 46
0.0
 47
0.0
 48
0.0
 49
0.0
140
0.0
141
0.0
142
1.0
143
1.0
 70
   688
 72
     0
 73
     0
 74
     5
  7

 75
    16
 76
     0
 77
     2
 78
   300
147
1.0
148
0.0
149
0.0
100
AcDbLayout
  1
Layout2
 70
     1
 71
     2
 10
0.0
 20
0.0
 11
0.0
 21
0.0
 12
0.0
 22
0.0
 32
0.0
 14
0.0
 24
0.0
 34
0.0
 15
0.0
 25
0.0
 35
0.0
146
0.0
 13
0.0
 23
0.0
 33
0.0
 16
1.0
 26
0.0
 36
0.0
 17
0.0
 27
1.0
 37
0.0
 76
     0
330
23
  0
LAYOUT
  5
22
102
{ACAD_REACTORS
330
1A
102
}
330
1A
100
AcDbPlotSettings
  1

  2
none_device
  4

  6

 40
0.0
 41
0.0
 42
0.0
 43
0.0
 44
0.0
 45
0.0
 46
0.0
 47
0.0
 48
0.0
 49
0.0
140
0.0
141
0.0
142
1.0
143
1.0
 70
  1712
 72
     0
 73
     0
 74
     0
  7

 75
     0
 76
     0
 77
     2
 78
   300
147
1.0
148
0.0
149
0.0
100
AcDbLayout
  1
Model
 70
     1
 71
     0
 10
0.0
 20
0.0
 11
12.0
 21
9.0
 12
0.0
 22
0.0
 32
0.0
 14
1.000000000000000E+20
 24
1.000000000000000E+20
 34
1.000000000000000E+20
 15
-1.000000000000000E+20
 25
-1.000000000000000E+20
 35
-1.000000000000000E+20
146
0.0
 13
0.0
 23
0.0
 33
0.0
 16
1.0
 26
0.0
 36
0.0
 17
0.0
 27
1.0
 37
0.0
 76
     0
330
1F
331
29
  0
MATERIAL
  5
3D
102
{ACAD_REACTORS
330
3B
102
}
330
3B
100
AcDbMaterial
  1
ByBlock
 72
     1
 94
      127
  0
MATERIAL
  5
3C
102
{ACAD_REACTORS
330
3B
102
}
330
3B
100
AcDbMaterial
  1
ByLayer
 72
     1
 94
      127
  0
MATERIAL
  5
3E
102
{ACAD_REACTORS
330
3B
102
}
330
3B
100
AcDbMaterial
  1
Global
 72
     1
 94
      127
  0
MLINESTYLE
  5
18
102
{ACAD_REACTORS
330
17
102
}
330
17
100
AcDbMlineStyle
  2
Standard
 70
     0
  3

 62
   256
 51
90.0
 52
90.0
 71
     2
 49
0.5
 62
   256
  6
BYLAYER
 49
-0.5
 62
   256
  6
BYLAYER
  0
ACDBPLACEHOLDER
  5
F
102
{ACAD_REACTORS
330
E
102
}
330
E
  0
VISUALSTYLE
  5
2F
102
{ACAD_REACTORS
330
2A
102
}
330
2A
100
AcDbVisualStyle
  2
2dWireframe
 70
     4
177
     2
291
     0
 71
     0
176
     1
 72
     2
176
     1
 73
     0
176
     1
 90
        0
176
     1
 40
-0.6
176
     1
 41
-30.0
176
     1
 62
     5
 63
     7
421
 16777215
176
     1
 74
     1
176
     1
 91
        4
176
     1
 64
     7
176
     1
 65
   257
176
     1
 75
     1
176
     1
175
     1
176
     1
 42
1.0
176
     1
 92
        0
176
     1
 66
   257
176
     1
 43
1.0
176
     1
 76
     1
176
     1
 77
     6
176
     1
 78
     2
176
     1
 67
     7
176
     1
 79
     5
176
     1
170
     0
176
     1
171
     0
176
     1
290
     0
176
     1
 93
        1
176
     1
 44
0.0
176
     1
173
     0
176
     1
  0
VISUALSTYLE
  5
31
102
{ACAD_REACTORS
330
2A
102
}
330
2A
100
AcDbVisualStyle
  2
3D Hidden
 70
     6
177
     2
291
     0
 71
     1
176
     1
 72
     2
176
     1
 73
     2
176
     1
 90
        0
176
     1
 40
-0.6
176
     1
 41
-30.0
176
     1
 62
     5
 63
     7
421
 16777215
176
     1
 74
     2
176
     1
 91
        2
176
     1
 64
     7
176
     1
 65
   257
176
     1
 75
     2
176
     1
175
     1
176
     1
 42
40.0
176
     1
 92
        0
176
     1
 66
   257
176
     1
 43
1.0
176
     1
 76
     1
176
     1
 77
     6
176
     1
 78
     2
176
     1
 67
     7
176
     1
 79
     3
176
     1
170
     0
176
     1
171
     0
176
     1
290
     0
176
     1
 93
        1
176
     1
 44
0.0
176
     1
173
     0
176
     1
  0
VISUALSTYLE
  5
30
102
{ACAD_REACTORS
330
2A
102
}
330
2A
100
AcDbVisualStyle
  2
3dWireframe
 70
     5
177
     2
291
     0
 71
     0
176
     1
 72
     2
176
     1
 73
     0
176
     1
 90
        0
176
     1
 40
-0.6
176
     1
 41
-30.0
176
     1
 62
     5
 63
     7
421
 16777215
176
     1
 74
     1
176
     1
 91
        4
176
     1
 64
     7
176
     1
 65
   257
176
     1
 75
     1
176
     1
175
     1
176
     1
 42
1.0
176
     1
 92
        0
176
     1
 66
   257
176
     1
 43
1.0
176
     1
 76
     1
176
     1
 77
     6
176
     1
 78
     2
176
     1
 67
     7
176
     1
 79
     5
176
     1
170
     0
176
     1
171
     0
176
     1
290
     0
176
     1
 93
        1
176
     1
 44
0.0
176
     1
173
     0
176
     1
  0
VISUALSTYLE
  5
32
102
{ACAD_REACTORS
330
2A
102
}
330
2A
100
AcDbVisualStyle
  2
Basic
 70
     7
177
     2
291
     1
 71
     1
176
     1
 72
     0
176
     1
 73
     1
176
     1
 90
        0
176
     1
 40
-0.6
176
     1
 41
-30.0
176
     1
 62
     5
 63
     7
421
 16777215
176
     1
 74
     0
176
     1
 91
        4
176
     1
 64
     7
176
     1
 65
   257
176
     1
 75
     1
176
     1
175
     1
176
     1
 42
1.0
176
     1
 92
        8
176
     1
 66
     7
176
     1
 43
1.0
176
     1
 76
     1
176
     1
 77
     6
176
     1
 78
     2
176
     1
 67
     7
176
     1
 79
     5
176
     1
170
     0
176
     1
171
     0
176
     1
290
     0
176
     1
 93
        1
176
     1
 44
0.0
176
     1
173
     0
176
     1
  0
VISUALSTYLE
  5
36
102
{ACAD_REACTORS
330
2A
102
}
330
2A
100
AcDbVisualStyle
  2
Brighten
 70
    12
177
     2
291
     1
 71
     2
176
     1
 72
     2
176
     1
 73
     0
176
     1
 90
        0
176
     1
 40
-0.6
176
     1
 41
-30.0
176
     1
 62
     5
 63
     7
421
 16777215
176
     1
 74
     1
176
     1
 91
        4
176
     1
 64
     7
176
     1
 65
   257
176
     1
 75
     1
176
     1
175
     1
176
     1
 42
1.0
176
     1
 92
        8
176
     1
 66
     7
176
     1
 43
1.0
176
     1
 76
     1
176
     1
 77
     6
176
     1
 78
     2
176
     1
 67
     7
176
     1
 79
     5
176
     1
170
     0
176
     1
171
     0
176
     1
290
     0
176
     1
 93
        1
176
     1
 44
50.0
176
     1
173
     0
176
     1
  0
VISUALSTYLE
  5
3A
102
{ACAD_REACTORS
330
2A
102
}
330
2A
100
AcDbVisualStyle
  2
ColorChange
 70
    16
177
     2
291
     1
 71
     2
176
     1
 72
     2
176
     1
 73
     3
176
     1
 90
        0
176
     1
 40
-0.6
176
     1
 41
-30.0
176
     1
 62
     5
 63
     8
421
  8421504
176
     1
 74
     1
176
     1
 91
        4
176
     1
 64
     7
176
     1
 65
   257
176
     1
 75
     1
176
     1
175
     1
176
     1
 42
1.0
176
     1
 92
        8
176
     1
 66
     8
424
  8421504
176
     1
 43
1.0
176
     1
 76
     1
176
     1
 77
     6
176
     1
 78
     2
176
     1
 67
     7
176
     1
 79
     5
176
     1
170
     0
176
     1
171
     0
176
     1
290
     0
176
     1
 93
        1
176
     1
 44
0.0
176
     1
173
     0
176
     1
  0
VISUALSTYLE
  5
34
102
{ACAD_REACTORS
330
2A
102
}
330
2A
100
AcDbVisualStyle
  2
Conceptual
 70
     9
177
     2
291
     0
 71
     3
176
     1
 72
     2
176
     1
 73
     0
176
     1
 90
        0
176
     1
 40
-0.6
176
     1
 41
-30.0
176
     1
 62
     5
 63
     7
421
 16777215
176
     1
 74
     2
176
     1
 91
        2
176
     1
 64
     7
176
     1
 65
   257
176
     1
 75
     1
176
     1
175
     1
176
     1
 42
40.0
176
     1
 92
        8
176
     1
 66
     7
176
     1
 43
1.0
176
     1
 76
     1
176
     1
 77
     6
176
     1
 78
     2
176
     1
 67
     7
176
     1
 79
     3
176
     1
170
     0
176
     1
171
     0
176
     1
290
     0
176
     1
 93
        1
176
     1
 44
0.0
176
     1
173
     0
176
     1
  0
VISUALSTYLE
  5
35
102
{ACAD_REACTORS
330
2A
102
}
330
2A
100
AcDbVisualStyle
  2
Dim
 70
    11
177
     2
291
     1
 71
     2
176
     1
 72
     2
176
     1
 73
     0
176
     1
 90
        0
176
     1
 40
-0.6
176
     1
 41
-30.0
176
     1
 62
     5
 63
     7
421
 16777215
176
     1
 74
     1
176
     1
 91
        4
176
     1
 64
     7
176
     1
 65
   257
176
     1
 75
     1
176
     1
175
     1
176
     1
 42
1.0
176
     1
 92
        8
176
     1
 66
     7
176
     1
 43
1.0
176
     1
 76
     1
176
     1
 77
     6
176
     1
 78
     2
176
     1
 67
     7
176
     1
 79
     5
176
     1
170
     0
176
     1
171
     0
176
     1
290
     0
176
     1
 93
        1
176
     1
 44
-50.0
176
     1
173
     0
176
     1
  0
VISUALSTYLE
  5
39
102
{ACAD_REACTORS
330
2A
102
}
330
2A
100
AcDbVisualStyle
  2
Facepattern
 70
    15
177
     2
291
     1
 71
     2
176
     1
 72
     2
176
     1
 73
     0
176
     1
 90
        0
176
     1
 40
-0.6
176
     1
 41
-30.0
176
     1
 62
     5
 63
     7
421
 16777215
176
     1
 74
     1
176
     1
 91
        4
176
     1
 64
     7
176
     1
 65
   257
176
     1
 75
     1
176
     1
175
     1
176
     1
 42
1.0
176
     1
 92
        8
176
     1
 66
     7
176
     1
 43
1.0
176
     1
 76
     1
176
     1
 77
     6
176
     1
 78
     2
176
     1
 67
     7
176
     1
 79
     5
176
     1
170
     0
176
     1
171
     0
176
     1
290
     0
176
     1
 93
        1
176
     1
 44
0.0
176
     1
173
     0
176
     1
  0
VISUALSTYLE
  5
2B
102
{ACAD_REACTORS
330
2A
102
}
330
2A
100
AcDbVisualStyle
  2
Flat
 70
     0
177
     2
291
     1
 71
     2
176
     1
 72
     1
176
     1
 73
     1
176
     1
 90
        2
176
     1
 40
-0.6
176
     1
 41
30.0
176
     1
 62
     5
 63
     7
421
 16777215
176
     1
 74
     0
176
     1
 91
        4
176
     1
 64
     7
176
     1
 65
   257
176
     1
 75
     1
176
     1
175
     1
176
     1
 42
1.0
176
     1
 92
        8
176
     1
 66
     7
176
     1
 43
1.0
176
     1
 76
     1
176
     1
 77
     6
176
     1
 78
     2
176
     1
 67
     7
176
     1
 79
     5
176
     1
170
     0
176
     1
171
     0
176
     1
290
     0
176
     1
 93
       13
176
     1
 44
0.0
176
     1
173
     0
176
     1
  0
VISUALSTYLE
  5
2C
102
{ACAD_REACTORS
330
2A
102
}
330
2A
100
AcDbVisualStyle
  2
FlatWithEdges
 70
     1
177
     2
291
     1
 71
     2
176
     1
 72
     1
176
     1
 73
     1
176
     1
 90
        2
176
     1
 40
-0.6
176
     1
 41
30.0
176
     1
 62
     5
 63
     7
421
 16777215
176
     1
 74
     1
176
     1
 91
        4
176
     1
 64
     7
176
     1
 65
   257
176
     1
 75
     1
176
     1
175
     1
176
     1
 42
1.0
176
     1
 92
        0
176
     1
 66
   257
176
     1
 43
1.0
176
     1
 76
     1
176
     1
 77
     6
176
     1
 78
     2
176
     1
 67
     7
176
     1
 79
     5
176
     1
170
     0
176
     1
171
     0
176
     1
290
     0
176
     1
 93
       13
176
     1
 44
0.0
176
     1
173
     0
176
     1
  0
VISUALSTYLE
  5
2D
102
{ACAD_REACTORS
330
2A
102
}
330
2A
100
AcDbVisualStyle
  2
Gouraud
 70
     2
177
     2
291
     1
 71
     2
176
     1
 72
     2
176
     1
 73
     1
176
     1
 90
        2
176
     1
 40
-0.6
176
     1
 41
30.0
176
     1
 62
     5
 63
     7
421
 16777215
176
     1
 74
     0
176
     1
 91
        4
176
     1
 64
     7
176
     1
 65
   257
176
     1
 75
     1
176
     1
175
     1
176
     1
 42
1.0
176
     1
 92
        0
176
     1
 66
     7
176
     1
 43
1.0
176
     1
 76
     1
176
     1
 77
     6
176
     1
 78
     2
176
     1
 67
     7
176
     1
 79
     5
176
     1
170
     0
176
     1
171
     0
176
     1
290
     0
176
     1
 93
       13
176
     1
 44
0.0
176
     1
173
     0
176
     1
  0
VISUALSTYLE
  5
2E
102
{ACAD_REACTORS
330
2A
102
}
330
2A
100
AcDbVisualStyle
  2
GouraudWithEdges
 70
     3
177
     2
291
     1
 71
     2
176
     1
 72
     2
176
     1
 73
     1
176
     1
 90
        2
176
     1
 40
-0.6
176
     1
 41
30.0
176
     1
 62
     5
 63
     7
421
 16777215
176
     1
 74
     1
176
     1
 91
        4
176
     1
 64
     7
176
     1
 65
   257
176
     1
 75
     1
176
     1
175
     1
176
     1
 42
1.0
176
     1
 92
        0
176
     1
 66
   257
176
     1
 43
1.0
176
     1
 76
     1
176
     1
 77
     6
176
     1
 78
     2
176
     1
 67
     7
176
     1
 79
     5
176
     1
170
     0
176
     1
171
     0
176
     1
290
     0
176
     1
 93
       13
176
     1
 44
0.0
176
     1
173
     0
176
     1
  0
VISUALSTYLE
  5
38
102
{ACAD_REACTORS
330
2A
102
}
330
2A
100
AcDbVisualStyle
  2
Linepattern
 70
    14
177
     2
291
     1
 71
     2
176
     1
 72
     2
176
     1
 73
     0
176
     1
 90
        0
176
     1
 40
-0.6
176
     1
 41
-30.0
176
     1
 62
     5
 63
     7
421
 16777215
176
     1
 74
     1
176
     1
 91
        4
176
     1
 64
     7
176
     1
 65
   257
176
     1
 75
     7
176
     1
175
     7
176
     1
 42
1.0
176
     1
 92
        8
176
     1
 66
     7
176
     1
 43
1.0
176
     1
 76
     1
176
     1
 77
     6
176
     1
 78
     2
176
     1
 67
     7
176
     1
 79
     5
176
     1
170
     0
176
     1
171
     0
176
     1
290
     0
176
     1
 93
        1
176
     1
 44
0.0
176
     1
173
     0
176
     1
  0
VISUALSTYLE
  5
33
102
{ACAD_REACTORS
330
2A
102
}
330
2A
100
AcDbVisualStyle
  2
Realistic
 70
     8
177
     2
291
     0
 71
     2
176
     1
 72
     2
176
     1
 73
     0
176
     1
 90
        0
176
     1
 40
-0.6
176
     1
 41
-30.0
176
     1
 62
     5
 63
     7
421
 16777215
176
     1
 74
     1
176
     1
 91
        0
176
     1
 64
     7
176
     1
 65
   257
176
     1
 75
     1
176
     1
175
     1
176
     1
 42
1.0
176
     1
 92
        8
176
     1
 66
     8
424
  7895160
176
     1
 43
1.0
176
     1
 76
     1
176
     1
 77
     6
176
     1
 78
     2
176
     1
 67
     7
176
     1
 79
     5
176
     1
170
     0
176
     1
171
     0
176
     1
290
     0
176
     1
 93
       13
176
     1
 44
0.0
176
     1
173
     0
176
     1
  0
VISUALSTYLE
  5
37
102
{ACAD_REACTORS
330
2A
102
}
330
2A
100
AcDbVisualStyle
  2
Thicken
 70
    13
177
     2
291
     1
 71
     2
176
     1
 72
     2
176
     1
 73
     0
176
     1
 90
        0
176
     1
 40
-0.6
176
     1
 41
-30.0
176
     1
 62
     5
 63
     7
421
 16777215
176
     1
 74
     1
176
     1
 91
        4
176
     1
 64
     7
176
     1
 65
   257
176
     1
 75
     1
176
     1
175
     1
176
     1
 42
1.0
176
     1
 92
       12
176
     1
 66
     7
176
     1
 43
1.0
176
     1
 76
     1
176
     1
 77
     6
176
     1
 78
     2
176
     1
 67
     7
176
     1
 79
     5
176
     1
170
     0
176
     1
171
     0
176
     1
290
     0
176
     1
 93
        1
176
     1
 44
0.0
176
     1
173
     0
176
     1
  0
ENDSEC
  0
EOF
