  0
SECTION
  2
HEADER
  9
$ACADVER
  1
AC1024
  9
$ACADMAINTVER
 70
     6
  9
$DWGCODEPAGE
  3
UNDEFINED
  9
$INSBASE
 10
0.0
 20
0.0
 30
0.0
  9
$EXTMIN
 10
1.000000000000000E+20
 20
1.000000000000000E+20
 30
1.000000000000000E+20
  9
$EXTMAX
 10
-1.000000000000000E+20
 20
-1.000000000000000E+20
 30
-1.000000000000000E+20
  9
$LIMMIN
 10
0.0
 20
0.0
  9
$LIMMAX
 10
12.0
 20
9.0
  9
$ORTHOMODE
 70
     0
  9
$REGENMODE
 70
     1
  9
$FILLMODE
 70
     1
  9
$QTEXTMODE
 70
     0
  9
$MIRRTEXT
 70
     1
  9
$LTSCALE
 40
1.0
  9
$ATTMODE
 70
     1
  9
$TEXTSIZE
 40
0.2
  9
$TRACEWID
 40
0.05
  9
$TEXTSTYLE
  7
Standard
  9
$CLAYER
  8
0
  9
$CELTYPE
  6
ByLayer
  9
$CECOLOR
 62
   256
  9
$CELTSCALE
 40
1.0
  9
$DISPSILH
 70
     0
  9
$DIMSCALE
 40
1.0
  9
$DIMASZ
 40
0.18
  9
$DIMEXO
 40
0.0625
  9
$DIMDLI
 40
0.38
  9
$DIMRND
 40
0.0
  9
$DIMDLE
 40
0.0
  9
$DIMEXE
 40
0.18
  9
$DIMTP
 40
0.0
  9
$DIMTM
 40
0.0
  9
$DIMTXT
 40
0.18
  9
$DIMCEN
 40
0.09
  9
$DIMTSZ
 40
0.0
  9
$DIMTOL
 70
     0
  9
$DIMLIM
 70
     0
  9
$DIMTIH
 70
     1
  9
$DIMTOH
 70
     1
  9
$DIMSE1
 70
     0
  9
$DIMSE2
 70
     0
  9
$DIMTAD
 70
     0
  9
$DIMZIN
 70
     0
  9
$DIMBLK
  1

  9
$DIMASO
 70
     1
  9
$DIMSHO
 70
     1
  9
$DIMPOST
  1

  9
$DIMAPOST
  1

  9
$DIMALT
 70
     0
  9
$DIMALTD
 70
     2
  9
$DIMALTF
 40
25.4
  9
$DIMLFAC
 40
1.0
  9
$DIMTOFL
 70
     0
  9
$DIMTVP
 40
0.0
  9
$DIMTIX
 70
     0
  9
$DIMSOXD
 70
     0
  9
$DIMSAH
 70
     0
  9
$DIMBLK1
  1

  9
$DIMBLK2
  1

  9
$DIMSTYLE
  2
Standard
  9
$DIMCLRD
 70
     0
  9
$DIMCLRE
 70
     0
  9
$DIMCLRT
 70
     0
  9
$DIMTFAC
 40
1.0
  9
$DIMGAP
 40
0.09
  9
$DIMJUST
 70
     0
  9
$DIMSD1
 70
     0
  9
$DIMSD2
 70
     0
  9
$DIMTOLJ
 70
     1
  9
$DIMTZIN
 70
     0
  9
$DIMALTZ
 70
     0
  9
$DIMALTTZ
 70
     0
  9
$DIMUPT
 70
     0
  9
$DIMDEC
 70
     4
  9
$DIMTDEC
 70
     4
  9
$DIMALTU
 70
     2
  9
$DIMALTTD
 70
     2
  9
$DIMTXSTY
  7
Standard
  9
$DIMAUNIT
 70
     0
  9
$DIMADEC
 70
     0
  9
$DIMALTRND
 40
0.0
  9
$DIMAZIN
 70
     0
  9
$DIMDSEP
 70
    46
  9
$DIMATFIT
 70
     3
  9
$DIMFRAC
 70
     0
  9
$DIMLDRBLK
  1

  9
$DIMLUNIT
 70
     2
  9
$DIMLWD
 70
    -2
  9
$DIMLWE
 70
    -2
  9
$DIMTMOVE
 70
     0
  9
$DIMFXL
 40
1.0
  9
$DIMFXLON
 70
     0
  9
$DIMJOGANG
 40
0.7853981633974483
  9
$DIMTFILL
 70
     0
  9
$DIMTFILLCLR
 70
     0
  9
$DIMARCSYM
 70
     0
  9
$DIMLTYPE
  6

  9
$DIMLTEX1
  6

  9
$DIMLTEX2
  6

  9
$DIMTXTDIRECTION
 70
     0
  9
$LUNITS
 70
     2
  9
$LUPREC
 70
     4
  9
$SKETCHINC
 40
0.1
  9
$FILLETRAD
 40
0.5
  9
$AUNITS
 70
     0
  9
$AUPREC
 70
     0
  9
$MENU
  1
.
  9
$ELEVATION
 40
0.0
  9
$PELEVATION
 40
0.0
  9
$THICKNESS
 40
0.0
  9
$LIMCHECK
 70
     0
  9
$CHAMFERA
 40
0.5
  9
$CHAMFERB
 40
0.5
  9
$CHAMFERC
 40
1.0
  9
$CHAMFERD
 40
0.0
  9
$SKPOLY
 70
     0
  9
$TDCREATE
 40
2457917.587407396
  9
$TDUCREATE
 40
2457917.212407407
  9
$TDUPDATE
 40
2457917.587407396
  9
$TDUUPDATE
 40
2457917.212407407
  9
$TDINDWG
 40
0.0000000116
  9
$TDUSRTIMER
 40
0.0000000116
  9
$USRTIMER
 70
     1
  9
$ANGBASE
 50
0.0
  9
$ANGDIR
 70
     0
  9
$PDMODE
 70
     0
  9
$PDSIZE
 40
0.0
  9
$PLINEWID
 40
0.0
  9
$SPLFRAME
 70
     0
  9
$SPLINETYPE
 70
     6
  9
$SPLINESEGS
 70
     8
  9
$HANDSEED
  5
10A
  9
$SURFTAB1
 70
     6
  9
$SURFTAB2
 70
     6
  9
$SURFTYPE
 70
     6
  9
$SURFU
 70
     6
  9
$SURFV
 70
     6
  9
$UCSBASE
  2

  9
$UCSNAME
  2

  9
$UCSORG
 10
0.0
 20
0.0
 30
0.0
  9
$UCSXDIR
 10
1.0
 20
0.0
 30
0.0
  9
$UCSYDIR
 10
0.0
 20
1.0
 30
0.0
  9
$UCSORTHOREF
  2

  9
$UCSORTHOVIEW
 70
     0
  9
$UCSORGTOP
 10
0.0
 20
0.0
 30
0.0
  9
$UCSORGBOTTOM
 10
0.0
 20
0.0
 30
0.0
  9
$UCSORGLEFT
 10
0.0
 20
0.0
 30
0.0
  9
$UCSORGRIGHT
 10
0.0
 20
0.0
 30
0.0
  9
$UCSORGFRONT
 10
0.0
 20
0.0
 30
0.0
  9
$UCSORGBACK
 10
0.0
 20
0.0
 30
0.0
  9
$PUCSBASE
  2

  9
$PUCSNAME
  2

  9
$PUCSORG
 10
0.0
 20
0.0
 30
0.0
  9
$PUCSXDIR
 10
1.0
 20
0.0
 30
0.0
  9
$PUCSYDIR
 10
0.0
 20
1.0
 30
0.0
  9
$PUCSORTHOREF
  2

  9
$PUCSORTHOVIEW
 70
     0
  9
$PUCSORGTOP
 10
0.0
 20
0.0
 30
0.0
  9
$PUCSORGBOTTOM
 10
0.0
 20
0.0
 30
0.0
  9
$PUCSORGLEFT
 10
0.0
 20
0.0
 30
0.0
  9
$PUCSORGRIGHT
 10
0.0
 20
0.0
 30
0.0
  9
$PUCSORGFRONT
 10
0.0
 20
0.0
 30
0.0
  9
$PUCSORGBACK
 10
0.0
 20
0.0
 30
0.0
  9
$USERI1
 70
     0
  9
$USERI2
 70
     0
  9
$USERI3
 70
     0
  9
$USERI4
 70
     0
  9
$USERI5
 70
     0
  9
$USERR1
 40
0.0
  9
$USERR2
 40
0.0
  9
$USERR3
 40
0.0
  9
$USERR4
 40
0.0
  9
$USERR5
 40
0.0
  9
$WORLDVIEW
 70
     1
  9
$SHADEDGE
 70
     3
  9
$SHADEDIF
 70
    70
  9
$TILEMODE
 70
     1
  9
$MAXACTVP
 70
    64
  9
$PINSBASE
 10
0.0
 20
0.0
 30
0.0
  9
$PLIMCHECK
 70
     0
  9
$PEXTMIN
 10
1.000000000000000E+20
 20
1.000000000000000E+20
 30
1.000000000000000E+20
  9
$PEXTMAX
 10
-1.000000000000000E+20
 20
-1.000000000000000E+20
 30
-1.000000000000000E+20
  9
$PLIMMIN
 10
0.0
 20
0.0
  9
$PLIMMAX
 10
12.0
 20
9.0
  9
$UNITMODE
 70
     0
  9
$VISRETAIN
 70
     1
  9
$PLINEGEN
 70
     0
  9
$PSLTSCALE
 70
     1
  9
$TREEDEPTH
 70
  3020
  9
$CMLSTYLE
  2
Standard
  9
$CMLJUST
 70
     0
  9
$CMLSCALE
 40
1.0
  9
$PROXYGRAPHICS
 70
     1
  9
$MEASUREMENT
 70
     0
  9
$CELWEIGHT
370
    -1
  9
$ENDCAPS
280
     0
  9
$JOINSTYLE
280
     0
  9
$LWDISPLAY
290
     1
  9
$INSUNITS
 70
     1
  9
$HYPERLINKBASE
  1

  9
$STYLESHEET
  1

  9
$XEDIT
290
     1
  9
$CEPSNTYPE
380
     0
  9
$PSTYLEMODE
290
     1
  9
$FINGERPRINTGUID
  2
{502C7FCF-17C0-D849-F665-1FEC228C1775}
  9
$VERSIONGUID
  2
{FAEB1C32-E019-11D5-929B-00C0DF256EC4}
  9
$EXTNAMES
290
     1
  9
$PSVPSCALE
 40
0.0
  9
$OLESTARTUP
290
     0
  9
$SORTENTS
280
   127
  9
$INDEXCTL
280
     0
  9
$HIDETEXT
280
     1
  9
$XCLIPFRAME
280
     2
  9
$HALOGAP
280
     0
  9
$OBSCOLOR
 70
   257
  9
$OBSLTYPE
280
     0
  9
$INTERSECTIONDISPLAY
280
     0
  9
$INTERSECTIONCOLOR
 70
   257
  9
$DIMASSOC
280
     2
  9
$PROJECTNAME
  1

  9
$CAMERADISPLAY
290
     0
  9
$LENSLENGTH
 40
50.0
  9
$CAMERAHEIGHT
 40
0.0
  9
$STEPSPERSEC
 40
2.0
  9
$STEPSIZE
 40
6.0
  9
$3DDWFPREC
 40
2.0
  9
$PSOLWIDTH
 40
0.25
  9
$PSOLHEIGHT
 40
4.0
  9
$LOFTANG1
 40
1.570796326794897
  9
$LOFTANG2
 40
1.570796326794897
  9
$LOFTMAG1
 40
0.0
  9
$LOFTMAG2
 40
0.0
  9
$LOFTPARAM
 70
     7
  9
$LOFTNORMALS
280
     1
  9
$LATITUDE
 40
37.795
  9
$LONGITUDE
 40
-122.394
  9
$NORTHDIRECTION
 40
0.0
  9
$TIMEZONE
 70
 -8000
  9
$LIGHTGLYPHDISPLAY
280
     1
  9
$TILEMODELIGHTSYNCH
280
     1
  9
$CMATERIAL
347
3C
  9
$SOLIDHIST
280
     1
  9
$SHOWHIST
280
     1
  9
$DWFFRAME
280
     2
  9
$DGNFRAME
280
     2
  9
$REALWORLDSCALE
290
     1
  9
$INTERFERECOLOR
 62
   256
  9
$CSHADOW
280
     0
  9
$SHADOWPLANELOCATION
 40
0.0
  0
ENDSEC
  0
SECTION
  2
CLASSES
  0
CLASS
  1
ACDBDICTIONARYWDFLT
  2
AcDbDictionaryWithDefault
  3
ObjectDBX Classes
 90
        0
 91
        4
280
     0
281
     0
  0
CLASS
  1
VISUALSTYLE
  2
AcDbVisualStyle
  3
ObjectDBX Classes
 90
     4095
 91
        4
280
     0
281
     0
  0
CLASS
  1
MATERIAL
  2
AcDbMaterial
  3
ObjectDBX Classes
 90
     1153
 91
        4
280
     0
281
     0
  0
CLASS
  1
SUN
  2
AcDbSun
  3
SCENEOE
 90
     1024
 91
        4
280
     0
281
     0
  0
ENDSEC
  0
SECTION
  2
TABLES
  0
TABLE
  2
VPORT
  5
8
330
0
100
AcDbSymbolTable
 70
     1
  0
VPORT
  5
29
330
8
100
AcDbSymbolTableRecord
100
AcDbViewportTableRecord
  2
*Active
 70
     0
 10
0.0
 20
0.0
 11
1.0
 21
1.0
 12
0.0
 22
0.0
 13
0.0
 23
0.0
 14
0.5
 24
0.5
 15
0.5
 25
0.5
 16
0.0
 26
0.0
 36
1.0
 17
63.499999984125
 27
-89.00059456108309
 37
0.0
 40
178.0011891221662
 41
0.7134783795241226
 42
50.0
 43
0.0
 44
0.0
 50
0.0
 51
0.0
 71
     0
 72
   100
 73
     1
 74
     3
 75
     0
 76
     0
 77
     0
 78
     0
281
     0
 65
     1
110
0.0
120
0.0
130
0.0
111
1.0
121
0.0
131
0.0
112
0.0
122
1.0
132
0.0
 79
     0
146
0.0
 60
     3
 61
     5
292
     1
282
     1
141
0.0
142
0.0
 63
   250
361
3F
  0
ENDTAB
  0
TABLE
  2
LTYPE
  5
5
330
0
100
AcDbSymbolTable
 70
     1
  0
LTYPE
  5
14
330
5
100
AcDbSymbolTableRecord
100
AcDbLinetypeTableRecord
  2
ByBlock
 70
     0
  3

 72
    65
 73
     0
 40
0.0
  0
LTYPE
  5
15
330
5
100
AcDbSymbolTableRecord
100
AcDbLinetypeTableRecord
  2
ByLayer
 70
     0
  3

 72
    65
 73
     0
 40
0.0
  0
LTYPE
  5
16
330
5
100
AcDbSymbolTableRecord
100
AcDbLinetypeTableRecord
  2
Continuous
 70
     0
  3
Solid line
 72
    65
 73
     0
 40
0.0
  0
ENDTAB
  0
TABLE
  2
LAYER
  5
2
330
0
100
AcDbSymbolTable
 70
     2
  0
LAYER
  5
10
330
2
100
AcDbSymbolTableRecord
100
AcDbLayerTableRecord
  2
0
 70
     0
 62
     7
  6
Continuous
370
    -3
390
F
347
3E
  0
LAYER
  5
40
330
2
100
AcDbSymbolTableRecord
100
AcDbLayerTableRecord
  2
_U+30EC_U+30A4_U+30E4_U+30FC 1
 70
     0
 62
     7
  6
Continuous
370
    -3
390
F
347
3E
  0
ENDTAB
  0
TABLE
  2
STYLE
  5
3
330
0
100
AcDbSymbolTable
 70
     1
  0
STYLE
  5
11
330
3
100
AcDbSymbolTableRecord
100
AcDbTextStyleTableRecord
  2
Standard
 70
     0
 40
0.0
 41
1.0
 50
0.0
 71
     0
 42
0.2
  3
txt
  4

  0
ENDTAB
  0
TABLE
  2
VIEW
  5
6
330
0
100
AcDbSymbolTable
 70
     0
  0
ENDTAB
  0
TABLE
  2
UCS
  5
7
330
0
100
AcDbSymbolTable
 70
     0
  0
ENDTAB
  0
TABLE
  2
APPID
  5
9
330
0
100
AcDbSymbolTable
 70
     1
  0
APPID
  5
12
330
9
100
AcDbSymbolTableRecord
100
AcDbRegAppTableRecord
  2
ACAD
 70
     0
  0
ENDTAB
  0
TABLE
  2
DIMSTYLE
  5
A
330
0
100
AcDbSymbolTable
 70
     1
100
AcDbDimStyleTable
  0
DIMSTYLE
105
27
330
A
100
AcDbSymbolTableRecord
100
AcDbDimStyleTableRecord
  2
Standard
 70
     0
178
     0
340
11
  0
ENDTAB
  0
TABLE
  2
BLOCK_RECORD
  5
1
330
0
100
AcDbSymbolTable
 70
     8
  0
BLOCK_RECORD
  5
1F
330
1
100
AcDbSymbolTableRecord
100
AcDbBlockTableRecord
  2
*Model_Space
340
22
 70
     0
280
     1
281
     0
  0
BLOCK_RECORD
  5
1B
330
1
100
AcDbSymbolTableRecord
100
AcDbBlockTableRecord
  2
*Paper_Space
340
1E
 70
     0
280
     1
281
     0
  0
BLOCK_RECORD
  5
23
330
1
100
AcDbSymbolTableRecord
100
AcDbBlockTableRecord
  2
*Paper_Space0
340
26
 70
     0
280
     1
281
     0
  0
BLOCK_RECORD
  5
41
330
1
100
AcDbSymbolTableRecord
100
AcDbBlockTableRecord
  2
block 2
340
0
102
{BLKREFS
331
42
102
}
 70
     0
280
     1
281
     0
  0
BLOCK_RECORD
  5
97
330
1
100
AcDbSymbolTableRecord
100
AcDbBlockTableRecord
  2
block 3
340
0
102
{BLKREFS
331
98
102
}
 70
     0
280
     1
281
     0
  0
BLOCK_RECORD
  5
A5
330
1
100
AcDbSymbolTableRecord
100
AcDbBlockTableRecord
  2
block 4
340
0
102
{BLKREFS
331
A6
102
}
 70
     0
280
     1
281
     0
  0
BLOCK_RECORD
  5
BA
330
1
100
AcDbSymbolTableRecord
100
AcDbBlockTableRecord
  2
block 5
340
0
102
{BLKREFS
331
BB
102
}
 70
     0
280
     1
281
     0
  0
BLOCK_RECORD
  5
CB
330
1
100
AcDbSymbolTableRecord
100
AcDbBlockTableRecord
  2
block 6
340
0
102
{BLKREFS
331
CC
102
}
 70
     0
280
     1
281
     0
  0
BLOCK_RECORD
  5
DF
330
1
100
AcDbSymbolTableRecord
100
AcDbBlockTableRecord
  2
block 7
340
0
102
{BLKREFS
331
E0
102
}
 70
     0
280
     1
281
     0
  0
BLOCK_RECORD
  5
F7
330
1
100
AcDbSymbolTableRecord
100
AcDbBlockTableRecord
  2
block 8
340
0
102
{BLKREFS
331
F8
102
}
 70
     0
280
     1
281
     0
  0
ENDTAB
  0
ENDSEC
  0
SECTION
  2
BLOCKS
  0
BLOCK
  5
20
330
1F
100
AcDbEntity
  8
0
100
AcDbBlockBegin
  2
*Model_Space
 70
     0
 10
0.0
 20
0.0
 30
0.0
  3
*Model_Space
  1

  0
ENDBLK
  5
21
330
1F
100
AcDbEntity
  8
0
100
AcDbBlockEnd
  0
BLOCK
  5
1C
330
1B
100
AcDbEntity
 67
     1
  8
0
100
AcDbBlockBegin
  2
*Paper_Space
 70
     0
 10
0.0
 20
0.0
 30
0.0
  3
*Paper_Space
  1

  0
ENDBLK
  5
1D
330
1B
100
AcDbEntity
 67
     1
  8
0
100
AcDbBlockEnd
  0
BLOCK
  5
24
330
23
100
AcDbEntity
  8
0
100
AcDbBlockBegin
  2
*Paper_Space0
 70
     0
 10
0.0
 20
0.0
 30
0.0
  3
*Paper_Space0
  1

  0
ENDBLK
  5
25
330
23
100
AcDbEntity
  8
0
100
AcDbBlockEnd
  0
BLOCK
  5
43
330
41
100
AcDbEntity
  8
0
100
AcDbBlockBegin
  2
block 2
 70
     0
 10
0.0
 20
0.0
 30
0.0
  3
block 2
  1

  0
POLYLINE
  5
45
330
41
100
AcDbEntity
  8
_U+30EC_U+30A4_U+30E4_U+30FC 1
 62
   179
420
  2234388
370
    25
100
AcDb2dPolyline
 66
     1
 10
0.0
 20
0.0
 30
0.0
  0
VERTEX
  5
46
330
45
100
AcDbEntity
  8
_U+30EC_U+30A4_U+30E4_U+30FC 1
 62
   179
420
  2234388
370
    25
100
AcDbVertex
100
AcDb2dVertex
 10
41.07553839652016
 20
-84.16420525673685
 30
0.0
  0
VERTEX
  5
47
330
45
100
AcDbEntity
  8
_U+30EC_U+30A4_U+30E4_U+30FC 1
 62
   179
420
  2234388
370
    25
100
AcDbVertex
100
AcDb2dVertex
 10
57.07559771054686
 20
-84.16420525673685
 30
0.0
  0
SEQEND
  5
48
330
45
100
AcDbEntity
  8
_U+30EC_U+30A4_U+30E4_U+30FC 1
 62
   179
420
  2234388
370
    25
  0
POLYLINE
  5
49
330
41
100
AcDbEntity
  8
_U+30EC_U+30A4_U+30E4_U+30FC 1
 62
   179
420
  2234388
370
    25
100
AcDb2dPolyline
 66
     1
 10
0.0
 20
0.0
 30
0.0
  0
VERTEX
  5
4A
330
49
100
AcDbEntity
  8
_U+30EC_U+30A4_U+30E4_U+30FC 1
 62
   179
420
  2234388
370
    25
100
AcDbVertex
100
AcDb2dVertex
 10
78.0910280077319
 20
-84.16420525673685
 30
0.0
  0
VERTEX
  5
4B
330
49
100
AcDbEntity
  8
_U+30EC_U+30A4_U+30E4_U+30FC 1
 62
   179
420
  2234388
370
    25
100
AcDbVertex
100
AcDb2dVertex
 10
78.0910280077319
 20
-85.16397747870907
 30
0.0
  0
SEQEND
  5
4C
330
49
100
AcDbEntity
  8
_U+30EC_U+30A4_U+30E4_U+30FC 1
 62
   179
420
  2234388
370
    25
  0
POLYLINE
  5
4D
330
41
100
AcDbEntity
  8
_U+30EC_U+30A4_U+30E4_U+30FC 1
 62
   179
420
  2234388
370
    25
100
AcDb2dPolyline
 66
     1
 10
0.0
 20
0.0
 30
0.0
  0
VERTEX
  5
4E
330
4D
100
AcDbEntity
  8
_U+30EC_U+30A4_U+30E4_U+30FC 1
 62
   179
420
  2234388
370
    25
100
AcDbVertex
100
AcDb2dVertex
 10
59.07546109634212
 20
-85.16397747870907
 30
0.0
  0
VERTEX
  5
4F
330
4D
100
AcDbEntity
  8
_U+30EC_U+30A4_U+30E4_U+30FC 1
 62
   179
420
  2234388
370
    25
100
AcDbVertex
100
AcDb2dVertex
 10
78.07550578590568
 20
-85.16397747870907
 30
0.0
  0
SEQEND
  5
50
330
4D
100
AcDbEntity
  8
_U+30EC_U+30A4_U+30E4_U+30FC 1
 62
   179
420
  2234388
370
    25
  0
POLYLINE
  5
51
330
41
100
AcDbEntity
  8
_U+30EC_U+30A4_U+30E4_U+30FC 1
 62
   179
420
  2234388
370
    25
100
AcDb2dPolyline
 66
     1
 10
0.0
 20
0.0
 30
0.0
  0
VERTEX
  5
52
330
51
100
AcDbEntity
  8
_U+30EC_U+30A4_U+30E4_U+30FC 1
 62
   179
420
  2234388
370
    25
100
AcDbVertex
100
AcDb2dVertex
 10
56.07547273606217
 20
-85.16397747870907
 30
0.0
  0
VERTEX
  5
53
330
51
100
AcDbEntity
  8
_U+30EC_U+30A4_U+30E4_U+30FC 1
 62
   179
420
  2234388
370
    25
100
AcDbVertex
100
AcDb2dVertex
 10
56.07547273606217
 20
-96.16432942040342
 30
0.0
  0
SEQEND
  5
54
330
51
100
AcDbEntity
  8
_U+30EC_U+30A4_U+30E4_U+30FC 1
 62
   179
420
  2234388
370
    25
  0
POLYLINE
  5
55
330
41
100
AcDbEntity
  8
_U+30EC_U+30A4_U+30E4_U+30FC 1
 62
   179
420
  2234388
370
    25
100
AcDb2dPolyline
 66
     1
 10
0.0
 20
0.0
 30
0.0
  0
VERTEX
  5
56
330
55
100
AcDbEntity
  8
_U+30EC_U+30A4_U+30E4_U+30FC 1
 62
   179
420
  2234388
370
    25
100
AcDbVertex
100
AcDb2dVertex
 10
66.07555831427207
 20
-95.16455719843088
 30
0.0
  0
VERTEX
  5
57
330
55
100
AcDbEntity
  8
_U+30EC_U+30A4_U+30E4_U+30FC 1
 62
   179
420
  2234388
370
    25
100
AcDbVertex
100
AcDb2dVertex
 10
66.07555831427207
 20
-95.66479608719523
 30
0.0
  0
SEQEND
  5
58
330
55
100
AcDbEntity
  8
_U+30EC_U+30A4_U+30E4_U+30FC 1
 62
   179
420
  2234388
370
    25
  0
POLYLINE
  5
59
330
41
100
AcDbEntity
  8
_U+30EC_U+30A4_U+30E4_U+30FC 1
 62
   179
420
  2234388
370
    25
100
AcDb2dPolyline
 66
     1
 10
0.0
 20
0.0
 30
0.0
  0
VERTEX
  5
5A
330
59
100
AcDbEntity
  8
_U+30EC_U+30A4_U+30E4_U+30FC 1
 62
   179
420
  2234388
370
    25
100
AcDbVertex
100
AcDb2dVertex
 10
59.07546109634212
 20
-95.16455719843088
 30
0.0
  0
VERTEX
  5
5B
330
59
100
AcDbEntity
  8
_U+30EC_U+30A4_U+30E4_U+30FC 1
 62
   179
420
  2234388
370
    25
100
AcDbVertex
100
AcDb2dVertex
 10
66.07555831427207
 20
-95.16455719843088
 30
0.0
  0
SEQEND
  5
5C
330
59
100
AcDbEntity
  8
_U+30EC_U+30A4_U+30E4_U+30FC 1
 62
   179
420
  2234388
370
    25
  0
POLYLINE
  5
5D
330
41
100
AcDbEntity
  8
_U+30EC_U+30A4_U+30E4_U+30FC 1
 62
   179
420
  2234388
370
    25
100
AcDb2dPolyline
 66
     1
 10
0.0
 20
0.0
 30
0.0
  0
VERTEX
  5
5E
330
5D
100
AcDbEntity
  8
_U+30EC_U+30A4_U+30E4_U+30FC 1
 62
   179
420
  2234388
370
    25
100
AcDbVertex
100
AcDb2dVertex
 10
58.07533609659214
 20
-84.16420525673685
 30
0.0
  0
VERTEX
  5
5F
330
5D
100
AcDbEntity
  8
_U+30EC_U+30A4_U+30E4_U+30FC 1
 62
   179
420
  2234388
370
    25
100
AcDbVertex
100
AcDb2dVertex
 10
78.07550578590568
 20
-84.16420525673685
 30
0.0
  0
SEQEND
  5
60
330
5D
100
AcDbEntity
  8
_U+30EC_U+30A4_U+30E4_U+30FC 1
 62
   179
420
  2234388
370
    25
  0
POLYLINE
  5
61
330
41
100
AcDbEntity
  8
_U+30EC_U+30A4_U+30E4_U+30FC 1
 62
   179
420
  2234388
370
    25
100
AcDb2dPolyline
 66
     1
 10
0.0
 20
0.0
 30
0.0
  0
VERTEX
  5
62
330
61
100
AcDbEntity
  8
_U+30EC_U+30A4_U+30E4_U+30FC 1
 62
   179
420
  2234388
370
    25
100
AcDbVertex
100
AcDb2dVertex
 10
57.07559771054686
 20
-84.16420525673685
 30
0.0
  0
VERTEX
  5
63
330
61
100
AcDbEntity
  8
_U+30EC_U+30A4_U+30E4_U+30FC 1
 62
   179
420
  2234388
370
    25
100
AcDbVertex
100
AcDb2dVertex
 10
57.07559771054686
 20
-95.16455719843088
 30
0.0
  0
SEQEND
  5
64
330
61
100
AcDbEntity
  8
_U+30EC_U+30A4_U+30E4_U+30FC 1
 62
   179
420
  2234388
370
    25
  0
POLYLINE
  5
65
330
41
100
AcDbEntity
  8
_U+30EC_U+30A4_U+30E4_U+30FC 1
 62
   179
420
  2234388
370
    25
100
AcDb2dPolyline
 66
     1
 10
0.0
 20
0.0
 30
0.0
  0
VERTEX
  5
66
330
65
100
AcDbEntity
  8
_U+30EC_U+30A4_U+30E4_U+30FC 1
 62
   179
420
  2234388
370
    25
100
AcDbVertex
100
AcDb2dVertex
 10
58.07533609659214
 20
-84.16420525673685
 30
0.0
  0
VERTEX
  5
67
330
65
100
AcDbEntity
  8
_U+30EC_U+30A4_U+30E4_U+30FC 1
 62
   179
420
  2234388
370
    25
100
AcDbVertex
100
AcDb2dVertex
 10
58.07533609659214
 20
-95.16455719843088
 30
0.0
  0
SEQEND
  5
68
330
65
100
AcDbEntity
  8
_U+30EC_U+30A4_U+30E4_U+30FC 1
 62
   179
420
  2234388
370
    25
  0
POLYLINE
  5
69
330
41
100
AcDbEntity
  8
_U+30EC_U+30A4_U+30E4_U+30FC 1
 62
   179
420
  2234388
370
    25
100
AcDb2dPolyline
 66
     1
 10
0.0
 20
0.0
 30
0.0
  0
VERTEX
  5
6A
330
69
100
AcDbEntity
  8
_U+30EC_U+30A4_U+30E4_U+30FC 1
 62
   179
420
  2234388
370
    25
100
AcDbVertex
100
AcDb2dVertex
 10
59.07546109634212
 20
-85.16397747870907
 30
0.0
  0
VERTEX
  5
6B
330
69
100
AcDbEntity
  8
_U+30EC_U+30A4_U+30E4_U+30FC 1
 62
   179
420
  2234388
370
    25
100
AcDbVertex
100
AcDb2dVertex
 10
59.07546109634212
 20
-95.16455719843088
 30
0.0
  0
SEQEND
  5
6C
330
69
100
AcDbEntity
  8
_U+30EC_U+30A4_U+30E4_U+30FC 1
 62
   179
420
  2234388
370
    25
  0
POLYLINE
  5
6D
330
41
100
AcDbEntity
  8
_U+30EC_U+30A4_U+30E4_U+30FC 1
 62
   179
420
  2234388
370
    25
100
AcDb2dPolyline
 66
     1
 10
0.0
 20
0.0
 30
0.0
  0
VERTEX
  5
6E
330
6D
100
AcDbEntity
  8
_U+30EC_U+30A4_U+30E4_U+30FC 1
 62
   179
420
  2234388
370
    25
100
AcDbVertex
100
AcDb2dVertex
 10
57.07559771054686
 20
-95.16455719843088
 30
0.0
  0
VERTEX
  5
6F
330
6D
100
AcDbEntity
  8
_U+30EC_U+30A4_U+30E4_U+30FC 1
 62
   179
420
  2234388
370
    25
100
AcDbVertex
100
AcDb2dVertex
 10
58.07533609659214
 20
-95.16455719843088
 30
0.0
  0
SEQEND
  5
70
330
6D
100
AcDbEntity
  8
_U+30EC_U+30A4_U+30E4_U+30FC 1
 62
   179
420
  2234388
370
    25
  0
POLYLINE
  5
71
330
41
100
AcDbEntity
  8
_U+30EC_U+30A4_U+30E4_U+30FC 1
 62
   179
420
  2234388
370
    25
100
AcDb2dPolyline
 66
     1
 10
0.0
 20
0.0
 30
0.0
  0
VERTEX
  5
72
330
71
100
AcDbEntity
  8
_U+30EC_U+30A4_U+30E4_U+30FC 1
 62
   179
420
  2234388
370
    25
100
AcDbVertex
100
AcDb2dVertex
 10
41.00988645375063
 20
-84.16420525673685
 30
0.0
  0
VERTEX
  5
73
330
71
100
AcDbEntity
  8
_U+30EC_U+30A4_U+30E4_U+30FC 1
 62
   179
420
  2234388
370
    25
100
AcDbVertex
100
AcDb2dVertex
 10
41.00988645375063
 20
-85.16397747870907
 30
0.0
  0
SEQEND
  5
74
330
71
100
AcDbEntity
  8
_U+30EC_U+30A4_U+30E4_U+30FC 1
 62
   179
420
  2234388
370
    25
  0
POLYLINE
  5
75
330
41
100
AcDbEntity
  8
_U+30EC_U+30A4_U+30E4_U+30FC 1
 62
   179
420
  2234388
370
    25
100
AcDb2dPolyline
 66
     1
 10
0.0
 20
0.0
 30
0.0
  0
VERTEX
  5
76
330
75
100
AcDbEntity
  8
_U+30EC_U+30A4_U+30E4_U+30FC 1
 62
   179
420
  2234388
370
    25
100
AcDbVertex
100
AcDb2dVertex
 10
41.07553839652016
 20
-85.16397747870907
 30
0.0
  0
VERTEX
  5
77
330
75
100
AcDbEntity
  8
_U+30EC_U+30A4_U+30E4_U+30FC 1
 62
   179
420
  2234388
370
    25
100
AcDbVertex
100
AcDb2dVertex
 10
56.07547273606217
 20
-85.16397747870907
 30
0.0
  0
SEQEND
  5
78
330
75
100
AcDbEntity
  8
_U+30EC_U+30A4_U+30E4_U+30FC 1
 62
   179
420
  2234388
370
    25
  0
POLYLINE
  5
79
330
41
100
AcDbEntity
  8
_U+30EC_U+30A4_U+30E4_U+30FC 1
 62
   179
420
  2234388
370
    25
100
AcDb2dPolyline
 66
     1
 10
0.0
 20
0.0
 30
0.0
  0
VERTEX
  5
7A
330
79
100
AcDbEntity
  8
_U+30EC_U+30A4_U+30E4_U+30FC 1
 62
   179
420
  2234388
370
    25
100
AcDbVertex
100
AcDb2dVertex
 10
56.07547273606217
 20
-96.16432942040342
 30
0.0
  0
VERTEX
  5
7B
330
79
100
AcDbEntity
  8
_U+30EC_U+30A4_U+30E4_U+30FC 1
 62
   179
420
  2234388
370
    25
100
AcDbVertex
100
AcDb2dVertex
 10
66.07555831427207
 20
-95.66479608719523
 30
0.0
  0
SEQEND
  5
7C
330
79
100
AcDbEntity
  8
_U+30EC_U+30A4_U+30E4_U+30FC 1
 62
   179
420
  2234388
370
    25
  0
SPLINE
  5
7D
330
41
100
AcDbEntity
  8
_U+30EC_U+30A4_U+30E4_U+30FC 1
 62
   179
420
  2234388
370
     9
100
AcDbSpline
210
0.0
220
0.0
230
1.0
 70
    11
 71
     3
 72
    17
 73
    13
 74
     0
 42
0.0000000001
 43
0.0000000001
 12
1.0
 22
0.0
 32
0.0
 13
1.0
 23
0.0
 33
0.0
 40
0.0
 40
0.0
 40
0.0
 40
0.0
 40
1.0
 40
1.0
 40
1.0
 40
2.0
 40
2.0
 40
2.0
 40
3.0
 40
3.0
 40
3.0
 40
4.0
 40
4.0
 40
4.0
 40
4.0
 10
78.10168189634898
 20
-80.1640933132922
 30
0.0
 10
78.10168189634898
 20
-80.10828386886176
 30
0.0
 10
78.0569143974911
 20
-80.06351636887288
 30
0.0
 10
78.00177523223115
 20
-80.06351636887288
 30
0.0
 10
77.94667134474808
 20
-80.06351636887288
 30
0.0
 10
77.90186856811331
 20
-80.10828386886176
 30
0.0
 10
77.90186856811331
 20
-80.1640933132922
 30
0.0
 10
77.90186856811331
 20
-80.21923247994528
 30
0.0
 10
77.94667134474808
 20
-80.26399997993416
 30
0.0
 10
78.00177523223115
 20
-80.26399997993416
 30
0.0
 10
78.0569143974911
 20
-80.26399997993416
 30
0.0
 10
78.10168189634898
 20
-80.21923247994528
 30
0.0
 10
78.10168189634898
 20
-80.1640933132922
 30
0.0
  0
SPLINE
  5
7E
330
41
100
AcDbEntity
  8
_U+30EC_U+30A4_U+30E4_U+30FC 1
 62
   179
420
  2234388
370
     9
100
AcDbSpline
210
0.0
220
0.0
230
1.0
 70
    11
 71
     3
 72
    17
 73
    13
 74
     0
 42
0.0000000001
 43
0.0000000001
 12
1.0
 22
0.0
 32
0.0
 13
1.0
 23
0.0
 33
0.0
 40
0.0
 40
0.0
 40
0.0
 40
0.0
 40
1.0
 40
1.0
 40
1.0
 40
2.0
 40
2.0
 40
2.0
 40
3.0
 40
3.0
 40
3.0
 40
4.0
 40
4.0
 40
4.0
 40
4.0
 10
85.17551116032502
 20
-84.16420525673685
 30
0.0
 10
85.17551116032502
 20
-84.10906609008377
 30
0.0
 10
85.13070838369025
 20
-84.0642985900949
 30
0.0
 10
85.07560449620718
 20
-84.0642985900949
 30
0.0
 10
85.02014997874511
 20
-84.0642985900949
 30
0.0
 10
84.97534720097839
 20
-84.10906609008377
 30
0.0
 10
84.97534720097839
 20
-84.16420525673685
 30
0.0
 10
84.97534720097839
 20
-84.21930914561176
 30
0.0
 10
85.02014997874511
 20
-84.26411192337848
 30
0.0
 10
85.07560449620718
 20
-84.26411192337848
 30
0.0
 10
85.13070838369025
 20
-84.26411192337848
 30
0.0
 10
85.17551116032502
 20
-84.21930914561176
 30
0.0
 10
85.17551116032502
 20
-84.16420525673685
 30
0.0
  0
SPLINE
  5
7F
330
41
100
AcDbEntity
  8
_U+30EC_U+30A4_U+30E4_U+30FC 1
 62
   179
420
  2234388
370
     9
100
AcDbSpline
210
0.0
220
0.0
230
1.0
 70
    11
 71
     3
 72
    17
 73
    13
 74
     0
 42
0.0000000001
 43
0.0000000001
 12
1.0
 22
0.0
 32
0.0
 13
1.0
 23
0.0
 33
0.0
 40
0.0
 40
0.0
 40
0.0
 40
0.0
 40
1.0
 40
1.0
 40
1.0
 40
2.0
 40
2.0
 40
2.0
 40
3.0
 40
3.0
 40
3.0
 40
4.0
 40
4.0
 40
4.0
 40
4.0
 10
85.17551116032502
 20
-85.16397747870907
 30
0.0
 10
85.17551116032502
 20
-85.108838312056
 30
0.0
 10
85.13070838369025
 20
-85.06407081206743
 30
0.0
 10
85.07560449620718
 20
-85.06407081206743
 30
0.0
 10
85.02014997874511
 20
-85.06407081206743
 30
0.0
 10
84.97534720097839
 20
-85.108838312056
 30
0.0
 10
84.97534720097839
 20
-85.16397747870907
 30
0.0
 10
84.97534720097839
 20
-85.21908136758398
 30
0.0
 10
85.02014997874511
 20
-85.2638841453507
 30
0.0
 10
85.07560449620718
 20
-85.2638841453507
 30
0.0
 10
85.13070838369025
 20
-85.2638841453507
 30
0.0
 10
85.17551116032502
 20
-85.21908136758398
 30
0.0
 10
85.17551116032502
 20
-85.16397747870907
 30
0.0
  0
SPLINE
  5
80
330
41
100
AcDbEntity
  8
_U+30EC_U+30A4_U+30E4_U+30FC 1
 62
   179
420
  2234388
370
     9
100
AcDbSpline
210
0.0
220
0.0
230
1.0
 70
    11
 71
     3
 72
    17
 73
    13
 74
     0
 42
0.0000000001
 43
0.0000000001
 12
1.0
 22
0.0
 32
0.0
 13
1.0
 23
0.0
 33
0.0
 40
0.0
 40
0.0
 40
0.0
 40
0.0
 40
1.0
 40
1.0
 40
1.0
 40
2.0
 40
2.0
 40
2.0
 40
3.0
 40
3.0
 40
3.0
 40
4.0
 40
4.0
 40
4.0
 40
4.0
 10
66.17546665012307
 20
-100.1647588638477
 30
0.0
 10
66.17546665012307
 20
-100.1096549749727
 30
0.0
 10
66.13066387235635
 20
-100.064852197206
 30
0.0
 10
66.07555831427207
 20
-100.064852197206
 30
0.0
 10
66.02041914901211
 20
-100.064852197206
 30
0.0
 10
65.97565165015423
 20
-100.1096549749727
 30
0.0
 10
65.97565165015423
 20
-100.1647588638477
 30
0.0
 10
65.97565165015423
 20
-100.2198980305007
 30
0.0
 10
66.02041914901211
 20
-100.2646655304893
 30
0.0
 10
66.07555831427207
 20
-100.2646655304893
 30
0.0
 10
66.13066387235635
 20
-100.2646655304893
 30
0.0
 10
66.17546665012307
 20
-100.2198980305007
 30
0.0
 10
66.17546665012307
 20
-100.1647588638477
 30
0.0
  0
SPLINE
  5
81
330
41
100
AcDbEntity
  8
_U+30EC_U+30A4_U+30E4_U+30FC 1
 62
   179
420
  2234388
370
     9
100
AcDbSpline
210
0.0
220
0.0
230
1.0
 70
    11
 71
     3
 72
    17
 73
    13
 74
     0
 42
0.0000000001
 43
0.0000000001
 12
1.0
 22
0.0
 32
0.0
 13
1.0
 23
0.0
 33
0.0
 40
0.0
 40
0.0
 40
0.0
 40
0.0
 40
1.0
 40
1.0
 40
1.0
 40
2.0
 40
2.0
 40
2.0
 40
3.0
 40
3.0
 40
3.0
 40
4.0
 40
4.0
 40
4.0
 40
4.0
 10
56.17537940018001
 20
-100.1647588638477
 30
0.0
 10
56.17537940018001
 20
-100.1096549749727
 30
0.0
 10
56.13061190132212
 20
-100.064852197206
 30
0.0
 10
56.07547273606217
 20
-100.064852197206
 30
0.0
 10
56.02001607081032
 20
-100.064852197206
 30
0.0
 10
55.97521329417556
 20
-100.1096549749727
 30
0.0
 10
55.97521329417556
 20
-100.1647588638477
 30
0.0
 10
55.97521329417556
 20
-100.2198980305007
 30
0.0
 10
56.02001607081032
 20
-100.2646655304893
 30
0.0
 10
56.07547273606217
 20
-100.2646655304893
 30
0.0
 10
56.13061190132212
 20
-100.2646655304893
 30
0.0
 10
56.17537940018001
 20
-100.2198980305007
 30
0.0
 10
56.17537940018001
 20
-100.1647588638477
 30
0.0
  0
SPLINE
  5
82
330
41
100
AcDbEntity
  8
_U+30EC_U+30A4_U+30E4_U+30FC 1
 62
   179
420
  2234388
370
     9
100
AcDbSpline
210
0.0
220
0.0
230
1.0
 70
    11
 71
     3
 72
    17
 73
    13
 74
     0
 42
0.0000000001
 43
0.0000000001
 12
1.0
 22
0.0
 32
0.0
 13
1.0
 23
0.0
 33
0.0
 40
0.0
 40
0.0
 40
0.0
 40
0.0
 40
1.0
 40
1.0
 40
1.0
 40
2.0
 40
2.0
 40
2.0
 40
3.0
 40
3.0
 40
3.0
 40
4.0
 40
4.0
 40
4.0
 40
4.0
 10
70.17522404301421
 20
-95.16455719843088
 30
0.0
 10
70.17522404301421
 20
-95.10945330955596
 30
0.0
 10
70.13042126637946
 20
-95.06465053178924
 30
0.0
 10
70.07531737889639
 20
-95.06465053178924
 30
0.0
 10
70.02017821363643
 20
-95.06465053178924
 30
0.0
 10
69.97541071477855
 20
-95.10945330955596
 30
0.0
 10
69.97541071477855
 20
-95.16455719843088
 30
0.0
 10
69.97541071477855
 20
-95.21969636508396
 30
0.0
 10
70.02017821363643
 20
-95.26446386507251
 30
0.0
 10
70.07531737889639
 20
-95.26446386507251
 30
0.0
 10
70.13042126637946
 20
-95.26446386507251
 30
0.0
 10
70.17522404301421
 20
-95.21969636508396
 30
0.0
 10
70.17522404301421
 20
-95.16455719843088
 30
0.0
  0
SPLINE
  5
83
330
41
100
AcDbEntity
  8
_U+30EC_U+30A4_U+30E4_U+30FC 1
 62
   179
420
  2234388
370
     9
100
AcDbSpline
210
0.0
220
0.0
230
1.0
 70
    11
 71
     3
 72
    17
 73
    13
 74
     0
 42
0.0000000001
 43
0.0000000001
 12
1.0
 22
0.0
 32
0.0
 13
1.0
 23
0.0
 33
0.0
 40
0.0
 40
0.0
 40
0.0
 40
0.0
 40
1.0
 40
1.0
 40
1.0
 40
2.0
 40
2.0
 40
2.0
 40
3.0
 40
3.0
 40
3.0
 40
4.0
 40
4.0
 40
4.0
 40
4.0
 10
85.17551116032502
 20
-95.16455719843088
 30
0.0
 10
85.17551116032502
 20
-95.10945330955596
 30
0.0
 10
85.13070838369025
 20
-95.06465053178924
 30
0.0
 10
85.07560449620718
 20
-95.06465053178924
 30
0.0
 10
85.02014997874511
 20
-95.06465053178924
 30
0.0
 10
84.97534720097839
 20
-95.10945330955596
 30
0.0
 10
84.97534720097839
 20
-95.16455719843088
 30
0.0
 10
84.97534720097839
 20
-95.21969636508396
 30
0.0
 10
85.02014997874511
 20
-95.26446386507251
 30
0.0
 10
85.07560449620718
 20
-95.26446386507251
 30
0.0
 10
85.13070838369025
 20
-95.26446386507251
 30
0.0
 10
85.17551116032502
 20
-95.21969636508396
 30
0.0
 10
85.17551116032502
 20
-95.16455719843088
 30
0.0
  0
SPLINE
  5
84
330
41
100
AcDbEntity
  8
_U+30EC_U+30A4_U+30E4_U+30FC 1
 62
   179
420
  2234388
370
     9
100
AcDbSpline
210
0.0
220
0.0
230
1.0
 70
    11
 71
     3
 72
    17
 73
    13
 74
     0
 42
0.0000000001
 43
0.0000000001
 12
1.0
 22
0.0
 32
0.0
 13
1.0
 23
0.0
 33
0.0
 40
0.0
 40
0.0
 40
0.0
 40
0.0
 40
1.0
 40
1.0
 40
1.0
 40
2.0
 40
2.0
 40
2.0
 40
3.0
 40
3.0
 40
3.0
 40
4.0
 40
4.0
 40
4.0
 40
4.0
 10
70.17522404301421
 20
-95.66479608719523
 30
0.0
 10
70.17522404301421
 20
-95.60898664276415
 30
0.0
 10
70.13042126637946
 20
-95.56488942055294
 30
0.0
 10
70.07531737889639
 20
-95.56488942055294
 30
0.0
 10
70.02017821363643
 20
-95.56488942055294
 30
0.0
 10
69.97541071477855
 20
-95.60898664276415
 30
0.0
 10
69.97541071477855
 20
-95.66479608719523
 30
0.0
 10
69.97541071477855
 20
-95.71989997607015
 30
0.0
 10
70.02017821363643
 20
-95.76470275383687
 30
0.0
 10
70.07531737889639
 20
-95.76470275383687
 30
0.0
 10
70.13042126637946
 20
-95.76470275383687
 30
0.0
 10
70.17522404301421
 20
-95.71989997607015
 30
0.0
 10
70.17522404301421
 20
-95.66479608719523
 30
0.0
  0
SPLINE
  5
85
330
41
100
AcDbEntity
  8
_U+30EC_U+30A4_U+30E4_U+30FC 1
 62
   179
420
  2234388
370
     9
100
AcDbSpline
210
0.0
220
0.0
230
1.0
 70
    11
 71
     3
 72
    17
 73
    13
 74
     0
 42
0.0000000001
 43
0.0000000001
 12
1.0
 22
0.0
 32
0.0
 13
1.0
 23
0.0
 33
0.0
 40
0.0
 40
0.0
 40
0.0
 40
0.0
 40
1.0
 40
1.0
 40
1.0
 40
2.0
 40
2.0
 40
2.0
 40
3.0
 40
3.0
 40
3.0
 40
4.0
 40
4.0
 40
4.0
 40
4.0
 10
41.12443339527274
 20
-80.1640933132922
 30
0.0
 10
41.12443339527274
 20
-80.10828386886176
 30
0.0
 10
41.07966589641485
 20
-80.06351636887288
 30
0.0
 10
41.02452776752163
 20
-80.06351636887288
 30
0.0
 10
40.96907006590305
 20
-80.06351636887288
 30
0.0
 10
40.92430256704517
 20
-80.10828386886176
 30
0.0
 10
40.92430256704517
 20
-80.1640933132922
 30
0.0
 10
40.92430256704517
 20
-80.21923247994528
 30
0.0
 10
40.96907006590305
 20
-80.26399997993416
 30
0.0
 10
41.02452776752163
 20
-80.26399997993416
 30
0.0
 10
41.07966589641485
 20
-80.26399997993416
 30
0.0
 10
41.12443339527274
 20
-80.21923247994528
 30
0.0
 10
41.12443339527274
 20
-80.1640933132922
 30
0.0
  0
SPLINE
  5
86
330
41
100
AcDbEntity
  8
_U+30EC_U+30A4_U+30E4_U+30FC 1
 62
   179
420
  2234388
370
     9
100
AcDbSpline
210
0.0
220
0.0
230
1.0
 70
    11
 71
     3
 72
    17
 73
    13
 74
     0
 42
0.0000000001
 43
0.0000000001
 12
1.0
 22
0.0
 32
0.0
 13
1.0
 23
0.0
 33
0.0
 40
0.0
 40
0.0
 40
0.0
 40
0.0
 40
1.0
 40
1.0
 40
1.0
 40
2.0
 40
2.0
 40
2.0
 40
3.0
 40
3.0
 40
3.0
 40
4.0
 40
4.0
 40
4.0
 40
4.0
 10
41.23915672567924
 20
-100.1647588638477
 30
0.0
 10
41.23915672567924
 20
-100.1096549749727
 30
0.0
 10
41.19438922682135
 20
-100.064852197206
 30
0.0
 10
41.13925006156141
 20
-100.064852197206
 30
0.0
 10
41.08379443417337
 20
-100.064852197206
 30
0.0
 10
41.03902589745167
 20
-100.1096549749727
 30
0.0
 10
41.03902589745167
 20
-100.1647588638477
 30
0.0
 10
41.03902589745167
 20
-100.2198980305007
 30
0.0
 10
41.08379443417337
 20
-100.2646655304893
 30
0.0
 10
41.13925006156141
 20
-100.2646655304893
 30
0.0
 10
41.19438922682135
 20
-100.2646655304893
 30
0.0
 10
41.23915672567924
 20
-100.2198980305007
 30
0.0
 10
41.23915672567924
 20
-100.1647588638477
 30
0.0
  0
POLYLINE
  5
87
330
41
100
AcDbEntity
  8
_U+30EC_U+30A4_U+30E4_U+30FC 1
 62
   179
420
  2234388
370
     9
100
AcDb2dPolyline
 66
     1
 10
0.0
 20
0.0
 30
0.0
  0
VERTEX
  5
88
330
87
100
AcDbEntity
  8
_U+30EC_U+30A4_U+30E4_U+30FC 1
 62
   179
420
  2234388
370
     9
100
AcDbVertex
100
AcDb2dVertex
 10
85.07560449620718
 20
-84.16420525673685
 30
0.0
  0
VERTEX
  5
89
330
87
100
AcDbEntity
  8
_U+30EC_U+30A4_U+30E4_U+30FC 1
 62
   179
420
  2234388
370
     9
100
AcDbVertex
100
AcDb2dVertex
 10
85.07560449620718
 20
-80.39353997990166
 30
0.0
  0
SEQEND
  5
8A
330
87
100
AcDbEntity
  8
_U+30EC_U+30A4_U+30E4_U+30FC 1
 62
   179
420
  2234388
370
     9
  0
POLYLINE
  5
8B
330
41
100
AcDbEntity
  8
_U+30EC_U+30A4_U+30E4_U+30FC 1
 62
   179
420
  2234388
370
     9
100
AcDb2dPolyline
 66
     1
 10
0.0
 20
0.0
 30
0.0
  0
VERTEX
  5
8C
330
8B
100
AcDbEntity
  8
_U+30EC_U+30A4_U+30E4_U+30FC 1
 62
   179
420
  2234388
370
     9
100
AcDbVertex
100
AcDb2dVertex
 10
85.07560449620718
 20
-84.16420525673685
 30
0.0
  0
VERTEX
  5
8D
330
8B
100
AcDbEntity
  8
_U+30EC_U+30A4_U+30E4_U+30FC 1
 62
   179
420
  2234388
370
     9
100
AcDbVertex
100
AcDb2dVertex
 10
85.07560449620718
 20
-85.16397747870907
 30
0.0
  0
SEQEND
  5
8E
330
8B
100
AcDbEntity
  8
_U+30EC_U+30A4_U+30E4_U+30FC 1
 62
   179
420
  2234388
370
     9
  0
POLYLINE
  5
8F
330
41
100
AcDbEntity
  8
_U+30EC_U+30A4_U+30E4_U+30FC 1
 62
   179
420
  2234388
370
     9
100
AcDb2dPolyline
 66
     1
 10
0.0
 20
0.0
 30
0.0
  0
VERTEX
  5
90
330
8F
100
AcDbEntity
  8
_U+30EC_U+30A4_U+30E4_U+30FC 1
 62
   179
420
  2234388
370
     9
100
AcDbVertex
100
AcDb2dVertex
 10
83.61556314456705
 20
-84.16420525673685
 30
0.0
  0
VERTEX
  5
91
330
8F
100
AcDbEntity
  8
_U+30EC_U+30A4_U+30E4_U+30FC 1
 62
   179
420
  2234388
370
     9
100
AcDbVertex
100
AcDb2dVertex
 10
86.07537669292309
 20
-84.16420525673685
 30
0.0
  0
SEQEND
  5
92
330
8F
100
AcDbEntity
  8
_U+30EC_U+30A4_U+30E4_U+30FC 1
 62
   179
420
  2234388
370
     9
  0
POLYLINE
  5
93
330
41
100
AcDbEntity
  8
_U+30EC_U+30A4_U+30E4_U+30FC 1
 62
   179
420
  2234388
370
     9
100
AcDb2dPolyline
 66
     1
 10
0.0
 20
0.0
 30
0.0
  0
VERTEX
  5
94
330
93
100
AcDbEntity
  8
_U+30EC_U+30A4_U+30E4_U+30FC 1
 62
   179
420
  2234388
370
     9
100
AcDbVertex
100
AcDb2dVertex
 10
83.61556314456705
 20
-85.16397747870907
 30
0.0
  0
VERTEX
  5
95
330
93
100
AcDbEntity
  8
_U+30EC_U+30A4_U+30E4_U+30FC 1
 62
   179
420
  2234388
370
     9
100
AcDbVertex
100
AcDb2dVertex
 10
86.07537669292309
 20
-85.16397747870907
 30
0.0
  0
SEQEND
  5
96
330
93
100
AcDbEntity
  8
_U+30EC_U+30A4_U+30E4_U+30FC 1
 62
   179
420
  2234388
370
     9
  0
INSERT
  5
98
330
41
100
AcDbEntity
  8
_U+30EC_U+30A4_U+30E4_U+30FC 1
100
AcDbBlockReference
  2
block 3
 10
0.0
 20
0.0
 30
0.0
  0
POLYLINE
  5
9D
330
41
100
AcDbEntity
  8
_U+30EC_U+30A4_U+30E4_U+30FC 1
 62
   179
420
  2234388
370
     9
100
AcDb2dPolyline
 66
     1
 10
0.0
 20
0.0
 30
0.0
  0
VERTEX
  5
9E
330
9D
100
AcDbEntity
  8
_U+30EC_U+30A4_U+30E4_U+30FC 1
 62
   179
420
  2234388
370
     9
100
AcDbVertex
100
AcDb2dVertex
 10
85.07560449620718
 20
-85.16397747870907
 30
0.0
  0
VERTEX
  5
9F
330
9D
100
AcDbEntity
  8
_U+30EC_U+30A4_U+30E4_U+30FC 1
 62
   179
420
  2234388
370
     9
100
AcDbVertex
100
AcDb2dVertex
 10
85.07560449620718
 20
-95.16455719843088
 30
0.0
  0
SEQEND
  5
A0
330
9D
100
AcDbEntity
  8
_U+30EC_U+30A4_U+30E4_U+30FC 1
 62
   179
420
  2234388
370
     9
  0
POLYLINE
  5
A1
330
41
100
AcDbEntity
  8
_U+30EC_U+30A4_U+30E4_U+30FC 1
 62
   179
420
  2234388
370
     9
100
AcDb2dPolyline
 66
     1
 10
0.0
 20
0.0
 30
0.0
  0
VERTEX
  5
A2
330
A1
100
AcDbEntity
  8
_U+30EC_U+30A4_U+30E4_U+30FC 1
 62
   179
420
  2234388
370
     9
100
AcDbVertex
100
AcDb2dVertex
 10
68.61527776062397
 20
-95.16455719843088
 30
0.0
  0
VERTEX
  5
A3
330
A1
100
AcDbEntity
  8
_U+30EC_U+30A4_U+30E4_U+30FC 1
 62
   179
420
  2234388
370
     9
100
AcDbVertex
100
AcDb2dVertex
 10
86.07537669292309
 20
-95.16455719843088
 30
0.0
  0
SEQEND
  5
A4
330
A1
100
AcDbEntity
  8
_U+30EC_U+30A4_U+30E4_U+30FC 1
 62
   179
420
  2234388
370
     9
  0
INSERT
  5
A6
330
41
100
AcDbEntity
  8
_U+30EC_U+30A4_U+30E4_U+30FC 1
100
AcDbBlockReference
  2
block 4
 10
0.0
 20
0.0
 30
0.0
  0
POLYLINE
  5
AE
330
41
100
AcDbEntity
  8
_U+30EC_U+30A4_U+30E4_U+30FC 1
 62
   179
420
  2234388
370
     9
100
AcDb2dPolyline
 66
     1
 10
0.0
 20
0.0
 30
0.0
  0
VERTEX
  5
AF
330
AE
100
AcDbEntity
  8
_U+30EC_U+30A4_U+30E4_U+30FC 1
 62
   179
420
  2234388
370
     9
100
AcDbVertex
100
AcDb2dVertex
 10
56.07547273606217
 20
-100.1647588638477
 30
0.0
  0
VERTEX
  5
B0
330
AE
100
AcDbEntity
  8
_U+30EC_U+30A4_U+30E4_U+30FC 1
 62
   179
420
  2234388
370
     9
100
AcDbVertex
100
AcDb2dVertex
 10
66.07555831427207
 20
-100.1647588638477
 30
0.0
  0
SEQEND
  5
B1
330
AE
100
AcDbEntity
  8
_U+30EC_U+30A4_U+30E4_U+30FC 1
 62
   179
420
  2234388
370
     9
  0
POLYLINE
  5
B2
330
41
100
AcDbEntity
  8
_U+30EC_U+30A4_U+30E4_U+30FC 1
 62
   179
420
  2234388
370
     9
100
AcDb2dPolyline
 66
     1
 10
0.0
 20
0.0
 30
0.0
  0
VERTEX
  5
B3
330
B2
100
AcDbEntity
  8
_U+30EC_U+30A4_U+30E4_U+30FC 1
 62
   179
420
  2234388
370
     9
100
AcDbVertex
100
AcDb2dVertex
 10
56.07547273606217
 20
-98.70475275310147
 30
0.0
  0
VERTEX
  5
B4
330
B2
100
AcDbEntity
  8
_U+30EC_U+30A4_U+30E4_U+30FC 1
 62
   179
420
  2234388
370
     9
100
AcDbVertex
100
AcDb2dVertex
 10
56.07547273606217
 20
-101.1645310858202
 30
0.0
  0
SEQEND
  5
B5
330
B2
100
AcDbEntity
  8
_U+30EC_U+30A4_U+30E4_U+30FC 1
 62
   179
420
  2234388
370
     9
  0
POLYLINE
  5
B6
330
41
100
AcDbEntity
  8
_U+30EC_U+30A4_U+30E4_U+30FC 1
 62
   179
420
  2234388
370
     9
100
AcDb2dPolyline
 66
     1
 10
0.0
 20
0.0
 30
0.0
  0
VERTEX
  5
B7
330
B6
100
AcDbEntity
  8
_U+30EC_U+30A4_U+30E4_U+30FC 1
 62
   179
420
  2234388
370
     9
100
AcDbVertex
100
AcDb2dVertex
 10
66.07555831427207
 20
-98.0047005310545
 30
0.0
  0
VERTEX
  5
B8
330
B6
100
AcDbEntity
  8
_U+30EC_U+30A4_U+30E4_U+30FC 1
 62
   179
420
  2234388
370
     9
100
AcDbVertex
100
AcDb2dVertex
 10
66.07555831427207
 20
-101.1645310858202
 30
0.0
  0
SEQEND
  5
B9
330
B6
100
AcDbEntity
  8
_U+30EC_U+30A4_U+30E4_U+30FC 1
 62
   179
420
  2234388
370
     9
  0
INSERT
  5
BB
330
41
100
AcDbEntity
  8
_U+30EC_U+30A4_U+30E4_U+30FC 1
100
AcDbBlockReference
  2
block 5
 10
0.0
 20
0.0
 30
0.0
  0
POLYLINE
  5
C3
330
41
100
AcDbEntity
  8
_U+30EC_U+30A4_U+30E4_U+30FC 1
 62
   179
420
  2234388
370
     9
100
AcDb2dPolyline
 66
     1
 10
0.0
 20
0.0
 30
0.0
  0
VERTEX
  5
C4
330
C3
100
AcDbEntity
  8
_U+30EC_U+30A4_U+30E4_U+30FC 1
 62
   179
420
  2234388
370
     9
100
AcDbVertex
100
AcDb2dVertex
 10
41.07553839652016
 20
-100.1647588638477
 30
0.0
  0
VERTEX
  5
C5
330
C3
100
AcDbEntity
  8
_U+30EC_U+30A4_U+30E4_U+30FC 1
 62
   179
420
  2234388
370
     9
100
AcDbVertex
100
AcDb2dVertex
 10
56.07547273606217
 20
-100.1647588638477
 30
0.0
  0
SEQEND
  5
C6
330
C3
100
AcDbEntity
  8
_U+30EC_U+30A4_U+30E4_U+30FC 1
 62
   179
420
  2234388
370
     9
  0
POLYLINE
  5
C7
330
41
100
AcDbEntity
  8
_U+30EC_U+30A4_U+30E4_U+30FC 1
 62
   179
420
  2234388
370
     9
100
AcDb2dPolyline
 66
     1
 10
0.0
 20
0.0
 30
0.0
  0
VERTEX
  5
C8
330
C7
100
AcDbEntity
  8
_U+30EC_U+30A4_U+30E4_U+30FC 1
 62
   179
420
  2234388
370
     9
100
AcDbVertex
100
AcDb2dVertex
 10
41.13925006156141
 20
-87.7043655336296
 30
0.0
  0
VERTEX
  5
C9
330
C7
100
AcDbEntity
  8
_U+30EC_U+30A4_U+30E4_U+30FC 1
 62
   179
420
  2234388
370
     9
100
AcDbVertex
100
AcDb2dVertex
 10
41.13925006156141
 20
-101.1645310858202
 30
0.0
  0
SEQEND
  5
CA
330
C7
100
AcDbEntity
  8
_U+30EC_U+30A4_U+30E4_U+30FC 1
 62
   179
420
  2234388
370
     9
  0
INSERT
  5
CC
330
41
100
AcDbEntity
  8
_U+30EC_U+30A4_U+30E4_U+30FC 1
100
AcDbBlockReference
  2
block 6
 10
0.0
 20
0.0
 30
0.0
  0
POLYLINE
  5
D3
330
41
100
AcDbEntity
  8
_U+30EC_U+30A4_U+30E4_U+30FC 1
 62
   179
420
  2234388
370
     9
100
AcDb2dPolyline
 66
     1
 10
0.0
 20
0.0
 30
0.0
  0
VERTEX
  5
D4
330
D3
100
AcDbEntity
  8
_U+30EC_U+30A4_U+30E4_U+30FC 1
 62
   179
420
  2234388
370
     9
100
AcDbVertex
100
AcDb2dVertex
 10
78.00971273202865
 20
-80.1640933132922
 30
0.0
  0
VERTEX
  5
D5
330
D3
100
AcDbEntity
  8
_U+30EC_U+30A4_U+30E4_U+30FC 1
 62
   179
420
  2234388
370
     9
100
AcDbVertex
100
AcDb2dVertex
 10
41.00988645375063
 20
-80.1640933132922
 30
0.0
  0
SEQEND
  5
D6
330
D3
100
AcDbEntity
  8
_U+30EC_U+30A4_U+30E4_U+30FC 1
 62
   179
420
  2234388
370
     9
  0
POLYLINE
  5
D7
330
41
100
AcDbEntity
  8
_U+30EC_U+30A4_U+30E4_U+30FC 1
 62
   179
420
  2234388
370
     9
100
AcDb2dPolyline
 66
     1
 10
0.0
 20
0.0
 30
0.0
  0
VERTEX
  5
D8
330
D7
100
AcDbEntity
  8
_U+30EC_U+30A4_U+30E4_U+30FC 1
 62
   179
420
  2234388
370
     9
100
AcDbVertex
100
AcDb2dVertex
 10
78.00177523223115
 20
-81.6234291462607
 30
0.0
  0
VERTEX
  5
D9
330
D7
100
AcDbEntity
  8
_U+30EC_U+30A4_U+30E4_U+30FC 1
 62
   179
420
  2234388
370
     9
100
AcDbVertex
100
AcDb2dVertex
 10
78.00177523223115
 20
-79.16365081354229
 30
0.0
  0
SEQEND
  5
DA
330
D7
100
AcDbEntity
  8
_U+30EC_U+30A4_U+30E4_U+30FC 1
 62
   179
420
  2234388
370
     9
  0
POLYLINE
  5
DB
330
41
100
AcDbEntity
  8
_U+30EC_U+30A4_U+30E4_U+30FC 1
 62
   179
420
  2234388
370
     9
100
AcDb2dPolyline
 66
     1
 10
0.0
 20
0.0
 30
0.0
  0
VERTEX
  5
DC
330
DB
100
AcDbEntity
  8
_U+30EC_U+30A4_U+30E4_U+30FC 1
 62
   179
420
  2234388
370
     9
100
AcDbVertex
100
AcDb2dVertex
 10
41.02452776752163
 20
-81.6234291462607
 30
0.0
  0
VERTEX
  5
DD
330
DB
100
AcDbEntity
  8
_U+30EC_U+30A4_U+30E4_U+30FC 1
 62
   179
420
  2234388
370
     9
100
AcDbVertex
100
AcDb2dVertex
 10
41.02452776752163
 20
-79.16365081354229
 30
0.0
  0
SEQEND
  5
DE
330
DB
100
AcDbEntity
  8
_U+30EC_U+30A4_U+30E4_U+30FC 1
 62
   179
420
  2234388
370
     9
  0
INSERT
  5
E0
330
41
100
AcDbEntity
  8
_U+30EC_U+30A4_U+30E4_U+30FC 1
100
AcDbBlockReference
  2
block 7
 10
0.0
 20
0.0
 30
0.0
  0
POLYLINE
  5
E7
330
41
100
AcDbEntity
  8
_U+30EC_U+30A4_U+30E4_U+30FC 1
 62
   179
420
  2234388
370
     9
100
AcDb2dPolyline
 66
     1
 10
0.0
 20
0.0
 30
0.0
  0
VERTEX
  5
E8
330
E7
100
AcDbEntity
  8
_U+30EC_U+30A4_U+30E4_U+30FC 1
 62
   179
420
  2234388
370
     9
100
AcDbVertex
100
AcDb2dVertex
 10
70.07531737889639
 20
-95.16455719843088
 30
0.0
  0
VERTEX
  5
E9
330
E7
100
AcDbEntity
  8
_U+30EC_U+30A4_U+30E4_U+30FC 1
 62
   179
420
  2234388
370
     9
100
AcDbVertex
100
AcDb2dVertex
 10
70.07531737889639
 20
-89.90665136641196
 30
0.0
  0
SEQEND
  5
EA
330
E7
100
AcDbEntity
  8
_U+30EC_U+30A4_U+30E4_U+30FC 1
 62
   179
420
  2234388
370
     9
  0
POLYLINE
  5
EB
330
41
100
AcDbEntity
  8
_U+30EC_U+30A4_U+30E4_U+30FC 1
 62
   179
420
  2234388
370
     9
100
AcDb2dPolyline
 66
     1
 10
0.0
 20
0.0
 30
0.0
  0
VERTEX
  5
EC
330
EB
100
AcDbEntity
  8
_U+30EC_U+30A4_U+30E4_U+30FC 1
 62
   179
420
  2234388
370
     9
100
AcDbVertex
100
AcDb2dVertex
 10
70.07531737889639
 20
-95.16455719843088
 30
0.0
  0
VERTEX
  5
ED
330
EB
100
AcDbEntity
  8
_U+30EC_U+30A4_U+30E4_U+30FC 1
 62
   179
420
  2234388
370
     9
100
AcDbVertex
100
AcDb2dVertex
 10
70.07531737889639
 20
-96.66456830916712
 30
0.0
  0
SEQEND
  5
EE
330
EB
100
AcDbEntity
  8
_U+30EC_U+30A4_U+30E4_U+30FC 1
 62
   179
420
  2234388
370
     9
  0
POLYLINE
  5
EF
330
41
100
AcDbEntity
  8
_U+30EC_U+30A4_U+30E4_U+30FC 1
 62
   179
420
  2234388
370
     9
100
AcDb2dPolyline
 66
     1
 10
0.0
 20
0.0
 30
0.0
  0
VERTEX
  5
F0
330
EF
100
AcDbEntity
  8
_U+30EC_U+30A4_U+30E4_U+30FC 1
 62
   179
420
  2234388
370
     9
100
AcDbVertex
100
AcDb2dVertex
 10
68.61527776062397
 20
-95.16455719843088
 30
0.0
  0
VERTEX
  5
F1
330
EF
100
AcDbEntity
  8
_U+30EC_U+30A4_U+30E4_U+30FC 1
 62
   179
420
  2234388
370
     9
100
AcDbVertex
100
AcDb2dVertex
 10
71.07540707560419
 20
-95.16455719843088
 30
0.0
  0
SEQEND
  5
F2
330
EF
100
AcDbEntity
  8
_U+30EC_U+30A4_U+30E4_U+30FC 1
 62
   179
420
  2234388
370
     9
  0
POLYLINE
  5
F3
330
41
100
AcDbEntity
  8
_U+30EC_U+30A4_U+30E4_U+30FC 1
 62
   179
420
  2234388
370
     9
100
AcDb2dPolyline
 66
     1
 10
0.0
 20
0.0
 30
0.0
  0
VERTEX
  5
F4
330
F3
100
AcDbEntity
  8
_U+30EC_U+30A4_U+30E4_U+30FC 1
 62
   179
420
  2234388
370
     9
100
AcDbVertex
100
AcDb2dVertex
 10
68.61527776062397
 20
-95.66479608719523
 30
0.0
  0
VERTEX
  5
F5
330
F3
100
AcDbEntity
  8
_U+30EC_U+30A4_U+30E4_U+30FC 1
 62
   179
420
  2234388
370
     9
100
AcDbVertex
100
AcDb2dVertex
 10
71.07540707560419
 20
-95.66479608719523
 30
0.0
  0
SEQEND
  5
F6
330
F3
100
AcDbEntity
  8
_U+30EC_U+30A4_U+30E4_U+30FC 1
 62
   179
420
  2234388
370
     9
  0
INSERT
  5
F8
330
41
100
AcDbEntity
  8
_U+30EC_U+30A4_U+30E4_U+30FC 1
100
AcDbBlockReference
  2
block 8
 10
0.0
 20
0.0
 30
0.0
  0
ENDBLK
  5
44
330
41
100
AcDbEntity
  8
0
100
AcDbBlockEnd
  0
BLOCK
  5
99
330
97
100
AcDbEntity
  8
0
100
AcDbBlockBegin
  2
block 3
 70
     0
 10
0.0
 20
0.0
 30
0.0
  3
block 3
  1

  0
SPLINE
  5
9B
330
97
100
AcDbEntity
  8
_U+30EC_U+30A4_U+30E4_U+30FC 1
370
     0
100
AcDbSpline
210
0.0
220
0.0
230
1.0
 70
    11
 71
     3
 72
    26
 73
    22
 74
     0
 42
0.0000000001
 43
0.0000000001
 12
1.0
 22
0.0
 32
0.0
 13
1.0
 23
0.0
 33
0.0
 40
0.0
 40
0.0
 40
0.0
 40
0.0
 40
1.0
 40
1.0
 40
1.0
 40
2.0
 40
2.0
 40
2.0
 40
3.0
 40
3.0
 40
3.0
 40
4.0
 40
4.0
 40
4.0
 40
5.0
 40
5.0
 40
5.0
 40
6.0
 40
6.0
 40
6.0
 40
7.0
 40
7.0
 40
7.0
 40
7.0
 10
83.77369789572325
 20
-81.17299531390815
 30
0.0
 10
83.77369789572325
 20
-81.17299531390815
 30
0.0
 10
82.66954479270068
 20
-81.17299531390815
 30
0.0
 10
82.66954479270068
 20
-81.17299531390815
 30
0.0
 10
82.66954479270068
 20
-81.17299531390815
 30
0.0
 10
82.66954479270068
 20
-81.52577309159773
 30
0.0
 10
82.66954479270068
 20
-81.52577309159773
 30
0.0
 10
82.66954479270068
 20
-81.52577309159773
 30
0.0
 10
82.52140568683492
 20
-81.52577309159773
 30
0.0
 10
82.52140568683492
 20
-81.52577309159773
 30
0.0
 10
82.50659177624836
 20
-81.17075600184273
 30
0.0
 10
82.34363875979604
 20
-81.12097437208087
 30
0.0
 10
82.22926158968575
 20
-81.08927949361657
 30
0.0
 10
82.22926158968575
 20
-81.08927949361657
 30
0.0
 10
82.22926158968575
 20
-80.93338892290902
 30
0.0
 10
82.22926158968575
 20
-80.93338892290902
 30
0.0
 10
82.22926158968575
 20
-80.93338892290902
 30
0.0
 10
83.77369789572325
 20
-80.93338892290902
 30
0.0
 10
83.77369789572325
 20
-80.93338892290902
 30
0.0
 10
83.77369789572325
 20
-80.93338892290902
 30
0.0
 10
83.77369789572325
 20
-81.17299531390815
 30
0.0
 10
83.77369789572325
 20
-81.17299531390815
 30
0.0
  0
HATCH
  5
9C
330
97
100
AcDbEntity
  8
_U+30EC_U+30A4_U+30E4_U+30FC 1
 62
   179
420
  2234388
100
AcDbHatch
 10
0.0
 20
0.0
 30
0.0
210
0.0
220
0.0
230
1.0
  2
SOLID
 70
     1
 71
     0
 91
        1
 92
        1
 93
        1
 72
     4
 94
        3
 73
     0
 74
     1
 95
       26
 96
       22
 40
0.0
 40
0.0
 40
0.0
 40
0.0
 40
1.0
 40
1.0
 40
1.0
 40
2.0
 40
2.0
 40
2.0
 40
3.0
 40
3.0
 40
3.0
 40
4.0
 40
4.0
 40
4.0
 40
5.0
 40
5.0
 40
5.0
 40
6.0
 40
6.0
 40
6.0
 40
7.0
 40
7.0
 40
7.0
 40
7.0
 10
83.77369789572325
 20
-81.17299531390815
 10
83.77369789572325
 20
-81.17299531390815
 10
82.66954479270068
 20
-81.17299531390815
 10
82.66954479270068
 20
-81.17299531390815
 10
82.66954479270068
 20
-81.17299531390815
 10
82.66954479270068
 20
-81.52577309159773
 10
82.66954479270068
 20
-81.52577309159773
 10
82.66954479270068
 20
-81.52577309159773
 10
82.52140568683492
 20
-81.52577309159773
 10
82.52140568683492
 20
-81.52577309159773
 10
82.50659177624836
 20
-81.17075600184273
 10
82.34363875979604
 20
-81.12097437208087
 10
82.22926158968575
 20
-81.08927949361657
 10
82.22926158968575
 20
-81.08927949361657
 10
82.22926158968575
 20
-80.93338892290902
 10
82.22926158968575
 20
-80.93338892290902
 10
82.22926158968575
 20
-80.93338892290902
 10
83.77369789572325
 20
-80.93338892290902
 10
83.77369789572325
 20
-80.93338892290902
 10
83.77369789572325
 20
-80.93338892290902
 10
83.77369789572325
 20
-81.17299531390815
 10
83.77369789572325
 20
-81.17299531390815
 97
        0
 97
        0
 75
     2
 76
     1
 98
        0
  0
ENDBLK
  5
9A
330
97
100
AcDbEntity
  8
0
100
AcDbBlockEnd
  0
BLOCK
  5
A7
330
A5
100
AcDbEntity
  8
0
100
AcDbBlockBegin
  2
block 4
 70
     0
 10
0.0
 20
0.0
 30
0.0
  3
block 4
  1

  0
SPLINE
  5
A9
330
A5
100
AcDbEntity
  8
_U+30EC_U+30A4_U+30E4_U+30FC 1
370
     0
100
AcDbSpline
210
0.0
220
0.0
230
1.0
 70
    11
 71
     3
 72
    26
 73
    22
 74
     0
 42
0.0000000001
 43
0.0000000001
 12
1.0
 22
0.0
 32
0.0
 13
1.0
 23
0.0
 33
0.0
 40
0.0
 40
0.0
 40
0.0
 40
0.0
 40
1.0
 40
1.0
 40
1.0
 40
2.0
 40
2.0
 40
2.0
 40
3.0
 40
3.0
 40
3.0
 40
4.0
 40
4.0
 40
4.0
 40
5.0
 40
5.0
 40
5.0
 40
6.0
 40
6.0
 40
6.0
 40
7.0
 40
7.0
 40
7.0
 40
7.0
 10
83.77335338617472
 20
-90.84096677416477
 30
0.0
 10
83.77335338617472
 20
-90.84096677416477
 30
0.0
 10
82.66920028315215
 20
-90.84096677416477
 30
0.0
 10
82.66920028315215
 20
-90.84096677416477
 30
0.0
 10
82.66920028315215
 20
-90.84096677416477
 30
0.0
 10
82.66920028315215
 20
-91.19340004230583
 30
0.0
 10
82.66920028315215
 20
-91.19340004230583
 30
0.0
 10
82.66920028315215
 20
-91.19340004230583
 30
0.0
 10
82.5210611772864
 20
-91.19340004230583
 30
0.0
 10
82.5210611772864
 20
-91.19340004230583
 30
0.0
 10
82.50624726669983
 20
-90.83855520732509
 30
0.0
 10
82.34329425024751
 20
-90.78894583233749
 30
0.0
 10
82.22891708013722
 20
-90.7572509538732
 30
0.0
 10
82.22891708013722
 20
-90.7572509538732
 30
0.0
 10
82.22891708013722
 20
-90.60118812839137
 30
0.0
 10
82.22891708013722
 20
-90.60118812839137
 30
0.0
 10
82.22891708013722
 20
-90.60118812839137
 30
0.0
 10
83.77335338617472
 20
-90.60118812839137
 30
0.0
 10
83.77335338617472
 20
-90.60118812839137
 30
0.0
 10
83.77335338617472
 20
-90.60118812839137
 30
0.0
 10
83.77335338617472
 20
-90.84096677416477
 30
0.0
 10
83.77335338617472
 20
-90.84096677416477
 30
0.0
  0
HATCH
  5
AA
330
A5
100
AcDbEntity
  8
_U+30EC_U+30A4_U+30E4_U+30FC 1
 62
   179
420
  2234388
100
AcDbHatch
 10
0.0
 20
0.0
 30
0.0
210
0.0
220
0.0
230
1.0
  2
SOLID
 70
     1
 71
     0
 91
        1
 92
        1
 93
        1
 72
     4
 94
        3
 73
     0
 74
     1
 95
       26
 96
       22
 40
0.0
 40
0.0
 40
0.0
 40
0.0
 40
1.0
 40
1.0
 40
1.0
 40
2.0
 40
2.0
 40
2.0
 40
3.0
 40
3.0
 40
3.0
 40
4.0
 40
4.0
 40
4.0
 40
5.0
 40
5.0
 40
5.0
 40
6.0
 40
6.0
 40
6.0
 40
7.0
 40
7.0
 40
7.0
 40
7.0
 10
83.77335338617472
 20
-90.84096677416477
 10
83.77335338617472
 20
-90.84096677416477
 10
82.66920028315215
 20
-90.84096677416477
 10
82.66920028315215
 20
-90.84096677416477
 10
82.66920028315215
 20
-90.84096677416477
 10
82.66920028315215
 20
-91.19340004230583
 10
82.66920028315215
 20
-91.19340004230583
 10
82.66920028315215
 20
-91.19340004230583
 10
82.5210611772864
 20
-91.19340004230583
 10
82.5210611772864
 20
-91.19340004230583
 10
82.50624726669983
 20
-90.83855520732509
 10
82.34329425024751
 20
-90.78894583233749
 10
82.22891708013722
 20
-90.7572509538732
 10
82.22891708013722
 20
-90.7572509538732
 10
82.22891708013722
 20
-90.60118812839137
 10
82.22891708013722
 20
-90.60118812839137
 10
82.22891708013722
 20
-90.60118812839137
 10
83.77335338617472
 20
-90.60118812839137
 10
83.77335338617472
 20
-90.60118812839137
 10
83.77335338617472
 20
-90.60118812839137
 10
83.77335338617472
 20
-90.84096677416477
 10
83.77335338617472
 20
-90.84096677416477
 97
        0
 97
        0
 75
     2
 76
     1
 98
        0
  0
SPLINE
  5
AB
330
A5
100
AcDbEntity
  8
_U+30EC_U+30A4_U+30E4_U+30FC 1
370
     0
100
AcDbSpline
210
0.0
220
0.0
230
1.0
 70
    11
 71
     3
 72
    29
 73
    25
 74
     0
 42
0.0000000001
 43
0.0000000001
 12
1.0
 22
0.0
 32
0.0
 13
1.0
 23
0.0
 33
0.0
 40
0.0
 40
0.0
 40
0.0
 40
0.0
 40
1.0
 40
1.0
 40
1.0
 40
2.0
 40
2.0
 40
2.0
 40
3.0
 40
3.0
 40
3.0
 40
4.0
 40
4.0
 40
4.0
 40
5.0
 40
5.0
 40
5.0
 40
6.0
 40
6.0
 40
6.0
 40
7.0
 40
7.0
 40
7.0
 40
8.0
 40
8.0
 40
8.0
 40
8.0
 10
83.59558645913583
 20
-89.10601668779294
 30
0.0
 10
83.80504826463903
 20
-89.22142738654881
 30
0.0
 10
83.8239962898079
 20
-89.40677352365526
 30
0.0
 10
83.8239962898079
 20
-89.53114147067278
 30
0.0
 10
83.8239962898079
 20
-89.70270722583821
 30
0.0
 10
83.77748750075702
 20
-89.85429142718921
 30
0.0
 10
83.59558645913583
 20
-89.95592174400407
 30
0.0
 10
83.40093856421922
 20
-90.06685381862913
 30
0.0
 10
83.16391599483403
 20
-90.0871798819921
 30
0.0
 10
83.00130748793023
 20
-90.0871798819921
 30
0.0
 10
82.8573024966468
 20
-90.0871798819921
 30
0.0
 10
82.60546601667502
 20
-90.0692653854688
 30
0.0
 10
82.40668400717611
 20
-89.95592174400407
 30
0.0
 10
82.2037678830949
 20
-89.84085555479673
 30
0.0
 10
82.18034123379519
 20
-89.66894529008277
 30
0.0
 10
82.18034123379519
 20
-89.53114147067278
 30
0.0
 10
82.18034123379519
 20
-89.36129826324996
 30
0.0
 10
82.22478296555492
 20
-89.20764700460782
 30
0.0
 10
82.40668400717611
 20
-89.10601668779294
 30
0.0
 10
82.59926484480158
 20
-88.99956323729873
 30
0.0
 10
82.82767467547365
 20
-88.97475854980493
 30
0.0
 10
83.00130748793023
 20
-88.97475854980493
 30
0.0
 10
83.17252873354715
 20
-88.97475854980493
 30
0.0
 10
83.40300562151036
 20
-88.99749618000757
 30
0.0
 10
83.59558645913583
 20
-89.10601668779294
 30
0.0
  0
SPLINE
  5
AC
330
A5
100
AcDbEntity
  8
_U+30EC_U+30A4_U+30E4_U+30FC 1
370
     0
100
AcDbSpline
210
0.0
220
0.0
230
1.0
 70
    11
 71
     3
 72
    17
 73
    13
 74
     0
 42
0.0000000001
 43
0.0000000001
 12
1.0
 22
0.0
 32
0.0
 13
1.0
 23
0.0
 33
0.0
 40
0.0
 40
0.0
 40
0.0
 40
0.0
 40
1.0
 40
1.0
 40
1.0
 40
2.0
 40
2.0
 40
2.0
 40
3.0
 40
3.0
 40
3.0
 40
4.0
 40
4.0
 40
4.0
 40
4.0
 10
82.37292207142066
 20
-89.53114147067278
 30
0.0
 10
82.37292207142066
 20
-89.79779186123112
 30
0.0
 10
82.65645342985673
 20
-89.84740123621872
 30
0.0
 10
83.00130748793023
 20
-89.84740123621872
 30
0.0
 10
83.32066783941289
 20
-89.84740123621872
 30
0.0
 10
83.62934839489128
 20
-89.80916067633244
 30
0.0
 10
83.62934839489128
 20
-89.53114147067278
 30
0.0
 10
83.62934839489128
 20
-89.26655813740558
 30
0.0
 10
83.34822860329488
 20
-89.21453719557832
 30
0.0
 10
83.00130748793023
 20
-89.21453719557832
 30
0.0
 10
82.68160262689905
 20
-89.21453719557832
 30
0.0
 10
82.37292207142066
 20
-89.25518932230426
 30
0.0
 10
82.37292207142066
 20
-89.53114147067278
 30
0.0
  0
HATCH
  5
AD
330
A5
100
AcDbEntity
  8
_U+30EC_U+30A4_U+30E4_U+30FC 1
 62
   179
420
  2234388
100
AcDbHatch
 10
0.0
 20
0.0
 30
0.0
210
0.0
220
0.0
230
1.0
  2
SOLID
 70
     1
 71
     0
 91
        2
 92
        1
 93
        1
 72
     4
 94
        3
 73
     0
 74
     1
 95
       29
 96
       25
 40
0.0
 40
0.0
 40
0.0
 40
0.0
 40
1.0
 40
1.0
 40
1.0
 40
2.0
 40
2.0
 40
2.0
 40
3.0
 40
3.0
 40
3.0
 40
4.0
 40
4.0
 40
4.0
 40
5.0
 40
5.0
 40
5.0
 40
6.0
 40
6.0
 40
6.0
 40
7.0
 40
7.0
 40
7.0
 40
8.0
 40
8.0
 40
8.0
 40
8.0
 10
83.59558645913583
 20
-89.10601668779294
 10
83.80504826463903
 20
-89.22142738654881
 10
83.8239962898079
 20
-89.40677352365526
 10
83.8239962898079
 20
-89.53114147067278
 10
83.8239962898079
 20
-89.70270722583821
 10
83.77748750075702
 20
-89.85429142718921
 10
83.59558645913583
 20
-89.95592174400407
 10
83.40093856421922
 20
-90.06685381862913
 10
83.16391599483403
 20
-90.0871798819921
 10
83.00130748793023
 20
-90.0871798819921
 10
82.8573024966468
 20
-90.0871798819921
 10
82.60546601667502
 20
-90.0692653854688
 10
82.40668400717611
 20
-89.95592174400407
 10
82.2037678830949
 20
-89.84085555479673
 10
82.18034123379519
 20
-89.66894529008277
 10
82.18034123379519
 20
-89.53114147067278
 10
82.18034123379519
 20
-89.36129826324996
 10
82.22478296555492
 20
-89.20764700460782
 10
82.40668400717611
 20
-89.10601668779294
 10
82.59926484480158
 20
-88.99956323729873
 10
82.82767467547365
 20
-88.97475854980493
 10
83.00130748793023
 20
-88.97475854980493
 10
83.17252873354715
 20
-88.97475854980493
 10
83.40300562151036
 20
-88.99749618000757
 10
83.59558645913583
 20
-89.10601668779294
 97
        0
 97
        0
 92
        1
 93
        1
 72
     4
 94
        3
 73
     0
 74
     1
 95
       17
 96
       13
 40
0.0
 40
0.0
 40
0.0
 40
0.0
 40
1.0
 40
1.0
 40
1.0
 40
2.0
 40
2.0
 40
2.0
 40
3.0
 40
3.0
 40
3.0
 40
4.0
 40
4.0
 40
4.0
 40
4.0
 10
82.37292207142066
 20
-89.53114147067278
 10
82.37292207142066
 20
-89.79779186123112
 10
82.65645342985673
 20
-89.84740123621872
 10
83.00130748793023
 20
-89.84740123621872
 10
83.32066783941289
 20
-89.84740123621872
 10
83.62934839489128
 20
-89.80916067633244
 10
83.62934839489128
 20
-89.53114147067278
 10
83.62934839489128
 20
-89.26655813740558
 10
83.34822860329488
 20
-89.21453719557832
 10
83.00130748793023
 20
-89.21453719557832
 10
82.68160262689905
 20
-89.21453719557832
 10
82.37292207142066
 20
-89.25518932230426
 10
82.37292207142066
 20
-89.53114147067278
 97
        0
 97
        0
 75
     2
 76
     1
 98
        0
  0
ENDBLK
  5
A8
330
A5
100
AcDbEntity
  8
0
100
AcDbBlockEnd
  0
BLOCK
  5
BC
330
BA
100
AcDbEntity
  8
0
100
AcDbBlockBegin
  2
block 5
 70
     0
 10
0.0
 20
0.0
 30
0.0
  3
block 5
  1

  0
SPLINE
  5
BE
330
BA
100
AcDbEntity
  8
_U+30EC_U+30A4_U+30E4_U+30FC 1
370
     0
100
AcDbSpline
210
0.0
220
0.0
230
1.0
 70
    11
 71
     3
 72
    26
 73
    22
 74
     0
 42
0.0000000001
 43
0.0000000001
 12
1.0
 22
0.0
 32
0.0
 13
1.0
 23
0.0
 33
0.0
 40
0.0
 40
0.0
 40
0.0
 40
0.0
 40
1.0
 40
1.0
 40
1.0
 40
2.0
 40
2.0
 40
2.0
 40
3.0
 40
3.0
 40
3.0
 40
4.0
 40
4.0
 40
4.0
 40
5.0
 40
5.0
 40
5.0
 40
6.0
 40
6.0
 40
6.0
 40
7.0
 40
7.0
 40
7.0
 40
7.0
 10
60.39906953785162
 20
-98.86252710202048
 30
0.0
 10
60.39906953785162
 20
-98.86252710202048
 30
0.0
 10
60.39906953785162
 20
-97.75837399899791
 30
0.0
 10
60.39906953785162
 20
-97.75837399899791
 30
0.0
 10
60.39906953785162
 20
-97.75837399899791
 30
0.0
 10
60.04663626971057
 20
-97.75837399899791
 30
0.0
 10
60.04663626971057
 20
-97.75837399899791
 30
0.0
 10
60.04663626971057
 20
-97.75837399899791
 30
0.0
 10
60.04663626971057
 20
-97.61023489313217
 30
0.0
 10
60.04663626971057
 20
-97.61023489313217
 30
0.0
 10
60.4014811046913
 20
-97.59542098254559
 30
0.0
 10
60.4510904796789
 20
-97.43246796609327
 30
0.0
 10
60.4827853581432
 20
-97.31809079598298
 30
0.0
 10
60.4827853581432
 20
-97.31809079598298
 30
0.0
 10
60.63884818362502
 20
-97.31809079598298
 30
0.0
 10
60.63884818362502
 20
-97.31809079598298
 30
0.0
 10
60.63884818362502
 20
-97.31809079598298
 30
0.0
 10
60.63884818362502
 20
-98.86252710202048
 30
0.0
 10
60.63884818362502
 20
-98.86252710202048
 30
0.0
 10
60.63884818362502
 20
-98.86252710202048
 30
0.0
 10
60.39906953785162
 20
-98.86252710202048
 30
0.0
 10
60.39906953785162
 20
-98.86252710202048
 30
0.0
  0
HATCH
  5
BF
330
BA
100
AcDbEntity
  8
_U+30EC_U+30A4_U+30E4_U+30FC 1
 62
   179
420
  2234388
100
AcDbHatch
 10
0.0
 20
0.0
 30
0.0
210
0.0
220
0.0
230
1.0
  2
SOLID
 70
     1
 71
     0
 91
        1
 92
        1
 93
        1
 72
     4
 94
        3
 73
     0
 74
     1
 95
       26
 96
       22
 40
0.0
 40
0.0
 40
0.0
 40
0.0
 40
1.0
 40
1.0
 40
1.0
 40
2.0
 40
2.0
 40
2.0
 40
3.0
 40
3.0
 40
3.0
 40
4.0
 40
4.0
 40
4.0
 40
5.0
 40
5.0
 40
5.0
 40
6.0
 40
6.0
 40
6.0
 40
7.0
 40
7.0
 40
7.0
 40
7.0
 10
60.39906953785162
 20
-98.86252710202048
 10
60.39906953785162
 20
-98.86252710202048
 10
60.39906953785162
 20
-97.75837399899791
 10
60.39906953785162
 20
-97.75837399899791
 10
60.39906953785162
 20
-97.75837399899791
 10
60.04663626971057
 20
-97.75837399899791
 10
60.04663626971057
 20
-97.75837399899791
 10
60.04663626971057
 20
-97.75837399899791
 10
60.04663626971057
 20
-97.61023489313217
 10
60.04663626971057
 20
-97.61023489313217
 10
60.4014811046913
 20
-97.59542098254559
 10
60.4510904796789
 20
-97.43246796609327
 10
60.4827853581432
 20
-97.31809079598298
 10
60.4827853581432
 20
-97.31809079598298
 10
60.63884818362502
 20
-97.31809079598298
 10
60.63884818362502
 20
-97.31809079598298
 10
60.63884818362502
 20
-97.31809079598298
 10
60.63884818362502
 20
-98.86252710202048
 10
60.63884818362502
 20
-98.86252710202048
 10
60.63884818362502
 20
-98.86252710202048
 10
60.39906953785162
 20
-98.86252710202048
 10
60.39906953785162
 20
-98.86252710202048
 97
        0
 97
        0
 75
     2
 76
     1
 98
        0
  0
SPLINE
  5
C0
330
BA
100
AcDbEntity
  8
_U+30EC_U+30A4_U+30E4_U+30FC 1
370
     0
100
AcDbSpline
210
0.0
220
0.0
230
1.0
 70
    11
 71
     3
 72
    29
 73
    25
 74
     0
 42
0.0000000001
 43
0.0000000001
 12
1.0
 22
0.0
 32
0.0
 13
1.0
 23
0.0
 33
0.0
 40
0.0
 40
0.0
 40
0.0
 40
0.0
 40
1.0
 40
1.0
 40
1.0
 40
2.0
 40
2.0
 40
2.0
 40
3.0
 40
3.0
 40
3.0
 40
4.0
 40
4.0
 40
4.0
 40
5.0
 40
5.0
 40
5.0
 40
6.0
 40
6.0
 40
6.0
 40
7.0
 40
7.0
 40
7.0
 40
8.0
 40
8.0
 40
8.0
 40
8.0
 10
62.13401962422344
 20
-98.68476017498159
 30
0.0
 10
62.01860892546757
 20
-98.89422198048479
 30
0.0
 10
61.83326278836113
 20
-98.91317000565365
 30
0.0
 10
61.70889484134361
 20
-98.91317000565365
 30
0.0
 10
61.53732908617817
 20
-98.91317000565365
 30
0.0
 10
61.38574488482718
 20
-98.86666121660278
 30
0.0
 10
61.28411456801231
 20
-98.68476017498159
 30
0.0
 10
61.17318249338727
 20
-98.49011228006498
 30
0.0
 10
61.15285643002429
 20
-98.25343422022831
 30
0.0
 10
61.15285643002429
 20
-98.090481203776
 30
0.0
 10
61.15285643002429
 20
-97.94647621249256
 30
0.0
 10
61.17111543609612
 20
-97.69463973252078
 30
0.0
 10
61.28411456801231
 20
-97.49585772302187
 30
0.0
 10
61.39918075721965
 20
-97.29294159894066
 30
0.0
 10
61.57109102193362
 20
-97.26951494964096
 30
0.0
 10
61.70889484134361
 20
-97.26951494964096
 30
0.0
 10
61.87873804876643
 20
-97.26951494964096
 30
0.0
 10
62.03238930740857
 20
-97.31395668140068
 30
0.0
 10
62.13401962422344
 20
-97.49585772302187
 30
0.0
 10
62.24047307471766
 20
-97.68843856064734
 30
0.0
 10
62.26527776221146
 20
-97.9168483913194
 30
0.0
 10
62.26527776221146
 20
-98.090481203776
 30
0.0
 10
62.26527776221146
 20
-98.26170244939291
 30
0.0
 10
62.24254013200881
 20
-98.49217933735612
 30
0.0
 10
62.13401962422344
 20
-98.68476017498159
 30
0.0
  0
SPLINE
  5
C1
330
BA
100
AcDbEntity
  8
_U+30EC_U+30A4_U+30E4_U+30FC 1
370
     0
100
AcDbSpline
210
0.0
220
0.0
230
1.0
 70
    11
 71
     3
 72
    17
 73
    13
 74
     0
 42
0.0000000001
 43
0.0000000001
 12
1.0
 22
0.0
 32
0.0
 13
1.0
 23
0.0
 33
0.0
 40
0.0
 40
0.0
 40
0.0
 40
0.0
 40
1.0
 40
1.0
 40
1.0
 40
2.0
 40
2.0
 40
2.0
 40
3.0
 40
3.0
 40
3.0
 40
4.0
 40
4.0
 40
4.0
 40
4.0
 10
61.70889484134361
 20
-97.46209578726642
 30
0.0
 10
61.44224445078527
 20
-97.46209578726642
 30
0.0
 10
61.39263507579768
 20
-97.74562714570249
 30
0.0
 10
61.39263507579768
 20
-98.090481203776
 30
0.0
 10
61.39263507579768
 20
-98.40984155525865
 30
0.0
 10
61.43087563568395
 20
-98.71852211073704
 30
0.0
 10
61.70889484134361
 20
-98.71852211073704
 30
0.0
 10
61.9734781746108
 20
-98.71852211073704
 30
0.0
 10
62.02549911643807
 20
-98.43740231914066
 30
0.0
 10
62.02549911643807
 20
-98.090481203776
 30
0.0
 10
62.02549911643807
 20
-97.77077634274481
 30
0.0
 10
61.98484698971212
 20
-97.46209578726642
 30
0.0
 10
61.70889484134361
 20
-97.46209578726642
 30
0.0
  0
HATCH
  5
C2
330
BA
100
AcDbEntity
  8
_U+30EC_U+30A4_U+30E4_U+30FC 1
 62
   179
420
  2234388
100
AcDbHatch
 10
0.0
 20
0.0
 30
0.0
210
0.0
220
0.0
230
1.0
  2
SOLID
 70
     1
 71
     0
 91
        2
 92
        1
 93
        1
 72
     4
 94
        3
 73
     0
 74
     1
 95
       29
 96
       25
 40
0.0
 40
0.0
 40
0.0
 40
0.0
 40
1.0
 40
1.0
 40
1.0
 40
2.0
 40
2.0
 40
2.0
 40
3.0
 40
3.0
 40
3.0
 40
4.0
 40
4.0
 40
4.0
 40
5.0
 40
5.0
 40
5.0
 40
6.0
 40
6.0
 40
6.0
 40
7.0
 40
7.0
 40
7.0
 40
8.0
 40
8.0
 40
8.0
 40
8.0
 10
62.13401962422344
 20
-98.68476017498159
 10
62.01860892546757
 20
-98.89422198048479
 10
61.83326278836113
 20
-98.91317000565365
 10
61.70889484134361
 20
-98.91317000565365
 10
61.53732908617817
 20
-98.91317000565365
 10
61.38574488482718
 20
-98.86666121660278
 10
61.28411456801231
 20
-98.68476017498159
 10
61.17318249338727
 20
-98.49011228006498
 10
61.15285643002429
 20
-98.25343422022831
 10
61.15285643002429
 20
-98.090481203776
 10
61.15285643002429
 20
-97.94647621249256
 10
61.17111543609612
 20
-97.69463973252078
 10
61.28411456801231
 20
-97.49585772302187
 10
61.39918075721965
 20
-97.29294159894066
 10
61.57109102193362
 20
-97.26951494964096
 10
61.70889484134361
 20
-97.26951494964096
 10
61.87873804876643
 20
-97.26951494964096
 10
62.03238930740857
 20
-97.31395668140068
 10
62.13401962422344
 20
-97.49585772302187
 10
62.24047307471766
 20
-97.68843856064734
 10
62.26527776221146
 20
-97.9168483913194
 10
62.26527776221146
 20
-98.090481203776
 10
62.26527776221146
 20
-98.26170244939291
 10
62.24254013200881
 20
-98.49217933735612
 10
62.13401962422344
 20
-98.68476017498159
 97
        0
 97
        0
 92
        1
 93
        1
 72
     4
 94
        3
 73
     0
 74
     1
 95
       17
 96
       13
 40
0.0
 40
0.0
 40
0.0
 40
0.0
 40
1.0
 40
1.0
 40
1.0
 40
2.0
 40
2.0
 40
2.0
 40
3.0
 40
3.0
 40
3.0
 40
4.0
 40
4.0
 40
4.0
 40
4.0
 10
61.70889484134361
 20
-97.46209578726642
 10
61.44224445078527
 20
-97.46209578726642
 10
61.39263507579768
 20
-97.74562714570249
 10
61.39263507579768
 20
-98.090481203776
 10
61.39263507579768
 20
-98.40984155525865
 10
61.43087563568395
 20
-98.71852211073704
 10
61.70889484134361
 20
-98.71852211073704
 10
61.9734781746108
 20
-98.71852211073704
 10
62.02549911643807
 20
-98.43740231914066
 10
62.02549911643807
 20
-98.090481203776
 10
62.02549911643807
 20
-97.77077634274481
 10
61.98484698971212
 20
-97.46209578726642
 10
61.70889484134361
 20
-97.46209578726642
 97
        0
 97
        0
 75
     2
 76
     1
 98
        0
  0
ENDBLK
  5
BD
330
BA
100
AcDbEntity
  8
0
100
AcDbBlockEnd
  0
BLOCK
  5
CD
330
CB
100
AcDbEntity
  8
0
100
AcDbBlockBegin
  2
block 6
 70
     0
 10
0.0
 20
0.0
 30
0.0
  3
block 6
  1

  0
SPLINE
  5
CF
330
CB
100
AcDbEntity
  8
_U+30EC_U+30A4_U+30E4_U+30FC 1
370
     0
100
AcDbSpline
210
0.0
220
0.0
230
1.0
 70
    11
 71
     3
 72
    26
 73
    22
 74
     0
 42
0.0000000001
 43
0.0000000001
 12
1.0
 22
0.0
 32
0.0
 13
1.0
 23
0.0
 33
0.0
 40
0.0
 40
0.0
 40
0.0
 40
0.0
 40
1.0
 40
1.0
 40
1.0
 40
2.0
 40
2.0
 40
2.0
 40
3.0
 40
3.0
 40
3.0
 40
4.0
 40
4.0
 40
4.0
 40
5.0
 40
5.0
 40
5.0
 40
6.0
 40
6.0
 40
6.0
 40
7.0
 40
7.0
 40
7.0
 40
7.0
 10
47.96899277229595
 20
-98.86252710202048
 30
0.0
 10
47.96899277229595
 20
-98.86252710202048
 30
0.0
 10
47.96899277229595
 20
-97.75837399899791
 30
0.0
 10
47.96899277229595
 20
-97.75837399899791
 30
0.0
 10
47.96899277229595
 20
-97.75837399899791
 30
0.0
 10
47.61621499460637
 20
-97.75837399899791
 30
0.0
 10
47.61621499460637
 20
-97.75837399899791
 30
0.0
 10
47.61621499460637
 20
-97.75837399899791
 30
0.0
 10
47.61621499460637
 20
-97.61023489313217
 30
0.0
 10
47.61621499460637
 20
-97.61023489313217
 30
0.0
 10
47.97123208436136
 20
-97.59542098254559
 30
0.0
 10
48.02101371412322
 20
-97.43246796609327
 30
0.0
 10
48.05253633781326
 20
-97.31809079598298
 30
0.0
 10
48.05253633781326
 20
-97.31809079598298
 30
0.0
 10
48.20859916329508
 20
-97.31809079598298
 30
0.0
 10
48.20859916329508
 20
-97.31809079598298
 30
0.0
 10
48.20859916329508
 20
-97.31809079598298
 30
0.0
 10
48.20859916329508
 20
-98.86252710202048
 30
0.0
 10
48.20859916329508
 20
-98.86252710202048
 30
0.0
 10
48.20859916329508
 20
-98.86252710202048
 30
0.0
 10
47.96899277229595
 20
-98.86252710202048
 30
0.0
 10
47.96899277229595
 20
-98.86252710202048
 30
0.0
  0
HATCH
  5
D0
330
CB
100
AcDbEntity
  8
_U+30EC_U+30A4_U+30E4_U+30FC 1
 62
   179
420
  2234388
100
AcDbHatch
 10
0.0
 20
0.0
 30
0.0
210
0.0
220
0.0
230
1.0
  2
SOLID
 70
     1
 71
     0
 91
        1
 92
        1
 93
        1
 72
     4
 94
        3
 73
     0
 74
     1
 95
       26
 96
       22
 40
0.0
 40
0.0
 40
0.0
 40
0.0
 40
1.0
 40
1.0
 40
1.0
 40
2.0
 40
2.0
 40
2.0
 40
3.0
 40
3.0
 40
3.0
 40
4.0
 40
4.0
 40
4.0
 40
5.0
 40
5.0
 40
5.0
 40
6.0
 40
6.0
 40
6.0
 40
7.0
 40
7.0
 40
7.0
 40
7.0
 10
47.96899277229595
 20
-98.86252710202048
 10
47.96899277229595
 20
-98.86252710202048
 10
47.96899277229595
 20
-97.75837399899791
 10
47.96899277229595
 20
-97.75837399899791
 10
47.96899277229595
 20
-97.75837399899791
 10
47.61621499460637
 20
-97.75837399899791
 10
47.61621499460637
 20
-97.75837399899791
 10
47.61621499460637
 20
-97.75837399899791
 10
47.61621499460637
 20
-97.61023489313217
 10
47.61621499460637
 20
-97.61023489313217
 10
47.97123208436136
 20
-97.59542098254559
 10
48.02101371412322
 20
-97.43246796609327
 10
48.05253633781326
 20
-97.31809079598298
 10
48.05253633781326
 20
-97.31809079598298
 10
48.20859916329508
 20
-97.31809079598298
 10
48.20859916329508
 20
-97.31809079598298
 10
48.20859916329508
 20
-97.31809079598298
 10
48.20859916329508
 20
-98.86252710202048
 10
48.20859916329508
 20
-98.86252710202048
 10
48.20859916329508
 20
-98.86252710202048
 10
47.96899277229595
 20
-98.86252710202048
 10
47.96899277229595
 20
-98.86252710202048
 97
        0
 97
        0
 75
     2
 76
     1
 98
        0
  0
SPLINE
  5
D1
330
CB
100
AcDbEntity
  8
_U+30EC_U+30A4_U+30E4_U+30FC 1
370
     0
100
AcDbSpline
210
0.0
220
0.0
230
1.0
 70
    11
 71
     3
 72
    53
 73
    49
 74
     0
 42
0.0000000001
 43
0.0000000001
 12
1.0
 22
0.0
 32
0.0
 13
1.0
 23
0.0
 33
0.0
 40
0.0
 40
0.0
 40
0.0
 40
0.0
 40
1.0
 40
1.0
 40
1.0
 40
2.0
 40
2.0
 40
2.0
 40
3.0
 40
3.0
 40
3.0
 40
4.0
 40
4.0
 40
4.0
 40
5.0
 40
5.0
 40
5.0
 40
6.0
 40
6.0
 40
6.0
 40
7.0
 40
7.0
 40
7.0
 40
8.0
 40
8.0
 40
8.0
 40
9.0
 40
9.0
 40
9.0
 40
10.0
 40
10.0
 40
10.0
 40
11.0
 40
11.0
 40
11.0
 40
12.0
 40
12.0
 40
12.0
 40
13.0
 40
13.0
 40
13.0
 40
14.0
 40
14.0
 40
14.0
 40
15.0
 40
15.0
 40
15.0
 40
16.0
 40
16.0
 40
16.0
 40
16.0
 10
49.25849201242496
 20
-98.91317000565365
 30
0.0
 10
49.17477619213339
 20
-98.91317000565365
 30
0.0
 10
49.06625568434802
 20
-98.89628903777593
 30
0.0
 10
48.95773517656265
 20
-98.83289928084733
 30
0.0
 10
48.77238903945621
 20
-98.72300073486787
 30
0.0
 10
48.74982366402782
 20
-98.59174259687984
 30
0.0
 10
48.72949760066485
 20
-98.48391110819152
 30
0.0
 10
48.72949760066485
 20
-98.48391110819152
 30
0.0
 10
48.96686467959857
 20
-98.48391110819152
 30
0.0
 10
48.96686467959857
 20
-98.48391110819152
 30
0.0
 10
49.02560355762208
 20
-98.68269311769045
 30
0.0
 10
49.16116806496665
 20
-98.71232093886358
 30
0.0
 10
49.26073132449037
 20
-98.71232093886358
 30
0.0
 10
49.4099039590017
 20
-98.71232093886358
 30
0.0
 10
49.57268472067975
 20
-98.61275767933986
 30
0.0
 10
49.57268472067975
 20
-98.3802137340855
 30
0.0
 10
49.57268472067975
 20
-98.12424313953144
 30
0.0
 10
49.38062064737707
 20
-98.05430770118087
 30
0.0
 10
49.25160182145446
 20
-98.05430770118087
 30
0.0
 10
49.21783988569901
 20
-98.05430770118087
 30
0.0
 10
49.06625568434802
 20
-98.05430770118087
 30
0.0
 10
48.97134330372939
 20
-98.18349878187774
 30
0.0
 10
48.97134330372939
 20
-98.18349878187774
 30
0.0
 10
48.78375785455754
 20
-98.16455075670886
 30
0.0
 10
48.78375785455754
 20
-98.16455075670886
 30
0.0
 10
48.78375785455754
 20
-98.16455075670886
 30
0.0
 10
48.91260442570588
 20
-97.31809079598298
 30
0.0
 10
48.91260442570588
 20
-97.31809079598298
 30
0.0
 10
48.91260442570588
 20
-97.31809079598298
 30
0.0
 10
49.74459498539372
 20
-97.31809079598298
 30
0.0
 10
49.74459498539372
 20
-97.31809079598298
 30
0.0
 10
49.74459498539372
 20
-97.31809079598298
 30
0.0
 10
49.74459498539372
 20
-97.5127386908996
 30
0.0
 10
49.74459498539372
 20
-97.5127386908996
 30
0.0
 10
49.74459498539372
 20
-97.5127386908996
 30
0.0
 10
49.08658174771099
 20
-97.5127386908996
 30
0.0
 10
49.08658174771099
 20
-97.5127386908996
 30
0.0
 10
49.08658174771099
 20
-97.5127386908996
 30
0.0
 10
49.01647405458616
 20
-97.93579641648827
 30
0.0
 10
49.01647405458616
 20
-97.93579641648827
 30
0.0
 10
49.08210312358017
 20
-97.90203448073282
 30
0.0
 10
49.17029756800257
 20
-97.8617268635554
 30
0.0
 10
49.2969048270855
 20
-97.8617268635554
 30
0.0
 10
49.56820609654892
 20
-97.8617268635554
 30
0.0
 10
49.82142061471479
 20
-98.04810652930742
 30
0.0
 10
49.82142061471479
 20
-98.36126570891663
 30
0.0
 10
49.82142061471479
 20
-98.67855900310815
 30
0.0
 10
49.58181422371566
 20
-98.91317000565365
 30
0.0
 10
49.25849201242496
 20
-98.91317000565365
 30
0.0
  0
HATCH
  5
D2
330
CB
100
AcDbEntity
  8
_U+30EC_U+30A4_U+30E4_U+30FC 1
 62
   179
420
  2234388
100
AcDbHatch
 10
0.0
 20
0.0
 30
0.0
210
0.0
220
0.0
230
1.0
  2
SOLID
 70
     1
 71
     0
 91
        1
 92
        1
 93
        1
 72
     4
 94
        3
 73
     0
 74
     1
 95
       53
 96
       49
 40
0.0
 40
0.0
 40
0.0
 40
0.0
 40
1.0
 40
1.0
 40
1.0
 40
2.0
 40
2.0
 40
2.0
 40
3.0
 40
3.0
 40
3.0
 40
4.0
 40
4.0
 40
4.0
 40
5.0
 40
5.0
 40
5.0
 40
6.0
 40
6.0
 40
6.0
 40
7.0
 40
7.0
 40
7.0
 40
8.0
 40
8.0
 40
8.0
 40
9.0
 40
9.0
 40
9.0
 40
10.0
 40
10.0
 40
10.0
 40
11.0
 40
11.0
 40
11.0
 40
12.0
 40
12.0
 40
12.0
 40
13.0
 40
13.0
 40
13.0
 40
14.0
 40
14.0
 40
14.0
 40
15.0
 40
15.0
 40
15.0
 40
16.0
 40
16.0
 40
16.0
 40
16.0
 10
49.25849201242496
 20
-98.91317000565365
 10
49.17477619213339
 20
-98.91317000565365
 10
49.06625568434802
 20
-98.89628903777593
 10
48.95773517656265
 20
-98.83289928084733
 10
48.77238903945621
 20
-98.72300073486787
 10
48.74982366402782
 20
-98.59174259687984
 10
48.72949760066485
 20
-98.48391110819152
 10
48.72949760066485
 20
-98.48391110819152
 10
48.96686467959857
 20
-98.48391110819152
 10
48.96686467959857
 20
-98.48391110819152
 10
49.02560355762208
 20
-98.68269311769045
 10
49.16116806496665
 20
-98.71232093886358
 10
49.26073132449037
 20
-98.71232093886358
 10
49.4099039590017
 20
-98.71232093886358
 10
49.57268472067975
 20
-98.61275767933986
 10
49.57268472067975
 20
-98.3802137340855
 10
49.57268472067975
 20
-98.12424313953144
 10
49.38062064737707
 20
-98.05430770118087
 10
49.25160182145446
 20
-98.05430770118087
 10
49.21783988569901
 20
-98.05430770118087
 10
49.06625568434802
 20
-98.05430770118087
 10
48.97134330372939
 20
-98.18349878187774
 10
48.97134330372939
 20
-98.18349878187774
 10
48.78375785455754
 20
-98.16455075670886
 10
48.78375785455754
 20
-98.16455075670886
 10
48.78375785455754
 20
-98.16455075670886
 10
48.91260442570588
 20
-97.31809079598298
 10
48.91260442570588
 20
-97.31809079598298
 10
48.91260442570588
 20
-97.31809079598298
 10
49.74459498539372
 20
-97.31809079598298
 10
49.74459498539372
 20
-97.31809079598298
 10
49.74459498539372
 20
-97.31809079598298
 10
49.74459498539372
 20
-97.5127386908996
 10
49.74459498539372
 20
-97.5127386908996
 10
49.74459498539372
 20
-97.5127386908996
 10
49.08658174771099
 20
-97.5127386908996
 10
49.08658174771099
 20
-97.5127386908996
 10
49.08658174771099
 20
-97.5127386908996
 10
49.01647405458616
 20
-97.93579641648827
 10
49.01647405458616
 20
-97.93579641648827
 10
49.08210312358017
 20
-97.90203448073282
 10
49.17029756800257
 20
-97.8617268635554
 10
49.2969048270855
 20
-97.8617268635554
 10
49.56820609654892
 20
-97.8617268635554
 10
49.82142061471479
 20
-98.04810652930742
 10
49.82142061471479
 20
-98.36126570891663
 10
49.82142061471479
 20
-98.67855900310815
 10
49.58181422371566
 20
-98.91317000565365
 10
49.25849201242496
 20
-98.91317000565365
 97
        0
 97
        0
 75
     2
 76
     1
 98
        0
  0
ENDBLK
  5
CE
330
CB
100
AcDbEntity
  8
0
100
AcDbBlockEnd
  0
BLOCK
  5
E1
330
DF
100
AcDbEntity
  8
0
100
AcDbBlockBegin
  2
block 7
 70
     0
 10
0.0
 20
0.0
 30
0.0
  3
block 7
  1

  0
SPLINE
  5
E3
330
DF
100
AcDbEntity
  8
_U+30EC_U+30A4_U+30E4_U+30FC 1
370
     0
100
AcDbSpline
210
0.0
220
0.0
230
1.0
 70
    11
 71
     3
 72
    62
 73
    58
 74
     0
 42
0.0000000001
 43
0.0000000001
 12
1.0
 22
0.0
 32
0.0
 13
1.0
 23
0.0
 33
0.0
 40
0.0
 40
0.0
 40
0.0
 40
0.0
 40
1.0
 40
1.0
 40
1.0
 40
2.0
 40
2.0
 40
2.0
 40
3.0
 40
3.0
 40
3.0
 40
4.0
 40
4.0
 40
4.0
 40
5.0
 40
5.0
 40
5.0
 40
6.0
 40
6.0
 40
6.0
 40
7.0
 40
7.0
 40
7.0
 40
8.0
 40
8.0
 40
8.0
 40
9.0
 40
9.0
 40
9.0
 40
10.0
 40
10.0
 40
10.0
 40
11.0
 40
11.0
 40
11.0
 40
12.0
 40
12.0
 40
12.0
 40
13.0
 40
13.0
 40
13.0
 40
14.0
 40
14.0
 40
14.0
 40
15.0
 40
15.0
 40
15.0
 40
16.0
 40
16.0
 40
16.0
 40
17.0
 40
17.0
 40
17.0
 40
18.0
 40
18.0
 40
18.0
 40
19.0
 40
19.0
 40
19.0
 40
19.0
 10
59.29508868960331
 20
-78.91266816603573
 30
0.0
 10
59.19345837278844
 20
-78.91266816603573
 30
0.0
 10
58.96056991798555
 20
-78.8916530835757
 30
0.0
 10
58.82724472270639
 20
-78.70544567259795
 30
0.0
 10
58.74800752654564
 20
-78.59330781455307
 30
0.0
 10
58.74352890241482
 20
-78.49391680980361
 30
0.0
 10
58.73905027828399
 20
-78.40933971564073
 30
0.0
 10
58.73905027828399
 20
-78.40933971564073
 30
0.0
 10
58.97400579037803
 20
-78.40933971564073
 30
0.0
 10
58.97400579037803
 20
-78.40933971564073
 30
0.0
 10
58.97641735721771
 20
-78.4834092685736
 30
0.0
 10
58.98778617231903
 20
-78.71819252589337
 30
0.0
 10
59.29061006547249
 20
-78.71819252589337
 30
0.0
 10
59.43771564269266
 20
-78.71819252589337
 30
0.0
 10
59.60032414959645
 20
-78.64842934231706
 30
0.0
 10
59.60032414959645
 20
-78.41984725687074
 30
0.0
 10
59.60032414959645
 20
-78.30357528424355
 30
0.0
 10
59.5596720228705
 20
-78.25482718312728
 30
0.0
 10
59.52591008711505
 20
-78.22313230466297
 30
0.0
 10
59.4466728909543
 20
-78.1490627517301
 30
0.0
 10
59.32230494393679
 20
-78.13648815320894
 30
0.0
 10
59.26339381113902
 20
-78.13648815320894
 30
0.0
 10
59.24306774777604
 20
-78.13648815320894
 30
0.0
 10
59.20482718788977
 20
-78.13855521050009
 30
0.0
 10
59.17519936671662
 20
-78.14268932508239
 30
0.0
 10
59.17519936671662
 20
-78.14268932508239
 30
0.0
 10
59.17519936671662
 20
-77.94804143016577
 30
0.0
 10
59.17519936671662
 20
-77.94804143016577
 30
0.0
 10
59.21585149344257
 20
-77.95441485681349
 30
0.0
 10
59.26132675384787
 20
-77.9566541688789
 30
0.0
 10
59.26787243526984
 20
-77.9566541688789
 30
0.0
 10
59.33815238316894
 20
-77.9566541688789
 30
0.0
 10
59.55071477460885
 20
-77.9354668316446
 30
0.0
 10
59.55071477460885
 20
-77.69844426225941
 30
0.0
 10
59.55071477460885
 20
-77.5208495899948
 30
0.0
 10
59.41049938835918
 20
-77.4657280622308
 30
0.0
 10
59.29302163231216
 20
-77.4657280622308
 30
0.0
 10
59.01017929297315
 20
-77.4657280622308
 30
0.0
 10
59.0012220447115
 20
-77.69844426225941
 30
0.0
 10
58.99674342058068
 20
-77.77044675790114
 30
0.0
 10
58.99674342058068
 20
-77.77044675790114
 30
0.0
 10
58.77970240500994
 20
-77.77044675790114
 30
0.0
 10
58.77970240500994
 20
-77.77044675790114
 30
0.0
 10
58.78865965327159
 20
-77.64556204656084
 30
0.0
 10
58.81794296489621
 20
-77.26901311002302
 30
0.0
 10
59.30645750470464
 20
-77.26901311002302
 30
0.0
 10
59.54623615047803
 20
-77.26901311002302
 30
0.0
 10
59.80392929277472
 20
-77.39596487865448
 30
0.0
 10
59.80392929277472
 20
-77.6920708356117
 30
0.0
 10
59.80392929277472
 20
-77.87827824658946
 30
0.0
 10
59.70195446641132
 20
-77.9607882834612
 30
0.0
 10
59.59584552546563
 20
-78.02211098309864
 30
0.0
 10
59.66130233968537
 20
-78.04967174698064
 30
0.0
 10
59.85595023460198
 20
-78.13011472656123
 30
0.0
 10
59.85595023460198
 20
-78.40727265834957
 30
0.0
 10
59.85595023460198
 20
-78.74575328977537
 30
0.0
 10
59.5913669013348
 20
-78.91266816603573
 30
0.0
 10
59.29508868960331
 20
-78.91266816603573
 30
0.0
  0
HATCH
  5
E4
330
DF
100
AcDbEntity
  8
_U+30EC_U+30A4_U+30E4_U+30FC 1
 62
   179
420
  2234388
100
AcDbHatch
 10
0.0
 20
0.0
 30
0.0
210
0.0
220
0.0
230
1.0
  2
SOLID
 70
     1
 71
     0
 91
        1
 92
        1
 93
        1
 72
     4
 94
        3
 73
     0
 74
     1
 95
       62
 96
       58
 40
0.0
 40
0.0
 40
0.0
 40
0.0
 40
1.0
 40
1.0
 40
1.0
 40
2.0
 40
2.0
 40
2.0
 40
3.0
 40
3.0
 40
3.0
 40
4.0
 40
4.0
 40
4.0
 40
5.0
 40
5.0
 40
5.0
 40
6.0
 40
6.0
 40
6.0
 40
7.0
 40
7.0
 40
7.0
 40
8.0
 40
8.0
 40
8.0
 40
9.0
 40
9.0
 40
9.0
 40
10.0
 40
10.0
 40
10.0
 40
11.0
 40
11.0
 40
11.0
 40
12.0
 40
12.0
 40
12.0
 40
13.0
 40
13.0
 40
13.0
 40
14.0
 40
14.0
 40
14.0
 40
15.0
 40
15.0
 40
15.0
 40
16.0
 40
16.0
 40
16.0
 40
17.0
 40
17.0
 40
17.0
 40
18.0
 40
18.0
 40
18.0
 40
19.0
 40
19.0
 40
19.0
 40
19.0
 10
59.29508868960331
 20
-78.91266816603573
 10
59.19345837278844
 20
-78.91266816603573
 10
58.96056991798555
 20
-78.8916530835757
 10
58.82724472270639
 20
-78.70544567259795
 10
58.74800752654564
 20
-78.59330781455307
 10
58.74352890241482
 20
-78.49391680980361
 10
58.73905027828399
 20
-78.40933971564073
 10
58.73905027828399
 20
-78.40933971564073
 10
58.97400579037803
 20
-78.40933971564073
 10
58.97400579037803
 20
-78.40933971564073
 10
58.97641735721771
 20
-78.4834092685736
 10
58.98778617231903
 20
-78.71819252589337
 10
59.29061006547249
 20
-78.71819252589337
 10
59.43771564269266
 20
-78.71819252589337
 10
59.60032414959645
 20
-78.64842934231706
 10
59.60032414959645
 20
-78.41984725687074
 10
59.60032414959645
 20
-78.30357528424355
 10
59.5596720228705
 20
-78.25482718312728
 10
59.52591008711505
 20
-78.22313230466297
 10
59.4466728909543
 20
-78.1490627517301
 10
59.32230494393679
 20
-78.13648815320894
 10
59.26339381113902
 20
-78.13648815320894
 10
59.24306774777604
 20
-78.13648815320894
 10
59.20482718788977
 20
-78.13855521050009
 10
59.17519936671662
 20
-78.14268932508239
 10
59.17519936671662
 20
-78.14268932508239
 10
59.17519936671662
 20
-77.94804143016577
 10
59.17519936671662
 20
-77.94804143016577
 10
59.21585149344257
 20
-77.95441485681349
 10
59.26132675384787
 20
-77.9566541688789
 10
59.26787243526984
 20
-77.9566541688789
 10
59.33815238316894
 20
-77.9566541688789
 10
59.55071477460885
 20
-77.9354668316446
 10
59.55071477460885
 20
-77.69844426225941
 10
59.55071477460885
 20
-77.5208495899948
 10
59.41049938835918
 20
-77.4657280622308
 10
59.29302163231216
 20
-77.4657280622308
 10
59.01017929297315
 20
-77.4657280622308
 10
59.0012220447115
 20
-77.69844426225941
 10
58.99674342058068
 20
-77.77044675790114
 10
58.99674342058068
 20
-77.77044675790114
 10
58.77970240500994
 20
-77.77044675790114
 10
58.77970240500994
 20
-77.77044675790114
 10
58.78865965327159
 20
-77.64556204656084
 10
58.81794296489621
 20
-77.26901311002302
 10
59.30645750470464
 20
-77.26901311002302
 10
59.54623615047803
 20
-77.26901311002302
 10
59.80392929277472
 20
-77.39596487865448
 10
59.80392929277472
 20
-77.6920708356117
 10
59.80392929277472
 20
-77.87827824658946
 10
59.70195446641132
 20
-77.9607882834612
 10
59.59584552546563
 20
-78.02211098309864
 10
59.66130233968537
 20
-78.04967174698064
 10
59.85595023460198
 20
-78.13011472656123
 10
59.85595023460198
 20
-78.40727265834957
 10
59.85595023460198
 20
-78.74575328977537
 10
59.5913669013348
 20
-78.91266816603573
 10
59.29508868960331
 20
-78.91266816603573
 97
        0
 97
        0
 75
     2
 76
     1
 98
        0
  0
SPLINE
  5
E5
330
DF
100
AcDbEntity
  8
_U+30EC_U+30A4_U+30E4_U+30FC 1
370
     0
100
AcDbSpline
210
0.0
220
0.0
230
1.0
 70
    11
 71
     3
 72
    26
 73
    22
 74
     0
 42
0.0000000001
 43
0.0000000001
 12
1.0
 22
0.0
 32
0.0
 13
1.0
 23
0.0
 33
0.0
 40
0.0
 40
0.0
 40
0.0
 40
0.0
 40
1.0
 40
1.0
 40
1.0
 40
2.0
 40
2.0
 40
2.0
 40
3.0
 40
3.0
 40
3.0
 40
4.0
 40
4.0
 40
4.0
 40
5.0
 40
5.0
 40
5.0
 40
6.0
 40
6.0
 40
6.0
 40
7.0
 40
7.0
 40
7.0
 40
7.0
 10
60.46711017368531
 20
-78.86202526240255
 30
0.0
 10
60.46711017368531
 20
-78.86202526240255
 30
0.0
 10
60.21389565551944
 20
-78.86202526240255
 30
0.0
 10
60.21389565551944
 20
-78.86202526240255
 30
0.0
 10
60.24111190985292
 20
-78.55317245214991
 30
0.0
 10
60.44678411032233
 20
-78.03485783639407
 30
0.0
 10
60.88086614146381
 20
-77.52929007393365
 30
0.0
 10
60.88086614146381
 20
-77.52929007393365
 30
0.0
 10
59.98548582484738
 20
-77.52929007393365
 30
0.0
 10
59.98548582484738
 20
-77.52929007393365
 30
0.0
 10
59.98548582484738
 20
-77.52929007393365
 30
0.0
 10
59.98548582484738
 20
-77.31776121113931
 30
0.0
 10
59.98548582484738
 20
-77.31776121113931
 30
0.0
 10
59.98548582484738
 20
-77.31776121113931
 30
0.0
 10
61.13408065962967
 20
-77.31776121113931
 30
0.0
 10
61.13408065962967
 20
-77.31776121113931
 30
0.0
 10
61.13408065962967
 20
-77.31776121113931
 30
0.0
 10
61.13408065962967
 20
-77.52929007393365
 30
0.0
 10
61.13408065962967
 20
-77.52929007393365
 30
0.0
 10
60.78819307291059
 20
-77.81902260424316
 30
0.0
 10
60.50328367628043
 20
-78.41140677293187
 30
0.0
 10
60.46711017368531
 20
-78.86202526240255
 30
0.0
  0
HATCH
  5
E6
330
DF
100
AcDbEntity
  8
_U+30EC_U+30A4_U+30E4_U+30FC 1
 62
   179
420
  2234388
100
AcDbHatch
 10
0.0
 20
0.0
 30
0.0
210
0.0
220
0.0
230
1.0
  2
SOLID
 70
     1
 71
     0
 91
        1
 92
        1
 93
        1
 72
     4
 94
        3
 73
     0
 74
     1
 95
       26
 96
       22
 40
0.0
 40
0.0
 40
0.0
 40
0.0
 40
1.0
 40
1.0
 40
1.0
 40
2.0
 40
2.0
 40
2.0
 40
3.0
 40
3.0
 40
3.0
 40
4.0
 40
4.0
 40
4.0
 40
5.0
 40
5.0
 40
5.0
 40
6.0
 40
6.0
 40
6.0
 40
7.0
 40
7.0
 40
7.0
 40
7.0
 10
60.46711017368531
 20
-78.86202526240255
 10
60.46711017368531
 20
-78.86202526240255
 10
60.21389565551944
 20
-78.86202526240255
 10
60.21389565551944
 20
-78.86202526240255
 10
60.24111190985292
 20
-78.55317245214991
 10
60.44678411032233
 20
-78.03485783639407
 10
60.88086614146381
 20
-77.52929007393365
 10
60.88086614146381
 20
-77.52929007393365
 10
59.98548582484738
 20
-77.52929007393365
 10
59.98548582484738
 20
-77.52929007393365
 10
59.98548582484738
 20
-77.52929007393365
 10
59.98548582484738
 20
-77.31776121113931
 10
59.98548582484738
 20
-77.31776121113931
 10
59.98548582484738
 20
-77.31776121113931
 10
61.13408065962967
 20
-77.31776121113931
 10
61.13408065962967
 20
-77.31776121113931
 10
61.13408065962967
 20
-77.31776121113931
 10
61.13408065962967
 20
-77.52929007393365
 10
61.13408065962967
 20
-77.52929007393365
 10
60.78819307291059
 20
-77.81902260424316
 10
60.50328367628043
 20
-78.41140677293187
 10
60.46711017368531
 20
-78.86202526240255
 97
        0
 97
        0
 75
     2
 76
     1
 98
        0
  0
ENDBLK
  5
E2
330
DF
100
AcDbEntity
  8
0
100
AcDbBlockEnd
  0
BLOCK
  5
F9
330
F7
100
AcDbEntity
  8
0
100
AcDbBlockBegin
  2
block 8
 70
     0
 10
0.0
 20
0.0
 30
0.0
  3
block 8
  1

  0
SPLINE
  5
FB
330
F7
100
AcDbEntity
  8
_U+30EC_U+30A4_U+30E4_U+30FC 1
370
     0
100
AcDbSpline
210
0.0
220
0.0
230
1.0
 70
    11
 71
     3
 72
    29
 73
    25
 74
     0
 42
0.0000000001
 43
0.0000000001
 12
1.0
 22
0.0
 32
0.0
 13
1.0
 23
0.0
 33
0.0
 40
0.0
 40
0.0
 40
0.0
 40
0.0
 40
1.0
 40
1.0
 40
1.0
 40
2.0
 40
2.0
 40
2.0
 40
3.0
 40
3.0
 40
3.0
 40
4.0
 40
4.0
 40
4.0
 40
5.0
 40
5.0
 40
5.0
 40
6.0
 40
6.0
 40
6.0
 40
7.0
 40
7.0
 40
7.0
 40
8.0
 40
8.0
 40
8.0
 40
8.0
 10
68.59529620680951
 20
-92.51390514180208
 30
0.0
 10
68.8047580123127
 20
-92.62931584055795
 30
0.0
 10
68.82370603748157
 20
-92.8146619776644
 30
0.0
 10
68.82370603748157
 20
-92.93902992468192
 30
0.0
 10
68.82370603748157
 20
-93.11059567984735
 30
0.0
 10
68.77719724843071
 20
-93.26217988119835
 30
0.0
 10
68.59529620680951
 20
-93.36381019801321
 30
0.0
 10
68.4006483118929
 20
-93.47474227263827
 30
0.0
 10
68.16397025205623
 20
-93.49506833600124
 30
0.0
 10
68.00101723560391
 20
-93.49506833600124
 30
0.0
 10
67.85701224432047
 20
-93.49506833600124
 30
0.0
 10
67.60517576434872
 20
-93.47715383947794
 30
0.0
 10
67.40639375484979
 20
-93.36381019801321
 30
0.0
 10
67.20347763076857
 20
-93.24874400880587
 30
0.0
 10
67.18005098146888
 20
-93.07683374409191
 30
0.0
 10
67.18005098146888
 20
-92.93902992468192
 30
0.0
 10
67.18005098146888
 20
-92.7691867172591
 30
0.0
 10
67.2244927132286
 20
-92.61553545861696
 30
0.0
 10
67.40639375484979
 20
-92.51390514180208
 30
0.0
 10
67.59897459247526
 20
-92.40745169130787
 30
0.0
 10
67.82738442314732
 20
-92.38264700381407
 30
0.0
 10
68.00101723560391
 20
-92.38264700381407
 30
0.0
 10
68.17223848122083
 20
-92.38264700381407
 30
0.0
 10
68.40271536918405
 20
-92.40538463401671
 30
0.0
 10
68.59529620680951
 20
-92.51390514180208
 30
0.0
  0
SPLINE
  5
FC
330
F7
100
AcDbEntity
  8
_U+30EC_U+30A4_U+30E4_U+30FC 1
370
     0
100
AcDbSpline
210
0.0
220
0.0
230
1.0
 70
    11
 71
     3
 72
    17
 73
    13
 74
     0
 42
0.0000000001
 43
0.0000000001
 12
1.0
 22
0.0
 32
0.0
 13
1.0
 23
0.0
 33
0.0
 40
0.0
 40
0.0
 40
0.0
 40
0.0
 40
1.0
 40
1.0
 40
1.0
 40
2.0
 40
2.0
 40
2.0
 40
3.0
 40
3.0
 40
3.0
 40
4.0
 40
4.0
 40
4.0
 40
4.0
 10
67.37263181909435
 20
-92.93902992468192
 30
0.0
 10
67.37263181909435
 20
-93.20568031524024
 30
0.0
 10
67.6561631775304
 20
-93.25528969022785
 30
0.0
 10
68.00101723560391
 20
-93.25528969022785
 30
0.0
 10
68.32037758708657
 20
-93.25528969022785
 30
0.0
 10
68.62905814256496
 20
-93.21704913034158
 30
0.0
 10
68.62905814256496
 20
-92.93902992468192
 30
0.0
 10
68.62905814256496
 20
-92.67444659141472
 30
0.0
 10
68.34793835096858
 20
-92.62242564958746
 30
0.0
 10
68.00101723560391
 20
-92.62242564958746
 30
0.0
 10
67.68131237457273
 20
-92.62242564958746
 30
0.0
 10
67.37263181909435
 20
-92.6630777763134
 30
0.0
 10
67.37263181909435
 20
-92.93902992468192
 30
0.0
  0
HATCH
  5
FD
330
F7
100
AcDbEntity
  8
_U+30EC_U+30A4_U+30E4_U+30FC 1
 62
   179
420
  2234388
100
AcDbHatch
 10
0.0
 20
0.0
 30
0.0
210
0.0
220
0.0
230
1.0
  2
SOLID
 70
     1
 71
     0
 91
        2
 92
        1
 93
        1
 72
     4
 94
        3
 73
     0
 74
     1
 95
       29
 96
       25
 40
0.0
 40
0.0
 40
0.0
 40
0.0
 40
1.0
 40
1.0
 40
1.0
 40
2.0
 40
2.0
 40
2.0
 40
3.0
 40
3.0
 40
3.0
 40
4.0
 40
4.0
 40
4.0
 40
5.0
 40
5.0
 40
5.0
 40
6.0
 40
6.0
 40
6.0
 40
7.0
 40
7.0
 40
7.0
 40
8.0
 40
8.0
 40
8.0
 40
8.0
 10
68.59529620680951
 20
-92.51390514180208
 10
68.8047580123127
 20
-92.62931584055795
 10
68.82370603748157
 20
-92.8146619776644
 10
68.82370603748157
 20
-92.93902992468192
 10
68.82370603748157
 20
-93.11059567984735
 10
68.77719724843071
 20
-93.26217988119835
 10
68.59529620680951
 20
-93.36381019801321
 10
68.4006483118929
 20
-93.47474227263827
 10
68.16397025205623
 20
-93.49506833600124
 10
68.00101723560391
 20
-93.49506833600124
 10
67.85701224432047
 20
-93.49506833600124
 10
67.60517576434872
 20
-93.47715383947794
 10
67.40639375484979
 20
-93.36381019801321
 10
67.20347763076857
 20
-93.24874400880587
 10
67.18005098146888
 20
-93.07683374409191
 10
67.18005098146888
 20
-92.93902992468192
 10
67.18005098146888
 20
-92.7691867172591
 10
67.2244927132286
 20
-92.61553545861696
 10
67.40639375484979
 20
-92.51390514180208
 10
67.59897459247526
 20
-92.40745169130787
 10
67.82738442314732
 20
-92.38264700381407
 10
68.00101723560391
 20
-92.38264700381407
 10
68.17223848122083
 20
-92.38264700381407
 10
68.40271536918405
 20
-92.40538463401671
 10
68.59529620680951
 20
-92.51390514180208
 97
        0
 97
        0
 92
        1
 93
        1
 72
     4
 94
        3
 73
     0
 74
     1
 95
       17
 96
       13
 40
0.0
 40
0.0
 40
0.0
 40
0.0
 40
1.0
 40
1.0
 40
1.0
 40
2.0
 40
2.0
 40
2.0
 40
3.0
 40
3.0
 40
3.0
 40
4.0
 40
4.0
 40
4.0
 40
4.0
 10
67.37263181909435
 20
-92.93902992468192
 10
67.37263181909435
 20
-93.20568031524024
 10
67.6561631775304
 20
-93.25528969022785
 10
68.00101723560391
 20
-93.25528969022785
 10
68.32037758708657
 20
-93.25528969022785
 10
68.62905814256496
 20
-93.21704913034158
 10
68.62905814256496
 20
-92.93902992468192
 10
68.62905814256496
 20
-92.67444659141472
 10
68.34793835096858
 20
-92.62242564958746
 10
68.00101723560391
 20
-92.62242564958746
 10
67.68131237457273
 20
-92.62242564958746
 10
67.37263181909435
 20
-92.6630777763134
 10
67.37263181909435
 20
-92.93902992468192
 97
        0
 97
        0
 75
     2
 76
     1
 98
        0
  0
POLYLINE
  5
FE
330
F7
100
AcDbEntity
  8
_U+30EC_U+30A4_U+30E4_U+30FC 1
370
     0
100
AcDb2dPolyline
 66
     1
 10
0.0
 20
0.0
 30
0.0
  0
VERTEX
  5
FF
330
FE
100
AcDbEntity
  8
_U+30EC_U+30A4_U+30E4_U+30FC 1
370
     0
100
AcDbVertex
100
AcDb2dVertex
 10
68.77306313384841
 20
-92.1514810967538
 30
0.0
  0
VERTEX
  5
100
330
FE
100
AcDbEntity
  8
_U+30EC_U+30A4_U+30E4_U+30FC 1
370
     0
100
AcDbVertex
100
AcDb2dVertex
 10
68.52122665387664
 20
-92.1514810967538
 30
0.0
  0
VERTEX
  5
101
330
FE
100
AcDbEntity
  8
_U+30EC_U+30A4_U+30E4_U+30FC 1
370
     0
100
AcDbVertex
100
AcDb2dVertex
 10
68.52122665387664
 20
-91.88241913935579
 30
0.0
  0
VERTEX
  5
102
330
FE
100
AcDbEntity
  8
_U+30EC_U+30A4_U+30E4_U+30FC 1
370
     0
100
AcDbVertex
100
AcDb2dVertex
 10
68.77306313384841
 20
-91.88241913935579
 30
0.0
  0
VERTEX
  5
103
330
FE
100
AcDbEntity
  8
_U+30EC_U+30A4_U+30E4_U+30FC 1
370
     0
100
AcDbVertex
100
AcDb2dVertex
 10
68.77306313384841
 20
-92.1514810967538
 30
0.0
  0
SEQEND
  5
104
330
FE
100
AcDbEntity
  8
_U+30EC_U+30A4_U+30E4_U+30FC 1
370
     0
  0
HATCH
  5
105
330
F7
100
AcDbEntity
  8
_U+30EC_U+30A4_U+30E4_U+30FC 1
 62
   179
420
  2234388
100
AcDbHatch
 10
0.0
 20
0.0
 30
0.0
210
0.0
220
0.0
230
1.0
  2
SOLID
 70
     1
 71
     0
 91
        1
 92
        1
 93
        4
 72
     1
 10
68.77306313384841
 20
-92.1514810967538
 11
68.52122665387664
 21
-92.1514810967538
 72
     1
 10
68.52122665387664
 20
-92.1514810967538
 11
68.52122665387664
 21
-91.88241913935579
 72
     1
 10
68.52122665387664
 20
-91.88241913935579
 11
68.77306313384841
 21
-91.88241913935579
 72
     1
 10
68.77306313384841
 20
-91.88241913935579
 11
68.77306313384841
 21
-92.1514810967538
 97
        0
 75
     2
 76
     1
 98
        0
  0
SPLINE
  5
106
330
F7
100
AcDbEntity
  8
_U+30EC_U+30A4_U+30E4_U+30FC 1
370
     0
100
AcDbSpline
210
0.0
220
0.0
230
1.0
 70
    11
 71
     3
 72
    53
 73
    49
 74
     0
 42
0.0000000001
 43
0.0000000001
 12
1.0
 22
0.0
 32
0.0
 13
1.0
 23
0.0
 33
0.0
 40
0.0
 40
0.0
 40
0.0
 40
0.0
 40
1.0
 40
1.0
 40
1.0
 40
2.0
 40
2.0
 40
2.0
 40
3.0
 40
3.0
 40
3.0
 40
4.0
 40
4.0
 40
4.0
 40
5.0
 40
5.0
 40
5.0
 40
6.0
 40
6.0
 40
6.0
 40
7.0
 40
7.0
 40
7.0
 40
8.0
 40
8.0
 40
8.0
 40
9.0
 40
9.0
 40
9.0
 40
10.0
 40
10.0
 40
10.0
 40
11.0
 40
11.0
 40
11.0
 40
12.0
 40
12.0
 40
12.0
 40
13.0
 40
13.0
 40
13.0
 40
14.0
 40
14.0
 40
14.0
 40
15.0
 40
15.0
 40
15.0
 40
16.0
 40
16.0
 40
16.0
 40
16.0
 10
68.82370603748157
 20
-91.11554088433917
 30
0.0
 10
68.82370603748157
 20
-91.19925670463074
 30
0.0
 10
68.80682506960385
 20
-91.30743270286759
 30
0.0
 10
68.74343531267526
 20
-91.41629772020148
 30
0.0
 10
68.63353676669578
 20
-91.60164385730792
 30
0.0
 10
68.50227862870777
 20
-91.62403697796205
 30
0.0
 10
68.39444714001945
 20
-91.64436304132502
 30
0.0
 10
68.39444714001945
 20
-91.64436304132502
 30
0.0
 10
68.39444714001945
 20
-91.4069959623913
 30
0.0
 10
68.39444714001945
 20
-91.4069959623913
 30
0.0
 10
68.59322914951836
 20
-91.34842933914206
 30
0.0
 10
68.62285697069152
 20
-91.21269257702322
 30
0.0
 10
68.62285697069152
 20
-91.1131293174995
 30
0.0
 10
68.62285697069152
 20
-90.96395668298818
 30
0.0
 10
68.5232937111678
 20
-90.80100366653586
 30
0.0
 10
68.29074976591343
 20
-90.80100366653586
 30
0.0
 10
68.03477917135936
 20
-90.80100366653586
 30
0.0
 10
67.96484373300879
 20
-90.99323999461281
 30
0.0
 10
67.96484373300879
 20
-91.12208656576115
 30
0.0
 10
67.96484373300879
 20
-91.15619301106513
 30
0.0
 10
67.96484373300879
 20
-91.30743270286759
 30
0.0
 10
68.09403481370566
 20
-91.40251733826048
 30
0.0
 10
68.09403481370566
 20
-91.40251733826048
 30
0.0
 10
68.0750867885368
 20
-91.5902750422066
 30
0.0
 10
68.0750867885368
 20
-91.5902750422066
 30
0.0
 10
68.0750867885368
 20
-91.5902750422066
 30
0.0
 10
67.2286268278109
 20
-91.46142847105826
 30
0.0
 10
67.2286268278109
 20
-91.46142847105826
 30
0.0
 10
67.2286268278109
 20
-91.46142847105826
 30
0.0
 10
67.2286268278109
 20
-90.62943791137042
 30
0.0
 10
67.2286268278109
 20
-90.62943791137042
 30
0.0
 10
67.2286268278109
 20
-90.62943791137042
 30
0.0
 10
67.42327472272751
 20
-90.62943791137042
 30
0.0
 10
67.42327472272751
 20
-90.62943791137042
 30
0.0
 10
67.42327472272751
 20
-90.62943791137042
 30
0.0
 10
67.42327472272751
 20
-91.28710663950461
 30
0.0
 10
67.42327472272751
 20
-91.28710663950461
 30
0.0
 10
67.42327472272751
 20
-91.28710663950461
 30
0.0
 10
67.8463324483162
 20
-91.35738658740371
 30
0.0
 10
67.8463324483162
 20
-91.35738658740371
 30
0.0
 10
67.81257051256075
 20
-91.29192977318397
 30
0.0
 10
67.77226289538332
 20
-91.20373532876157
 30
0.0
 10
67.77226289538332
 20
-91.07695581490438
 30
0.0
 10
67.77226289538332
 20
-90.80582680021521
 30
0.0
 10
67.95864256113535
 20
-90.55261228204935
 30
0.0
 10
68.27180174074455
 20
-90.55261228204935
 30
0.0
 10
68.58909503493607
 20
-90.55261228204935
 30
0.0
 10
68.82370603748157
 20
-90.79204641827421
 30
0.0
 10
68.82370603748157
 20
-91.11554088433917
 30
0.0
  0
HATCH
  5
107
330
F7
100
AcDbEntity
  8
_U+30EC_U+30A4_U+30E4_U+30FC 1
 62
   179
420
  2234388
100
AcDbHatch
 10
0.0
 20
0.0
 30
0.0
210
0.0
220
0.0
230
1.0
  2
SOLID
 70
     1
 71
     0
 91
        1
 92
        1
 93
        1
 72
     4
 94
        3
 73
     0
 74
     1
 95
       53
 96
       49
 40
0.0
 40
0.0
 40
0.0
 40
0.0
 40
1.0
 40
1.0
 40
1.0
 40
2.0
 40
2.0
 40
2.0
 40
3.0
 40
3.0
 40
3.0
 40
4.0
 40
4.0
 40
4.0
 40
5.0
 40
5.0
 40
5.0
 40
6.0
 40
6.0
 40
6.0
 40
7.0
 40
7.0
 40
7.0
 40
8.0
 40
8.0
 40
8.0
 40
9.0
 40
9.0
 40
9.0
 40
10.0
 40
10.0
 40
10.0
 40
11.0
 40
11.0
 40
11.0
 40
12.0
 40
12.0
 40
12.0
 40
13.0
 40
13.0
 40
13.0
 40
14.0
 40
14.0
 40
14.0
 40
15.0
 40
15.0
 40
15.0
 40
16.0
 40
16.0
 40
16.0
 40
16.0
 10
68.82370603748157
 20
-91.11554088433917
 10
68.82370603748157
 20
-91.19925670463074
 10
68.80682506960385
 20
-91.30743270286759
 10
68.74343531267526
 20
-91.41629772020148
 10
68.63353676669578
 20
-91.60164385730792
 10
68.50227862870777
 20
-91.62403697796205
 10
68.39444714001945
 20
-91.64436304132502
 10
68.39444714001945
 20
-91.64436304132502
 10
68.39444714001945
 20
-91.4069959623913
 10
68.39444714001945
 20
-91.4069959623913
 10
68.59322914951836
 20
-91.34842933914206
 10
68.62285697069152
 20
-91.21269257702322
 10
68.62285697069152
 20
-91.1131293174995
 10
68.62285697069152
 20
-90.96395668298818
 10
68.5232937111678
 20
-90.80100366653586
 10
68.29074976591343
 20
-90.80100366653586
 10
68.03477917135936
 20
-90.80100366653586
 10
67.96484373300879
 20
-90.99323999461281
 10
67.96484373300879
 20
-91.12208656576115
 10
67.96484373300879
 20
-91.15619301106513
 10
67.96484373300879
 20
-91.30743270286759
 10
68.09403481370566
 20
-91.40251733826048
 10
68.09403481370566
 20
-91.40251733826048
 10
68.0750867885368
 20
-91.5902750422066
 10
68.0750867885368
 20
-91.5902750422066
 10
68.0750867885368
 20
-91.5902750422066
 10
67.2286268278109
 20
-91.46142847105826
 10
67.2286268278109
 20
-91.46142847105826
 10
67.2286268278109
 20
-91.46142847105826
 10
67.2286268278109
 20
-90.62943791137042
 10
67.2286268278109
 20
-90.62943791137042
 10
67.2286268278109
 20
-90.62943791137042
 10
67.42327472272751
 20
-90.62943791137042
 10
67.42327472272751
 20
-90.62943791137042
 10
67.42327472272751
 20
-90.62943791137042
 10
67.42327472272751
 20
-91.28710663950461
 10
67.42327472272751
 20
-91.28710663950461
 10
67.42327472272751
 20
-91.28710663950461
 10
67.8463324483162
 20
-91.35738658740371
 10
67.8463324483162
 20
-91.35738658740371
 10
67.81257051256075
 20
-91.29192977318397
 10
67.77226289538332
 20
-91.20373532876157
 10
67.77226289538332
 20
-91.07695581490438
 10
67.77226289538332
 20
-90.80582680021521
 10
67.95864256113535
 20
-90.55261228204935
 10
68.27180174074455
 20
-90.55261228204935
 10
68.58909503493607
 20
-90.55261228204935
 10
68.82370603748157
 20
-90.79204641827421
 10
68.82370603748157
 20
-91.11554088433917
 97
        0
 97
        0
 75
     2
 76
     1
 98
        0
  0
ENDBLK
  5
FA
330
F7
100
AcDbEntity
  8
0
100
AcDbBlockEnd
  0
ENDSEC
  0
SECTION
  2
ENTITIES
  0
INSERT
  5
42
330
1F
100
AcDbEntity
  8
_U+30EC_U+30A4_U+30E4_U+30FC 1
100
AcDbBlockReference
  2
block 2
 10
0.0
 20
0.0
 30
0.0
  0
ENDSEC
  0
SECTION
  2
OBJECTS
  0
DICTIONARY
  5
C
330
0
100
AcDbDictionary
281
     1
  3
ACAD_GROUP
350
D
  3
ACAD_LAYOUT
350
1A
  3
ACAD_MATERIAL
350
3B
  3
ACAD_MLEADERSTYLE
350
109
  3
ACAD_MLINESTYLE
350
17
  3
ACAD_PLOTSETTINGS
350
19
  3
ACAD_PLOTSTYLENAME
350
E
  3
ACAD_TABLESTYLE
350
108
  3
ACAD_VISUALSTYLE
350
2A
  0
SUN
  5
3F
330
29
100
AcDbSun
 90
        1
290
     0
 63
     7
421
 16777215
 40
1.0
291
     1
 91
  2455826
 92
 54000000
292
     0
 70
     2
 71
   256
280
     1
  0
DICTIONARY
  5
D
102
{ACAD_REACTORS
330
C
102
}
330
C
100
AcDbDictionary
281
     1
  0
DICTIONARY
  5
1A
102
{ACAD_REACTORS
330
C
102
}
330
C
100
AcDbDictionary
281
     1
  3
Layout1
350
1E
  3
Layout2
350
26
  3
Model
350
22
  0
DICTIONARY
  5
3B
102
{ACAD_REACTORS
330
C
102
}
330
C
100
AcDbDictionary
281
     1
  3
ByBlock
350
3D
  3
ByLayer
350
3C
  3
Global
350
3E
  0
DICTIONARY
  5
109
102
{ACAD_REACTORS
330
C
102
}
330
C
100
AcDbDictionary
281
     1
  0
DICTIONARY
  5
17
102
{ACAD_REACTORS
330
C
102
}
330
C
100
AcDbDictionary
281
     1
  3
Standard
350
18
  0
DICTIONARY
  5
19
102
{ACAD_REACTORS
330
C
102
}
330
C
100
AcDbDictionary
281
     1
  0
ACDBDICTIONARYWDFLT
  5
E
102
{ACAD_REACTORS
330
C
102
}
330
C
100
AcDbDictionary
281
     1
  3
Normal
350
F
100
AcDbDictionaryWithDefault
340
F
  0
DICTIONARY
  5
108
102
{ACAD_REACTORS
330
C
102
}
330
C
100
AcDbDictionary
281
     1
  0
DICTIONARY
  5
2A
102
{ACAD_REACTORS
330
C
102
}
330
C
100
AcDbDictionary
281
     1
  3
2dWireframe
350
2F
  3
3D Hidden
350
31
  3
3dWireframe
350
30
  3
Basic
350
32
  3
Brighten
350
36
  3
ColorChange
350
3A
  3
Conceptual
350
34
  3
Dim
350
35
  3
Facepattern
350
39
  3
Flat
350
2B
  3
FlatWithEdges
350
2C
  3
Gouraud
350
2D
  3
GouraudWithEdges
350
2E
  3
Linepattern
350
38
  3
Realistic
350
33
  3
Thicken
350
37
  0
LAYOUT
  5
1E
102
{ACAD_REACTORS
330
1A
102
}
330
1A
100
AcDbPlotSettings
  1

  2
none_device
  4

  6

 40
0.0
 41
0.0
 42
0.0
 43
0.0
 44
0.0
 45
0.0
 46
0.0
 47
0.0
 48
0.0
 49
0.0
140
0.0
141
0.0
142
1.0
143
1.0
 70
   688
 72
     0
 73
     0
 74
     5
  7

 75
    16
 76
     0
 77
     2
 78
   300
147
1.0
148
0.0
149
0.0
100
AcDbLayout
  1
Layout1
 70
     1
 71
     1
 10
0.0
 20
0.0
 11
12.0
 21
9.0
 12
0.0
 22
0.0
 32
0.0
 14
1.000000000000000E+20
 24
1.000000000000000E+20
 34
1.000000000000000E+20
 15
-1.000000000000000E+20
 25
-1.000000000000000E+20
 35
-1.000000000000000E+20
146
0.0
 13
0.0
 23
0.0
 33
0.0
 16
1.0
 26
0.0
 36
0.0
 17
0.0
 27
1.0
 37
0.0
 76
     0
330
1B
  0
LAYOUT
  5
26
102
{ACAD_REACTORS
330
1A
102
}
330
1A
100
AcDbPlotSettings
  1

  2
none_device
  4

  6

 40
0.0
 41
0.0
 42
0.0
 43
0.0
 44
0.0
 45
0.0
 46
0.0
 47
0.0
 48
0.0
 49
0.0
140
0.0
141
0.0
142
1.0
143
1.0
 70
   688
 72
     0
 73
     0
 74
     5
  7

 75
    16
 76
     0
 77
     2
 78
   300
147
1.0
148
0.0
149
0.0
100
AcDbLayout
  1
Layout2
 70
     1
 71
     2
 10
0.0
 20
0.0
 11
0.0
 21
0.0
 12
0.0
 22
0.0
 32
0.0
 14
0.0
 24
0.0
 34
0.0
 15
0.0
 25
0.0
 35
0.0
146
0.0
 13
0.0
 23
0.0
 33
0.0
 16
1.0
 26
0.0
 36
0.0
 17
0.0
 27
1.0
 37
0.0
 76
     0
330
23
  0
LAYOUT
  5
22
102
{ACAD_REACTORS
330
1A
102
}
330
1A
100
AcDbPlotSettings
  1

  2
none_device
  4

  6

 40
0.0
 41
0.0
 42
0.0
 43
0.0
 44
0.0
 45
0.0
 46
0.0
 47
0.0
 48
0.0
 49
0.0
140
0.0
141
0.0
142
1.0
143
1.0
 70
  1712
 72
     0
 73
     0
 74
     0
  7

 75
     0
 76
     0
 77
     2
 78
   300
147
1.0
148
0.0
149
0.0
100
AcDbLayout
  1
Model
 70
     1
 71
     0
 10
0.0
 20
0.0
 11
12.0
 21
9.0
 12
0.0
 22
0.0
 32
0.0
 14
1.000000000000000E+20
 24
1.000000000000000E+20
 34
1.000000000000000E+20
 15
-1.000000000000000E+20
 25
-1.000000000000000E+20
 35
-1.000000000000000E+20
146
0.0
 13
0.0
 23
0.0
 33
0.0
 16
1.0
 26
0.0
 36
0.0
 17
0.0
 27
1.0
 37
0.0
 76
     0
330
1F
331
29
  0
MATERIAL
  5
3D
102
{ACAD_REACTORS
330
3B
102
}
330
3B
100
AcDbMaterial
  1
ByBlock
 72
     1
 94
      127
  0
MATERIAL
  5
3C
102
{ACAD_REACTORS
330
3B
102
}
330
3B
100
AcDbMaterial
  1
ByLayer
 72
     1
 94
      127
  0
MATERIAL
  5
3E
102
{ACAD_REACTORS
330
3B
102
}
330
3B
100
AcDbMaterial
  1
Global
 72
     1
 94
      127
  0
MLINESTYLE
  5
18
102
{ACAD_REACTORS
330
17
102
}
330
17
100
AcDbMlineStyle
  2
Standard
 70
     0
  3

 62
   256
 51
90.0
 52
90.0
 71
     2
 49
0.5
 62
   256
  6
BYLAYER
 49
-0.5
 62
   256
  6
BYLAYER
  0
ACDBPLACEHOLDER
  5
F
102
{ACAD_REACTORS
330
E
102
}
330
E
  0
VISUALSTYLE
  5
2F
102
{ACAD_REACTORS
330
2A
102
}
330
2A
100
AcDbVisualStyle
  2
2dWireframe
 70
     4
177
     2
291
     0
 71
     0
176
     1
 72
     2
176
     1
 73
     0
176
     1
 90
        0
176
     1
 40
-0.6
176
     1
 41
-30.0
176
     1
 62
     5
 63
     7
421
 16777215
176
     1
 74
     1
176
     1
 91
        4
176
     1
 64
     7
176
     1
 65
   257
176
     1
 75
     1
176
     1
175
     1
176
     1
 42
1.0
176
     1
 92
        0
176
     1
 66
   257
176
     1
 43
1.0
176
     1
 76
     1
176
     1
 77
     6
176
     1
 78
     2
176
     1
 67
     7
176
     1
 79
     5
176
     1
170
     0
176
     1
171
     0
176
     1
290
     0
176
     1
 93
        1
176
     1
 44
0.0
176
     1
173
     0
176
     1
  0
VISUALSTYLE
  5
31
102
{ACAD_REACTORS
330
2A
102
}
330
2A
100
AcDbVisualStyle
  2
3D Hidden
 70
     6
177
     2
291
     0
 71
     1
176
     1
 72
     2
176
     1
 73
     2
176
     1
 90
        0
176
     1
 40
-0.6
176
     1
 41
-30.0
176
     1
 62
     5
 63
     7
421
 16777215
176
     1
 74
     2
176
     1
 91
        2
176
     1
 64
     7
176
     1
 65
   257
176
     1
 75
     2
176
     1
175
     1
176
     1
 42
40.0
176
     1
 92
        0
176
     1
 66
   257
176
     1
 43
1.0
176
     1
 76
     1
176
     1
 77
     6
176
     1
 78
     2
176
     1
 67
     7
176
     1
 79
     3
176
     1
170
     0
176
     1
171
     0
176
     1
290
     0
176
     1
 93
        1
176
     1
 44
0.0
176
     1
173
     0
176
     1
  0
VISUALSTYLE
  5
30
102
{ACAD_REACTORS
330
2A
102
}
330
2A
100
AcDbVisualStyle
  2
3dWireframe
 70
     5
177
     2
291
     0
 71
     0
176
     1
 72
     2
176
     1
 73
     0
176
     1
 90
        0
176
     1
 40
-0.6
176
     1
 41
-30.0
176
     1
 62
     5
 63
     7
421
 16777215
176
     1
 74
     1
176
     1
 91
        4
176
     1
 64
     7
176
     1
 65
   257
176
     1
 75
     1
176
     1
175
     1
176
     1
 42
1.0
176
     1
 92
        0
176
     1
 66
   257
176
     1
 43
1.0
176
     1
 76
     1
176
     1
 77
     6
176
     1
 78
     2
176
     1
 67
     7
176
     1
 79
     5
176
     1
170
     0
176
     1
171
     0
176
     1
290
     0
176
     1
 93
        1
176
     1
 44
0.0
176
     1
173
     0
176
     1
  0
VISUALSTYLE
  5
32
102
{ACAD_REACTORS
330
2A
102
}
330
2A
100
AcDbVisualStyle
  2
Basic
 70
     7
177
     2
291
     1
 71
     1
176
     1
 72
     0
176
     1
 73
     1
176
     1
 90
        0
176
     1
 40
-0.6
176
     1
 41
-30.0
176
     1
 62
     5
 63
     7
421
 16777215
176
     1
 74
     0
176
     1
 91
        4
176
     1
 64
     7
176
     1
 65
   257
176
     1
 75
     1
176
     1
175
     1
176
     1
 42
1.0
176
     1
 92
        8
176
     1
 66
     7
176
     1
 43
1.0
176
     1
 76
     1
176
     1
 77
     6
176
     1
 78
     2
176
     1
 67
     7
176
     1
 79
     5
176
     1
170
     0
176
     1
171
     0
176
     1
290
     0
176
     1
 93
        1
176
     1
 44
0.0
176
     1
173
     0
176
     1
  0
VISUALSTYLE
  5
36
102
{ACAD_REACTORS
330
2A
102
}
330
2A
100
AcDbVisualStyle
  2
Brighten
 70
    12
177
     2
291
     1
 71
     2
176
     1
 72
     2
176
     1
 73
     0
176
     1
 90
        0
176
     1
 40
-0.6
176
     1
 41
-30.0
176
     1
 62
     5
 63
     7
421
 16777215
176
     1
 74
     1
176
     1
 91
        4
176
     1
 64
     7
176
     1
 65
   257
176
     1
 75
     1
176
     1
175
     1
176
     1
 42
1.0
176
     1
 92
        8
176
     1
 66
     7
176
     1
 43
1.0
176
     1
 76
     1
176
     1
 77
     6
176
     1
 78
     2
176
     1
 67
     7
176
     1
 79
     5
176
     1
170
     0
176
     1
171
     0
176
     1
290
     0
176
     1
 93
        1
176
     1
 44
50.0
176
     1
173
     0
176
     1
  0
VISUALSTYLE
  5
3A
102
{ACAD_REACTORS
330
2A
102
}
330
2A
100
AcDbVisualStyle
  2
ColorChange
 70
    16
177
     2
291
     1
 71
     2
176
     1
 72
     2
176
     1
 73
     3
176
     1
 90
        0
176
     1
 40
-0.6
176
     1
 41
-30.0
176
     1
 62
     5
 63
     8
421
  8421504
176
     1
 74
     1
176
     1
 91
        4
176
     1
 64
     7
176
     1
 65
   257
176
     1
 75
     1
176
     1
175
     1
176
     1
 42
1.0
176
     1
 92
        8
176
     1
 66
     8
424
  8421504
176
     1
 43
1.0
176
     1
 76
     1
176
     1
 77
     6
176
     1
 78
     2
176
     1
 67
     7
176
     1
 79
     5
176
     1
170
     0
176
     1
171
     0
176
     1
290
     0
176
     1
 93
        1
176
     1
 44
0.0
176
     1
173
     0
176
     1
  0
VISUALSTYLE
  5
34
102
{ACAD_REACTORS
330
2A
102
}
330
2A
100
AcDbVisualStyle
  2
Conceptual
 70
     9
177
     2
291
     0
 71
     3
176
     1
 72
     2
176
     1
 73
     0
176
     1
 90
        0
176
     1
 40
-0.6
176
     1
 41
-30.0
176
     1
 62
     5
 63
     7
421
 16777215
176
     1
 74
     2
176
     1
 91
        2
176
     1
 64
     7
176
     1
 65
   257
176
     1
 75
     1
176
     1
175
     1
176
     1
 42
40.0
176
     1
 92
        8
176
     1
 66
     7
176
     1
 43
1.0
176
     1
 76
     1
176
     1
 77
     6
176
     1
 78
     2
176
     1
 67
     7
176
     1
 79
     3
176
     1
170
     0
176
     1
171
     0
176
     1
290
     0
176
     1
 93
        1
176
     1
 44
0.0
176
     1
173
     0
176
     1
  0
VISUALSTYLE
  5
35
102
{ACAD_REACTORS
330
2A
102
}
330
2A
100
AcDbVisualStyle
  2
Dim
 70
    11
177
     2
291
     1
 71
     2
176
     1
 72
     2
176
     1
 73
     0
176
     1
 90
        0
176
     1
 40
-0.6
176
     1
 41
-30.0
176
     1
 62
     5
 63
     7
421
 16777215
176
     1
 74
     1
176
     1
 91
        4
176
     1
 64
     7
176
     1
 65
   257
176
     1
 75
     1
176
     1
175
     1
176
     1
 42
1.0
176
     1
 92
        8
176
     1
 66
     7
176
     1
 43
1.0
176
     1
 76
     1
176
     1
 77
     6
176
     1
 78
     2
176
     1
 67
     7
176
     1
 79
     5
176
     1
170
     0
176
     1
171
     0
176
     1
290
     0
176
     1
 93
        1
176
     1
 44
-50.0
176
     1
173
     0
176
     1
  0
VISUALSTYLE
  5
39
102
{ACAD_REACTORS
330
2A
102
}
330
2A
100
AcDbVisualStyle
  2
Facepattern
 70
    15
177
     2
291
     1
 71
     2
176
     1
 72
     2
176
     1
 73
     0
176
     1
 90
        0
176
     1
 40
-0.6
176
     1
 41
-30.0
176
     1
 62
     5
 63
     7
421
 16777215
176
     1
 74
     1
176
     1
 91
        4
176
     1
 64
     7
176
     1
 65
   257
176
     1
 75
     1
176
     1
175
     1
176
     1
 42
1.0
176
     1
 92
        8
176
     1
 66
     7
176
     1
 43
1.0
176
     1
 76
     1
176
     1
 77
     6
176
     1
 78
     2
176
     1
 67
     7
176
     1
 79
     5
176
     1
170
     0
176
     1
171
     0
176
     1
290
     0
176
     1
 93
        1
176
     1
 44
0.0
176
     1
173
     0
176
     1
  0
VISUALSTYLE
  5
2B
102
{ACAD_REACTORS
330
2A
102
}
330
2A
100
AcDbVisualStyle
  2
Flat
 70
     0
177
     2
291
     1
 71
     2
176
     1
 72
     1
176
     1
 73
     1
176
     1
 90
        2
176
     1
 40
-0.6
176
     1
 41
30.0
176
     1
 62
     5
 63
     7
421
 16777215
176
     1
 74
     0
176
     1
 91
        4
176
     1
 64
     7
176
     1
 65
   257
176
     1
 75
     1
176
     1
175
     1
176
     1
 42
1.0
176
     1
 92
        8
176
     1
 66
     7
176
     1
 43
1.0
176
     1
 76
     1
176
     1
 77
     6
176
     1
 78
     2
176
     1
 67
     7
176
     1
 79
     5
176
     1
170
     0
176
     1
171
     0
176
     1
290
     0
176
     1
 93
       13
176
     1
 44
0.0
176
     1
173
     0
176
     1
  0
VISUALSTYLE
  5
2C
102
{ACAD_REACTORS
330
2A
102
}
330
2A
100
AcDbVisualStyle
  2
FlatWithEdges
 70
     1
177
     2
291
     1
 71
     2
176
     1
 72
     1
176
     1
 73
     1
176
     1
 90
        2
176
     1
 40
-0.6
176
     1
 41
30.0
176
     1
 62
     5
 63
     7
421
 16777215
176
     1
 74
     1
176
     1
 91
        4
176
     1
 64
     7
176
     1
 65
   257
176
     1
 75
     1
176
     1
175
     1
176
     1
 42
1.0
176
     1
 92
        0
176
     1
 66
   257
176
     1
 43
1.0
176
     1
 76
     1
176
     1
 77
     6
176
     1
 78
     2
176
     1
 67
     7
176
     1
 79
     5
176
     1
170
     0
176
     1
171
     0
176
     1
290
     0
176
     1
 93
       13
176
     1
 44
0.0
176
     1
173
     0
176
     1
  0
VISUALSTYLE
  5
2D
102
{ACAD_REACTORS
330
2A
102
}
330
2A
100
AcDbVisualStyle
  2
Gouraud
 70
     2
177
     2
291
     1
 71
     2
176
     1
 72
     2
176
     1
 73
     1
176
     1
 90
        2
176
     1
 40
-0.6
176
     1
 41
30.0
176
     1
 62
     5
 63
     7
421
 16777215
176
     1
 74
     0
176
     1
 91
        4
176
     1
 64
     7
176
     1
 65
   257
176
     1
 75
     1
176
     1
175
     1
176
     1
 42
1.0
176
     1
 92
        0
176
     1
 66
     7
176
     1
 43
1.0
176
     1
 76
     1
176
     1
 77
     6
176
     1
 78
     2
176
     1
 67
     7
176
     1
 79
     5
176
     1
170
     0
176
     1
171
     0
176
     1
290
     0
176
     1
 93
       13
176
     1
 44
0.0
176
     1
173
     0
176
     1
  0
VISUALSTYLE
  5
2E
102
{ACAD_REACTORS
330
2A
102
}
330
2A
100
AcDbVisualStyle
  2
GouraudWithEdges
 70
     3
177
     2
291
     1
 71
     2
176
     1
 72
     2
176
     1
 73
     1
176
     1
 90
        2
176
     1
 40
-0.6
176
     1
 41
30.0
176
     1
 62
     5
 63
     7
421
 16777215
176
     1
 74
     1
176
     1
 91
        4
176
     1
 64
     7
176
     1
 65
   257
176
     1
 75
     1
176
     1
175
     1
176
     1
 42
1.0
176
     1
 92
        0
176
     1
 66
   257
176
     1
 43
1.0
176
     1
 76
     1
176
     1
 77
     6
176
     1
 78
     2
176
     1
 67
     7
176
     1
 79
     5
176
     1
170
     0
176
     1
171
     0
176
     1
290
     0
176
     1
 93
       13
176
     1
 44
0.0
176
     1
173
     0
176
     1
  0
VISUALSTYLE
  5
38
102
{ACAD_REACTORS
330
2A
102
}
330
2A
100
AcDbVisualStyle
  2
Linepattern
 70
    14
177
     2
291
     1
 71
     2
176
     1
 72
     2
176
     1
 73
     0
176
     1
 90
        0
176
     1
 40
-0.6
176
     1
 41
-30.0
176
     1
 62
     5
 63
     7
421
 16777215
176
     1
 74
     1
176
     1
 91
        4
176
     1
 64
     7
176
     1
 65
   257
176
     1
 75
     7
176
     1
175
     7
176
     1
 42
1.0
176
     1
 92
        8
176
     1
 66
     7
176
     1
 43
1.0
176
     1
 76
     1
176
     1
 77
     6
176
     1
 78
     2
176
     1
 67
     7
176
     1
 79
     5
176
     1
170
     0
176
     1
171
     0
176
     1
290
     0
176
     1
 93
        1
176
     1
 44
0.0
176
     1
173
     0
176
     1
  0
VISUALSTYLE
  5
33
102
{ACAD_REACTORS
330
2A
102
}
330
2A
100
AcDbVisualStyle
  2
Realistic
 70
     8
177
     2
291
     0
 71
     2
176
     1
 72
     2
176
     1
 73
     0
176
     1
 90
        0
176
     1
 40
-0.6
176
     1
 41
-30.0
176
     1
 62
     5
 63
     7
421
 16777215
176
     1
 74
     1
176
     1
 91
        0
176
     1
 64
     7
176
     1
 65
   257
176
     1
 75
     1
176
     1
175
     1
176
     1
 42
1.0
176
     1
 92
        8
176
     1
 66
     8
424
  7895160
176
     1
 43
1.0
176
     1
 76
     1
176
     1
 77
     6
176
     1
 78
     2
176
     1
 67
     7
176
     1
 79
     5
176
     1
170
     0
176
     1
171
     0
176
     1
290
     0
176
     1
 93
       13
176
     1
 44
0.0
176
     1
173
     0
176
     1
  0
VISUALSTYLE
  5
37
102
{ACAD_REACTORS
330
2A
102
}
330
2A
100
AcDbVisualStyle
  2
Thicken
 70
    13
177
     2
291
     1
 71
     2
176
     1
 72
     2
176
     1
 73
     0
176
     1
 90
        0
176
     1
 40
-0.6
176
     1
 41
-30.0
176
     1
 62
     5
 63
     7
421
 16777215
176
     1
 74
     1
176
     1
 91
        4
176
     1
 64
     7
176
     1
 65
   257
176
     1
 75
     1
176
     1
175
     1
176
     1
 42
1.0
176
     1
 92
       12
176
     1
 66
     7
176
     1
 43
1.0
176
     1
 76
     1
176
     1
 77
     6
176
     1
 78
     2
176
     1
 67
     7
176
     1
 79
     5
176
     1
170
     0
176
     1
171
     0
176
     1
290
     0
176
     1
 93
        1
176
     1
 44
0.0
176
     1
173
     0
176
     1
  0
ENDSEC
  0
EOF
