  0
SECTION
  2
HEADER
  9
$ACADVER
  1
AC1024
  9
$ACADMAINTVER
 70
     6
  9
$DWGCODEPAGE
  3
UNDEFINED
  9
$INSBASE
 10
0.0
 20
0.0
 30
0.0
  9
$EXTMIN
 10
1.000000000000000E+20
 20
1.000000000000000E+20
 30
1.000000000000000E+20
  9
$EXTMAX
 10
-1.000000000000000E+20
 20
-1.000000000000000E+20
 30
-1.000000000000000E+20
  9
$LIMMIN
 10
0.0
 20
0.0
  9
$LIMMAX
 10
12.0
 20
9.0
  9
$ORTHOMODE
 70
     0
  9
$REGENMODE
 70
     1
  9
$FILLMODE
 70
     1
  9
$QTEXTMODE
 70
     0
  9
$MIRRTEXT
 70
     1
  9
$LTSCALE
 40
1.0
  9
$ATTMODE
 70
     1
  9
$TEXTSIZE
 40
0.2
  9
$TRACEWID
 40
0.05
  9
$TEXTSTYLE
  7
Standard
  9
$CLAYER
  8
0
  9
$CELTYPE
  6
ByLayer
  9
$CECOLOR
 62
   256
  9
$CELTSCALE
 40
1.0
  9
$DISPSILH
 70
     0
  9
$DIMSCALE
 40
1.0
  9
$DIMASZ
 40
0.18
  9
$DIMEXO
 40
0.0625
  9
$DIMDLI
 40
0.38
  9
$DIMRND
 40
0.0
  9
$DIMDLE
 40
0.0
  9
$DIMEXE
 40
0.18
  9
$DIMTP
 40
0.0
  9
$DIMTM
 40
0.0
  9
$DIMTXT
 40
0.18
  9
$DIMCEN
 40
0.09
  9
$DIMTSZ
 40
0.0
  9
$DIMTOL
 70
     0
  9
$DIMLIM
 70
     0
  9
$DIMTIH
 70
     1
  9
$DIMTOH
 70
     1
  9
$DIMSE1
 70
     0
  9
$DIMSE2
 70
     0
  9
$DIMTAD
 70
     0
  9
$DIMZIN
 70
     0
  9
$DIMBLK
  1

  9
$DIMASO
 70
     1
  9
$DIMSHO
 70
     1
  9
$DIMPOST
  1

  9
$DIMAPOST
  1

  9
$DIMALT
 70
     0
  9
$DIMALTD
 70
     2
  9
$DIMALTF
 40
25.4
  9
$DIMLFAC
 40
1.0
  9
$DIMTOFL
 70
     0
  9
$DIMTVP
 40
0.0
  9
$DIMTIX
 70
     0
  9
$DIMSOXD
 70
     0
  9
$DIMSAH
 70
     0
  9
$DIMBLK1
  1

  9
$DIMBLK2
  1

  9
$DIMSTYLE
  2
Standard
  9
$DIMCLRD
 70
     0
  9
$DIMCLRE
 70
     0
  9
$DIMCLRT
 70
     0
  9
$DIMTFAC
 40
1.0
  9
$DIMGAP
 40
0.09
  9
$DIMJUST
 70
     0
  9
$DIMSD1
 70
     0
  9
$DIMSD2
 70
     0
  9
$DIMTOLJ
 70
     1
  9
$DIMTZIN
 70
     0
  9
$DIMALTZ
 70
     0
  9
$DIMALTTZ
 70
     0
  9
$DIMUPT
 70
     0
  9
$DIMDEC
 70
     4
  9
$DIMTDEC
 70
     4
  9
$DIMALTU
 70
     2
  9
$DIMALTTD
 70
     2
  9
$DIMTXSTY
  7
Standard
  9
$DIMAUNIT
 70
     0
  9
$DIMADEC
 70
     0
  9
$DIMALTRND
 40
0.0
  9
$DIMAZIN
 70
     0
  9
$DIMDSEP
 70
    46
  9
$DIMATFIT
 70
     3
  9
$DIMFRAC
 70
     0
  9
$DIMLDRBLK
  1

  9
$DIMLUNIT
 70
     2
  9
$DIMLWD
 70
    -2
  9
$DIMLWE
 70
    -2
  9
$DIMTMOVE
 70
     0
  9
$DIMFXL
 40
1.0
  9
$DIMFXLON
 70
     0
  9
$DIMJOGANG
 40
0.7853981633974483
  9
$DIMTFILL
 70
     0
  9
$DIMTFILLCLR
 70
     0
  9
$DIMARCSYM
 70
     0
  9
$DIMLTYPE
  6

  9
$DIMLTEX1
  6

  9
$DIMLTEX2
  6

  9
$DIMTXTDIRECTION
 70
     0
  9
$LUNITS
 70
     2
  9
$LUPREC
 70
     4
  9
$SKETCHINC
 40
0.1
  9
$FILLETRAD
 40
0.5
  9
$AUNITS
 70
     0
  9
$AUPREC
 70
     0
  9
$MENU
  1
.
  9
$ELEVATION
 40
0.0
  9
$PELEVATION
 40
0.0
  9
$THICKNESS
 40
0.0
  9
$LIMCHECK
 70
     0
  9
$CHAMFERA
 40
0.5
  9
$CHAMFERB
 40
0.5
  9
$CHAMFERC
 40
1.0
  9
$CHAMFERD
 40
0.0
  9
$SKPOLY
 70
     0
  9
$TDCREATE
 40
2457917.587326377
  9
$TDUCREATE
 40
2457917.212326389
  9
$TDUPDATE
 40
2457917.587326377
  9
$TDUUPDATE
 40
2457917.212326389
  9
$TDINDWG
 40
0.0000000116
  9
$TDUSRTIMER
 40
0.0000000116
  9
$USRTIMER
 70
     1
  9
$ANGBASE
 50
0.0
  9
$ANGDIR
 70
     0
  9
$PDMODE
 70
     0
  9
$PDSIZE
 40
0.0
  9
$PLINEWID
 40
0.0
  9
$SPLFRAME
 70
     0
  9
$SPLINETYPE
 70
     6
  9
$SPLINESEGS
 70
     8
  9
$HANDSEED
  5
EB
  9
$SURFTAB1
 70
     6
  9
$SURFTAB2
 70
     6
  9
$SURFTYPE
 70
     6
  9
$SURFU
 70
     6
  9
$SURFV
 70
     6
  9
$UCSBASE
  2

  9
$UCSNAME
  2

  9
$UCSORG
 10
0.0
 20
0.0
 30
0.0
  9
$UCSXDIR
 10
1.0
 20
0.0
 30
0.0
  9
$UCSYDIR
 10
0.0
 20
1.0
 30
0.0
  9
$UCSORTHOREF
  2

  9
$UCSORTHOVIEW
 70
     0
  9
$UCSORGTOP
 10
0.0
 20
0.0
 30
0.0
  9
$UCSORGBOTTOM
 10
0.0
 20
0.0
 30
0.0
  9
$UCSORGLEFT
 10
0.0
 20
0.0
 30
0.0
  9
$UCSORGRIGHT
 10
0.0
 20
0.0
 30
0.0
  9
$UCSORGFRONT
 10
0.0
 20
0.0
 30
0.0
  9
$UCSORGBACK
 10
0.0
 20
0.0
 30
0.0
  9
$PUCSBASE
  2

  9
$PUCSNAME
  2

  9
$PUCSORG
 10
0.0
 20
0.0
 30
0.0
  9
$PUCSXDIR
 10
1.0
 20
0.0
 30
0.0
  9
$PUCSYDIR
 10
0.0
 20
1.0
 30
0.0
  9
$PUCSORTHOREF
  2

  9
$PUCSORTHOVIEW
 70
     0
  9
$PUCSORGTOP
 10
0.0
 20
0.0
 30
0.0
  9
$PUCSORGBOTTOM
 10
0.0
 20
0.0
 30
0.0
  9
$PUCSORGLEFT
 10
0.0
 20
0.0
 30
0.0
  9
$PUCSORGRIGHT
 10
0.0
 20
0.0
 30
0.0
  9
$PUCSORGFRONT
 10
0.0
 20
0.0
 30
0.0
  9
$PUCSORGBACK
 10
0.0
 20
0.0
 30
0.0
  9
$USERI1
 70
     0
  9
$USERI2
 70
     0
  9
$USERI3
 70
     0
  9
$USERI4
 70
     0
  9
$USERI5
 70
     0
  9
$USERR1
 40
0.0
  9
$USERR2
 40
0.0
  9
$USERR3
 40
0.0
  9
$USERR4
 40
0.0
  9
$USERR5
 40
0.0
  9
$WORLDVIEW
 70
     1
  9
$SHADEDGE
 70
     3
  9
$SHADEDIF
 70
    70
  9
$TILEMODE
 70
     1
  9
$MAXACTVP
 70
    64
  9
$PINSBASE
 10
0.0
 20
0.0
 30
0.0
  9
$PLIMCHECK
 70
     0
  9
$PEXTMIN
 10
1.000000000000000E+20
 20
1.000000000000000E+20
 30
1.000000000000000E+20
  9
$PEXTMAX
 10
-1.000000000000000E+20
 20
-1.000000000000000E+20
 30
-1.000000000000000E+20
  9
$PLIMMIN
 10
0.0
 20
0.0
  9
$PLIMMAX
 10
12.0
 20
9.0
  9
$UNITMODE
 70
     0
  9
$VISRETAIN
 70
     1
  9
$PLINEGEN
 70
     0
  9
$PSLTSCALE
 70
     1
  9
$TREEDEPTH
 70
  3020
  9
$CMLSTYLE
  2
Standard
  9
$CMLJUST
 70
     0
  9
$CMLSCALE
 40
1.0
  9
$PROXYGRAPHICS
 70
     1
  9
$MEASUREMENT
 70
     0
  9
$CELWEIGHT
370
    -1
  9
$ENDCAPS
280
     0
  9
$JOINSTYLE
280
     0
  9
$LWDISPLAY
290
     1
  9
$INSUNITS
 70
     1
  9
$HYPERLINKBASE
  1

  9
$STYLESHEET
  1

  9
$XEDIT
290
     1
  9
$CEPSNTYPE
380
     0
  9
$PSTYLEMODE
290
     1
  9
$FINGERPRINTGUID
  2
{5AE270F6-89AB-6708-4DDA-2EB08E912EB5}
  9
$VERSIONGUID
  2
{FAEB1C32-E019-11D5-929B-00C0DF256EC4}
  9
$EXTNAMES
290
     1
  9
$PSVPSCALE
 40
0.0
  9
$OLESTARTUP
290
     0
  9
$SORTENTS
280
   127
  9
$INDEXCTL
280
     0
  9
$HIDETEXT
280
     1
  9
$XCLIPFRAME
280
     2
  9
$HALOGAP
280
     0
  9
$OBSCOLOR
 70
   257
  9
$OBSLTYPE
280
     0
  9
$INTERSECTIONDISPLAY
280
     0
  9
$INTERSECTIONCOLOR
 70
   257
  9
$DIMASSOC
280
     2
  9
$PROJECTNAME
  1

  9
$CAMERADISPLAY
290
     0
  9
$LENSLENGTH
 40
50.0
  9
$CAMERAHEIGHT
 40
0.0
  9
$STEPSPERSEC
 40
2.0
  9
$STEPSIZE
 40
6.0
  9
$3DDWFPREC
 40
2.0
  9
$PSOLWIDTH
 40
0.25
  9
$PSOLHEIGHT
 40
4.0
  9
$LOFTANG1
 40
1.570796326794897
  9
$LOFTANG2
 40
1.570796326794897
  9
$LOFTMAG1
 40
0.0
  9
$LOFTMAG2
 40
0.0
  9
$LOFTPARAM
 70
     7
  9
$LOFTNORMALS
280
     1
  9
$LATITUDE
 40
37.795
  9
$LONGITUDE
 40
-122.394
  9
$NORTHDIRECTION
 40
0.0
  9
$TIMEZONE
 70
 -8000
  9
$LIGHTGLYPHDISPLAY
280
     1
  9
$TILEMODELIGHTSYNCH
280
     1
  9
$CMATERIAL
347
3C
  9
$SOLIDHIST
280
     1
  9
$SHOWHIST
280
     1
  9
$DWFFRAME
280
     2
  9
$DGNFRAME
280
     2
  9
$REALWORLDSCALE
290
     1
  9
$INTERFERECOLOR
 62
   256
  9
$CSHADOW
280
     0
  9
$SHADOWPLANELOCATION
 40
0.0
  0
ENDSEC
  0
SECTION
  2
CLASSES
  0
CLASS
  1
ACDBDICTIONARYWDFLT
  2
AcDbDictionaryWithDefault
  3
ObjectDBX Classes
 90
        0
 91
        4
280
     0
281
     0
  0
CLASS
  1
VISUALSTYLE
  2
AcDbVisualStyle
  3
ObjectDBX Classes
 90
     4095
 91
        4
280
     0
281
     0
  0
CLASS
  1
MATERIAL
  2
AcDbMaterial
  3
ObjectDBX Classes
 90
     1153
 91
        4
280
     0
281
     0
  0
CLASS
  1
SUN
  2
AcDbSun
  3
SCENEOE
 90
     1024
 91
        4
280
     0
281
     0
  0
ENDSEC
  0
SECTION
  2
TABLES
  0
TABLE
  2
VPORT
  5
8
330
0
100
AcDbSymbolTable
 70
     1
  0
VPORT
  5
29
330
8
100
AcDbSymbolTableRecord
100
AcDbViewportTableRecord
  2
*Active
 70
     0
 10
0.0
 20
0.0
 11
1.0
 21
1.0
 12
0.0
 22
0.0
 13
0.0
 23
0.0
 14
0.5
 24
0.5
 15
0.5
 25
0.5
 16
0.0
 26
0.0
 36
1.0
 17
63.499999984125
 27
-89.00059456108309
 37
0.0
 40
178.0011891221662
 41
0.7134783795241226
 42
50.0
 43
0.0
 44
0.0
 50
0.0
 51
0.0
 71
     0
 72
   100
 73
     1
 74
     3
 75
     0
 76
     0
 77
     0
 78
     0
281
     0
 65
     1
110
0.0
120
0.0
130
0.0
111
1.0
121
0.0
131
0.0
112
0.0
122
1.0
132
0.0
 79
     0
146
0.0
 60
     3
 61
     5
292
     1
282
     1
141
0.0
142
0.0
 63
   250
361
3F
  0
ENDTAB
  0
TABLE
  2
LTYPE
  5
5
330
0
100
AcDbSymbolTable
 70
     1
  0
LTYPE
  5
14
330
5
100
AcDbSymbolTableRecord
100
AcDbLinetypeTableRecord
  2
ByBlock
 70
     0
  3

 72
    65
 73
     0
 40
0.0
  0
LTYPE
  5
15
330
5
100
AcDbSymbolTableRecord
100
AcDbLinetypeTableRecord
  2
ByLayer
 70
     0
  3

 72
    65
 73
     0
 40
0.0
  0
LTYPE
  5
16
330
5
100
AcDbSymbolTableRecord
100
AcDbLinetypeTableRecord
  2
Continuous
 70
     0
  3
Solid line
 72
    65
 73
     0
 40
0.0
  0
ENDTAB
  0
TABLE
  2
LAYER
  5
2
330
0
100
AcDbSymbolTable
 70
     2
  0
LAYER
  5
10
330
2
100
AcDbSymbolTableRecord
100
AcDbLayerTableRecord
  2
0
 70
     0
 62
     7
  6
Continuous
370
    -3
390
F
347
3E
  0
LAYER
  5
40
330
2
100
AcDbSymbolTableRecord
100
AcDbLayerTableRecord
  2
_U+30EC_U+30A4_U+30E4_U+30FC 1
 70
     0
 62
     7
  6
Continuous
370
    -3
390
F
347
3E
  0
ENDTAB
  0
TABLE
  2
STYLE
  5
3
330
0
100
AcDbSymbolTable
 70
     1
  0
STYLE
  5
11
330
3
100
AcDbSymbolTableRecord
100
AcDbTextStyleTableRecord
  2
Standard
 70
     0
 40
0.0
 41
1.0
 50
0.0
 71
     0
 42
0.2
  3
txt
  4

  0
ENDTAB
  0
TABLE
  2
VIEW
  5
6
330
0
100
AcDbSymbolTable
 70
     0
  0
ENDTAB
  0
TABLE
  2
UCS
  5
7
330
0
100
AcDbSymbolTable
 70
     0
  0
ENDTAB
  0
TABLE
  2
APPID
  5
9
330
0
100
AcDbSymbolTable
 70
     1
  0
APPID
  5
12
330
9
100
AcDbSymbolTableRecord
100
AcDbRegAppTableRecord
  2
ACAD
 70
     0
  0
ENDTAB
  0
TABLE
  2
DIMSTYLE
  5
A
330
0
100
AcDbSymbolTable
 70
     1
100
AcDbDimStyleTable
  0
DIMSTYLE
105
27
330
A
100
AcDbSymbolTableRecord
100
AcDbDimStyleTableRecord
  2
Standard
 70
     0
178
     0
340
11
  0
ENDTAB
  0
TABLE
  2
BLOCK_RECORD
  5
1
330
0
100
AcDbSymbolTable
 70
     6
  0
BLOCK_RECORD
  5
1F
330
1
100
AcDbSymbolTableRecord
100
AcDbBlockTableRecord
  2
*Model_Space
340
22
 70
     0
280
     1
281
     0
  0
BLOCK_RECORD
  5
1B
330
1
100
AcDbSymbolTableRecord
100
AcDbBlockTableRecord
  2
*Paper_Space
340
1E
 70
     0
280
     1
281
     0
  0
BLOCK_RECORD
  5
23
330
1
100
AcDbSymbolTableRecord
100
AcDbBlockTableRecord
  2
*Paper_Space0
340
26
 70
     0
280
     1
281
     0
  0
BLOCK_RECORD
  5
5A
330
1
100
AcDbSymbolTableRecord
100
AcDbBlockTableRecord
  2
block 2
340
0
102
{BLKREFS
331
5B
102
}
 70
     0
280
     1
281
     0
  0
BLOCK_RECORD
  5
79
330
1
100
AcDbSymbolTableRecord
100
AcDbBlockTableRecord
  2
block 3
340
0
102
{BLKREFS
331
7A
102
}
 70
     0
280
     1
281
     0
  0
BLOCK_RECORD
  5
8B
330
1
100
AcDbSymbolTableRecord
100
AcDbBlockTableRecord
  2
block 4
340
0
102
{BLKREFS
331
8C
102
}
 70
     0
280
     1
281
     0
  0
BLOCK_RECORD
  5
9F
330
1
100
AcDbSymbolTableRecord
100
AcDbBlockTableRecord
  2
block 5
340
0
102
{BLKREFS
331
A0
102
}
 70
     0
280
     1
281
     0
  0
BLOCK_RECORD
  5
B1
330
1
100
AcDbSymbolTableRecord
100
AcDbBlockTableRecord
  2
block 6
340
0
102
{BLKREFS
331
B2
102
}
 70
     0
280
     1
281
     0
  0
ENDTAB
  0
ENDSEC
  0
SECTION
  2
BLOCKS
  0
BLOCK
  5
20
330
1F
100
AcDbEntity
  8
0
100
AcDbBlockBegin
  2
*Model_Space
 70
     0
 10
0.0
 20
0.0
 30
0.0
  3
*Model_Space
  1

  0
ENDBLK
  5
21
330
1F
100
AcDbEntity
  8
0
100
AcDbBlockEnd
  0
BLOCK
  5
1C
330
1B
100
AcDbEntity
 67
     1
  8
0
100
AcDbBlockBegin
  2
*Paper_Space
 70
     0
 10
0.0
 20
0.0
 30
0.0
  3
*Paper_Space
  1

  0
ENDBLK
  5
1D
330
1B
100
AcDbEntity
 67
     1
  8
0
100
AcDbBlockEnd
  0
BLOCK
  5
24
330
23
100
AcDbEntity
  8
0
100
AcDbBlockBegin
  2
*Paper_Space0
 70
     0
 10
0.0
 20
0.0
 30
0.0
  3
*Paper_Space0
  1

  0
ENDBLK
  5
25
330
23
100
AcDbEntity
  8
0
100
AcDbBlockEnd
  0
BLOCK
  5
5C
330
5A
100
AcDbEntity
  8
0
100
AcDbBlockBegin
  2
block 2
 70
     0
 10
0.0
 20
0.0
 30
0.0
  3
block 2
  1

  0
SPLINE
  5
5E
330
5A
100
AcDbEntity
  8
_U+30EC_U+30A4_U+30E4_U+30FC 1
370
     0
100
AcDbSpline
210
0.0
220
0.0
230
1.0
 70
    11
 71
     3
 72
    29
 73
    25
 74
     0
 42
0.0000000001
 43
0.0000000001
 12
1.0
 22
0.0
 32
0.0
 13
1.0
 23
0.0
 33
0.0
 40
0.0
 40
0.0
 40
0.0
 40
0.0
 40
1.0
 40
1.0
 40
1.0
 40
2.0
 40
2.0
 40
2.0
 40
3.0
 40
3.0
 40
3.0
 40
4.0
 40
4.0
 40
4.0
 40
5.0
 40
5.0
 40
5.0
 40
6.0
 40
6.0
 40
6.0
 40
7.0
 40
7.0
 40
7.0
 40
8.0
 40
8.0
 40
8.0
 40
8.0
 10
77.7637288217049
 20
-82.6588649966964
 30
0.0
 10
77.9731906272081
 20
-82.76290688035094
 30
0.0
 10
77.99213865237697
 20
-82.93033852093409
 30
0.0
 10
77.99213865237697
 20
-83.04264863375323
 30
0.0
 10
77.99213865237697
 20
-83.19767793058948
 30
0.0
 10
77.94562986332609
 20
-83.3344482213539
 30
0.0
 10
77.7637288217049
 20
-83.42608776126154
 30
0.0
 10
77.56908092678829
 20
-83.52599553033379
 30
0.0
 10
77.3320583574031
 20
-83.5442545364056
 30
0.0
 10
77.1694498504993
 20
-83.5442545364056
 30
0.0
 10
77.02544485921587
 20
-83.5442545364056
 30
0.0
 10
76.7736083792441
 20
-83.52806258762493
 30
0.0
 10
76.57482636974518
 20
-83.42608776126154
 30
0.0
 10
76.37191024566397
 20
-83.322045877607
 30
0.0
 10
76.34848359636428
 20
-83.16701658077075
 30
0.0
 10
76.34848359636428
 20
-83.04264863375323
 30
0.0
 10
76.34848359636428
 20
-82.88968639420814
 30
0.0
 10
76.392925328124
 20
-82.75084904615257
 30
0.0
 10
76.57482636974518
 20
-82.6588649966964
 30
0.0
 10
76.76740720737065
 20
-82.56309134220645
 30
0.0
 10
76.99581703804272
 20
-82.54069822155233
 30
0.0
 10
77.1694498504993
 20
-82.54069822155233
 30
0.0
 10
77.34067109611622
 20
-82.54069822155233
 30
0.0
 10
77.57114798407945
 20
-82.5610242849153
 30
0.0
 10
77.7637288217049
 20
-82.6588649966964
 30
0.0
  0
SPLINE
  5
5F
330
5A
100
AcDbEntity
  8
_U+30EC_U+30A4_U+30E4_U+30FC 1
370
     0
100
AcDbSpline
210
0.0
220
0.0
230
1.0
 70
    11
 71
     3
 72
    17
 73
    13
 74
     0
 42
0.0000000001
 43
0.0000000001
 12
1.0
 22
0.0
 32
0.0
 13
1.0
 23
0.0
 33
0.0
 40
0.0
 40
0.0
 40
0.0
 40
0.0
 40
1.0
 40
1.0
 40
1.0
 40
2.0
 40
2.0
 40
2.0
 40
3.0
 40
3.0
 40
3.0
 40
4.0
 40
4.0
 40
4.0
 40
4.0
 10
76.54106443398973
 20
-83.04264863375323
 30
0.0
 10
76.54106443398973
 20
-83.28311629862367
 30
0.0
 10
76.8245957924258
 20
-83.32824704948044
 30
0.0
 10
77.1694498504993
 20
-83.32824704948044
 30
0.0
 10
77.48881020198196
 20
-83.32824704948044
 30
0.0
 10
77.79749075746035
 20
-83.29345158507942
 30
0.0
 10
77.79749075746035
 20
-83.04264863375323
 30
0.0
 10
77.79749075746035
 20
-82.80390351662541
 30
0.0
 10
77.51637096586397
 20
-82.75705021802602
 30
0.0
 10
77.1694498504993
 20
-82.75705021802602
 30
0.0
 10
76.84974498946812
 20
-82.75705021802602
 30
0.0
 10
76.54106443398973
 20
-82.79356823016967
 30
0.0
 10
76.54106443398973
 20
-83.04264863375323
 30
0.0
  0
HATCH
  5
60
330
5A
100
AcDbEntity
  8
_U+30EC_U+30A4_U+30E4_U+30FC 1
 62
   179
420
  2234388
100
AcDbHatch
 10
0.0
 20
0.0
 30
0.0
210
0.0
220
0.0
230
1.0
  2
SOLID
 70
     1
 71
     0
 91
        2
 92
        1
 93
        1
 72
     4
 94
        3
 73
     0
 74
     1
 95
       29
 96
       25
 40
0.0
 40
0.0
 40
0.0
 40
0.0
 40
1.0
 40
1.0
 40
1.0
 40
2.0
 40
2.0
 40
2.0
 40
3.0
 40
3.0
 40
3.0
 40
4.0
 40
4.0
 40
4.0
 40
5.0
 40
5.0
 40
5.0
 40
6.0
 40
6.0
 40
6.0
 40
7.0
 40
7.0
 40
7.0
 40
8.0
 40
8.0
 40
8.0
 40
8.0
 10
77.7637288217049
 20
-82.6588649966964
 10
77.9731906272081
 20
-82.76290688035094
 10
77.99213865237697
 20
-82.93033852093409
 10
77.99213865237697
 20
-83.04264863375323
 10
77.99213865237697
 20
-83.19767793058948
 10
77.94562986332609
 20
-83.3344482213539
 10
77.7637288217049
 20
-83.42608776126154
 10
77.56908092678829
 20
-83.52599553033379
 10
77.3320583574031
 20
-83.5442545364056
 10
77.1694498504993
 20
-83.5442545364056
 10
77.02544485921587
 20
-83.5442545364056
 10
76.7736083792441
 20
-83.52806258762493
 10
76.57482636974518
 20
-83.42608776126154
 10
76.37191024566397
 20
-83.322045877607
 10
76.34848359636428
 20
-83.16701658077075
 10
76.34848359636428
 20
-83.04264863375323
 10
76.34848359636428
 20
-82.88968639420814
 10
76.392925328124
 20
-82.75084904615257
 10
76.57482636974518
 20
-82.6588649966964
 10
76.76740720737065
 20
-82.56309134220645
 10
76.99581703804272
 20
-82.54069822155233
 10
77.1694498504993
 20
-82.54069822155233
 10
77.34067109611622
 20
-82.54069822155233
 10
77.57114798407945
 20
-82.5610242849153
 10
77.7637288217049
 20
-82.6588649966964
 97
        0
 97
        0
 92
        1
 93
        1
 72
     4
 94
        3
 73
     0
 74
     1
 95
       17
 96
       13
 40
0.0
 40
0.0
 40
0.0
 40
0.0
 40
1.0
 40
1.0
 40
1.0
 40
2.0
 40
2.0
 40
2.0
 40
3.0
 40
3.0
 40
3.0
 40
4.0
 40
4.0
 40
4.0
 40
4.0
 10
76.54106443398973
 20
-83.04264863375323
 10
76.54106443398973
 20
-83.28311629862367
 10
76.8245957924258
 20
-83.32824704948044
 10
77.1694498504993
 20
-83.32824704948044
 10
77.48881020198196
 20
-83.32824704948044
 10
77.79749075746035
 20
-83.29345158507942
 10
77.79749075746035
 20
-83.04264863375323
 10
77.79749075746035
 20
-82.80390351662541
 10
77.51637096586397
 20
-82.75705021802602
 10
77.1694498504993
 20
-82.75705021802602
 10
76.84974498946812
 20
-82.75705021802602
 10
76.54106443398973
 20
-82.79356823016967
 10
76.54106443398973
 20
-83.04264863375323
 97
        0
 97
        0
 75
     2
 76
     1
 98
        0
  0
POLYLINE
  5
61
330
5A
100
AcDbEntity
  8
_U+30EC_U+30A4_U+30E4_U+30FC 1
370
     0
100
AcDb2dPolyline
 66
     1
 10
0.0
 20
0.0
 30
0.0
  0
VERTEX
  5
62
330
61
100
AcDbEntity
  8
_U+30EC_U+30A4_U+30E4_U+30FC 1
370
     0
100
AcDbVertex
100
AcDb2dVertex
 10
77.94149574874379
 20
-82.3333034733403
 30
0.0
  0
VERTEX
  5
63
330
61
100
AcDbEntity
  8
_U+30EC_U+30A4_U+30E4_U+30FC 1
370
     0
100
AcDbVertex
100
AcDb2dVertex
 10
77.68965926877203
 20
-82.3333034733403
 30
0.0
  0
VERTEX
  5
64
330
61
100
AcDbEntity
  8
_U+30EC_U+30A4_U+30E4_U+30FC 1
370
     0
100
AcDbVertex
100
AcDb2dVertex
 10
77.68965926877203
 20
-82.0907687511787
 30
0.0
  0
VERTEX
  5
65
330
61
100
AcDbEntity
  8
_U+30EC_U+30A4_U+30E4_U+30FC 1
370
     0
100
AcDbVertex
100
AcDb2dVertex
 10
77.94149574874379
 20
-82.0907687511787
 30
0.0
  0
VERTEX
  5
66
330
61
100
AcDbEntity
  8
_U+30EC_U+30A4_U+30E4_U+30FC 1
370
     0
100
AcDbVertex
100
AcDb2dVertex
 10
77.94149574874379
 20
-82.3333034733403
 30
0.0
  0
SEQEND
  5
67
330
61
100
AcDbEntity
  8
_U+30EC_U+30A4_U+30E4_U+30FC 1
370
     0
  0
HATCH
  5
68
330
5A
100
AcDbEntity
  8
_U+30EC_U+30A4_U+30E4_U+30FC 1
 62
   179
420
  2234388
100
AcDbHatch
 10
0.0
 20
0.0
 30
0.0
210
0.0
220
0.0
230
1.0
  2
SOLID
 70
     1
 71
     0
 91
        1
 92
        1
 93
        4
 72
     1
 10
77.94149574874379
 20
-82.3333034733403
 11
77.68965926877203
 21
-82.3333034733403
 72
     1
 10
77.68965926877203
 20
-82.3333034733403
 11
77.68965926877203
 21
-82.0907687511787
 72
     1
 10
77.68965926877203
 20
-82.0907687511787
 11
77.94149574874379
 21
-82.0907687511787
 72
     1
 10
77.94149574874379
 20
-82.0907687511787
 11
77.94149574874379
 21
-82.3333034733403
 97
        0
 75
     2
 76
     1
 98
        0
  0
SPLINE
  5
69
330
5A
100
AcDbEntity
  8
_U+30EC_U+30A4_U+30E4_U+30FC 1
370
     0
100
AcDbSpline
210
0.0
220
0.0
230
1.0
 70
    11
 71
     3
 72
    29
 73
    25
 74
     0
 42
0.0000000001
 43
0.0000000001
 12
1.0
 22
0.0
 32
0.0
 13
1.0
 23
0.0
 33
0.0
 40
0.0
 40
0.0
 40
0.0
 40
0.0
 40
1.0
 40
1.0
 40
1.0
 40
2.0
 40
2.0
 40
2.0
 40
3.0
 40
3.0
 40
3.0
 40
4.0
 40
4.0
 40
4.0
 40
5.0
 40
5.0
 40
5.0
 40
6.0
 40
6.0
 40
6.0
 40
7.0
 40
7.0
 40
7.0
 40
8.0
 40
8.0
 40
8.0
 40
8.0
 10
77.99213865237697
 20
-81.38142359076576
 30
0.0
 10
77.99213865237697
 20
-81.6384277139654
 30
0.0
 10
77.8546793425155
 20
-81.88302949341814
 30
0.0
 10
77.50569116985969
 20
-81.88302949341814
 30
0.0
 10
77.24972057530563
 20
-81.88302949341814
 30
0.0
 10
77.15463593991274
 20
-81.74660371220224
 30
0.0
 10
77.0933132402753
 20
-81.64462888583884
 30
0.0
 10
77.03405759792899
 20
-81.76486271827406
 30
0.0
 10
76.91968042781869
 20
-81.83824325210989
 30
0.0
 10
76.75879446865753
 20
-81.83824325210989
 30
0.0
 10
76.48387584893459
 20
-81.83824325210989
 30
0.0
 10
76.34848359636428
 20
-81.64669594313
 30
0.0
 10
76.34848359636428
 20
-81.38142359076576
 30
0.0
 10
76.34848359636428
 20
-81.10788300923693
 30
0.0
 10
76.49248858764771
 20
-80.92425941987311
 30
0.0
 10
76.75879446865753
 20
-80.92425941987311
 30
0.0
 10
76.91968042781869
 20
-80.92425941987311
 30
0.0
 10
77.03405759792899
 20
-80.99970701100008
 30
0.0
 10
77.0933132402753
 20
-81.12028535298383
 30
0.0
 10
77.14395614390845
 20
-81.0345024754011
 30
0.0
 10
77.23904077930135
 20
-80.88154023585601
 30
0.0
 10
77.50155705527739
 20
-80.88154023585601
 30
0.0
 10
77.87603893452405
 20
-80.88154023585601
 30
0.0
 10
77.99213865237697
 20
-81.15094670280254
 30
0.0
 10
77.99213865237697
 20
-81.38142359076576
 30
0.0
  0
SPLINE
  5
6A
330
5A
100
AcDbEntity
  8
_U+30EC_U+30A4_U+30E4_U+30FC 1
370
     0
100
AcDbSpline
210
0.0
220
0.0
230
1.0
 70
    11
 71
     3
 72
    17
 73
    13
 74
     0
 42
0.0000000001
 43
0.0000000001
 12
1.0
 22
0.0
 32
0.0
 13
1.0
 23
0.0
 33
0.0
 40
0.0
 40
0.0
 40
0.0
 40
0.0
 40
1.0
 40
1.0
 40
1.0
 40
2.0
 40
2.0
 40
2.0
 40
3.0
 40
3.0
 40
3.0
 40
4.0
 40
4.0
 40
4.0
 40
4.0
 10
76.54106443398973
 20
-81.38142359076576
 30
0.0
 10
76.54106443398973
 20
-81.5405870021843
 30
0.0
 10
76.63614906938264
 20
-81.6218912556362
 30
0.0
 10
76.77154132195295
 20
-81.6218912556362
 30
0.0
 10
76.89418672122784
 20
-81.6218912556362
 30
0.0
 10
77.01269800592044
 20
-81.55264483638267
 30
0.0
 10
77.01269800592044
 20
-81.38142359076576
 30
0.0
 10
77.01269800592044
 20
-81.20985783560032
 30
0.0
 10
76.89418672122784
 20
-81.1406114163468
 30
0.0
 10
76.77154132195295
 20
-81.1406114163468
 30
0.0
 10
76.63614906938264
 20
-81.1406114163468
 30
0.0
 10
76.54106443398973
 20
-81.22432723663836
 30
0.0
 10
76.54106443398973
 20
-81.38142359076576
 30
0.0
  0
SPLINE
  5
6B
330
5A
100
AcDbEntity
  8
_U+30EC_U+30A4_U+30E4_U+30FC 1
370
     0
100
AcDbSpline
210
0.0
220
0.0
230
1.0
 70
    11
 71
     3
 72
    17
 73
    13
 74
     0
 42
0.0000000001
 43
0.0000000001
 12
1.0
 22
0.0
 32
0.0
 13
1.0
 23
0.0
 33
0.0
 40
0.0
 40
0.0
 40
0.0
 40
0.0
 40
1.0
 40
1.0
 40
1.0
 40
2.0
 40
2.0
 40
2.0
 40
3.0
 40
3.0
 40
3.0
 40
4.0
 40
4.0
 40
4.0
 40
4.0
 10
77.20114472896361
 20
-81.38142359076576
 30
0.0
 10
77.20114472896361
 20
-81.5199164292728
 30
0.0
 10
77.2879611351919
 20
-81.66702200649297
 30
0.0
 10
77.49087725927312
 20
-81.66702200649297
 30
0.0
 10
77.696204950194
 20
-81.66702200649297
 30
0.0
 10
77.79749075746035
 20
-81.54437660721807
 30
0.0
 10
77.79749075746035
 20
-81.38142359076576
 30
0.0
 10
77.79749075746035
 20
-81.20193411598424
 30
0.0
 10
77.67484535818546
 20
-81.09582517503854
 30
0.0
 10
77.49707843114656
 20
-81.09582517503854
 30
0.0
 10
77.27521428189648
 20
-81.09582517503854
 30
0.0
 10
77.20114472896361
 20
-81.25292152916595
 30
0.0
 10
77.20114472896361
 20
-81.38142359076576
 30
0.0
  0
HATCH
  5
6C
330
5A
100
AcDbEntity
  8
_U+30EC_U+30A4_U+30E4_U+30FC 1
 62
   179
420
  2234388
100
AcDbHatch
 10
0.0
 20
0.0
 30
0.0
210
0.0
220
0.0
230
1.0
  2
SOLID
 70
     1
 71
     0
 91
        3
 92
        1
 93
        1
 72
     4
 94
        3
 73
     0
 74
     1
 95
       29
 96
       25
 40
0.0
 40
0.0
 40
0.0
 40
0.0
 40
1.0
 40
1.0
 40
1.0
 40
2.0
 40
2.0
 40
2.0
 40
3.0
 40
3.0
 40
3.0
 40
4.0
 40
4.0
 40
4.0
 40
5.0
 40
5.0
 40
5.0
 40
6.0
 40
6.0
 40
6.0
 40
7.0
 40
7.0
 40
7.0
 40
8.0
 40
8.0
 40
8.0
 40
8.0
 10
77.99213865237697
 20
-81.38142359076576
 10
77.99213865237697
 20
-81.6384277139654
 10
77.8546793425155
 20
-81.88302949341814
 10
77.50569116985969
 20
-81.88302949341814
 10
77.24972057530563
 20
-81.88302949341814
 10
77.15463593991274
 20
-81.74660371220224
 10
77.0933132402753
 20
-81.64462888583884
 10
77.03405759792899
 20
-81.76486271827406
 10
76.91968042781869
 20
-81.83824325210989
 10
76.75879446865753
 20
-81.83824325210989
 10
76.48387584893459
 20
-81.83824325210989
 10
76.34848359636428
 20
-81.64669594313
 10
76.34848359636428
 20
-81.38142359076576
 10
76.34848359636428
 20
-81.10788300923693
 10
76.49248858764771
 20
-80.92425941987311
 10
76.75879446865753
 20
-80.92425941987311
 10
76.91968042781869
 20
-80.92425941987311
 10
77.03405759792899
 20
-80.99970701100008
 10
77.0933132402753
 20
-81.12028535298383
 10
77.14395614390845
 20
-81.0345024754011
 10
77.23904077930135
 20
-80.88154023585601
 10
77.50155705527739
 20
-80.88154023585601
 10
77.87603893452405
 20
-80.88154023585601
 10
77.99213865237697
 20
-81.15094670280254
 10
77.99213865237697
 20
-81.38142359076576
 97
        0
 97
        0
 92
        1
 93
        1
 72
     4
 94
        3
 73
     0
 74
     1
 95
       17
 96
       13
 40
0.0
 40
0.0
 40
0.0
 40
0.0
 40
1.0
 40
1.0
 40
1.0
 40
2.0
 40
2.0
 40
2.0
 40
3.0
 40
3.0
 40
3.0
 40
4.0
 40
4.0
 40
4.0
 40
4.0
 10
76.54106443398973
 20
-81.38142359076576
 10
76.54106443398973
 20
-81.5405870021843
 10
76.63614906938264
 20
-81.6218912556362
 10
76.77154132195295
 20
-81.6218912556362
 10
76.89418672122784
 20
-81.6218912556362
 10
77.01269800592044
 20
-81.55264483638267
 10
77.01269800592044
 20
-81.38142359076576
 10
77.01269800592044
 20
-81.20985783560032
 10
76.89418672122784
 20
-81.1406114163468
 10
76.77154132195295
 20
-81.1406114163468
 10
76.63614906938264
 20
-81.1406114163468
 10
76.54106443398973
 20
-81.22432723663836
 10
76.54106443398973
 20
-81.38142359076576
 97
        0
 97
        0
 92
        1
 93
        1
 72
     4
 94
        3
 73
     0
 74
     1
 95
       17
 96
       13
 40
0.0
 40
0.0
 40
0.0
 40
0.0
 40
1.0
 40
1.0
 40
1.0
 40
2.0
 40
2.0
 40
2.0
 40
3.0
 40
3.0
 40
3.0
 40
4.0
 40
4.0
 40
4.0
 40
4.0
 10
77.20114472896361
 20
-81.38142359076576
 10
77.20114472896361
 20
-81.5199164292728
 10
77.2879611351919
 20
-81.66702200649297
 10
77.49087725927312
 20
-81.66702200649297
 10
77.696204950194
 20
-81.66702200649297
 10
77.79749075746035
 20
-81.54437660721807
 10
77.79749075746035
 20
-81.38142359076576
 10
77.79749075746035
 20
-81.20193411598424
 10
77.67484535818546
 20
-81.09582517503854
 10
77.49707843114656
 20
-81.09582517503854
 10
77.27521428189648
 20
-81.09582517503854
 10
77.20114472896361
 20
-81.25292152916595
 10
77.20114472896361
 20
-81.38142359076576
 97
        0
 97
        0
 75
     2
 76
     1
 98
        0
  0
ENDBLK
  5
5D
330
5A
100
AcDbEntity
  8
0
100
AcDbBlockEnd
  0
BLOCK
  5
7B
330
79
100
AcDbEntity
  8
0
100
AcDbBlockBegin
  2
block 3
 70
     0
 10
0.0
 20
0.0
 30
0.0
  3
block 3
  1

  0
SPLINE
  5
7D
330
79
100
AcDbEntity
  8
_U+30EC_U+30A4_U+30E4_U+30FC 1
370
     0
100
AcDbSpline
210
0.0
220
0.0
230
1.0
 70
    11
 71
     3
 72
    53
 73
    49
 74
     0
 42
0.0000000001
 43
0.0000000001
 12
1.0
 22
0.0
 32
0.0
 13
1.0
 23
0.0
 33
0.0
 40
0.0
 40
0.0
 40
0.0
 40
0.0
 40
1.0
 40
1.0
 40
1.0
 40
2.0
 40
2.0
 40
2.0
 40
3.0
 40
3.0
 40
3.0
 40
4.0
 40
4.0
 40
4.0
 40
5.0
 40
5.0
 40
5.0
 40
6.0
 40
6.0
 40
6.0
 40
7.0
 40
7.0
 40
7.0
 40
8.0
 40
8.0
 40
8.0
 40
9.0
 40
9.0
 40
9.0
 40
10.0
 40
10.0
 40
10.0
 40
11.0
 40
11.0
 40
11.0
 40
12.0
 40
12.0
 40
12.0
 40
13.0
 40
13.0
 40
13.0
 40
14.0
 40
14.0
 40
14.0
 40
15.0
 40
15.0
 40
15.0
 40
16.0
 40
16.0
 40
16.0
 40
16.0
 10
49.14204778502352
 20
-102.2066812895525
 30
0.0
 10
49.06660019389655
 20
-102.2066812895525
 30
0.0
 10
48.96858722734119
 20
-102.1898003216748
 30
0.0
 10
48.87074651556009
 20
-102.1264105647462
 30
0.0
 10
48.70348712975122
 20
-102.0165120187667
 30
0.0
 10
48.68298881161397
 20
-101.8852538807787
 30
0.0
 10
48.66472980554215
 20
-101.7774223920904
 30
0.0
 10
48.66472980554215
 20
-101.7774223920904
 30
0.0
 10
48.87884248995043
 20
-101.7774223920904
 30
0.0
 10
48.87884248995043
 20
-101.7774223920904
 30
0.0
 10
48.93189696042328
 20
-101.9762044015893
 30
0.0
 10
49.05437010492391
 20
-102.0058322227624
 30
0.0
 10
49.14411484231467
 20
-102.0058322227624
 30
0.0
 10
49.27864582101368
 20
-102.0058322227624
 30
0.0
 10
49.42557914345958
 20
-101.9062689632387
 30
0.0
 10
49.42557914345958
 20
-101.6737250179844
 30
0.0
 10
49.42557914345958
 20
-101.4177544234303
 30
0.0
 10
49.25229084055151
 20
-101.3478189850797
 30
0.0
 10
49.13584661315006
 20
-101.3478189850797
 30
0.0
 10
49.10535751810561
 20
-101.3478189850797
 30
0.0
 10
48.96858722734119
 20
-101.3478189850797
 30
0.0
 10
48.88297660453273
 20
-101.4770100657766
 30
0.0
 10
48.88297660453273
 20
-101.4770100657766
 30
0.0
 10
48.7136501614327
 20
-101.4580620406077
 30
0.0
 10
48.7136501614327
 20
-101.4580620406077
 30
0.0
 10
48.7136501614327
 20
-101.4580620406077
 30
0.0
 10
48.82992213405988
 20
-100.6116020798818
 30
0.0
 10
48.82992213405988
 20
-100.6116020798818
 30
0.0
 10
48.82992213405988
 20
-100.6116020798818
 30
0.0
 10
49.58060844029582
 20
-100.6116020798818
 30
0.0
 10
49.58060844029582
 20
-100.6116020798818
 30
0.0
 10
49.58060844029582
 20
-100.6116020798818
 30
0.0
 10
49.58060844029582
 20
-100.8062499747984
 30
0.0
 10
49.58060844029582
 20
-100.8062499747984
 30
0.0
 10
49.58060844029582
 20
-100.8062499747984
 30
0.0
 10
48.98701848818727
 20
-100.8062499747984
 30
0.0
 10
48.98701848818727
 20
-100.8062499747984
 30
0.0
 10
48.98701848818727
 20
-100.8062499747984
 30
0.0
 10
48.92380098603294
 20
-101.2293077003871
 30
0.0
 10
48.92380098603294
 20
-101.2293077003871
 30
0.0
 10
48.98288437360497
 20
-101.1955457646317
 30
0.0
 10
49.06246607931425
 20
-101.1552381474543
 30
0.0
 10
49.17667099465028
 20
-101.1552381474543
 30
0.0
 10
49.42161728365154
 20
-101.1552381474543
 30
0.0
 10
49.65002711432361
 20
-101.3416178132063
 30
0.0
 10
49.65002711432361
 20
-101.6547769928155
 30
0.0
 10
49.65002711432361
 20
-101.972070287007
 30
0.0
 10
49.43384737262418
 20
-102.2066812895525
 30
0.0
 10
49.14204778502352
 20
-102.2066812895525
 30
0.0
  0
HATCH
  5
7E
330
79
100
AcDbEntity
  8
_U+30EC_U+30A4_U+30E4_U+30FC 1
 62
   179
420
  2234388
100
AcDbHatch
 10
0.0
 20
0.0
 30
0.0
210
0.0
220
0.0
230
1.0
  2
SOLID
 70
     1
 71
     0
 91
        1
 92
        1
 93
        1
 72
     4
 94
        3
 73
     0
 74
     1
 95
       53
 96
       49
 40
0.0
 40
0.0
 40
0.0
 40
0.0
 40
1.0
 40
1.0
 40
1.0
 40
2.0
 40
2.0
 40
2.0
 40
3.0
 40
3.0
 40
3.0
 40
4.0
 40
4.0
 40
4.0
 40
5.0
 40
5.0
 40
5.0
 40
6.0
 40
6.0
 40
6.0
 40
7.0
 40
7.0
 40
7.0
 40
8.0
 40
8.0
 40
8.0
 40
9.0
 40
9.0
 40
9.0
 40
10.0
 40
10.0
 40
10.0
 40
11.0
 40
11.0
 40
11.0
 40
12.0
 40
12.0
 40
12.0
 40
13.0
 40
13.0
 40
13.0
 40
14.0
 40
14.0
 40
14.0
 40
15.0
 40
15.0
 40
15.0
 40
16.0
 40
16.0
 40
16.0
 40
16.0
 10
49.14204778502352
 20
-102.2066812895525
 10
49.06660019389655
 20
-102.2066812895525
 10
48.96858722734119
 20
-102.1898003216748
 10
48.87074651556009
 20
-102.1264105647462
 10
48.70348712975122
 20
-102.0165120187667
 10
48.68298881161397
 20
-101.8852538807787
 10
48.66472980554215
 20
-101.7774223920904
 10
48.66472980554215
 20
-101.7774223920904
 10
48.87884248995043
 20
-101.7774223920904
 10
48.87884248995043
 20
-101.7774223920904
 10
48.93189696042328
 20
-101.9762044015893
 10
49.05437010492391
 20
-102.0058322227624
 10
49.14411484231467
 20
-102.0058322227624
 10
49.27864582101368
 20
-102.0058322227624
 10
49.42557914345958
 20
-101.9062689632387
 10
49.42557914345958
 20
-101.6737250179844
 10
49.42557914345958
 20
-101.4177544234303
 10
49.25229084055151
 20
-101.3478189850797
 10
49.13584661315006
 20
-101.3478189850797
 10
49.10535751810561
 20
-101.3478189850797
 10
48.96858722734119
 20
-101.3478189850797
 10
48.88297660453273
 20
-101.4770100657766
 10
48.88297660453273
 20
-101.4770100657766
 10
48.7136501614327
 20
-101.4580620406077
 10
48.7136501614327
 20
-101.4580620406077
 10
48.7136501614327
 20
-101.4580620406077
 10
48.82992213405988
 20
-100.6116020798818
 10
48.82992213405988
 20
-100.6116020798818
 10
48.82992213405988
 20
-100.6116020798818
 10
49.58060844029582
 20
-100.6116020798818
 10
49.58060844029582
 20
-100.6116020798818
 10
49.58060844029582
 20
-100.6116020798818
 10
49.58060844029582
 20
-100.8062499747984
 10
49.58060844029582
 20
-100.8062499747984
 10
49.58060844029582
 20
-100.8062499747984
 10
48.98701848818727
 20
-100.8062499747984
 10
48.98701848818727
 20
-100.8062499747984
 10
48.98701848818727
 20
-100.8062499747984
 10
48.92380098603294
 20
-101.2293077003871
 10
48.92380098603294
 20
-101.2293077003871
 10
48.98288437360497
 20
-101.1955457646317
 10
49.06246607931425
 20
-101.1552381474543
 10
49.17667099465028
 20
-101.1552381474543
 10
49.42161728365154
 20
-101.1552381474543
 10
49.65002711432361
 20
-101.3416178132063
 10
49.65002711432361
 20
-101.6547769928155
 10
49.65002711432361
 20
-101.972070287007
 10
49.43384737262418
 20
-102.2066812895525
 10
49.14204778502352
 20
-102.2066812895525
 97
        0
 97
        0
 75
     2
 76
     1
 98
        0
  0
ENDBLK
  5
7C
330
79
100
AcDbEntity
  8
0
100
AcDbBlockEnd
  0
BLOCK
  5
8D
330
8B
100
AcDbEntity
  8
0
100
AcDbBlockBegin
  2
block 4
 70
     0
 10
0.0
 20
0.0
 30
0.0
  3
block 4
  1

  0
SPLINE
  5
8F
330
8B
100
AcDbEntity
  8
_U+30EC_U+30A4_U+30E4_U+30FC 1
370
     0
100
AcDbSpline
210
0.0
220
0.0
230
1.0
 70
    11
 71
     3
 72
    26
 73
    22
 74
     0
 42
0.0000000001
 43
0.0000000001
 12
1.0
 22
0.0
 32
0.0
 13
1.0
 23
0.0
 33
0.0
 40
0.0
 40
0.0
 40
0.0
 40
0.0
 40
1.0
 40
1.0
 40
1.0
 40
2.0
 40
2.0
 40
2.0
 40
3.0
 40
3.0
 40
3.0
 40
4.0
 40
4.0
 40
4.0
 40
5.0
 40
5.0
 40
5.0
 40
6.0
 40
6.0
 40
6.0
 40
7.0
 40
7.0
 40
7.0
 40
7.0
 10
74.41371797184796
 20
-89.91561412682665
 30
0.0
 10
74.41371797184796
 20
-89.91561412682665
 30
0.0
 10
73.30956486882539
 20
-89.91561412682665
 30
0.0
 10
73.30956486882539
 20
-89.91561412682665
 30
0.0
 10
73.30956486882539
 20
-89.91561412682665
 30
0.0
 10
73.30956486882539
 20
-90.23394094966375
 30
0.0
 10
73.30956486882539
 20
-90.23394094966375
 30
0.0
 10
73.30956486882539
 20
-90.23394094966375
 30
0.0
 10
73.16142576295965
 20
-90.23394094966375
 30
0.0
 10
73.16142576295965
 20
-90.23394094966375
 30
0.0
 10
73.14661185237307
 20
-89.91354706953551
 30
0.0
 10
72.98365883592075
 20
-89.86876082822725
 30
0.0
 10
72.86928166581046
 20
-89.84016653569968
 30
0.0
 10
72.86928166581046
 20
-89.84016653569968
 30
0.0
 10
72.86928166581046
 20
-89.69926213035296
 30
0.0
 10
72.86928166581046
 20
-89.69926213035296
 30
0.0
 10
72.86928166581046
 20
-89.69926213035296
 30
0.0
 10
74.41371797184796
 20
-89.69926213035296
 30
0.0
 10
74.41371797184796
 20
-89.69926213035296
 30
0.0
 10
74.41371797184796
 20
-89.69926213035296
 30
0.0
 10
74.41371797184796
 20
-89.91561412682665
 30
0.0
 10
74.41371797184796
 20
-89.91561412682665
 30
0.0
  0
HATCH
  5
90
330
8B
100
AcDbEntity
  8
_U+30EC_U+30A4_U+30E4_U+30FC 1
 62
   179
420
  2234388
100
AcDbHatch
 10
0.0
 20
0.0
 30
0.0
210
0.0
220
0.0
230
1.0
  2
SOLID
 70
     1
 71
     0
 91
        1
 92
        1
 93
        1
 72
     4
 94
        3
 73
     0
 74
     1
 95
       26
 96
       22
 40
0.0
 40
0.0
 40
0.0
 40
0.0
 40
1.0
 40
1.0
 40
1.0
 40
2.0
 40
2.0
 40
2.0
 40
3.0
 40
3.0
 40
3.0
 40
4.0
 40
4.0
 40
4.0
 40
5.0
 40
5.0
 40
5.0
 40
6.0
 40
6.0
 40
6.0
 40
7.0
 40
7.0
 40
7.0
 40
7.0
 10
74.41371797184796
 20
-89.91561412682665
 10
74.41371797184796
 20
-89.91561412682665
 10
73.30956486882539
 20
-89.91561412682665
 10
73.30956486882539
 20
-89.91561412682665
 10
73.30956486882539
 20
-89.91561412682665
 10
73.30956486882539
 20
-90.23394094966375
 10
73.30956486882539
 20
-90.23394094966375
 10
73.30956486882539
 20
-90.23394094966375
 10
73.16142576295965
 20
-90.23394094966375
 10
73.16142576295965
 20
-90.23394094966375
 10
73.14661185237307
 20
-89.91354706953551
 10
72.98365883592075
 20
-89.86876082822725
 10
72.86928166581046
 20
-89.84016653569968
 10
72.86928166581046
 20
-89.84016653569968
 10
72.86928166581046
 20
-89.69926213035296
 10
72.86928166581046
 20
-89.69926213035296
 10
72.86928166581046
 20
-89.69926213035296
 10
74.41371797184796
 20
-89.69926213035296
 10
74.41371797184796
 20
-89.69926213035296
 10
74.41371797184796
 20
-89.69926213035296
 10
74.41371797184796
 20
-89.91561412682665
 10
74.41371797184796
 20
-89.91561412682665
 97
        0
 97
        0
 75
     2
 76
     1
 98
        0
  0
SPLINE
  5
91
330
8B
100
AcDbEntity
  8
_U+30EC_U+30A4_U+30E4_U+30FC 1
370
     0
100
AcDbSpline
210
0.0
220
0.0
230
1.0
 70
    11
 71
     3
 72
    62
 73
    58
 74
     0
 42
0.0000000001
 43
0.0000000001
 12
1.0
 22
0.0
 32
0.0
 13
1.0
 23
0.0
 33
0.0
 40
0.0
 40
0.0
 40
0.0
 40
0.0
 40
1.0
 40
1.0
 40
1.0
 40
2.0
 40
2.0
 40
2.0
 40
3.0
 40
3.0
 40
3.0
 40
4.0
 40
4.0
 40
4.0
 40
5.0
 40
5.0
 40
5.0
 40
6.0
 40
6.0
 40
6.0
 40
7.0
 40
7.0
 40
7.0
 40
8.0
 40
8.0
 40
8.0
 40
9.0
 40
9.0
 40
9.0
 40
10.0
 40
10.0
 40
10.0
 40
11.0
 40
11.0
 40
11.0
 40
12.0
 40
12.0
 40
12.0
 40
13.0
 40
13.0
 40
13.0
 40
14.0
 40
14.0
 40
14.0
 40
15.0
 40
15.0
 40
15.0
 40
16.0
 40
16.0
 40
16.0
 40
17.0
 40
17.0
 40
17.0
 40
18.0
 40
18.0
 40
18.0
 40
19.0
 40
19.0
 40
19.0
 40
19.0
 10
74.46436087548113
 20
-88.74324813319613
 30
0.0
 10
74.46436087548113
 20
-88.8352321826523
 30
0.0
 10
74.44334579302111
 20
-89.04538300725255
 30
0.0
 10
74.25731063681762
 20
-89.16561683968777
 30
0.0
 10
74.14500052399848
 20
-89.23693031623243
 30
0.0
 10
74.04578177402328
 20
-89.24106443081473
 30
0.0
 10
73.96103242508613
 20
-89.24519854539703
 30
0.0
 10
73.96103242508613
 20
-89.24519854539703
 30
0.0
 10
73.96103242508613
 20
-89.03298066350565
 30
0.0
 10
73.96103242508613
 20
-89.03298066350565
 30
0.0
 10
74.035101978019
 20
-89.0309136062145
 30
0.0
 10
74.26971298056452
 20
-89.02092282930727
 30
0.0
 10
74.26971298056452
 20
-88.74738224777843
 30
0.0
 10
74.26971298056452
 20
-88.61474607159631
 30
0.0
 10
74.20012205176248
 20
-88.46798500392467
 30
0.0
 10
73.97171222109041
 20
-88.46798500392467
 30
0.0
 10
73.85526799368897
 20
-88.46798500392467
 30
0.0
 10
73.80669214734694
 20
-88.50484752561685
 30
0.0
 10
73.77499726888264
 20
-88.53516436588704
 30
0.0
 10
73.70092771594977
 20
-88.60682235198024
 30
0.0
 10
73.68818086265435
 20
-88.71878795525086
 30
0.0
 10
73.68818086265435
 20
-88.7718424257237
 30
0.0
 10
73.68818086265435
 20
-88.79044594134406
 30
0.0
 10
73.69024791994549
 20
-88.82489689619656
 30
0.0
 10
73.69438203452779
 20
-88.85142413143298
 30
0.0
 10
73.69438203452779
 20
-88.85142413143298
 30
0.0
 10
73.49973413961118
 20
-88.85142413143298
 30
0.0
 10
73.49973413961118
 20
-88.85142413143298
 30
0.0
 10
73.50627982103316
 20
-88.81490611928933
 30
0.0
 10
73.5083468783243
 20
-88.77390948301486
 30
0.0
 10
73.5083468783243
 20
-88.7677083111414
 30
0.0
 10
73.5083468783243
 20
-88.70466306376134
 30
0.0
 10
73.48698728631575
 20
-88.51277124523293
 30
0.0
 10
73.25030922647909
 20
-88.51277124523293
 30
0.0
 10
73.0725422994402
 20
-88.51277124523293
 30
0.0
 10
73.0174207716762
 20
-88.63920624954159
 30
0.0
 10
73.0174207716762
 20
-88.74531519048729
 30
0.0
 10
73.0174207716762
 20
-89.0005967659443
 30
0.0
 10
73.25030922647909
 20
-89.00852048556037
 30
0.0
 10
73.32196721257229
 20
-89.01265460014267
 30
0.0
 10
73.32196721257229
 20
-89.01265460014267
 30
0.0
 10
73.32196721257229
 20
-89.20868053325339
 30
0.0
 10
73.32196721257229
 20
-89.20868053325339
 30
0.0
 10
73.19725475600625
 20
-89.20041230408879
 30
0.0
 10
72.82070581946844
 20
-89.17388506885237
 30
0.0
 10
72.82070581946844
 20
-88.73325735628892
 30
0.0
 10
72.82070581946844
 20
-88.51690535981523
 30
0.0
 10
72.94782984287416
 20
-88.28436141456086
 30
0.0
 10
73.24376354505712
 20
-88.28436141456086
 30
0.0
 10
73.43014321080913
 20
-88.28436141456086
 30
0.0
 10
73.5124809929066
 20
-88.37600095446851
 30
0.0
 10
73.57380369254405
 20
-88.47211911850698
 30
0.0
 10
73.60136445642605
 20
-88.41286347616068
 30
0.0
 10
73.68163518123237
 20
-88.23750811596146
 30
0.0
 10
73.95896536779499
 20
-88.23750811596146
 30
0.0
 10
74.29727374444651
 20
-88.23750811596146
 30
0.0
 10
74.46436087548113
 20
-88.47625323308928
 30
0.0
 10
74.46436087548113
 20
-88.74324813319613
 30
0.0
  0
HATCH
  5
92
330
8B
100
AcDbEntity
  8
_U+30EC_U+30A4_U+30E4_U+30FC 1
 62
   179
420
  2234388
100
AcDbHatch
 10
0.0
 20
0.0
 30
0.0
210
0.0
220
0.0
230
1.0
  2
SOLID
 70
     1
 71
     0
 91
        1
 92
        1
 93
        1
 72
     4
 94
        3
 73
     0
 74
     1
 95
       62
 96
       58
 40
0.0
 40
0.0
 40
0.0
 40
0.0
 40
1.0
 40
1.0
 40
1.0
 40
2.0
 40
2.0
 40
2.0
 40
3.0
 40
3.0
 40
3.0
 40
4.0
 40
4.0
 40
4.0
 40
5.0
 40
5.0
 40
5.0
 40
6.0
 40
6.0
 40
6.0
 40
7.0
 40
7.0
 40
7.0
 40
8.0
 40
8.0
 40
8.0
 40
9.0
 40
9.0
 40
9.0
 40
10.0
 40
10.0
 40
10.0
 40
11.0
 40
11.0
 40
11.0
 40
12.0
 40
12.0
 40
12.0
 40
13.0
 40
13.0
 40
13.0
 40
14.0
 40
14.0
 40
14.0
 40
15.0
 40
15.0
 40
15.0
 40
16.0
 40
16.0
 40
16.0
 40
17.0
 40
17.0
 40
17.0
 40
18.0
 40
18.0
 40
18.0
 40
19.0
 40
19.0
 40
19.0
 40
19.0
 10
74.46436087548113
 20
-88.74324813319613
 10
74.46436087548113
 20
-88.8352321826523
 10
74.44334579302111
 20
-89.04538300725255
 10
74.25731063681762
 20
-89.16561683968777
 10
74.14500052399848
 20
-89.23693031623243
 10
74.04578177402328
 20
-89.24106443081473
 10
73.96103242508613
 20
-89.24519854539703
 10
73.96103242508613
 20
-89.24519854539703
 10
73.96103242508613
 20
-89.03298066350565
 10
73.96103242508613
 20
-89.03298066350565
 10
74.035101978019
 20
-89.0309136062145
 10
74.26971298056452
 20
-89.02092282930727
 10
74.26971298056452
 20
-88.74738224777843
 10
74.26971298056452
 20
-88.61474607159631
 10
74.20012205176248
 20
-88.46798500392467
 10
73.97171222109041
 20
-88.46798500392467
 10
73.85526799368897
 20
-88.46798500392467
 10
73.80669214734694
 20
-88.50484752561685
 10
73.77499726888264
 20
-88.53516436588704
 10
73.70092771594977
 20
-88.60682235198024
 10
73.68818086265435
 20
-88.71878795525086
 10
73.68818086265435
 20
-88.7718424257237
 10
73.68818086265435
 20
-88.79044594134406
 10
73.69024791994549
 20
-88.82489689619656
 10
73.69438203452779
 20
-88.85142413143298
 10
73.69438203452779
 20
-88.85142413143298
 10
73.49973413961118
 20
-88.85142413143298
 10
73.49973413961118
 20
-88.85142413143298
 10
73.50627982103316
 20
-88.81490611928933
 10
73.5083468783243
 20
-88.77390948301486
 10
73.5083468783243
 20
-88.7677083111414
 10
73.5083468783243
 20
-88.70466306376134
 10
73.48698728631575
 20
-88.51277124523293
 10
73.25030922647909
 20
-88.51277124523293
 10
73.0725422994402
 20
-88.51277124523293
 10
73.0174207716762
 20
-88.63920624954159
 10
73.0174207716762
 20
-88.74531519048729
 10
73.0174207716762
 20
-89.0005967659443
 10
73.25030922647909
 20
-89.00852048556037
 10
73.32196721257229
 20
-89.01265460014267
 10
73.32196721257229
 20
-89.01265460014267
 10
73.32196721257229
 20
-89.20868053325339
 10
73.32196721257229
 20
-89.20868053325339
 10
73.19725475600625
 20
-89.20041230408879
 10
72.82070581946844
 20
-89.17388506885237
 10
72.82070581946844
 20
-88.73325735628892
 10
72.82070581946844
 20
-88.51690535981523
 10
72.94782984287416
 20
-88.28436141456086
 10
73.24376354505712
 20
-88.28436141456086
 10
73.43014321080913
 20
-88.28436141456086
 10
73.5124809929066
 20
-88.37600095446851
 10
73.57380369254405
 20
-88.47211911850698
 10
73.60136445642605
 20
-88.41286347616068
 10
73.68163518123237
 20
-88.23750811596146
 10
73.95896536779499
 20
-88.23750811596146
 10
74.29727374444651
 20
-88.23750811596146
 10
74.46436087548113
 20
-88.47625323308928
 10
74.46436087548113
 20
-88.74324813319613
 97
        0
 97
        0
 75
     2
 76
     1
 98
        0
  0
ENDBLK
  5
8E
330
8B
100
AcDbEntity
  8
0
100
AcDbBlockEnd
  0
BLOCK
  5
A1
330
9F
100
AcDbEntity
  8
0
100
AcDbBlockBegin
  2
block 5
 70
     0
 10
0.0
 20
0.0
 30
0.0
  3
block 5
  1

  0
SPLINE
  5
A3
330
9F
100
AcDbEntity
  8
_U+30EC_U+30A4_U+30E4_U+30FC 1
370
     0
100
AcDbSpline
210
0.0
220
0.0
230
1.0
 70
    11
 71
     3
 72
    62
 73
    58
 74
     0
 42
0.0000000001
 43
0.0000000001
 12
1.0
 22
0.0
 32
0.0
 13
1.0
 23
0.0
 33
0.0
 40
0.0
 40
0.0
 40
0.0
 40
0.0
 40
1.0
 40
1.0
 40
1.0
 40
2.0
 40
2.0
 40
2.0
 40
3.0
 40
3.0
 40
3.0
 40
4.0
 40
4.0
 40
4.0
 40
5.0
 40
5.0
 40
5.0
 40
6.0
 40
6.0
 40
6.0
 40
7.0
 40
7.0
 40
7.0
 40
8.0
 40
8.0
 40
8.0
 40
9.0
 40
9.0
 40
9.0
 40
10.0
 40
10.0
 40
10.0
 40
11.0
 40
11.0
 40
11.0
 40
12.0
 40
12.0
 40
12.0
 40
13.0
 40
13.0
 40
13.0
 40
14.0
 40
14.0
 40
14.0
 40
15.0
 40
15.0
 40
15.0
 40
16.0
 40
16.0
 40
16.0
 40
17.0
 40
17.0
 40
17.0
 40
18.0
 40
18.0
 40
18.0
 40
19.0
 40
19.0
 40
19.0
 40
19.0
 10
55.06433917894225
 20
-97.30982256681838
 30
0.0
 10
55.06433917894225
 20
-97.40180661627456
 30
0.0
 10
55.04332409648223
 20
-97.61195744087479
 30
0.0
 10
54.85728894027874
 20
-97.73219127331001
 30
0.0
 10
54.74497882745959
 20
-97.80350474985468
 30
0.0
 10
54.6457600774844
 20
-97.80763886443698
 30
0.0
 10
54.56101072854725
 20
-97.81177297901928
 30
0.0
 10
54.56101072854725
 20
-97.81177297901928
 30
0.0
 10
54.56101072854725
 20
-97.59955509712789
 30
0.0
 10
54.56101072854725
 20
-97.59955509712789
 30
0.0
 10
54.63508028148012
 20
-97.59748803983675
 30
0.0
 10
54.86969128402563
 20
-97.58749726292952
 30
0.0
 10
54.86969128402563
 20
-97.31395668140068
 30
0.0
 10
54.86969128402563
 20
-97.18132050521857
 30
0.0
 10
54.80010035522359
 20
-97.03455943754692
 30
0.0
 10
54.57169052455153
 20
-97.03455943754692
 30
0.0
 10
54.45524629715008
 20
-97.03455943754692
 30
0.0
 10
54.40667045080806
 20
-97.07142195923909
 30
0.0
 10
54.37497557234376
 20
-97.10173879950929
 30
0.0
 10
54.30090601941089
 20
-97.17339678560249
 30
0.0
 10
54.28815916611546
 20
-97.28536238887311
 30
0.0
 10
54.28815916611546
 20
-97.33841685934595
 30
0.0
 10
54.28815916611546
 20
-97.35702037496631
 30
0.0
 10
54.29022622340661
 20
-97.3914713298188
 30
0.0
 10
54.29436033798891
 20
-97.41799856505523
 30
0.0
 10
54.29436033798891
 20
-97.41799856505523
 30
0.0
 10
54.0997124430723
 20
-97.41799856505523
 30
0.0
 10
54.0997124430723
 20
-97.41799856505523
 30
0.0
 10
54.10625812449427
 20
-97.38148055291158
 30
0.0
 10
54.10832518178542
 20
-97.34048391663711
 30
0.0
 10
54.10832518178542
 20
-97.33428274476366
 30
0.0
 10
54.10832518178542
 20
-97.27123749738358
 30
0.0
 10
54.08696558977687
 20
-97.07934567885516
 30
0.0
 10
53.85028752994021
 20
-97.07934567885516
 30
0.0
 10
53.67252060290132
 20
-97.07934567885516
 30
0.0
 10
53.61739907513732
 20
-97.20578068316384
 30
0.0
 10
53.61739907513732
 20
-97.31188962410953
 30
0.0
 10
53.61739907513732
 20
-97.56717119956654
 30
0.0
 10
53.85028752994021
 20
-97.57509491918262
 30
0.0
 10
53.9219455160334
 20
-97.57922903376492
 30
0.0
 10
53.9219455160334
 20
-97.57922903376492
 30
0.0
 10
53.9219455160334
 20
-97.77525496687564
 30
0.0
 10
53.9219455160334
 20
-97.77525496687564
 30
0.0
 10
53.79723305946736
 20
-97.76698673771104
 30
0.0
 10
53.42068412292955
 20
-97.74045950247461
 30
0.0
 10
53.42068412292955
 20
-97.29983178991115
 30
0.0
 10
53.42068412292955
 20
-97.08347979343746
 30
0.0
 10
53.54780814633527
 20
-96.8509358481831
 30
0.0
 10
53.84374184851823
 20
-96.8509358481831
 30
0.0
 10
54.03012151427025
 20
-96.8509358481831
 30
0.0
 10
54.11245929636772
 20
-96.94257538809075
 30
0.0
 10
54.17378199600517
 20
-97.03869355212922
 30
0.0
 10
54.20134275988717
 20
-96.97943790978292
 30
0.0
 10
54.28161348469349
 20
-96.80408254958371
 30
0.0
 10
54.5589436712561
 20
-96.80408254958371
 30
0.0
 10
54.89725204790764
 20
-96.80408254958371
 30
0.0
 10
55.06433917894225
 20
-97.04282766671152
 30
0.0
 10
55.06433917894225
 20
-97.30982256681838
 30
0.0
  0
HATCH
  5
A4
330
9F
100
AcDbEntity
  8
_U+30EC_U+30A4_U+30E4_U+30FC 1
 62
   179
420
  2234388
100
AcDbHatch
 10
0.0
 20
0.0
 30
0.0
210
0.0
220
0.0
230
1.0
  2
SOLID
 70
     1
 71
     0
 91
        1
 92
        1
 93
        1
 72
     4
 94
        3
 73
     0
 74
     1
 95
       62
 96
       58
 40
0.0
 40
0.0
 40
0.0
 40
0.0
 40
1.0
 40
1.0
 40
1.0
 40
2.0
 40
2.0
 40
2.0
 40
3.0
 40
3.0
 40
3.0
 40
4.0
 40
4.0
 40
4.0
 40
5.0
 40
5.0
 40
5.0
 40
6.0
 40
6.0
 40
6.0
 40
7.0
 40
7.0
 40
7.0
 40
8.0
 40
8.0
 40
8.0
 40
9.0
 40
9.0
 40
9.0
 40
10.0
 40
10.0
 40
10.0
 40
11.0
 40
11.0
 40
11.0
 40
12.0
 40
12.0
 40
12.0
 40
13.0
 40
13.0
 40
13.0
 40
14.0
 40
14.0
 40
14.0
 40
15.0
 40
15.0
 40
15.0
 40
16.0
 40
16.0
 40
16.0
 40
17.0
 40
17.0
 40
17.0
 40
18.0
 40
18.0
 40
18.0
 40
19.0
 40
19.0
 40
19.0
 40
19.0
 10
55.06433917894225
 20
-97.30982256681838
 10
55.06433917894225
 20
-97.40180661627456
 10
55.04332409648223
 20
-97.61195744087479
 10
54.85728894027874
 20
-97.73219127331001
 10
54.74497882745959
 20
-97.80350474985468
 10
54.6457600774844
 20
-97.80763886443698
 10
54.56101072854725
 20
-97.81177297901928
 10
54.56101072854725
 20
-97.81177297901928
 10
54.56101072854725
 20
-97.59955509712789
 10
54.56101072854725
 20
-97.59955509712789
 10
54.63508028148012
 20
-97.59748803983675
 10
54.86969128402563
 20
-97.58749726292952
 10
54.86969128402563
 20
-97.31395668140068
 10
54.86969128402563
 20
-97.18132050521857
 10
54.80010035522359
 20
-97.03455943754692
 10
54.57169052455153
 20
-97.03455943754692
 10
54.45524629715008
 20
-97.03455943754692
 10
54.40667045080806
 20
-97.07142195923909
 10
54.37497557234376
 20
-97.10173879950929
 10
54.30090601941089
 20
-97.17339678560249
 10
54.28815916611546
 20
-97.28536238887311
 10
54.28815916611546
 20
-97.33841685934595
 10
54.28815916611546
 20
-97.35702037496631
 10
54.29022622340661
 20
-97.3914713298188
 10
54.29436033798891
 20
-97.41799856505523
 10
54.29436033798891
 20
-97.41799856505523
 10
54.0997124430723
 20
-97.41799856505523
 10
54.0997124430723
 20
-97.41799856505523
 10
54.10625812449427
 20
-97.38148055291158
 10
54.10832518178542
 20
-97.34048391663711
 10
54.10832518178542
 20
-97.33428274476366
 10
54.10832518178542
 20
-97.27123749738358
 10
54.08696558977687
 20
-97.07934567885516
 10
53.85028752994021
 20
-97.07934567885516
 10
53.67252060290132
 20
-97.07934567885516
 10
53.61739907513732
 20
-97.20578068316384
 10
53.61739907513732
 20
-97.31188962410953
 10
53.61739907513732
 20
-97.56717119956654
 10
53.85028752994021
 20
-97.57509491918262
 10
53.9219455160334
 20
-97.57922903376492
 10
53.9219455160334
 20
-97.57922903376492
 10
53.9219455160334
 20
-97.77525496687564
 10
53.9219455160334
 20
-97.77525496687564
 10
53.79723305946736
 20
-97.76698673771104
 10
53.42068412292955
 20
-97.74045950247461
 10
53.42068412292955
 20
-97.29983178991115
 10
53.42068412292955
 20
-97.08347979343746
 10
53.54780814633527
 20
-96.8509358481831
 10
53.84374184851823
 20
-96.8509358481831
 10
54.03012151427025
 20
-96.8509358481831
 10
54.11245929636772
 20
-96.94257538809075
 10
54.17378199600517
 20
-97.03869355212922
 10
54.20134275988717
 20
-96.97943790978292
 10
54.28161348469349
 20
-96.80408254958371
 10
54.5589436712561
 20
-96.80408254958371
 10
54.89725204790764
 20
-96.80408254958371
 10
55.06433917894225
 20
-97.04282766671152
 10
55.06433917894225
 20
-97.30982256681838
 97
        0
 97
        0
 75
     2
 76
     1
 98
        0
  0
ENDBLK
  5
A2
330
9F
100
AcDbEntity
  8
0
100
AcDbBlockEnd
  0
BLOCK
  5
B3
330
B1
100
AcDbEntity
  8
0
100
AcDbBlockBegin
  2
block 6
 70
     0
 10
0.0
 20
0.0
 30
0.0
  3
block 6
  1

  0
SPLINE
  5
B5
330
B1
100
AcDbEntity
  8
_U+30EC_U+30A4_U+30E4_U+30FC 1
370
     0
100
AcDbSpline
210
0.0
220
0.0
230
1.0
 70
    11
 71
     3
 72
    44
 73
    40
 74
     0
 42
0.0000000001
 43
0.0000000001
 12
1.0
 22
0.0
 32
0.0
 13
1.0
 23
0.0
 33
0.0
 40
0.0
 40
0.0
 40
0.0
 40
0.0
 40
1.0
 40
1.0
 40
1.0
 40
2.0
 40
2.0
 40
2.0
 40
3.0
 40
3.0
 40
3.0
 40
4.0
 40
4.0
 40
4.0
 40
5.0
 40
5.0
 40
5.0
 40
6.0
 40
6.0
 40
6.0
 40
7.0
 40
7.0
 40
7.0
 40
8.0
 40
8.0
 40
8.0
 40
9.0
 40
9.0
 40
9.0
 40
10.0
 40
10.0
 40
10.0
 40
11.0
 40
11.0
 40
11.0
 40
12.0
 40
12.0
 40
12.0
 40
13.0
 40
13.0
 40
13.0
 40
13.0
 10
59.08338757203471
 20
-76.57465411497093
 30
0.0
 10
58.87323674743447
 20
-76.73330076206668
 30
0.0
 10
58.78349201004372
 20
-76.80737031499955
 30
0.0
 10
58.73646645667005
 20
-76.95120305150873
 30
0.0
 10
58.73646645667005
 20
-76.95120305150873
 30
0.0
 10
59.48732501768026
 20
-76.95120305150873
 30
0.0
 10
59.48732501768026
 20
-76.95120305150873
 30
0.0
 10
59.48732501768026
 20
-76.95120305150873
 30
0.0
 10
59.48732501768026
 20
-77.15635848765535
 30
0.0
 10
59.48732501768026
 20
-77.15635848765535
 30
0.0
 10
59.48732501768026
 20
-77.15635848765535
 30
0.0
 10
58.49582653702535
 20
-77.15635848765535
 30
0.0
 10
58.49582653702535
 20
-77.15635848765535
 30
0.0
 10
58.52631563206981
 20
-76.79875757628642
 30
0.0
 10
58.58970538899841
 20
-76.72055390877125
 30
0.0
 10
58.96091442753408
 20
-76.42220863974862
 30
0.0
 10
59.20775551905223
 20
-76.2234266302497
 30
0.0
 10
59.27097302120657
 20
-76.15573050396455
 30
0.0
 10
59.27097302120657
 20
-76.01827119410308
 30
0.0
 10
59.27097302120657
 20
-75.89975990941048
 30
0.0
 10
59.20172660195304
 20
-75.76867402619672
 30
0.0
 10
59.01190184071578
 20
-75.76867402619672
 30
0.0
 10
58.76092663461532
 20
-75.76867402619672
 30
0.0
 10
58.75283066022499
 20
-75.99915091415994
 30
0.0
 10
58.74869654564269
 20
-76.11559514156139
 30
0.0
 10
58.74869654564269
 20
-76.11559514156139
 30
0.0
 10
58.53251680394326
 20
-76.11559514156139
 30
0.0
 10
58.53251680394326
 20
-76.11559514156139
 30
0.0
 10
58.5406127783336
 20
-75.98864337292993
 30
0.0
 10
58.55077581001509
 20
-75.87650551488504
 30
0.0
 10
58.62846271320747
 20
-75.75799423019245
 30
0.0
 10
58.7343993993789
 20
-75.59728052580554
 30
0.0
 10
58.91406112893468
 20
-75.56334633527584
 30
0.0
 10
59.02619898697957
 20
-75.56334633527584
 30
0.0
 10
59.29353839663495
 20
-75.56334633527584
 30
0.0
 10
59.49335393477944
 20
-75.74748668896244
 30
0.0
 10
59.49335393477944
 20
-76.02033825139422
 30
0.0
 10
59.49335393477944
 20
-76.24874808206629
 30
0.0
 10
59.38121607673456
 20
-76.34831134159
 30
0.0
 10
59.08338757203471
 20
-76.57465411497093
 30
0.0
  0
HATCH
  5
B6
330
B1
100
AcDbEntity
  8
_U+30EC_U+30A4_U+30E4_U+30FC 1
 62
   179
420
  2234388
100
AcDbHatch
 10
0.0
 20
0.0
 30
0.0
210
0.0
220
0.0
230
1.0
  2
SOLID
 70
     1
 71
     0
 91
        1
 92
        1
 93
        1
 72
     4
 94
        3
 73
     0
 74
     1
 95
       44
 96
       40
 40
0.0
 40
0.0
 40
0.0
 40
0.0
 40
1.0
 40
1.0
 40
1.0
 40
2.0
 40
2.0
 40
2.0
 40
3.0
 40
3.0
 40
3.0
 40
4.0
 40
4.0
 40
4.0
 40
5.0
 40
5.0
 40
5.0
 40
6.0
 40
6.0
 40
6.0
 40
7.0
 40
7.0
 40
7.0
 40
8.0
 40
8.0
 40
8.0
 40
9.0
 40
9.0
 40
9.0
 40
10.0
 40
10.0
 40
10.0
 40
11.0
 40
11.0
 40
11.0
 40
12.0
 40
12.0
 40
12.0
 40
13.0
 40
13.0
 40
13.0
 40
13.0
 10
59.08338757203471
 20
-76.57465411497093
 10
58.87323674743447
 20
-76.73330076206668
 10
58.78349201004372
 20
-76.80737031499955
 10
58.73646645667005
 20
-76.95120305150873
 10
58.73646645667005
 20
-76.95120305150873
 10
59.48732501768026
 20
-76.95120305150873
 10
59.48732501768026
 20
-76.95120305150873
 10
59.48732501768026
 20
-76.95120305150873
 10
59.48732501768026
 20
-77.15635848765535
 10
59.48732501768026
 20
-77.15635848765535
 10
59.48732501768026
 20
-77.15635848765535
 10
58.49582653702535
 20
-77.15635848765535
 10
58.49582653702535
 20
-77.15635848765535
 10
58.52631563206981
 20
-76.79875757628642
 10
58.58970538899841
 20
-76.72055390877125
 10
58.96091442753408
 20
-76.42220863974862
 10
59.20775551905223
 20
-76.2234266302497
 10
59.27097302120657
 20
-76.15573050396455
 10
59.27097302120657
 20
-76.01827119410308
 10
59.27097302120657
 20
-75.89975990941048
 10
59.20172660195304
 20
-75.76867402619672
 10
59.01190184071578
 20
-75.76867402619672
 10
58.76092663461532
 20
-75.76867402619672
 10
58.75283066022499
 20
-75.99915091415994
 10
58.74869654564269
 20
-76.11559514156139
 10
58.74869654564269
 20
-76.11559514156139
 10
58.53251680394326
 20
-76.11559514156139
 10
58.53251680394326
 20
-76.11559514156139
 10
58.5406127783336
 20
-75.98864337292993
 10
58.55077581001509
 20
-75.87650551488504
 10
58.62846271320747
 20
-75.75799423019245
 10
58.7343993993789
 20
-75.59728052580554
 10
58.91406112893468
 20
-75.56334633527584
 10
59.02619898697957
 20
-75.56334633527584
 10
59.29353839663495
 20
-75.56334633527584
 10
59.49335393477944
 20
-75.74748668896244
 10
59.49335393477944
 20
-76.02033825139422
 10
59.49335393477944
 20
-76.24874808206629
 10
59.38121607673456
 20
-76.34831134159
 10
59.08338757203471
 20
-76.57465411497093
 97
        0
 97
        0
 75
     2
 76
     1
 98
        0
  0
SPLINE
  5
B7
330
B1
100
AcDbEntity
  8
_U+30EC_U+30A4_U+30E4_U+30FC 1
370
     0
100
AcDbSpline
210
0.0
220
0.0
230
1.0
 70
    11
 71
     3
 72
    62
 73
    58
 74
     0
 42
0.0000000001
 43
0.0000000001
 12
1.0
 22
0.0
 32
0.0
 13
1.0
 23
0.0
 33
0.0
 40
0.0
 40
0.0
 40
0.0
 40
0.0
 40
1.0
 40
1.0
 40
1.0
 40
2.0
 40
2.0
 40
2.0
 40
3.0
 40
3.0
 40
3.0
 40
4.0
 40
4.0
 40
4.0
 40
5.0
 40
5.0
 40
5.0
 40
6.0
 40
6.0
 40
6.0
 40
7.0
 40
7.0
 40
7.0
 40
8.0
 40
8.0
 40
8.0
 40
9.0
 40
9.0
 40
9.0
 40
10.0
 40
10.0
 40
10.0
 40
11.0
 40
11.0
 40
11.0
 40
12.0
 40
12.0
 40
12.0
 40
13.0
 40
13.0
 40
13.0
 40
14.0
 40
14.0
 40
14.0
 40
15.0
 40
15.0
 40
15.0
 40
16.0
 40
16.0
 40
16.0
 40
17.0
 40
17.0
 40
17.0
 40
18.0
 40
18.0
 40
18.0
 40
19.0
 40
19.0
 40
19.0
 40
19.0
 10
60.11881102012655
 20
-77.2071736460628
 30
0.0
 10
60.02699922544464
 20
-77.2071736460628
 30
0.0
 10
59.8168484008444
 20
-77.1859863088285
 30
0.0
 10
59.69661456840918
 20
-76.99977889785076
 30
0.0
 10
59.62512883709025
 20
-76.88764103980587
 30
0.0
 10
59.62099472250795
 20
-76.78825003505641
 30
0.0
 10
59.61703286269991
 20
-76.70367294089353
 30
0.0
 10
59.61703286269991
 20
-76.70367294089353
 30
0.0
 10
59.82907848981704
 20
-76.70367294089353
 30
0.0
 10
59.82907848981704
 20
-76.70367294089353
 30
0.0
 10
59.83114554710819
 20
-76.7777424938264
 30
0.0
 10
59.84130857878968
 20
-77.01252575114617
 30
0.0
 10
60.11484916031851
 20
-77.01252575114617
 30
0.0
 10
60.24731308172637
 20
-77.01252575114617
 30
0.0
 10
60.39424640417227
 20
-76.94276256756987
 30
0.0
 10
60.39424640417227
 20
-76.71418048212354
 30
0.0
 10
60.39424640417227
 20
-76.59790850949636
 30
0.0
 10
60.35755613725436
 20
-76.54916040838008
 30
0.0
 10
60.32689478743564
 20
-76.51746552991578
 30
0.0
 10
60.25558131089097
 20
-76.4433959769829
 30
0.0
 10
60.14327119807182
 20
-76.43082137846174
 30
0.0
 10
60.09021672759898
 20
-76.43082137846174
 30
0.0
 10
60.07195772152716
 20
-76.43082137846174
 30
0.0
 10
60.03716225712613
 20
-76.43288843575289
 30
0.0
 10
60.0106350218897
 20
-76.43702255033519
 30
0.0
 10
60.0106350218897
 20
-76.43702255033519
 30
0.0
 10
60.0106350218897
 20
-76.24237465541857
 30
0.0
 10
60.0106350218897
 20
-76.24237465541857
 30
0.0
 10
60.04749754358188
 20
-76.24874808206629
 30
0.0
 10
60.08832192508209
 20
-76.2509873941317
 30
0.0
 10
60.09435084218128
 20
-76.2509873941317
 30
0.0
 10
60.15756834433561
 20
-76.2509873941317
 30
0.0
 10
60.34946016286403
 20
-76.22980005689742
 30
0.0
 10
60.34946016286403
 20
-75.99277748751223
 30
0.0
 10
60.34946016286403
 20
-75.8151828152476
 30
0.0
 10
60.2228529037811
 20
-75.7600612874836
 30
0.0
 10
60.1167439628354
 20
-75.7600612874836
 30
0.0
 10
59.86180689692691
 20
-75.7600612874836
 30
0.0
 10
59.85371092253658
 20
-75.99277748751223
 30
0.0
 10
59.84957680795428
 20
-76.06477998315395
 30
0.0
 10
59.84957680795428
 20
-76.06477998315395
 30
0.0
 10
59.65372312961782
 20
-76.06477998315395
 30
0.0
 10
59.65372312961782
 20
-76.06477998315395
 30
0.0
 10
59.66181910400816
 20
-75.93989527181364
 30
0.0
 10
59.68834633924458
 20
-75.56334633527584
 30
0.0
 10
60.12897405180804
 20
-75.56334633527584
 30
0.0
 10
60.34532604828173
 20
-75.56334633527584
 30
0.0
 10
60.57786999353609
 20
-75.6902981039073
 30
0.0
 10
60.57786999353609
 20
-75.98640406086452
 30
0.0
 10
60.57786999353609
 20
-76.17261147184227
 30
0.0
 10
60.48605819885418
 20
-76.255121508714
 30
0.0
 10
60.39011228958997
 20
-76.31644420835144
 30
0.0
 10
60.44936793193627
 20
-76.34400497223345
 30
0.0
 10
60.62472329213549
 20
-76.42444795181403
 30
0.0
 10
60.62472329213549
 20
-76.70160588360238
 30
0.0
 10
60.62472329213549
 20
-77.04008651502818
 30
0.0
 10
60.38615042978194
 20
-77.2071736460628
 30
0.0
 10
60.11881102012655
 20
-77.2071736460628
 30
0.0
  0
HATCH
  5
B8
330
B1
100
AcDbEntity
  8
_U+30EC_U+30A4_U+30E4_U+30FC 1
 62
   179
420
  2234388
100
AcDbHatch
 10
0.0
 20
0.0
 30
0.0
210
0.0
220
0.0
230
1.0
  2
SOLID
 70
     1
 71
     0
 91
        1
 92
        1
 93
        1
 72
     4
 94
        3
 73
     0
 74
     1
 95
       62
 96
       58
 40
0.0
 40
0.0
 40
0.0
 40
0.0
 40
1.0
 40
1.0
 40
1.0
 40
2.0
 40
2.0
 40
2.0
 40
3.0
 40
3.0
 40
3.0
 40
4.0
 40
4.0
 40
4.0
 40
5.0
 40
5.0
 40
5.0
 40
6.0
 40
6.0
 40
6.0
 40
7.0
 40
7.0
 40
7.0
 40
8.0
 40
8.0
 40
8.0
 40
9.0
 40
9.0
 40
9.0
 40
10.0
 40
10.0
 40
10.0
 40
11.0
 40
11.0
 40
11.0
 40
12.0
 40
12.0
 40
12.0
 40
13.0
 40
13.0
 40
13.0
 40
14.0
 40
14.0
 40
14.0
 40
15.0
 40
15.0
 40
15.0
 40
16.0
 40
16.0
 40
16.0
 40
17.0
 40
17.0
 40
17.0
 40
18.0
 40
18.0
 40
18.0
 40
19.0
 40
19.0
 40
19.0
 40
19.0
 10
60.11881102012655
 20
-77.2071736460628
 10
60.02699922544464
 20
-77.2071736460628
 10
59.8168484008444
 20
-77.1859863088285
 10
59.69661456840918
 20
-76.99977889785076
 10
59.62512883709025
 20
-76.88764103980587
 10
59.62099472250795
 20
-76.78825003505641
 10
59.61703286269991
 20
-76.70367294089353
 10
59.61703286269991
 20
-76.70367294089353
 10
59.82907848981704
 20
-76.70367294089353
 10
59.82907848981704
 20
-76.70367294089353
 10
59.83114554710819
 20
-76.7777424938264
 10
59.84130857878968
 20
-77.01252575114617
 10
60.11484916031851
 20
-77.01252575114617
 10
60.24731308172637
 20
-77.01252575114617
 10
60.39424640417227
 20
-76.94276256756987
 10
60.39424640417227
 20
-76.71418048212354
 10
60.39424640417227
 20
-76.59790850949636
 10
60.35755613725436
 20
-76.54916040838008
 10
60.32689478743564
 20
-76.51746552991578
 10
60.25558131089097
 20
-76.4433959769829
 10
60.14327119807182
 20
-76.43082137846174
 10
60.09021672759898
 20
-76.43082137846174
 10
60.07195772152716
 20
-76.43082137846174
 10
60.03716225712613
 20
-76.43288843575289
 10
60.0106350218897
 20
-76.43702255033519
 10
60.0106350218897
 20
-76.43702255033519
 10
60.0106350218897
 20
-76.24237465541857
 10
60.0106350218897
 20
-76.24237465541857
 10
60.04749754358188
 20
-76.24874808206629
 10
60.08832192508209
 20
-76.2509873941317
 10
60.09435084218128
 20
-76.2509873941317
 10
60.15756834433561
 20
-76.2509873941317
 10
60.34946016286403
 20
-76.22980005689742
 10
60.34946016286403
 20
-75.99277748751223
 10
60.34946016286403
 20
-75.8151828152476
 10
60.2228529037811
 20
-75.7600612874836
 10
60.1167439628354
 20
-75.7600612874836
 10
59.86180689692691
 20
-75.7600612874836
 10
59.85371092253658
 20
-75.99277748751223
 10
59.84957680795428
 20
-76.06477998315395
 10
59.84957680795428
 20
-76.06477998315395
 10
59.65372312961782
 20
-76.06477998315395
 10
59.65372312961782
 20
-76.06477998315395
 10
59.66181910400816
 20
-75.93989527181364
 10
59.68834633924458
 20
-75.56334633527584
 10
60.12897405180804
 20
-75.56334633527584
 10
60.34532604828173
 20
-75.56334633527584
 10
60.57786999353609
 20
-75.6902981039073
 10
60.57786999353609
 20
-75.98640406086452
 10
60.57786999353609
 20
-76.17261147184227
 10
60.48605819885418
 20
-76.255121508714
 10
60.39011228958997
 20
-76.31644420835144
 10
60.44936793193627
 20
-76.34400497223345
 10
60.62472329213549
 20
-76.42444795181403
 10
60.62472329213549
 20
-76.70160588360238
 10
60.62472329213549
 20
-77.04008651502818
 10
60.38615042978194
 20
-77.2071736460628
 10
60.11881102012655
 20
-77.2071736460628
 97
        0
 97
        0
 75
     2
 76
     1
 98
        0
  0
ENDBLK
  5
B4
330
B1
100
AcDbEntity
  8
0
100
AcDbBlockEnd
  0
ENDSEC
  0
SECTION
  2
ENTITIES
  0
SPLINE
  5
41
330
1F
100
AcDbEntity
  8
_U+30EC_U+30A4_U+30E4_U+30FC 1
 62
   179
420
  2234388
370
     9
100
AcDbSpline
210
0.0
220
0.0
230
1.0
 70
    11
 71
     3
 72
    17
 73
    13
 74
     0
 42
0.0000000001
 43
0.0000000001
 12
1.0
 22
0.0
 32
0.0
 13
1.0
 23
0.0
 33
0.0
 40
0.0
 40
0.0
 40
0.0
 40
0.0
 40
1.0
 40
1.0
 40
1.0
 40
2.0
 40
2.0
 40
2.0
 40
3.0
 40
3.0
 40
3.0
 40
4.0
 40
4.0
 40
4.0
 40
4.0
 10
71.15982679567269
 20
-77.80231664721622
 30
0.0
 10
71.15982679567269
 20
-77.74717748056314
 30
0.0
 10
71.11502401903792
 20
-77.70240998057426
 30
0.0
 10
71.05992013155485
 20
-77.70240998057426
 30
0.0
 10
71.0047809662949
 20
-77.70240998057426
 30
0.0
 10
70.96001346743701
 20
-77.74717748056314
 30
0.0
 10
70.96001346743701
 20
-77.80231664721622
 30
0.0
 10
70.96001346743701
 20
-77.85742053609114
 30
0.0
 10
71.0047809662949
 20
-77.90222331385786
 30
0.0
 10
71.05992013155485
 20
-77.90222331385786
 30
0.0
 10
71.11502401903792
 20
-77.90222331385786
 30
0.0
 10
71.15982679567269
 20
-77.85742053609114
 30
0.0
 10
71.15982679567269
 20
-77.80231664721622
 30
0.0
  0
SPLINE
  5
42
330
1F
100
AcDbEntity
  8
_U+30EC_U+30A4_U+30E4_U+30FC 1
 62
   179
420
  2234388
370
     9
100
AcDbSpline
210
0.0
220
0.0
230
1.0
 70
    11
 71
     3
 72
    17
 73
    13
 74
     0
 42
0.0000000001
 43
0.0000000001
 12
1.0
 22
0.0
 32
0.0
 13
1.0
 23
0.0
 33
0.0
 40
0.0
 40
0.0
 40
0.0
 40
0.0
 40
1.0
 40
1.0
 40
1.0
 40
2.0
 40
2.0
 40
2.0
 40
3.0
 40
3.0
 40
3.0
 40
4.0
 40
4.0
 40
4.0
 40
4.0
 10
75.159585860297
 20
-82.10179581280802
 30
0.0
 10
75.159585860297
 20
-82.04665664615494
 30
0.0
 10
75.11478308366223
 20
-82.00188914616606
 30
0.0
 10
75.05967919617916
 20
-82.00188914616606
 30
0.0
 10
75.00454003091922
 20
-82.00188914616606
 30
0.0
 10
74.95977253206132
 20
-82.04665664615494
 30
0.0
 10
74.95977253206132
 20
-82.10179581280802
 30
0.0
 10
74.95977253206132
 20
-82.15689970168293
 30
0.0
 10
75.00454003091922
 20
-82.20170247944965
 30
0.0
 10
75.05967919617916
 20
-82.20170247944965
 30
0.0
 10
75.11478308366223
 20
-82.20170247944965
 30
0.0
 10
75.159585860297
 20
-82.15689970168293
 30
0.0
 10
75.159585860297
 20
-82.10179581280802
 30
0.0
  0
SPLINE
  5
43
330
1F
100
AcDbEntity
  8
_U+30EC_U+30A4_U+30E4_U+30FC 1
 62
   179
420
  2234388
370
     9
100
AcDbSpline
210
0.0
220
0.0
230
1.0
 70
    11
 71
     3
 72
    17
 73
    13
 74
     0
 42
0.0000000001
 43
0.0000000001
 12
1.0
 22
0.0
 32
0.0
 13
1.0
 23
0.0
 33
0.0
 40
0.0
 40
0.0
 40
0.0
 40
0.0
 40
1.0
 40
1.0
 40
1.0
 40
2.0
 40
2.0
 40
2.0
 40
3.0
 40
3.0
 40
3.0
 40
4.0
 40
4.0
 40
4.0
 40
4.0
 10
75.16025613805768
 20
-95.8022383093826
 30
0.0
 10
75.16025613805768
 20
-95.74713442050769
 30
0.0
 10
75.11548863919978
 20
-95.70233164274096
 30
0.0
 10
75.06034947393984
 20
-95.70233164274096
 30
0.0
 10
75.00454003091922
 20
-95.70233164274096
 30
0.0
 10
74.95977253206132
 20
-95.74713442050769
 30
0.0
 10
74.95977253206132
 20
-95.8022383093826
 30
0.0
 10
74.95977253206132
 20
-95.85737747603568
 30
0.0
 10
75.00454003091922
 20
-95.90214497602425
 30
0.0
 10
75.06034947393984
 20
-95.90214497602425
 30
0.0
 10
75.11548863919978
 20
-95.90214497602425
 30
0.0
 10
75.16025613805768
 20
-95.85737747603568
 30
0.0
 10
75.16025613805768
 20
-95.8022383093826
 30
0.0
  0
SPLINE
  5
44
330
1F
100
AcDbEntity
  8
_U+30EC_U+30A4_U+30E4_U+30FC 1
 62
   179
420
  2234388
370
     9
100
AcDbSpline
210
0.0
220
0.0
230
1.0
 70
    11
 71
     3
 72
    17
 73
    13
 74
     0
 42
0.0000000001
 43
0.0000000001
 12
1.0
 22
0.0
 32
0.0
 13
1.0
 23
0.0
 33
0.0
 40
0.0
 40
0.0
 40
0.0
 40
0.0
 40
1.0
 40
1.0
 40
1.0
 40
2.0
 40
2.0
 40
2.0
 40
3.0
 40
3.0
 40
3.0
 40
4.0
 40
4.0
 40
4.0
 40
4.0
 10
75.16025613805768
 20
-82.801848034855
 30
0.0
 10
75.16025613805768
 20
-82.74670886820225
 30
0.0
 10
75.11548863919978
 20
-82.70194136821337
 30
0.0
 10
75.06034947393984
 20
-82.70194136821337
 30
0.0
 10
75.00454003091922
 20
-82.70194136821337
 30
0.0
 10
74.95977253206132
 20
-82.74670886820225
 30
0.0
 10
74.95977253206132
 20
-82.801848034855
 30
0.0
 10
74.95977253206132
 20
-82.85765747928545
 30
0.0
 10
75.00454003091922
 20
-82.90242497927433
 30
0.0
 10
75.06034947393984
 20
-82.90242497927433
 30
0.0
 10
75.11548863919978
 20
-82.90242497927433
 30
0.0
 10
75.16025613805768
 20
-82.85765747928545
 30
0.0
 10
75.16025613805768
 20
-82.801848034855
 30
0.0
  0
SPLINE
  5
45
330
1F
100
AcDbEntity
  8
_U+30EC_U+30A4_U+30E4_U+30FC 1
 62
   179
420
  2234388
370
     9
100
AcDbSpline
210
0.0
220
0.0
230
1.0
 70
    11
 71
     3
 72
    17
 73
    13
 74
     0
 42
0.0000000001
 43
0.0000000001
 12
1.0
 22
0.0
 32
0.0
 13
1.0
 23
0.0
 33
0.0
 40
0.0
 40
0.0
 40
0.0
 40
0.0
 40
1.0
 40
1.0
 40
1.0
 40
2.0
 40
2.0
 40
2.0
 40
3.0
 40
3.0
 40
3.0
 40
4.0
 40
4.0
 40
4.0
 40
4.0
 10
55.76023052188245
 20
-95.8022383093826
 30
0.0
 10
55.76023052188245
 20
-95.74713442050769
 30
0.0
 10
55.71546302302456
 20
-95.70233164274096
 30
0.0
 10
55.66000635777272
 20
-95.70233164274096
 30
0.0
 10
55.60486719251276
 20
-95.70233164274096
 30
0.0
 10
55.56009969365488
 20
-95.74713442050769
 30
0.0
 10
55.56009969365488
 20
-95.8022383093826
 30
0.0
 10
55.56009969365488
 20
-95.85737747603568
 30
0.0
 10
55.60486719251276
 20
-95.90214497602425
 30
0.0
 10
55.66000635777272
 20
-95.90214497602425
 30
0.0
 10
55.71546302302456
 20
-95.90214497602425
 30
0.0
 10
55.76023052188245
 20
-95.85737747603568
 30
0.0
 10
55.76023052188245
 20
-95.8022383093826
 30
0.0
  0
SPLINE
  5
46
330
1F
100
AcDbEntity
  8
_U+30EC_U+30A4_U+30E4_U+30FC 1
 62
   179
420
  2234388
370
     9
100
AcDbSpline
210
0.0
220
0.0
230
1.0
 70
    11
 71
     3
 72
    17
 73
    13
 74
     0
 42
0.0000000001
 43
0.0000000001
 12
1.0
 22
0.0
 32
0.0
 13
1.0
 23
0.0
 33
0.0
 40
0.0
 40
0.0
 40
0.0
 40
0.0
 40
1.0
 40
1.0
 40
1.0
 40
2.0
 40
2.0
 40
2.0
 40
3.0
 40
3.0
 40
3.0
 40
4.0
 40
4.0
 40
4.0
 40
4.0
 10
55.76023052188245
 20
-98.80222525307694
 30
0.0
 10
55.76023052188245
 20
-98.74712136420203
 30
0.0
 10
55.71546302302456
 20
-98.70231858643531
 30
0.0
 10
55.66000635777272
 20
-98.70231858643531
 30
0.0
 10
55.60486719251276
 20
-98.70231858643531
 30
0.0
 10
55.56009969365488
 20
-98.74712136420203
 30
0.0
 10
55.56009969365488
 20
-98.80222525307694
 30
0.0
 10
55.56009969365488
 20
-98.85736441973002
 30
0.0
 10
55.60486719251276
 20
-98.90213191971922
 30
0.0
 10
55.66000635777272
 20
-98.90213191971922
 30
0.0
 10
55.71546302302456
 20
-98.90213191971922
 30
0.0
 10
55.76023052188245
 20
-98.85736441973002
 30
0.0
 10
55.76023052188245
 20
-98.80222525307694
 30
0.0
  0
SPLINE
  5
47
330
1F
100
AcDbEntity
  8
_U+30EC_U+30A4_U+30E4_U+30FC 1
 62
   179
420
  2234388
370
     9
100
AcDbSpline
210
0.0
220
0.0
230
1.0
 70
    11
 71
     3
 72
    17
 73
    13
 74
     0
 42
0.0000000001
 43
0.0000000001
 12
1.0
 22
0.0
 32
0.0
 13
1.0
 23
0.0
 33
0.0
 40
0.0
 40
0.0
 40
0.0
 40
0.0
 40
1.0
 40
1.0
 40
1.0
 40
2.0
 40
2.0
 40
2.0
 40
3.0
 40
3.0
 40
3.0
 40
4.0
 40
4.0
 40
4.0
 40
4.0
 10
51.75980117949746
 20
-102.8019844187438
 30
0.0
 10
51.75980117949746
 20
-102.7468805298689
 30
0.0
 10
51.71503368063957
 20
-102.7020777521022
 30
0.0
 10
51.65989451537963
 20
-102.7020777521022
 30
0.0
 10
51.60479062789656
 20
-102.7020777521022
 30
0.0
 10
51.55998785126179
 20
-102.7468805298689
 30
0.0
 10
51.55998785126179
 20
-102.8019844187438
 30
0.0
 10
51.55998785126179
 20
-102.8571235853969
 30
0.0
 10
51.60479062789656
 20
-102.9018910853855
 30
0.0
 10
51.65989451537963
 20
-102.9018910853855
 30
0.0
 10
51.71503368063957
 20
-102.9018910853855
 30
0.0
 10
51.75980117949746
 20
-102.8571235853969
 30
0.0
 10
51.75980117949746
 20
-102.8019844187438
 30
0.0
  0
SPLINE
  5
48
330
1F
100
AcDbEntity
  8
_U+30EC_U+30A4_U+30E4_U+30FC 1
 62
   179
420
  2234388
370
     9
100
AcDbSpline
210
0.0
220
0.0
230
1.0
 70
    11
 71
     3
 72
    17
 73
    13
 74
     0
 42
0.0000000001
 43
0.0000000001
 12
1.0
 22
0.0
 32
0.0
 13
1.0
 23
0.0
 33
0.0
 40
0.0
 40
0.0
 40
0.0
 40
0.0
 40
1.0
 40
1.0
 40
1.0
 40
2.0
 40
2.0
 40
2.0
 40
3.0
 40
3.0
 40
3.0
 40
4.0
 40
4.0
 40
4.0
 40
4.0
 10
46.76026991815724
 20
-102.8019844187438
 30
0.0
 10
46.76026991815724
 20
-102.7468805298689
 30
0.0
 10
46.71550241929936
 20
-102.7020777521022
 30
0.0
 10
46.66001047627063
 20
-102.7020777521022
 30
0.0
 10
46.60455381101877
 20
-102.7020777521022
 30
0.0
 10
46.56010381215279
 20
-102.7468805298689
 30
0.0
 10
46.56010381215279
 20
-102.8019844187438
 30
0.0
 10
46.56010381215279
 20
-102.8571235853969
 30
0.0
 10
46.60455381101877
 20
-102.9018910853855
 30
0.0
 10
46.66001047627063
 20
-102.9018910853855
 30
0.0
 10
46.71550241929936
 20
-102.9018910853855
 30
0.0
 10
46.76026991815724
 20
-102.8571235853969
 30
0.0
 10
46.76026991815724
 20
-102.8019844187438
 30
0.0
  0
SPLINE
  5
49
330
1F
100
AcDbEntity
  8
_U+30EC_U+30A4_U+30E4_U+30FC 1
 62
   179
420
  2234388
370
     9
100
AcDbSpline
210
0.0
220
0.0
230
1.0
 70
    11
 71
     3
 72
    17
 73
    13
 74
     0
 42
0.0000000001
 43
0.0000000001
 12
1.0
 22
0.0
 32
0.0
 13
1.0
 23
0.0
 33
0.0
 40
0.0
 40
0.0
 40
0.0
 40
0.0
 40
1.0
 40
1.0
 40
1.0
 40
2.0
 40
2.0
 40
2.0
 40
3.0
 40
3.0
 40
3.0
 40
4.0
 40
4.0
 40
4.0
 40
4.0
 10
48.16002154911327
 20
-77.80231664721622
 30
0.0
 10
48.16002154911327
 20
-77.74717748056314
 30
0.0
 10
48.11521877247851
 20
-77.70240998057426
 30
0.0
 10
48.06011488499543
 20
-77.70240998057426
 30
0.0
 10
48.00465821974358
 20
-77.70240998057426
 30
0.0
 10
47.95985544310882
 20
-77.74717748056314
 30
0.0
 10
47.95985544310882
 20
-77.80231664721622
 30
0.0
 10
47.95985544310882
 20
-77.85742053609114
 30
0.0
 10
48.00465821974358
 20
-77.90222331385786
 30
0.0
 10
48.06011488499543
 20
-77.90222331385786
 30
0.0
 10
48.11521877247851
 20
-77.90222331385786
 30
0.0
 10
48.16002154911327
 20
-77.85742053609114
 30
0.0
 10
48.16002154911327
 20
-77.80231664721622
 30
0.0
  0
POLYLINE
  5
4A
330
1F
100
AcDbEntity
  8
_U+30EC_U+30A4_U+30E4_U+30FC 1
 62
   179
420
  2234388
370
     9
100
AcDb2dPolyline
 66
     1
 10
0.0
 20
0.0
 30
0.0
  0
VERTEX
  5
4B
330
4A
100
AcDbEntity
  8
_U+30EC_U+30A4_U+30E4_U+30FC 1
 62
   179
420
  2234388
370
     9
100
AcDbVertex
100
AcDb2dVertex
 10
75.06034947393984
 20
-81.80207581288279
 30
0.0
  0
VERTEX
  5
4C
330
4A
100
AcDbEntity
  8
_U+30EC_U+30A4_U+30E4_U+30FC 1
 62
   179
420
  2234388
370
     9
100
AcDbVertex
100
AcDb2dVertex
 10
75.06034947393984
 20
-80.80230359091057
 30
0.0
  0
SEQEND
  5
4D
330
4A
100
AcDbEntity
  8
_U+30EC_U+30A4_U+30E4_U+30FC 1
 62
   179
420
  2234388
370
     9
  0
POLYLINE
  5
4E
330
1F
100
AcDbEntity
  8
_U+30EC_U+30A4_U+30E4_U+30FC 1
 62
   179
420
  2234388
370
     9
100
AcDb2dPolyline
 66
     1
 10
0.0
 20
0.0
 30
0.0
  0
VERTEX
  5
4F
330
4E
100
AcDbEntity
  8
_U+30EC_U+30A4_U+30E4_U+30FC 1
 62
   179
420
  2234388
370
     9
100
AcDbVertex
100
AcDb2dVertex
 10
75.06034947393984
 20
-81.80207581288279
 30
0.0
  0
VERTEX
  5
50
330
4E
100
AcDbEntity
  8
_U+30EC_U+30A4_U+30E4_U+30FC 1
 62
   179
420
  2234388
370
     9
100
AcDbVertex
100
AcDb2dVertex
 10
75.06034947393984
 20
-82.801848034855
 30
0.0
  0
SEQEND
  5
51
330
4E
100
AcDbEntity
  8
_U+30EC_U+30A4_U+30E4_U+30FC 1
 62
   179
420
  2234388
370
     9
  0
POLYLINE
  5
52
330
1F
100
AcDbEntity
  8
_U+30EC_U+30A4_U+30E4_U+30FC 1
 62
   179
420
  2234388
370
     9
100
AcDb2dPolyline
 66
     1
 10
0.0
 20
0.0
 30
0.0
  0
VERTEX
  5
53
330
52
100
AcDbEntity
  8
_U+30EC_U+30A4_U+30E4_U+30FC 1
 62
   179
420
  2234388
370
     9
100
AcDbVertex
100
AcDb2dVertex
 10
73.60034340007658
 20
-82.06665914614997
 30
0.0
  0
VERTEX
  5
54
330
52
100
AcDbEntity
  8
_U+30EC_U+30A4_U+30E4_U+30FC 1
 62
   179
420
  2234388
370
     9
100
AcDbVertex
100
AcDb2dVertex
 10
76.06012167065575
 20
-82.06665914614997
 30
0.0
  0
SEQEND
  5
55
330
52
100
AcDbEntity
  8
_U+30EC_U+30A4_U+30E4_U+30FC 1
 62
   179
420
  2234388
370
     9
  0
POLYLINE
  5
56
330
1F
100
AcDbEntity
  8
_U+30EC_U+30A4_U+30E4_U+30FC 1
 62
   179
420
  2234388
370
     9
100
AcDb2dPolyline
 66
     1
 10
0.0
 20
0.0
 30
0.0
  0
VERTEX
  5
57
330
56
100
AcDbEntity
  8
_U+30EC_U+30A4_U+30E4_U+30FC 1
 62
   179
420
  2234388
370
     9
100
AcDbVertex
100
AcDb2dVertex
 10
73.60034340007658
 20
-82.801848034855
 30
0.0
  0
VERTEX
  5
58
330
56
100
AcDbEntity
  8
_U+30EC_U+30A4_U+30E4_U+30FC 1
 62
   179
420
  2234388
370
     9
100
AcDbVertex
100
AcDb2dVertex
 10
76.06012167065575
 20
-82.801848034855
 30
0.0
  0
SEQEND
  5
59
330
56
100
AcDbEntity
  8
_U+30EC_U+30A4_U+30E4_U+30FC 1
 62
   179
420
  2234388
370
     9
  0
INSERT
  5
5B
330
1F
100
AcDbEntity
  8
_U+30EC_U+30A4_U+30E4_U+30FC 1
100
AcDbBlockReference
  2
block 2
 10
0.0
 20
0.0
 30
0.0
  0
POLYLINE
  5
6D
330
1F
100
AcDbEntity
  8
_U+30EC_U+30A4_U+30E4_U+30FC 1
 62
   179
420
  2234388
370
     9
100
AcDb2dPolyline
 66
     1
 10
0.0
 20
0.0
 30
0.0
  0
VERTEX
  5
6E
330
6D
100
AcDbEntity
  8
_U+30EC_U+30A4_U+30E4_U+30FC 1
 62
   179
420
  2234388
370
     9
100
AcDbVertex
100
AcDb2dVertex
 10
46.66001047627063
 20
-102.8019844187438
 30
0.0
  0
VERTEX
  5
6F
330
6D
100
AcDbEntity
  8
_U+30EC_U+30A4_U+30E4_U+30FC 1
 62
   179
420
  2234388
370
     9
100
AcDbVertex
100
AcDb2dVertex
 10
51.65989451537963
 20
-102.8019844187438
 30
0.0
  0
SEQEND
  5
70
330
6D
100
AcDbEntity
  8
_U+30EC_U+30A4_U+30E4_U+30FC 1
 62
   179
420
  2234388
370
     9
  0
POLYLINE
  5
71
330
1F
100
AcDbEntity
  8
_U+30EC_U+30A4_U+30E4_U+30FC 1
 62
   179
420
  2234388
370
     9
100
AcDb2dPolyline
 66
     1
 10
0.0
 20
0.0
 30
0.0
  0
VERTEX
  5
72
330
71
100
AcDbEntity
  8
_U+30EC_U+30A4_U+30E4_U+30FC 1
 62
   179
420
  2234388
370
     9
100
AcDbVertex
100
AcDb2dVertex
 10
46.66001047627063
 20
-101.3419783079976
 30
0.0
  0
VERTEX
  5
73
330
71
100
AcDbEntity
  8
_U+30EC_U+30A4_U+30E4_U+30FC 1
 62
   179
420
  2234388
370
     9
100
AcDbVertex
100
AcDb2dVertex
 10
46.66001047627063
 20
-103.8017566407164
 30
0.0
  0
SEQEND
  5
74
330
71
100
AcDbEntity
  8
_U+30EC_U+30A4_U+30E4_U+30FC 1
 62
   179
420
  2234388
370
     9
  0
POLYLINE
  5
75
330
1F
100
AcDbEntity
  8
_U+30EC_U+30A4_U+30E4_U+30FC 1
 62
   179
420
  2234388
370
     9
100
AcDb2dPolyline
 66
     1
 10
0.0
 20
0.0
 30
0.0
  0
VERTEX
  5
76
330
75
100
AcDbEntity
  8
_U+30EC_U+30A4_U+30E4_U+30FC 1
 62
   179
420
  2234388
370
     9
100
AcDbVertex
100
AcDb2dVertex
 10
51.65989451537963
 20
-101.3419783079976
 30
0.0
  0
VERTEX
  5
77
330
75
100
AcDbEntity
  8
_U+30EC_U+30A4_U+30E4_U+30FC 1
 62
   179
420
  2234388
370
     9
100
AcDbVertex
100
AcDb2dVertex
 10
51.65989451537963
 20
-103.8017566407164
 30
0.0
  0
SEQEND
  5
78
330
75
100
AcDbEntity
  8
_U+30EC_U+30A4_U+30E4_U+30FC 1
 62
   179
420
  2234388
370
     9
  0
INSERT
  5
7A
330
1F
100
AcDbEntity
  8
_U+30EC_U+30A4_U+30E4_U+30FC 1
100
AcDbBlockReference
  2
block 3
 10
0.0
 20
0.0
 30
0.0
  0
POLYLINE
  5
7F
330
1F
100
AcDbEntity
  8
_U+30EC_U+30A4_U+30E4_U+30FC 1
 62
   179
420
  2234388
370
     9
100
AcDb2dPolyline
 66
     1
 10
0.0
 20
0.0
 30
0.0
  0
VERTEX
  5
80
330
7F
100
AcDbEntity
  8
_U+30EC_U+30A4_U+30E4_U+30FC 1
 62
   179
420
  2234388
370
     9
100
AcDbVertex
100
AcDb2dVertex
 10
75.06034947393984
 20
-82.801848034855
 30
0.0
  0
VERTEX
  5
81
330
7F
100
AcDbEntity
  8
_U+30EC_U+30A4_U+30E4_U+30FC 1
 62
   179
420
  2234388
370
     9
100
AcDbVertex
100
AcDb2dVertex
 10
75.06034947393984
 20
-95.8022383093826
 30
0.0
  0
SEQEND
  5
82
330
7F
100
AcDbEntity
  8
_U+30EC_U+30A4_U+30E4_U+30FC 1
 62
   179
420
  2234388
370
     9
  0
POLYLINE
  5
83
330
1F
100
AcDbEntity
  8
_U+30EC_U+30A4_U+30E4_U+30FC 1
 62
   179
420
  2234388
370
     9
100
AcDb2dPolyline
 66
     1
 10
0.0
 20
0.0
 30
0.0
  0
VERTEX
  5
84
330
83
100
AcDbEntity
  8
_U+30EC_U+30A4_U+30E4_U+30FC 1
 62
   179
420
  2234388
370
     9
100
AcDbVertex
100
AcDb2dVertex
 10
73.60034340007658
 20
-82.801848034855
 30
0.0
  0
VERTEX
  5
85
330
83
100
AcDbEntity
  8
_U+30EC_U+30A4_U+30E4_U+30FC 1
 62
   179
420
  2234388
370
     9
100
AcDbVertex
100
AcDb2dVertex
 10
76.06012167065575
 20
-82.801848034855
 30
0.0
  0
SEQEND
  5
86
330
83
100
AcDbEntity
  8
_U+30EC_U+30A4_U+30E4_U+30FC 1
 62
   179
420
  2234388
370
     9
  0
POLYLINE
  5
87
330
1F
100
AcDbEntity
  8
_U+30EC_U+30A4_U+30E4_U+30FC 1
 62
   179
420
  2234388
370
     9
100
AcDb2dPolyline
 66
     1
 10
0.0
 20
0.0
 30
0.0
  0
VERTEX
  5
88
330
87
100
AcDbEntity
  8
_U+30EC_U+30A4_U+30E4_U+30FC 1
 62
   179
420
  2234388
370
     9
100
AcDbVertex
100
AcDb2dVertex
 10
54.20031778390136
 20
-95.8022383093826
 30
0.0
  0
VERTEX
  5
89
330
87
100
AcDbEntity
  8
_U+30EC_U+30A4_U+30E4_U+30FC 1
 62
   179
420
  2234388
370
     9
100
AcDbVertex
100
AcDb2dVertex
 10
76.06012167065575
 20
-95.8022383093826
 30
0.0
  0
SEQEND
  5
8A
330
87
100
AcDbEntity
  8
_U+30EC_U+30A4_U+30E4_U+30FC 1
 62
   179
420
  2234388
370
     9
  0
INSERT
  5
8C
330
1F
100
AcDbEntity
  8
_U+30EC_U+30A4_U+30E4_U+30FC 1
100
AcDbBlockReference
  2
block 4
 10
0.0
 20
0.0
 30
0.0
  0
POLYLINE
  5
93
330
1F
100
AcDbEntity
  8
_U+30EC_U+30A4_U+30E4_U+30FC 1
 62
   179
420
  2234388
370
     9
100
AcDb2dPolyline
 66
     1
 10
0.0
 20
0.0
 30
0.0
  0
VERTEX
  5
94
330
93
100
AcDbEntity
  8
_U+30EC_U+30A4_U+30E4_U+30FC 1
 62
   179
420
  2234388
370
     9
100
AcDbVertex
100
AcDb2dVertex
 10
55.66000635777272
 20
-95.8022383093826
 30
0.0
  0
VERTEX
  5
95
330
93
100
AcDbEntity
  8
_U+30EC_U+30A4_U+30E4_U+30FC 1
 62
   179
420
  2234388
370
     9
100
AcDbVertex
100
AcDb2dVertex
 10
55.66000635777272
 20
-98.80222525307694
 30
0.0
  0
SEQEND
  5
96
330
93
100
AcDbEntity
  8
_U+30EC_U+30A4_U+30E4_U+30FC 1
 62
   179
420
  2234388
370
     9
  0
POLYLINE
  5
97
330
1F
100
AcDbEntity
  8
_U+30EC_U+30A4_U+30E4_U+30FC 1
 62
   179
420
  2234388
370
     9
100
AcDb2dPolyline
 66
     1
 10
0.0
 20
0.0
 30
0.0
  0
VERTEX
  5
98
330
97
100
AcDbEntity
  8
_U+30EC_U+30A4_U+30E4_U+30FC 1
 62
   179
420
  2234388
370
     9
100
AcDbVertex
100
AcDb2dVertex
 10
54.20031778390136
 20
-95.8022383093826
 30
0.0
  0
VERTEX
  5
99
330
97
100
AcDbEntity
  8
_U+30EC_U+30A4_U+30E4_U+30FC 1
 62
   179
420
  2234388
370
     9
100
AcDbVertex
100
AcDb2dVertex
 10
56.66009605448052
 20
-95.8022383093826
 30
0.0
  0
SEQEND
  5
9A
330
97
100
AcDbEntity
  8
_U+30EC_U+30A4_U+30E4_U+30FC 1
 62
   179
420
  2234388
370
     9
  0
POLYLINE
  5
9B
330
1F
100
AcDbEntity
  8
_U+30EC_U+30A4_U+30E4_U+30FC 1
 62
   179
420
  2234388
370
     9
100
AcDb2dPolyline
 66
     1
 10
0.0
 20
0.0
 30
0.0
  0
VERTEX
  5
9C
330
9B
100
AcDbEntity
  8
_U+30EC_U+30A4_U+30E4_U+30FC 1
 62
   179
420
  2234388
370
     9
100
AcDbVertex
100
AcDb2dVertex
 10
54.20031778390136
 20
-98.80222525307694
 30
0.0
  0
VERTEX
  5
9D
330
9B
100
AcDbEntity
  8
_U+30EC_U+30A4_U+30E4_U+30FC 1
 62
   179
420
  2234388
370
     9
100
AcDbVertex
100
AcDb2dVertex
 10
56.66009605448052
 20
-98.80222525307694
 30
0.0
  0
SEQEND
  5
9E
330
9B
100
AcDbEntity
  8
_U+30EC_U+30A4_U+30E4_U+30FC 1
 62
   179
420
  2234388
370
     9
  0
INSERT
  5
A0
330
1F
100
AcDbEntity
  8
_U+30EC_U+30A4_U+30E4_U+30FC 1
100
AcDbBlockReference
  2
block 5
 10
0.0
 20
0.0
 30
0.0
  0
POLYLINE
  5
A5
330
1F
100
AcDbEntity
  8
_U+30EC_U+30A4_U+30E4_U+30FC 1
 62
   179
420
  2234388
370
     9
100
AcDb2dPolyline
 66
     1
 10
0.0
 20
0.0
 30
0.0
  0
VERTEX
  5
A6
330
A5
100
AcDbEntity
  8
_U+30EC_U+30A4_U+30E4_U+30FC 1
 62
   179
420
  2234388
370
     9
100
AcDbVertex
100
AcDb2dVertex
 10
48.06011488499543
 20
-77.80231664721622
 30
0.0
  0
VERTEX
  5
A7
330
A5
100
AcDbEntity
  8
_U+30EC_U+30A4_U+30E4_U+30FC 1
 62
   179
420
  2234388
370
     9
100
AcDbVertex
100
AcDb2dVertex
 10
71.05992013155485
 20
-77.80231664721622
 30
0.0
  0
SEQEND
  5
A8
330
A5
100
AcDbEntity
  8
_U+30EC_U+30A4_U+30E4_U+30FC 1
 62
   179
420
  2234388
370
     9
  0
POLYLINE
  5
A9
330
1F
100
AcDbEntity
  8
_U+30EC_U+30A4_U+30E4_U+30FC 1
 62
   179
420
  2234388
370
     9
100
AcDb2dPolyline
 66
     1
 10
0.0
 20
0.0
 30
0.0
  0
VERTEX
  5
AA
330
A9
100
AcDbEntity
  8
_U+30EC_U+30A4_U+30E4_U+30FC 1
 62
   179
420
  2234388
370
     9
100
AcDbVertex
100
AcDb2dVertex
 10
48.06011488499543
 20
-79.26235803573994
 30
0.0
  0
VERTEX
  5
AB
330
A9
100
AcDbEntity
  8
_U+30EC_U+30A4_U+30E4_U+30FC 1
 62
   179
420
  2234388
370
     9
100
AcDbVertex
100
AcDb2dVertex
 10
48.06011488499543
 20
-76.80187414746632
 30
0.0
  0
SEQEND
  5
AC
330
A9
100
AcDbEntity
  8
_U+30EC_U+30A4_U+30E4_U+30FC 1
 62
   179
420
  2234388
370
     9
  0
POLYLINE
  5
AD
330
1F
100
AcDbEntity
  8
_U+30EC_U+30A4_U+30E4_U+30FC 1
 62
   179
420
  2234388
370
     9
100
AcDb2dPolyline
 66
     1
 10
0.0
 20
0.0
 30
0.0
  0
VERTEX
  5
AE
330
AD
100
AcDbEntity
  8
_U+30EC_U+30A4_U+30E4_U+30FC 1
 62
   179
420
  2234388
370
     9
100
AcDbVertex
100
AcDb2dVertex
 10
71.05992013155485
 20
-79.26235803573994
 30
0.0
  0
VERTEX
  5
AF
330
AD
100
AcDbEntity
  8
_U+30EC_U+30A4_U+30E4_U+30FC 1
 62
   179
420
  2234388
370
     9
100
AcDbVertex
100
AcDb2dVertex
 10
71.05992013155485
 20
-76.80187414746632
 30
0.0
  0
SEQEND
  5
B0
330
AD
100
AcDbEntity
  8
_U+30EC_U+30A4_U+30E4_U+30FC 1
 62
   179
420
  2234388
370
     9
  0
INSERT
  5
B2
330
1F
100
AcDbEntity
  8
_U+30EC_U+30A4_U+30E4_U+30FC 1
100
AcDbBlockReference
  2
block 6
 10
0.0
 20
0.0
 30
0.0
  0
POLYLINE
  5
B9
330
1F
100
AcDbEntity
  8
_U+30EC_U+30A4_U+30E4_U+30FC 1
 62
   179
420
  2234388
370
    25
100
AcDb2dPolyline
 66
     1
 10
0.0
 20
0.0
 30
0.0
  0
VERTEX
  5
BA
330
B9
100
AcDbEntity
  8
_U+30EC_U+30A4_U+30E4_U+30FC 1
 62
   179
420
  2234388
370
    25
100
AcDbVertex
100
AcDb2dVertex
 10
50.63465176375797
 20
-96.06682164264978
 30
0.0
  0
VERTEX
  5
BB
330
B9
100
AcDbEntity
  8
_U+30EC_U+30A4_U+30E4_U+30FC 1
 62
   179
420
  2234388
370
    25
100
AcDbVertex
100
AcDb2dVertex
 10
51.50932896366532
 20
-96.06682164264978
 30
0.0
  0
SEQEND
  5
BC
330
B9
100
AcDbEntity
  8
_U+30EC_U+30A4_U+30E4_U+30FC 1
 62
   179
420
  2234388
370
    25
  0
POLYLINE
  5
BD
330
1F
100
AcDbEntity
  8
_U+30EC_U+30A4_U+30E4_U+30FC 1
 62
   179
420
  2234388
370
    25
100
AcDb2dPolyline
 66
     1
 10
0.0
 20
0.0
 30
0.0
  0
VERTEX
  5
BE
330
BD
100
AcDbEntity
  8
_U+30EC_U+30A4_U+30E4_U+30FC 1
 62
   179
420
  2234388
370
    25
100
AcDbVertex
100
AcDb2dVertex
 10
71.05992013155485
 20
-82.1052530350293
 30
0.0
  0
VERTEX
  5
BF
330
BD
100
AcDbEntity
  8
_U+30EC_U+30A4_U+30E4_U+30FC 1
 62
   179
420
  2234388
370
    25
100
AcDbVertex
100
AcDb2dVertex
 10
71.05992013155485
 20
-82.91413720149357
 30
0.0
  0
SEQEND
  5
C0
330
BD
100
AcDbEntity
  8
_U+30EC_U+30A4_U+30E4_U+30FC 1
 62
   179
420
  2234388
370
    25
  0
POLYLINE
  5
C1
330
1F
100
AcDbEntity
  8
_U+30EC_U+30A4_U+30E4_U+30FC 1
 62
   179
420
  2234388
370
    25
100
AcDb2dPolyline
 66
     1
 10
0.0
 20
0.0
 30
0.0
  0
VERTEX
  5
C2
330
C1
100
AcDbEntity
  8
_U+30EC_U+30A4_U+30E4_U+30FC 1
 62
   179
420
  2234388
370
    25
100
AcDbVertex
100
AcDb2dVertex
 10
48.74087014540569
 20
-82.8900424792774
 30
0.0
  0
VERTEX
  5
C3
330
C1
100
AcDbEntity
  8
_U+30EC_U+30A4_U+30E4_U+30FC 1
 62
   179
420
  2234388
370
    25
100
AcDbVertex
100
AcDb2dVertex
 10
71.05992013155485
 20
-82.8900424792774
 30
0.0
  0
SEQEND
  5
C4
330
C1
100
AcDbEntity
  8
_U+30EC_U+30A4_U+30E4_U+30FC 1
 62
   179
420
  2234388
370
    25
  0
POLYLINE
  5
C5
330
1F
100
AcDbEntity
  8
_U+30EC_U+30A4_U+30E4_U+30FC 1
 62
   179
420
  2234388
370
    25
100
AcDb2dPolyline
 66
     1
 10
0.0
 20
0.0
 30
0.0
  0
VERTEX
  5
C6
330
C5
100
AcDbEntity
  8
_U+30EC_U+30A4_U+30E4_U+30FC 1
 62
   179
420
  2234388
370
    25
100
AcDbVertex
100
AcDb2dVertex
 10
46.66001047627063
 20
-98.80222525307694
 30
0.0
  0
VERTEX
  5
C7
330
C5
100
AcDbEntity
  8
_U+30EC_U+30A4_U+30E4_U+30FC 1
 62
   179
420
  2234388
370
    25
100
AcDbVertex
100
AcDb2dVertex
 10
51.44836896522054
 20
-98.80222525307694
 30
0.0
  0
SEQEND
  5
C8
330
C5
100
AcDbEntity
  8
_U+30EC_U+30A4_U+30E4_U+30FC 1
 62
   179
420
  2234388
370
    25
  0
POLYLINE
  5
C9
330
1F
100
AcDbEntity
  8
_U+30EC_U+30A4_U+30E4_U+30FC 1
 62
   179
420
  2234388
370
    25
100
AcDb2dPolyline
 66
     1
 10
0.0
 20
0.0
 30
0.0
  0
VERTEX
  5
CA
330
C9
100
AcDbEntity
  8
_U+30EC_U+30A4_U+30E4_U+30FC 1
 62
   179
420
  2234388
370
    25
100
AcDbVertex
100
AcDb2dVertex
 10
48.06011488499543
 20
-82.06665914614997
 30
0.0
  0
VERTEX
  5
CB
330
C9
100
AcDbEntity
  8
_U+30EC_U+30A4_U+30E4_U+30FC 1
 62
   179
420
  2234388
370
    25
100
AcDbVertex
100
AcDb2dVertex
 10
71.05992013155485
 20
-82.06665914614997
 30
0.0
  0
SEQEND
  5
CC
330
C9
100
AcDbEntity
  8
_U+30EC_U+30A4_U+30E4_U+30FC 1
 62
   179
420
  2234388
370
    25
  0
POLYLINE
  5
CD
330
1F
100
AcDbEntity
  8
_U+30EC_U+30A4_U+30E4_U+30FC 1
 62
   179
420
  2234388
370
    25
100
AcDb2dPolyline
 66
     1
 10
0.0
 20
0.0
 30
0.0
  0
VERTEX
  5
CE
330
CD
100
AcDbEntity
  8
_U+30EC_U+30A4_U+30E4_U+30FC 1
 62
   179
420
  2234388
370
    25
100
AcDbVertex
100
AcDb2dVertex
 10
51.48350563099079
 20
-96.06682164264978
 30
0.0
  0
VERTEX
  5
CF
330
CD
100
AcDbEntity
  8
_U+30EC_U+30A4_U+30E4_U+30FC 1
 62
   179
420
  2234388
370
    25
100
AcDbVertex
100
AcDb2dVertex
 10
51.48350563099079
 20
-98.80222525307694
 30
0.0
  0
SEQEND
  5
D0
330
CD
100
AcDbEntity
  8
_U+30EC_U+30A4_U+30E4_U+30FC 1
 62
   179
420
  2234388
370
    25
  0
POLYLINE
  5
D1
330
1F
100
AcDbEntity
  8
_U+30EC_U+30A4_U+30E4_U+30FC 1
 62
   179
420
  2234388
370
    25
100
AcDb2dPolyline
 66
     1
 10
0.0
 20
0.0
 30
0.0
  0
VERTEX
  5
D2
330
D1
100
AcDbEntity
  8
_U+30EC_U+30A4_U+30E4_U+30FC 1
 62
   179
420
  2234388
370
    25
100
AcDbVertex
100
AcDb2dVertex
 10
46.66001047627063
 20
-98.06636608659423
 30
0.0
  0
VERTEX
  5
D3
330
D1
100
AcDbEntity
  8
_U+30EC_U+30A4_U+30E4_U+30FC 1
 62
   179
420
  2234388
370
    25
100
AcDbVertex
100
AcDb2dVertex
 10
47.15989657462858
 20
-98.06636608659423
 30
0.0
  0
SEQEND
  5
D4
330
D1
100
AcDbEntity
  8
_U+30EC_U+30A4_U+30E4_U+30FC 1
 62
   179
420
  2234388
370
    25
  0
POLYLINE
  5
D5
330
1F
100
AcDbEntity
  8
_U+30EC_U+30A4_U+30E4_U+30FC 1
 62
   179
420
  2234388
370
    25
100
AcDb2dPolyline
 66
     1
 10
0.0
 20
0.0
 30
0.0
  0
VERTEX
  5
D6
330
D5
100
AcDbEntity
  8
_U+30EC_U+30A4_U+30E4_U+30FC 1
 62
   179
420
  2234388
370
    25
100
AcDbVertex
100
AcDb2dVertex
 10
50.66012231866372
 20
-96.06682164264978
 30
0.0
  0
VERTEX
  5
D7
330
D5
100
AcDbEntity
  8
_U+30EC_U+30A4_U+30E4_U+30FC 1
 62
   179
420
  2234388
370
    25
100
AcDbVertex
100
AcDb2dVertex
 10
50.66012231866372
 20
-98.06636608659423
 30
0.0
  0
SEQEND
  5
D8
330
D5
100
AcDbEntity
  8
_U+30EC_U+30A4_U+30E4_U+30FC 1
 62
   179
420
  2234388
370
    25
  0
POLYLINE
  5
D9
330
1F
100
AcDbEntity
  8
_U+30EC_U+30A4_U+30E4_U+30FC 1
 62
   179
420
  2234388
370
    25
100
AcDb2dPolyline
 66
     1
 10
0.0
 20
0.0
 30
0.0
  0
VERTEX
  5
DA
330
D9
100
AcDbEntity
  8
_U+30EC_U+30A4_U+30E4_U+30FC 1
 62
   179
420
  2234388
370
    25
100
AcDbVertex
100
AcDb2dVertex
 10
46.66001047627063
 20
-97.99884441994455
 30
0.0
  0
VERTEX
  5
DB
330
D9
100
AcDbEntity
  8
_U+30EC_U+30A4_U+30E4_U+30FC 1
 62
   179
420
  2234388
370
    25
100
AcDbVertex
100
AcDb2dVertex
 10
46.66001047627063
 20
-98.66855775311046
 30
0.0
  0
SEQEND
  5
DC
330
D9
100
AcDbEntity
  8
_U+30EC_U+30A4_U+30E4_U+30FC 1
 62
   179
420
  2234388
370
    25
  0
POLYLINE
  5
DD
330
1F
100
AcDbEntity
  8
_U+30EC_U+30A4_U+30E4_U+30FC 1
 62
   179
420
  2234388
370
    25
100
AcDb2dPolyline
 66
     1
 10
0.0
 20
0.0
 30
0.0
  0
VERTEX
  5
DE
330
DD
100
AcDbEntity
  8
_U+30EC_U+30A4_U+30E4_U+30FC 1
 62
   179
420
  2234388
370
    25
100
AcDbVertex
100
AcDb2dVertex
 10
47.89716683359703
 20
-98.06636608659423
 30
0.0
  0
VERTEX
  5
DF
330
DD
100
AcDbEntity
  8
_U+30EC_U+30A4_U+30E4_U+30FC 1
 62
   179
420
  2234388
370
    25
100
AcDbVertex
100
AcDb2dVertex
 10
50.66012231866372
 20
-98.06636608659423
 30
0.0
  0
SEQEND
  5
E0
330
DD
100
AcDbEntity
  8
_U+30EC_U+30A4_U+30E4_U+30FC 1
 62
   179
420
  2234388
370
    25
  0
POLYLINE
  5
E1
330
1F
100
AcDbEntity
  8
_U+30EC_U+30A4_U+30E4_U+30FC 1
 62
   179
420
  2234388
370
    25
100
AcDb2dPolyline
 66
     1
 10
0.0
 20
0.0
 30
0.0
  0
VERTEX
  5
E2
330
E1
100
AcDbEntity
  8
_U+30EC_U+30A4_U+30E4_U+30FC 1
 62
   179
420
  2234388
370
    25
100
AcDbVertex
100
AcDb2dVertex
 10
48.06011488499543
 20
-82.06665914614997
 30
0.0
  0
VERTEX
  5
E3
330
E1
100
AcDbEntity
  8
_U+30EC_U+30A4_U+30E4_U+30FC 1
 62
   179
420
  2234388
370
    25
100
AcDbVertex
100
AcDb2dVertex
 10
47.15989657462858
 20
-98.06636608659423
 30
0.0
  0
SEQEND
  5
E4
330
E1
100
AcDbEntity
  8
_U+30EC_U+30A4_U+30E4_U+30FC 1
 62
   179
420
  2234388
370
    25
  0
POLYLINE
  5
E5
330
1F
100
AcDbEntity
  8
_U+30EC_U+30A4_U+30E4_U+30FC 1
 62
   179
420
  2234388
370
    25
100
AcDb2dPolyline
 66
     1
 10
0.0
 20
0.0
 30
0.0
  0
VERTEX
  5
E6
330
E5
100
AcDbEntity
  8
_U+30EC_U+30A4_U+30E4_U+30FC 1
 62
   179
420
  2234388
370
    25
100
AcDbVertex
100
AcDb2dVertex
 10
48.74087014540569
 20
-82.9782369236998
 30
0.0
  0
VERTEX
  5
E7
330
E5
100
AcDbEntity
  8
_U+30EC_U+30A4_U+30E4_U+30FC 1
 62
   179
420
  2234388
370
    25
100
AcDbVertex
100
AcDb2dVertex
 10
47.89716683359703
 20
-98.06636608659423
 30
0.0
  0
SEQEND
  5
E8
330
E5
100
AcDbEntity
  8
_U+30EC_U+30A4_U+30E4_U+30FC 1
 62
   179
420
  2234388
370
    25
  0
ENDSEC
  0
SECTION
  2
OBJECTS
  0
DICTIONARY
  5
C
330
0
100
AcDbDictionary
281
     1
  3
ACAD_GROUP
350
D
  3
ACAD_LAYOUT
350
1A
  3
ACAD_MATERIAL
350
3B
  3
ACAD_MLEADERSTYLE
350
EA
  3
ACAD_MLINESTYLE
350
17
  3
ACAD_PLOTSETTINGS
350
19
  3
ACAD_PLOTSTYLENAME
350
E
  3
ACAD_TABLESTYLE
350
E9
  3
ACAD_VISUALSTYLE
350
2A
  0
SUN
  5
3F
330
29
100
AcDbSun
 90
        1
290
     0
 63
     7
421
 16777215
 40
1.0
291
     1
 91
  2455826
 92
 54000000
292
     0
 70
     2
 71
   256
280
     1
  0
DICTIONARY
  5
D
102
{ACAD_REACTORS
330
C
102
}
330
C
100
AcDbDictionary
281
     1
  0
DICTIONARY
  5
1A
102
{ACAD_REACTORS
330
C
102
}
330
C
100
AcDbDictionary
281
     1
  3
Layout1
350
1E
  3
Layout2
350
26
  3
Model
350
22
  0
DICTIONARY
  5
3B
102
{ACAD_REACTORS
330
C
102
}
330
C
100
AcDbDictionary
281
     1
  3
ByBlock
350
3D
  3
ByLayer
350
3C
  3
Global
350
3E
  0
DICTIONARY
  5
EA
102
{ACAD_REACTORS
330
C
102
}
330
C
100
AcDbDictionary
281
     1
  0
DICTIONARY
  5
17
102
{ACAD_REACTORS
330
C
102
}
330
C
100
AcDbDictionary
281
     1
  3
Standard
350
18
  0
DICTIONARY
  5
19
102
{ACAD_REACTORS
330
C
102
}
330
C
100
AcDbDictionary
281
     1
  0
ACDBDICTIONARYWDFLT
  5
E
102
{ACAD_REACTORS
330
C
102
}
330
C
100
AcDbDictionary
281
     1
  3
Normal
350
F
100
AcDbDictionaryWithDefault
340
F
  0
DICTIONARY
  5
E9
102
{ACAD_REACTORS
330
C
102
}
330
C
100
AcDbDictionary
281
     1
  0
DICTIONARY
  5
2A
102
{ACAD_REACTORS
330
C
102
}
330
C
100
AcDbDictionary
281
     1
  3
2dWireframe
350
2F
  3
3D Hidden
350
31
  3
3dWireframe
350
30
  3
Basic
350
32
  3
Brighten
350
36
  3
ColorChange
350
3A
  3
Conceptual
350
34
  3
Dim
350
35
  3
Facepattern
350
39
  3
Flat
350
2B
  3
FlatWithEdges
350
2C
  3
Gouraud
350
2D
  3
GouraudWithEdges
350
2E
  3
Linepattern
350
38
  3
Realistic
350
33
  3
Thicken
350
37
  0
LAYOUT
  5
1E
102
{ACAD_REACTORS
330
1A
102
}
330
1A
100
AcDbPlotSettings
  1

  2
none_device
  4

  6

 40
0.0
 41
0.0
 42
0.0
 43
0.0
 44
0.0
 45
0.0
 46
0.0
 47
0.0
 48
0.0
 49
0.0
140
0.0
141
0.0
142
1.0
143
1.0
 70
   688
 72
     0
 73
     0
 74
     5
  7

 75
    16
 76
     0
 77
     2
 78
   300
147
1.0
148
0.0
149
0.0
100
AcDbLayout
  1
Layout1
 70
     1
 71
     1
 10
0.0
 20
0.0
 11
12.0
 21
9.0
 12
0.0
 22
0.0
 32
0.0
 14
1.000000000000000E+20
 24
1.000000000000000E+20
 34
1.000000000000000E+20
 15
-1.000000000000000E+20
 25
-1.000000000000000E+20
 35
-1.000000000000000E+20
146
0.0
 13
0.0
 23
0.0
 33
0.0
 16
1.0
 26
0.0
 36
0.0
 17
0.0
 27
1.0
 37
0.0
 76
     0
330
1B
  0
LAYOUT
  5
26
102
{ACAD_REACTORS
330
1A
102
}
330
1A
100
AcDbPlotSettings
  1

  2
none_device
  4

  6

 40
0.0
 41
0.0
 42
0.0
 43
0.0
 44
0.0
 45
0.0
 46
0.0
 47
0.0
 48
0.0
 49
0.0
140
0.0
141
0.0
142
1.0
143
1.0
 70
   688
 72
     0
 73
     0
 74
     5
  7

 75
    16
 76
     0
 77
     2
 78
   300
147
1.0
148
0.0
149
0.0
100
AcDbLayout
  1
Layout2
 70
     1
 71
     2
 10
0.0
 20
0.0
 11
0.0
 21
0.0
 12
0.0
 22
0.0
 32
0.0
 14
0.0
 24
0.0
 34
0.0
 15
0.0
 25
0.0
 35
0.0
146
0.0
 13
0.0
 23
0.0
 33
0.0
 16
1.0
 26
0.0
 36
0.0
 17
0.0
 27
1.0
 37
0.0
 76
     0
330
23
  0
LAYOUT
  5
22
102
{ACAD_REACTORS
330
1A
102
}
330
1A
100
AcDbPlotSettings
  1

  2
none_device
  4

  6

 40
0.0
 41
0.0
 42
0.0
 43
0.0
 44
0.0
 45
0.0
 46
0.0
 47
0.0
 48
0.0
 49
0.0
140
0.0
141
0.0
142
1.0
143
1.0
 70
  1712
 72
     0
 73
     0
 74
     0
  7

 75
     0
 76
     0
 77
     2
 78
   300
147
1.0
148
0.0
149
0.0
100
AcDbLayout
  1
Model
 70
     1
 71
     0
 10
0.0
 20
0.0
 11
12.0
 21
9.0
 12
0.0
 22
0.0
 32
0.0
 14
1.000000000000000E+20
 24
1.000000000000000E+20
 34
1.000000000000000E+20
 15
-1.000000000000000E+20
 25
-1.000000000000000E+20
 35
-1.000000000000000E+20
146
0.0
 13
0.0
 23
0.0
 33
0.0
 16
1.0
 26
0.0
 36
0.0
 17
0.0
 27
1.0
 37
0.0
 76
     0
330
1F
331
29
  0
MATERIAL
  5
3D
102
{ACAD_REACTORS
330
3B
102
}
330
3B
100
AcDbMaterial
  1
ByBlock
 72
     1
 94
      127
  0
MATERIAL
  5
3C
102
{ACAD_REACTORS
330
3B
102
}
330
3B
100
AcDbMaterial
  1
ByLayer
 72
     1
 94
      127
  0
MATERIAL
  5
3E
102
{ACAD_REACTORS
330
3B
102
}
330
3B
100
AcDbMaterial
  1
Global
 72
     1
 94
      127
  0
MLINESTYLE
  5
18
102
{ACAD_REACTORS
330
17
102
}
330
17
100
AcDbMlineStyle
  2
Standard
 70
     0
  3

 62
   256
 51
90.0
 52
90.0
 71
     2
 49
0.5
 62
   256
  6
BYLAYER
 49
-0.5
 62
   256
  6
BYLAYER
  0
ACDBPLACEHOLDER
  5
F
102
{ACAD_REACTORS
330
E
102
}
330
E
  0
VISUALSTYLE
  5
2F
102
{ACAD_REACTORS
330
2A
102
}
330
2A
100
AcDbVisualStyle
  2
2dWireframe
 70
     4
177
     2
291
     0
 71
     0
176
     1
 72
     2
176
     1
 73
     0
176
     1
 90
        0
176
     1
 40
-0.6
176
     1
 41
-30.0
176
     1
 62
     5
 63
     7
421
 16777215
176
     1
 74
     1
176
     1
 91
        4
176
     1
 64
     7
176
     1
 65
   257
176
     1
 75
     1
176
     1
175
     1
176
     1
 42
1.0
176
     1
 92
        0
176
     1
 66
   257
176
     1
 43
1.0
176
     1
 76
     1
176
     1
 77
     6
176
     1
 78
     2
176
     1
 67
     7
176
     1
 79
     5
176
     1
170
     0
176
     1
171
     0
176
     1
290
     0
176
     1
 93
        1
176
     1
 44
0.0
176
     1
173
     0
176
     1
  0
VISUALSTYLE
  5
31
102
{ACAD_REACTORS
330
2A
102
}
330
2A
100
AcDbVisualStyle
  2
3D Hidden
 70
     6
177
     2
291
     0
 71
     1
176
     1
 72
     2
176
     1
 73
     2
176
     1
 90
        0
176
     1
 40
-0.6
176
     1
 41
-30.0
176
     1
 62
     5
 63
     7
421
 16777215
176
     1
 74
     2
176
     1
 91
        2
176
     1
 64
     7
176
     1
 65
   257
176
     1
 75
     2
176
     1
175
     1
176
     1
 42
40.0
176
     1
 92
        0
176
     1
 66
   257
176
     1
 43
1.0
176
     1
 76
     1
176
     1
 77
     6
176
     1
 78
     2
176
     1
 67
     7
176
     1
 79
     3
176
     1
170
     0
176
     1
171
     0
176
     1
290
     0
176
     1
 93
        1
176
     1
 44
0.0
176
     1
173
     0
176
     1
  0
VISUALSTYLE
  5
30
102
{ACAD_REACTORS
330
2A
102
}
330
2A
100
AcDbVisualStyle
  2
3dWireframe
 70
     5
177
     2
291
     0
 71
     0
176
     1
 72
     2
176
     1
 73
     0
176
     1
 90
        0
176
     1
 40
-0.6
176
     1
 41
-30.0
176
     1
 62
     5
 63
     7
421
 16777215
176
     1
 74
     1
176
     1
 91
        4
176
     1
 64
     7
176
     1
 65
   257
176
     1
 75
     1
176
     1
175
     1
176
     1
 42
1.0
176
     1
 92
        0
176
     1
 66
   257
176
     1
 43
1.0
176
     1
 76
     1
176
     1
 77
     6
176
     1
 78
     2
176
     1
 67
     7
176
     1
 79
     5
176
     1
170
     0
176
     1
171
     0
176
     1
290
     0
176
     1
 93
        1
176
     1
 44
0.0
176
     1
173
     0
176
     1
  0
VISUALSTYLE
  5
32
102
{ACAD_REACTORS
330
2A
102
}
330
2A
100
AcDbVisualStyle
  2
Basic
 70
     7
177
     2
291
     1
 71
     1
176
     1
 72
     0
176
     1
 73
     1
176
     1
 90
        0
176
     1
 40
-0.6
176
     1
 41
-30.0
176
     1
 62
     5
 63
     7
421
 16777215
176
     1
 74
     0
176
     1
 91
        4
176
     1
 64
     7
176
     1
 65
   257
176
     1
 75
     1
176
     1
175
     1
176
     1
 42
1.0
176
     1
 92
        8
176
     1
 66
     7
176
     1
 43
1.0
176
     1
 76
     1
176
     1
 77
     6
176
     1
 78
     2
176
     1
 67
     7
176
     1
 79
     5
176
     1
170
     0
176
     1
171
     0
176
     1
290
     0
176
     1
 93
        1
176
     1
 44
0.0
176
     1
173
     0
176
     1
  0
VISUALSTYLE
  5
36
102
{ACAD_REACTORS
330
2A
102
}
330
2A
100
AcDbVisualStyle
  2
Brighten
 70
    12
177
     2
291
     1
 71
     2
176
     1
 72
     2
176
     1
 73
     0
176
     1
 90
        0
176
     1
 40
-0.6
176
     1
 41
-30.0
176
     1
 62
     5
 63
     7
421
 16777215
176
     1
 74
     1
176
     1
 91
        4
176
     1
 64
     7
176
     1
 65
   257
176
     1
 75
     1
176
     1
175
     1
176
     1
 42
1.0
176
     1
 92
        8
176
     1
 66
     7
176
     1
 43
1.0
176
     1
 76
     1
176
     1
 77
     6
176
     1
 78
     2
176
     1
 67
     7
176
     1
 79
     5
176
     1
170
     0
176
     1
171
     0
176
     1
290
     0
176
     1
 93
        1
176
     1
 44
50.0
176
     1
173
     0
176
     1
  0
VISUALSTYLE
  5
3A
102
{ACAD_REACTORS
330
2A
102
}
330
2A
100
AcDbVisualStyle
  2
ColorChange
 70
    16
177
     2
291
     1
 71
     2
176
     1
 72
     2
176
     1
 73
     3
176
     1
 90
        0
176
     1
 40
-0.6
176
     1
 41
-30.0
176
     1
 62
     5
 63
     8
421
  8421504
176
     1
 74
     1
176
     1
 91
        4
176
     1
 64
     7
176
     1
 65
   257
176
     1
 75
     1
176
     1
175
     1
176
     1
 42
1.0
176
     1
 92
        8
176
     1
 66
     8
424
  8421504
176
     1
 43
1.0
176
     1
 76
     1
176
     1
 77
     6
176
     1
 78
     2
176
     1
 67
     7
176
     1
 79
     5
176
     1
170
     0
176
     1
171
     0
176
     1
290
     0
176
     1
 93
        1
176
     1
 44
0.0
176
     1
173
     0
176
     1
  0
VISUALSTYLE
  5
34
102
{ACAD_REACTORS
330
2A
102
}
330
2A
100
AcDbVisualStyle
  2
Conceptual
 70
     9
177
     2
291
     0
 71
     3
176
     1
 72
     2
176
     1
 73
     0
176
     1
 90
        0
176
     1
 40
-0.6
176
     1
 41
-30.0
176
     1
 62
     5
 63
     7
421
 16777215
176
     1
 74
     2
176
     1
 91
        2
176
     1
 64
     7
176
     1
 65
   257
176
     1
 75
     1
176
     1
175
     1
176
     1
 42
40.0
176
     1
 92
        8
176
     1
 66
     7
176
     1
 43
1.0
176
     1
 76
     1
176
     1
 77
     6
176
     1
 78
     2
176
     1
 67
     7
176
     1
 79
     3
176
     1
170
     0
176
     1
171
     0
176
     1
290
     0
176
     1
 93
        1
176
     1
 44
0.0
176
     1
173
     0
176
     1
  0
VISUALSTYLE
  5
35
102
{ACAD_REACTORS
330
2A
102
}
330
2A
100
AcDbVisualStyle
  2
Dim
 70
    11
177
     2
291
     1
 71
     2
176
     1
 72
     2
176
     1
 73
     0
176
     1
 90
        0
176
     1
 40
-0.6
176
     1
 41
-30.0
176
     1
 62
     5
 63
     7
421
 16777215
176
     1
 74
     1
176
     1
 91
        4
176
     1
 64
     7
176
     1
 65
   257
176
     1
 75
     1
176
     1
175
     1
176
     1
 42
1.0
176
     1
 92
        8
176
     1
 66
     7
176
     1
 43
1.0
176
     1
 76
     1
176
     1
 77
     6
176
     1
 78
     2
176
     1
 67
     7
176
     1
 79
     5
176
     1
170
     0
176
     1
171
     0
176
     1
290
     0
176
     1
 93
        1
176
     1
 44
-50.0
176
     1
173
     0
176
     1
  0
VISUALSTYLE
  5
39
102
{ACAD_REACTORS
330
2A
102
}
330
2A
100
AcDbVisualStyle
  2
Facepattern
 70
    15
177
     2
291
     1
 71
     2
176
     1
 72
     2
176
     1
 73
     0
176
     1
 90
        0
176
     1
 40
-0.6
176
     1
 41
-30.0
176
     1
 62
     5
 63
     7
421
 16777215
176
     1
 74
     1
176
     1
 91
        4
176
     1
 64
     7
176
     1
 65
   257
176
     1
 75
     1
176
     1
175
     1
176
     1
 42
1.0
176
     1
 92
        8
176
     1
 66
     7
176
     1
 43
1.0
176
     1
 76
     1
176
     1
 77
     6
176
     1
 78
     2
176
     1
 67
     7
176
     1
 79
     5
176
     1
170
     0
176
     1
171
     0
176
     1
290
     0
176
     1
 93
        1
176
     1
 44
0.0
176
     1
173
     0
176
     1
  0
VISUALSTYLE
  5
2B
102
{ACAD_REACTORS
330
2A
102
}
330
2A
100
AcDbVisualStyle
  2
Flat
 70
     0
177
     2
291
     1
 71
     2
176
     1
 72
     1
176
     1
 73
     1
176
     1
 90
        2
176
     1
 40
-0.6
176
     1
 41
30.0
176
     1
 62
     5
 63
     7
421
 16777215
176
     1
 74
     0
176
     1
 91
        4
176
     1
 64
     7
176
     1
 65
   257
176
     1
 75
     1
176
     1
175
     1
176
     1
 42
1.0
176
     1
 92
        8
176
     1
 66
     7
176
     1
 43
1.0
176
     1
 76
     1
176
     1
 77
     6
176
     1
 78
     2
176
     1
 67
     7
176
     1
 79
     5
176
     1
170
     0
176
     1
171
     0
176
     1
290
     0
176
     1
 93
       13
176
     1
 44
0.0
176
     1
173
     0
176
     1
  0
VISUALSTYLE
  5
2C
102
{ACAD_REACTORS
330
2A
102
}
330
2A
100
AcDbVisualStyle
  2
FlatWithEdges
 70
     1
177
     2
291
     1
 71
     2
176
     1
 72
     1
176
     1
 73
     1
176
     1
 90
        2
176
     1
 40
-0.6
176
     1
 41
30.0
176
     1
 62
     5
 63
     7
421
 16777215
176
     1
 74
     1
176
     1
 91
        4
176
     1
 64
     7
176
     1
 65
   257
176
     1
 75
     1
176
     1
175
     1
176
     1
 42
1.0
176
     1
 92
        0
176
     1
 66
   257
176
     1
 43
1.0
176
     1
 76
     1
176
     1
 77
     6
176
     1
 78
     2
176
     1
 67
     7
176
     1
 79
     5
176
     1
170
     0
176
     1
171
     0
176
     1
290
     0
176
     1
 93
       13
176
     1
 44
0.0
176
     1
173
     0
176
     1
  0
VISUALSTYLE
  5
2D
102
{ACAD_REACTORS
330
2A
102
}
330
2A
100
AcDbVisualStyle
  2
Gouraud
 70
     2
177
     2
291
     1
 71
     2
176
     1
 72
     2
176
     1
 73
     1
176
     1
 90
        2
176
     1
 40
-0.6
176
     1
 41
30.0
176
     1
 62
     5
 63
     7
421
 16777215
176
     1
 74
     0
176
     1
 91
        4
176
     1
 64
     7
176
     1
 65
   257
176
     1
 75
     1
176
     1
175
     1
176
     1
 42
1.0
176
     1
 92
        0
176
     1
 66
     7
176
     1
 43
1.0
176
     1
 76
     1
176
     1
 77
     6
176
     1
 78
     2
176
     1
 67
     7
176
     1
 79
     5
176
     1
170
     0
176
     1
171
     0
176
     1
290
     0
176
     1
 93
       13
176
     1
 44
0.0
176
     1
173
     0
176
     1
  0
VISUALSTYLE
  5
2E
102
{ACAD_REACTORS
330
2A
102
}
330
2A
100
AcDbVisualStyle
  2
GouraudWithEdges
 70
     3
177
     2
291
     1
 71
     2
176
     1
 72
     2
176
     1
 73
     1
176
     1
 90
        2
176
     1
 40
-0.6
176
     1
 41
30.0
176
     1
 62
     5
 63
     7
421
 16777215
176
     1
 74
     1
176
     1
 91
        4
176
     1
 64
     7
176
     1
 65
   257
176
     1
 75
     1
176
     1
175
     1
176
     1
 42
1.0
176
     1
 92
        0
176
     1
 66
   257
176
     1
 43
1.0
176
     1
 76
     1
176
     1
 77
     6
176
     1
 78
     2
176
     1
 67
     7
176
     1
 79
     5
176
     1
170
     0
176
     1
171
     0
176
     1
290
     0
176
     1
 93
       13
176
     1
 44
0.0
176
     1
173
     0
176
     1
  0
VISUALSTYLE
  5
38
102
{ACAD_REACTORS
330
2A
102
}
330
2A
100
AcDbVisualStyle
  2
Linepattern
 70
    14
177
     2
291
     1
 71
     2
176
     1
 72
     2
176
     1
 73
     0
176
     1
 90
        0
176
     1
 40
-0.6
176
     1
 41
-30.0
176
     1
 62
     5
 63
     7
421
 16777215
176
     1
 74
     1
176
     1
 91
        4
176
     1
 64
     7
176
     1
 65
   257
176
     1
 75
     7
176
     1
175
     7
176
     1
 42
1.0
176
     1
 92
        8
176
     1
 66
     7
176
     1
 43
1.0
176
     1
 76
     1
176
     1
 77
     6
176
     1
 78
     2
176
     1
 67
     7
176
     1
 79
     5
176
     1
170
     0
176
     1
171
     0
176
     1
290
     0
176
     1
 93
        1
176
     1
 44
0.0
176
     1
173
     0
176
     1
  0
VISUALSTYLE
  5
33
102
{ACAD_REACTORS
330
2A
102
}
330
2A
100
AcDbVisualStyle
  2
Realistic
 70
     8
177
     2
291
     0
 71
     2
176
     1
 72
     2
176
     1
 73
     0
176
     1
 90
        0
176
     1
 40
-0.6
176
     1
 41
-30.0
176
     1
 62
     5
 63
     7
421
 16777215
176
     1
 74
     1
176
     1
 91
        0
176
     1
 64
     7
176
     1
 65
   257
176
     1
 75
     1
176
     1
175
     1
176
     1
 42
1.0
176
     1
 92
        8
176
     1
 66
     8
424
  7895160
176
     1
 43
1.0
176
     1
 76
     1
176
     1
 77
     6
176
     1
 78
     2
176
     1
 67
     7
176
     1
 79
     5
176
     1
170
     0
176
     1
171
     0
176
     1
290
     0
176
     1
 93
       13
176
     1
 44
0.0
176
     1
173
     0
176
     1
  0
VISUALSTYLE
  5
37
102
{ACAD_REACTORS
330
2A
102
}
330
2A
100
AcDbVisualStyle
  2
Thicken
 70
    13
177
     2
291
     1
 71
     2
176
     1
 72
     2
176
     1
 73
     0
176
     1
 90
        0
176
     1
 40
-0.6
176
     1
 41
-30.0
176
     1
 62
     5
 63
     7
421
 16777215
176
     1
 74
     1
176
     1
 91
        4
176
     1
 64
     7
176
     1
 65
   257
176
     1
 75
     1
176
     1
175
     1
176
     1
 42
1.0
176
     1
 92
       12
176
     1
 66
     7
176
     1
 43
1.0
176
     1
 76
     1
176
     1
 77
     6
176
     1
 78
     2
176
     1
 67
     7
176
     1
 79
     5
176
     1
170
     0
176
     1
171
     0
176
     1
290
     0
176
     1
 93
        1
176
     1
 44
0.0
176
     1
173
     0
176
     1
  0
ENDSEC
  0
EOF
