  0
SECTION
  2
HEADER
  9
$ACADVER
  1
AC1024
  9
$ACADMAINTVER
 70
     6
  9
$DWGCODEPAGE
  3
UNDEFINED
  9
$INSBASE
 10
0.0
 20
0.0
 30
0.0
  9
$EXTMIN
 10
1.000000000000000E+20
 20
1.000000000000000E+20
 30
1.000000000000000E+20
  9
$EXTMAX
 10
-1.000000000000000E+20
 20
-1.000000000000000E+20
 30
-1.000000000000000E+20
  9
$LIMMIN
 10
0.0
 20
0.0
  9
$LIMMAX
 10
12.0
 20
9.0
  9
$ORTHOMODE
 70
     0
  9
$REGENMODE
 70
     1
  9
$FILLMODE
 70
     1
  9
$QTEXTMODE
 70
     0
  9
$MIRRTEXT
 70
     1
  9
$LTSCALE
 40
1.0
  9
$ATTMODE
 70
     1
  9
$TEXTSIZE
 40
0.2
  9
$TRACEWID
 40
0.05
  9
$TEXTSTYLE
  7
Standard
  9
$CLAYER
  8
0
  9
$CELTYPE
  6
ByLayer
  9
$CECOLOR
 62
   256
  9
$CELTSCALE
 40
1.0
  9
$DISPSILH
 70
     0
  9
$DIMSCALE
 40
1.0
  9
$DIMASZ
 40
0.18
  9
$DIMEXO
 40
0.0625
  9
$DIMDLI
 40
0.38
  9
$DIMRND
 40
0.0
  9
$DIMDLE
 40
0.0
  9
$DIMEXE
 40
0.18
  9
$DIMTP
 40
0.0
  9
$DIMTM
 40
0.0
  9
$DIMTXT
 40
0.18
  9
$DIMCEN
 40
0.09
  9
$DIMTSZ
 40
0.0
  9
$DIMTOL
 70
     0
  9
$DIMLIM
 70
     0
  9
$DIMTIH
 70
     1
  9
$DIMTOH
 70
     1
  9
$DIMSE1
 70
     0
  9
$DIMSE2
 70
     0
  9
$DIMTAD
 70
     0
  9
$DIMZIN
 70
     0
  9
$DIMBLK
  1

  9
$DIMASO
 70
     1
  9
$DIMSHO
 70
     1
  9
$DIMPOST
  1

  9
$DIMAPOST
  1

  9
$DIMALT
 70
     0
  9
$DIMALTD
 70
     2
  9
$DIMALTF
 40
25.4
  9
$DIMLFAC
 40
1.0
  9
$DIMTOFL
 70
     0
  9
$DIMTVP
 40
0.0
  9
$DIMTIX
 70
     0
  9
$DIMSOXD
 70
     0
  9
$DIMSAH
 70
     0
  9
$DIMBLK1
  1

  9
$DIMBLK2
  1

  9
$DIMSTYLE
  2
Standard
  9
$DIMCLRD
 70
     0
  9
$DIMCLRE
 70
     0
  9
$DIMCLRT
 70
     0
  9
$DIMTFAC
 40
1.0
  9
$DIMGAP
 40
0.09
  9
$DIMJUST
 70
     0
  9
$DIMSD1
 70
     0
  9
$DIMSD2
 70
     0
  9
$DIMTOLJ
 70
     1
  9
$DIMTZIN
 70
     0
  9
$DIMALTZ
 70
     0
  9
$DIMALTTZ
 70
     0
  9
$DIMUPT
 70
     0
  9
$DIMDEC
 70
     4
  9
$DIMTDEC
 70
     4
  9
$DIMALTU
 70
     2
  9
$DIMALTTD
 70
     2
  9
$DIMTXSTY
  7
Standard
  9
$DIMAUNIT
 70
     0
  9
$DIMADEC
 70
     0
  9
$DIMALTRND
 40
0.0
  9
$DIMAZIN
 70
     0
  9
$DIMDSEP
 70
    46
  9
$DIMATFIT
 70
     3
  9
$DIMFRAC
 70
     0
  9
$DIMLDRBLK
  1

  9
$DIMLUNIT
 70
     2
  9
$DIMLWD
 70
    -2
  9
$DIMLWE
 70
    -2
  9
$DIMTMOVE
 70
     0
  9
$DIMFXL
 40
1.0
  9
$DIMFXLON
 70
     0
  9
$DIMJOGANG
 40
0.7853981633974483
  9
$DIMTFILL
 70
     0
  9
$DIMTFILLCLR
 70
     0
  9
$DIMARCSYM
 70
     0
  9
$DIMLTYPE
  6

  9
$DIMLTEX1
  6

  9
$DIMLTEX2
  6

  9
$DIMTXTDIRECTION
 70
     0
  9
$LUNITS
 70
     2
  9
$LUPREC
 70
     4
  9
$SKETCHINC
 40
0.1
  9
$FILLETRAD
 40
0.5
  9
$AUNITS
 70
     0
  9
$AUPREC
 70
     0
  9
$MENU
  1
.
  9
$ELEVATION
 40
0.0
  9
$PELEVATION
 40
0.0
  9
$THICKNESS
 40
0.0
  9
$LIMCHECK
 70
     0
  9
$CHAMFERA
 40
0.5
  9
$CHAMFERB
 40
0.5
  9
$CHAMFERC
 40
1.0
  9
$CHAMFERD
 40
0.0
  9
$SKPOLY
 70
     0
  9
$TDCREATE
 40
2457917.587314803
  9
$TDUCREATE
 40
2457917.212314815
  9
$TDUPDATE
 40
2457917.587314803
  9
$TDUUPDATE
 40
2457917.212314815
  9
$TDINDWG
 40
0.0000000116
  9
$TDUSRTIMER
 40
0.0000000116
  9
$USRTIMER
 70
     1
  9
$ANGBASE
 50
0.0
  9
$ANGDIR
 70
     0
  9
$PDMODE
 70
     0
  9
$PDSIZE
 40
0.0
  9
$PLINEWID
 40
0.0
  9
$SPLFRAME
 70
     0
  9
$SPLINETYPE
 70
     6
  9
$SPLINESEGS
 70
     8
  9
$HANDSEED
  5
EC
  9
$SURFTAB1
 70
     6
  9
$SURFTAB2
 70
     6
  9
$SURFTYPE
 70
     6
  9
$SURFU
 70
     6
  9
$SURFV
 70
     6
  9
$UCSBASE
  2

  9
$UCSNAME
  2

  9
$UCSORG
 10
0.0
 20
0.0
 30
0.0
  9
$UCSXDIR
 10
1.0
 20
0.0
 30
0.0
  9
$UCSYDIR
 10
0.0
 20
1.0
 30
0.0
  9
$UCSORTHOREF
  2

  9
$UCSORTHOVIEW
 70
     0
  9
$UCSORGTOP
 10
0.0
 20
0.0
 30
0.0
  9
$UCSORGBOTTOM
 10
0.0
 20
0.0
 30
0.0
  9
$UCSORGLEFT
 10
0.0
 20
0.0
 30
0.0
  9
$UCSORGRIGHT
 10
0.0
 20
0.0
 30
0.0
  9
$UCSORGFRONT
 10
0.0
 20
0.0
 30
0.0
  9
$UCSORGBACK
 10
0.0
 20
0.0
 30
0.0
  9
$PUCSBASE
  2

  9
$PUCSNAME
  2

  9
$PUCSORG
 10
0.0
 20
0.0
 30
0.0
  9
$PUCSXDIR
 10
1.0
 20
0.0
 30
0.0
  9
$PUCSYDIR
 10
0.0
 20
1.0
 30
0.0
  9
$PUCSORTHOREF
  2

  9
$PUCSORTHOVIEW
 70
     0
  9
$PUCSORGTOP
 10
0.0
 20
0.0
 30
0.0
  9
$PUCSORGBOTTOM
 10
0.0
 20
0.0
 30
0.0
  9
$PUCSORGLEFT
 10
0.0
 20
0.0
 30
0.0
  9
$PUCSORGRIGHT
 10
0.0
 20
0.0
 30
0.0
  9
$PUCSORGFRONT
 10
0.0
 20
0.0
 30
0.0
  9
$PUCSORGBACK
 10
0.0
 20
0.0
 30
0.0
  9
$USERI1
 70
     0
  9
$USERI2
 70
     0
  9
$USERI3
 70
     0
  9
$USERI4
 70
     0
  9
$USERI5
 70
     0
  9
$USERR1
 40
0.0
  9
$USERR2
 40
0.0
  9
$USERR3
 40
0.0
  9
$USERR4
 40
0.0
  9
$USERR5
 40
0.0
  9
$WORLDVIEW
 70
     1
  9
$SHADEDGE
 70
     3
  9
$SHADEDIF
 70
    70
  9
$TILEMODE
 70
     1
  9
$MAXACTVP
 70
    64
  9
$PINSBASE
 10
0.0
 20
0.0
 30
0.0
  9
$PLIMCHECK
 70
     0
  9
$PEXTMIN
 10
1.000000000000000E+20
 20
1.000000000000000E+20
 30
1.000000000000000E+20
  9
$PEXTMAX
 10
-1.000000000000000E+20
 20
-1.000000000000000E+20
 30
-1.000000000000000E+20
  9
$PLIMMIN
 10
0.0
 20
0.0
  9
$PLIMMAX
 10
12.0
 20
9.0
  9
$UNITMODE
 70
     0
  9
$VISRETAIN
 70
     1
  9
$PLINEGEN
 70
     0
  9
$PSLTSCALE
 70
     1
  9
$TREEDEPTH
 70
  3020
  9
$CMLSTYLE
  2
Standard
  9
$CMLJUST
 70
     0
  9
$CMLSCALE
 40
1.0
  9
$PROXYGRAPHICS
 70
     1
  9
$MEASUREMENT
 70
     0
  9
$CELWEIGHT
370
    -1
  9
$ENDCAPS
280
     0
  9
$JOINSTYLE
280
     0
  9
$LWDISPLAY
290
     1
  9
$INSUNITS
 70
     1
  9
$HYPERLINKBASE
  1

  9
$STYLESHEET
  1

  9
$XEDIT
290
     1
  9
$CEPSNTYPE
380
     0
  9
$PSTYLEMODE
290
     1
  9
$FINGERPRINTGUID
  2
{CB6B6744-D373-8AD1-0A69-65520D84EDBB}
  9
$VERSIONGUID
  2
{FAEB1C32-E019-11D5-929B-00C0DF256EC4}
  9
$EXTNAMES
290
     1
  9
$PSVPSCALE
 40
0.0
  9
$OLESTARTUP
290
     0
  9
$SORTENTS
280
   127
  9
$INDEXCTL
280
     0
  9
$HIDETEXT
280
     1
  9
$XCLIPFRAME
280
     2
  9
$HALOGAP
280
     0
  9
$OBSCOLOR
 70
   257
  9
$OBSLTYPE
280
     0
  9
$INTERSECTIONDISPLAY
280
     0
  9
$INTERSECTIONCOLOR
 70
   257
  9
$DIMASSOC
280
     2
  9
$PROJECTNAME
  1

  9
$CAMERADISPLAY
290
     0
  9
$LENSLENGTH
 40
50.0
  9
$CAMERAHEIGHT
 40
0.0
  9
$STEPSPERSEC
 40
2.0
  9
$STEPSIZE
 40
6.0
  9
$3DDWFPREC
 40
2.0
  9
$PSOLWIDTH
 40
0.25
  9
$PSOLHEIGHT
 40
4.0
  9
$LOFTANG1
 40
1.570796326794897
  9
$LOFTANG2
 40
1.570796326794897
  9
$LOFTMAG1
 40
0.0
  9
$LOFTMAG2
 40
0.0
  9
$LOFTPARAM
 70
     7
  9
$LOFTNORMALS
280
     1
  9
$LATITUDE
 40
37.795
  9
$LONGITUDE
 40
-122.394
  9
$NORTHDIRECTION
 40
0.0
  9
$TIMEZONE
 70
 -8000
  9
$LIGHTGLYPHDISPLAY
280
     1
  9
$TILEMODELIGHTSYNCH
280
     1
  9
$CMATERIAL
347
3C
  9
$SOLIDHIST
280
     1
  9
$SHOWHIST
280
     1
  9
$DWFFRAME
280
     2
  9
$DGNFRAME
280
     2
  9
$REALWORLDSCALE
290
     1
  9
$INTERFERECOLOR
 62
   256
  9
$CSHADOW
280
     0
  9
$SHADOWPLANELOCATION
 40
0.0
  0
ENDSEC
  0
SECTION
  2
CLASSES
  0
CLASS
  1
ACDBDICTIONARYWDFLT
  2
AcDbDictionaryWithDefault
  3
ObjectDBX Classes
 90
        0
 91
        4
280
     0
281
     0
  0
CLASS
  1
VISUALSTYLE
  2
AcDbVisualStyle
  3
ObjectDBX Classes
 90
     4095
 91
        4
280
     0
281
     0
  0
CLASS
  1
MATERIAL
  2
AcDbMaterial
  3
ObjectDBX Classes
 90
     1153
 91
        4
280
     0
281
     0
  0
CLASS
  1
SUN
  2
AcDbSun
  3
SCENEOE
 90
     1024
 91
        4
280
     0
281
     0
  0
ENDSEC
  0
SECTION
  2
TABLES
  0
TABLE
  2
VPORT
  5
8
330
0
100
AcDbSymbolTable
 70
     1
  0
VPORT
  5
29
330
8
100
AcDbSymbolTableRecord
100
AcDbViewportTableRecord
  2
*Active
 70
     0
 10
0.0
 20
0.0
 11
1.0
 21
1.0
 12
0.0
 22
0.0
 13
0.0
 23
0.0
 14
0.5
 24
0.5
 15
0.5
 25
0.5
 16
0.0
 26
0.0
 36
1.0
 17
63.499999984125
 27
-89.00059456108309
 37
0.0
 40
178.0011891221662
 41
0.7134783795241226
 42
50.0
 43
0.0
 44
0.0
 50
0.0
 51
0.0
 71
     0
 72
   100
 73
     1
 74
     3
 75
     0
 76
     0
 77
     0
 78
     0
281
     0
 65
     1
110
0.0
120
0.0
130
0.0
111
1.0
121
0.0
131
0.0
112
0.0
122
1.0
132
0.0
 79
     0
146
0.0
 60
     3
 61
     5
292
     1
282
     1
141
0.0
142
0.0
 63
   250
361
3F
  0
ENDTAB
  0
TABLE
  2
LTYPE
  5
5
330
0
100
AcDbSymbolTable
 70
     1
  0
LTYPE
  5
14
330
5
100
AcDbSymbolTableRecord
100
AcDbLinetypeTableRecord
  2
ByBlock
 70
     0
  3

 72
    65
 73
     0
 40
0.0
  0
LTYPE
  5
15
330
5
100
AcDbSymbolTableRecord
100
AcDbLinetypeTableRecord
  2
ByLayer
 70
     0
  3

 72
    65
 73
     0
 40
0.0
  0
LTYPE
  5
16
330
5
100
AcDbSymbolTableRecord
100
AcDbLinetypeTableRecord
  2
Continuous
 70
     0
  3
Solid line
 72
    65
 73
     0
 40
0.0
  0
ENDTAB
  0
TABLE
  2
LAYER
  5
2
330
0
100
AcDbSymbolTable
 70
     2
  0
LAYER
  5
10
330
2
100
AcDbSymbolTableRecord
100
AcDbLayerTableRecord
  2
0
 70
     0
 62
     7
  6
Continuous
370
    -3
390
F
347
3E
  0
LAYER
  5
40
330
2
100
AcDbSymbolTableRecord
100
AcDbLayerTableRecord
  2
_U+30EC_U+30A4_U+30E4_U+30FC 1
 70
     0
 62
     7
  6
Continuous
370
    -3
390
F
347
3E
  0
ENDTAB
  0
TABLE
  2
STYLE
  5
3
330
0
100
AcDbSymbolTable
 70
     1
  0
STYLE
  5
11
330
3
100
AcDbSymbolTableRecord
100
AcDbTextStyleTableRecord
  2
Standard
 70
     0
 40
0.0
 41
1.0
 50
0.0
 71
     0
 42
0.2
  3
txt
  4

  0
ENDTAB
  0
TABLE
  2
VIEW
  5
6
330
0
100
AcDbSymbolTable
 70
     0
  0
ENDTAB
  0
TABLE
  2
UCS
  5
7
330
0
100
AcDbSymbolTable
 70
     0
  0
ENDTAB
  0
TABLE
  2
APPID
  5
9
330
0
100
AcDbSymbolTable
 70
     1
  0
APPID
  5
12
330
9
100
AcDbSymbolTableRecord
100
AcDbRegAppTableRecord
  2
ACAD
 70
     0
  0
ENDTAB
  0
TABLE
  2
DIMSTYLE
  5
A
330
0
100
AcDbSymbolTable
 70
     1
100
AcDbDimStyleTable
  0
DIMSTYLE
105
27
330
A
100
AcDbSymbolTableRecord
100
AcDbDimStyleTableRecord
  2
Standard
 70
     0
178
     0
340
11
  0
ENDTAB
  0
TABLE
  2
BLOCK_RECORD
  5
1
330
0
100
AcDbSymbolTable
 70
     6
  0
BLOCK_RECORD
  5
1F
330
1
100
AcDbSymbolTableRecord
100
AcDbBlockTableRecord
  2
*Model_Space
340
22
 70
     0
280
     1
281
     0
  0
BLOCK_RECORD
  5
1B
330
1
100
AcDbSymbolTableRecord
100
AcDbBlockTableRecord
  2
*Paper_Space
340
1E
 70
     0
280
     1
281
     0
  0
BLOCK_RECORD
  5
23
330
1
100
AcDbSymbolTableRecord
100
AcDbBlockTableRecord
  2
*Paper_Space0
340
26
 70
     0
280
     1
281
     0
  0
BLOCK_RECORD
  5
5A
330
1
100
AcDbSymbolTableRecord
100
AcDbBlockTableRecord
  2
block 2
340
0
102
{BLKREFS
331
5B
102
}
 70
     0
280
     1
281
     0
  0
BLOCK_RECORD
  5
79
330
1
100
AcDbSymbolTableRecord
100
AcDbBlockTableRecord
  2
block 3
340
0
102
{BLKREFS
331
7A
102
}
 70
     0
280
     1
281
     0
  0
BLOCK_RECORD
  5
8E
330
1
100
AcDbSymbolTableRecord
100
AcDbBlockTableRecord
  2
block 4
340
0
102
{BLKREFS
331
8F
102
}
 70
     0
280
     1
281
     0
  0
BLOCK_RECORD
  5
A0
330
1
100
AcDbSymbolTableRecord
100
AcDbBlockTableRecord
  2
block 5
340
0
102
{BLKREFS
331
A1
102
}
 70
     0
280
     1
281
     0
  0
BLOCK_RECORD
  5
B2
330
1
100
AcDbSymbolTableRecord
100
AcDbBlockTableRecord
  2
block 6
340
0
102
{BLKREFS
331
B3
102
}
 70
     0
280
     1
281
     0
  0
ENDTAB
  0
ENDSEC
  0
SECTION
  2
BLOCKS
  0
BLOCK
  5
20
330
1F
100
AcDbEntity
  8
0
100
AcDbBlockBegin
  2
*Model_Space
 70
     0
 10
0.0
 20
0.0
 30
0.0
  3
*Model_Space
  1

  0
ENDBLK
  5
21
330
1F
100
AcDbEntity
  8
0
100
AcDbBlockEnd
  0
BLOCK
  5
1C
330
1B
100
AcDbEntity
 67
     1
  8
0
100
AcDbBlockBegin
  2
*Paper_Space
 70
     0
 10
0.0
 20
0.0
 30
0.0
  3
*Paper_Space
  1

  0
ENDBLK
  5
1D
330
1B
100
AcDbEntity
 67
     1
  8
0
100
AcDbBlockEnd
  0
BLOCK
  5
24
330
23
100
AcDbEntity
  8
0
100
AcDbBlockBegin
  2
*Paper_Space0
 70
     0
 10
0.0
 20
0.0
 30
0.0
  3
*Paper_Space0
  1

  0
ENDBLK
  5
25
330
23
100
AcDbEntity
  8
0
100
AcDbBlockEnd
  0
BLOCK
  5
5C
330
5A
100
AcDbEntity
  8
0
100
AcDbBlockBegin
  2
block 2
 70
     0
 10
0.0
 20
0.0
 30
0.0
  3
block 2
  1

  0
SPLINE
  5
5E
330
5A
100
AcDbEntity
  8
_U+30EC_U+30A4_U+30E4_U+30FC 1
370
     0
100
AcDbSpline
210
0.0
220
0.0
230
1.0
 70
    11
 71
     3
 72
    29
 73
    25
 74
     0
 42
0.0000000001
 43
0.0000000001
 12
1.0
 22
0.0
 32
0.0
 13
1.0
 23
0.0
 33
0.0
 40
0.0
 40
0.0
 40
0.0
 40
0.0
 40
1.0
 40
1.0
 40
1.0
 40
2.0
 40
2.0
 40
2.0
 40
3.0
 40
3.0
 40
3.0
 40
4.0
 40
4.0
 40
4.0
 40
5.0
 40
5.0
 40
5.0
 40
6.0
 40
6.0
 40
6.0
 40
7.0
 40
7.0
 40
7.0
 40
8.0
 40
8.0
 40
8.0
 40
8.0
 10
77.87603893452405
 20
-84.3659098096377
 30
0.0
 10
78.08550074002724
 20
-84.46995169329224
 30
0.0
 10
78.10444876519611
 20
-84.63738333387538
 30
0.0
 10
78.10444876519611
 20
-84.74969344669452
 30
0.0
 10
78.10444876519611
 20
-84.90472274353077
 30
0.0
 10
78.05793997614524
 20
-85.04149303429519
 30
0.0
 10
77.87603893452405
 20
-85.13313257420283
 30
0.0
 10
77.68139103960743
 20
-85.23304034327508
 30
0.0
 10
77.44436847022224
 20
-85.25164385889542
 30
0.0
 10
77.28175996331845
 20
-85.25164385889542
 30
0.0
 10
77.13775497203501
 20
-85.25164385889542
 30
0.0
 10
76.88591849206324
 20
-85.23510740056622
 30
0.0
 10
76.68713648256433
 20
-85.13313257420283
 30
0.0
 10
76.48422035848311
 20
-85.02909069054829
 30
0.0
 10
76.46079370918342
 20
-84.87406139371204
 30
0.0
 10
76.46079370918342
 20
-84.74969344669452
 30
0.0
 10
76.46079370918342
 20
-84.59673120714943
 30
0.0
 10
76.50523544094314
 20
-84.45789385909386
 30
0.0
 10
76.68713648256433
 20
-84.3659098096377
 30
0.0
 10
76.8797173201898
 20
-84.27013615514775
 30
0.0
 10
77.10812715086186
 20
-84.24774303449362
 30
0.0
 10
77.28175996331845
 20
-84.24774303449362
 30
0.0
 10
77.45298120893537
 20
-84.24774303449362
 30
0.0
 10
77.68345809689859
 20
-84.2680690978566
 30
0.0
 10
77.87603893452405
 20
-84.3659098096377
 30
0.0
  0
SPLINE
  5
5F
330
5A
100
AcDbEntity
  8
_U+30EC_U+30A4_U+30E4_U+30FC 1
370
     0
100
AcDbSpline
210
0.0
220
0.0
230
1.0
 70
    11
 71
     3
 72
    17
 73
    13
 74
     0
 42
0.0000000001
 43
0.0000000001
 12
1.0
 22
0.0
 32
0.0
 13
1.0
 23
0.0
 33
0.0
 40
0.0
 40
0.0
 40
0.0
 40
0.0
 40
1.0
 40
1.0
 40
1.0
 40
2.0
 40
2.0
 40
2.0
 40
3.0
 40
3.0
 40
3.0
 40
4.0
 40
4.0
 40
4.0
 40
4.0
 10
76.65337454680888
 20
-84.74969344669452
 30
0.0
 10
76.65337454680888
 20
-84.99050562111348
 30
0.0
 10
76.93690590524494
 20
-85.03529186242173
 30
0.0
 10
77.28175996331845
 20
-85.03529186242173
 30
0.0
 10
77.60112031480111
 20
-85.03529186242173
 30
0.0
 10
77.9098008702795
 20
-85.00049639802072
 30
0.0
 10
77.9098008702795
 20
-84.74969344669452
 30
0.0
 10
77.9098008702795
 20
-84.51094832956672
 30
0.0
 10
77.62868107868312
 20
-84.46409503096731
 30
0.0
 10
77.28175996331845
 20
-84.46409503096731
 30
0.0
 10
76.96205510228727
 20
-84.46409503096731
 30
0.0
 10
76.65337454680888
 20
-84.50061304311096
 30
0.0
 10
76.65337454680888
 20
-84.74969344669452
 30
0.0
  0
HATCH
  5
60
330
5A
100
AcDbEntity
  8
_U+30EC_U+30A4_U+30E4_U+30FC 1
 62
   179
420
  2234388
100
AcDbHatch
 10
0.0
 20
0.0
 30
0.0
210
0.0
220
0.0
230
1.0
  2
SOLID
 70
     1
 71
     0
 91
        2
 92
        1
 93
        1
 72
     4
 94
        3
 73
     0
 74
     1
 95
       29
 96
       25
 40
0.0
 40
0.0
 40
0.0
 40
0.0
 40
1.0
 40
1.0
 40
1.0
 40
2.0
 40
2.0
 40
2.0
 40
3.0
 40
3.0
 40
3.0
 40
4.0
 40
4.0
 40
4.0
 40
5.0
 40
5.0
 40
5.0
 40
6.0
 40
6.0
 40
6.0
 40
7.0
 40
7.0
 40
7.0
 40
8.0
 40
8.0
 40
8.0
 40
8.0
 10
77.87603893452405
 20
-84.3659098096377
 10
78.08550074002724
 20
-84.46995169329224
 10
78.10444876519611
 20
-84.63738333387538
 10
78.10444876519611
 20
-84.74969344669452
 10
78.10444876519611
 20
-84.90472274353077
 10
78.05793997614524
 20
-85.04149303429519
 10
77.87603893452405
 20
-85.13313257420283
 10
77.68139103960743
 20
-85.23304034327508
 10
77.44436847022224
 20
-85.25164385889542
 10
77.28175996331845
 20
-85.25164385889542
 10
77.13775497203501
 20
-85.25164385889542
 10
76.88591849206324
 20
-85.23510740056622
 10
76.68713648256433
 20
-85.13313257420283
 10
76.48422035848311
 20
-85.02909069054829
 10
76.46079370918342
 20
-84.87406139371204
 10
76.46079370918342
 20
-84.74969344669452
 10
76.46079370918342
 20
-84.59673120714943
 10
76.50523544094314
 20
-84.45789385909386
 10
76.68713648256433
 20
-84.3659098096377
 10
76.8797173201898
 20
-84.27013615514775
 10
77.10812715086186
 20
-84.24774303449362
 10
77.28175996331845
 20
-84.24774303449362
 10
77.45298120893537
 20
-84.24774303449362
 10
77.68345809689859
 20
-84.2680690978566
 10
77.87603893452405
 20
-84.3659098096377
 97
        0
 97
        0
 92
        1
 93
        1
 72
     4
 94
        3
 73
     0
 74
     1
 95
       17
 96
       13
 40
0.0
 40
0.0
 40
0.0
 40
0.0
 40
1.0
 40
1.0
 40
1.0
 40
2.0
 40
2.0
 40
2.0
 40
3.0
 40
3.0
 40
3.0
 40
4.0
 40
4.0
 40
4.0
 40
4.0
 10
76.65337454680888
 20
-84.74969344669452
 10
76.65337454680888
 20
-84.99050562111348
 10
76.93690590524494
 20
-85.03529186242173
 10
77.28175996331845
 20
-85.03529186242173
 10
77.60112031480111
 20
-85.03529186242173
 10
77.9098008702795
 20
-85.00049639802072
 10
77.9098008702795
 20
-84.74969344669452
 10
77.9098008702795
 20
-84.51094832956672
 10
77.62868107868312
 20
-84.46409503096731
 10
77.28175996331845
 20
-84.46409503096731
 10
76.96205510228727
 20
-84.46409503096731
 10
76.65337454680888
 20
-84.50061304311096
 10
76.65337454680888
 20
-84.74969344669452
 97
        0
 97
        0
 75
     2
 76
     1
 98
        0
  0
POLYLINE
  5
61
330
5A
100
AcDbEntity
  8
_U+30EC_U+30A4_U+30E4_U+30FC 1
370
     0
100
AcDb2dPolyline
 66
     1
 10
0.0
 20
0.0
 30
0.0
  0
VERTEX
  5
62
330
61
100
AcDbEntity
  8
_U+30EC_U+30A4_U+30E4_U+30FC 1
370
     0
100
AcDbVertex
100
AcDb2dVertex
 10
78.05380586156294
 20
-84.04034828628158
 30
0.0
  0
VERTEX
  5
63
330
61
100
AcDbEntity
  8
_U+30EC_U+30A4_U+30E4_U+30FC 1
370
     0
100
AcDbVertex
100
AcDb2dVertex
 10
77.80196938159118
 20
-84.04034828628158
 30
0.0
  0
VERTEX
  5
64
330
61
100
AcDbEntity
  8
_U+30EC_U+30A4_U+30E4_U+30FC 1
370
     0
100
AcDbVertex
100
AcDb2dVertex
 10
77.80196938159118
 20
-83.79781356411999
 30
0.0
  0
VERTEX
  5
65
330
61
100
AcDbEntity
  8
_U+30EC_U+30A4_U+30E4_U+30FC 1
370
     0
100
AcDbVertex
100
AcDb2dVertex
 10
78.05380586156294
 20
-83.79781356411999
 30
0.0
  0
VERTEX
  5
66
330
61
100
AcDbEntity
  8
_U+30EC_U+30A4_U+30E4_U+30FC 1
370
     0
100
AcDbVertex
100
AcDb2dVertex
 10
78.05380586156294
 20
-84.04034828628158
 30
0.0
  0
SEQEND
  5
67
330
61
100
AcDbEntity
  8
_U+30EC_U+30A4_U+30E4_U+30FC 1
370
     0
  0
HATCH
  5
68
330
5A
100
AcDbEntity
  8
_U+30EC_U+30A4_U+30E4_U+30FC 1
 62
   179
420
  2234388
100
AcDbHatch
 10
0.0
 20
0.0
 30
0.0
210
0.0
220
0.0
230
1.0
  2
SOLID
 70
     1
 71
     0
 91
        1
 92
        1
 93
        4
 72
     1
 10
78.05380586156294
 20
-84.04034828628158
 11
77.80196938159118
 21
-84.04034828628158
 72
     1
 10
77.80196938159118
 20
-84.04034828628158
 11
77.80196938159118
 21
-83.79781356411999
 72
     1
 10
77.80196938159118
 20
-83.79781356411999
 11
78.05380586156294
 21
-83.79781356411999
 72
     1
 10
78.05380586156294
 20
-83.79781356411999
 11
78.05380586156294
 21
-84.04034828628158
 97
        0
 75
     2
 76
     1
 98
        0
  0
SPLINE
  5
69
330
5A
100
AcDbEntity
  8
_U+30EC_U+30A4_U+30E4_U+30FC 1
370
     0
100
AcDbSpline
210
0.0
220
0.0
230
1.0
 70
    11
 71
     3
 72
    29
 73
    25
 74
     0
 42
0.0000000001
 43
0.0000000001
 12
1.0
 22
0.0
 32
0.0
 13
1.0
 23
0.0
 33
0.0
 40
0.0
 40
0.0
 40
0.0
 40
0.0
 40
1.0
 40
1.0
 40
1.0
 40
2.0
 40
2.0
 40
2.0
 40
3.0
 40
3.0
 40
3.0
 40
4.0
 40
4.0
 40
4.0
 40
5.0
 40
5.0
 40
5.0
 40
6.0
 40
6.0
 40
6.0
 40
7.0
 40
7.0
 40
7.0
 40
8.0
 40
8.0
 40
8.0
 40
8.0
 10
78.10444876519611
 20
-83.08812389415853
 30
0.0
 10
78.10444876519611
 20
-83.34512801735816
 30
0.0
 10
77.96698945533464
 20
-83.5897297968109
 30
0.0
 10
77.61800128267883
 20
-83.5897297968109
 30
0.0
 10
77.36203068812478
 20
-83.5897297968109
 30
0.0
 10
77.26694605273188
 20
-83.45330401559501
 30
0.0
 10
77.20562335309442
 20
-83.35132918923162
 30
0.0
 10
77.14636771074814
 20
-83.47156302166684
 30
0.0
 10
77.03199054063784
 20
-83.54494355550266
 30
0.0
 10
76.87110458147667
 20
-83.54494355550266
 30
0.0
 10
76.59618596175373
 20
-83.54494355550266
 30
0.0
 10
76.46079370918342
 20
-83.35339624652276
 30
0.0
 10
76.46079370918342
 20
-83.08812389415853
 30
0.0
 10
76.46079370918342
 20
-82.8145833126297
 30
0.0
 10
76.60479870046686
 20
-82.63095972326587
 30
0.0
 10
76.87110458147667
 20
-82.63095972326587
 30
0.0
 10
77.03199054063784
 20
-82.63095972326587
 30
0.0
 10
77.14636771074814
 20
-82.70640731439285
 30
0.0
 10
77.20562335309442
 20
-82.82698565637659
 30
0.0
 10
77.2562662567276
 20
-82.74120277879386
 30
0.0
 10
77.3513508921205
 20
-82.58824053924877
 30
0.0
 10
77.61386716809653
 20
-82.58824053924877
 30
0.0
 10
77.98834904734319
 20
-82.58824053924877
 30
0.0
 10
78.10444876519611
 20
-82.85764700619531
 30
0.0
 10
78.10444876519611
 20
-83.08812389415853
 30
0.0
  0
SPLINE
  5
6A
330
5A
100
AcDbEntity
  8
_U+30EC_U+30A4_U+30E4_U+30FC 1
370
     0
100
AcDbSpline
210
0.0
220
0.0
230
1.0
 70
    11
 71
     3
 72
    17
 73
    13
 74
     0
 42
0.0000000001
 43
0.0000000001
 12
1.0
 22
0.0
 32
0.0
 13
1.0
 23
0.0
 33
0.0
 40
0.0
 40
0.0
 40
0.0
 40
0.0
 40
1.0
 40
1.0
 40
1.0
 40
2.0
 40
2.0
 40
2.0
 40
3.0
 40
3.0
 40
3.0
 40
4.0
 40
4.0
 40
4.0
 40
4.0
 10
76.65337454680888
 20
-83.08812389415853
 30
0.0
 10
76.65337454680888
 20
-83.24728730557707
 30
0.0
 10
76.74845918220177
 20
-83.32859155902896
 30
0.0
 10
76.8838514347721
 20
-83.32859155902896
 30
0.0
 10
77.00649683404698
 20
-83.32859155902896
 30
0.0
 10
77.12500811873959
 20
-83.25934513977545
 30
0.0
 10
77.12500811873959
 20
-83.08812389415853
 30
0.0
 10
77.12500811873959
 20
-82.91655813899308
 30
0.0
 10
77.00649683404698
 20
-82.84731171973957
 30
0.0
 10
76.8838514347721
 20
-82.84731171973957
 30
0.0
 10
76.74845918220177
 20
-82.84731171973957
 30
0.0
 10
76.65337454680888
 20
-82.93102754003114
 30
0.0
 10
76.65337454680888
 20
-83.08812389415853
 30
0.0
  0
SPLINE
  5
6B
330
5A
100
AcDbEntity
  8
_U+30EC_U+30A4_U+30E4_U+30FC 1
370
     0
100
AcDbSpline
210
0.0
220
0.0
230
1.0
 70
    11
 71
     3
 72
    17
 73
    13
 74
     0
 42
0.0000000001
 43
0.0000000001
 12
1.0
 22
0.0
 32
0.0
 13
1.0
 23
0.0
 33
0.0
 40
0.0
 40
0.0
 40
0.0
 40
0.0
 40
1.0
 40
1.0
 40
1.0
 40
2.0
 40
2.0
 40
2.0
 40
3.0
 40
3.0
 40
3.0
 40
4.0
 40
4.0
 40
4.0
 40
4.0
 10
77.31345484178276
 20
-83.08812389415853
 30
0.0
 10
77.31345484178276
 20
-83.22661673266558
 30
0.0
 10
77.40027124801105
 20
-83.37372230988574
 30
0.0
 10
77.60318737209226
 20
-83.37372230988574
 30
0.0
 10
77.80851506301315
 20
-83.37372230988574
 30
0.0
 10
77.9098008702795
 20
-83.25107691061085
 30
0.0
 10
77.9098008702795
 20
-83.08812389415853
 30
0.0
 10
77.9098008702795
 20
-82.90863441937701
 30
0.0
 10
77.78715547100461
 20
-82.80252547843132
 30
0.0
 10
77.60938854396571
 20
-82.80252547843132
 30
0.0
 10
77.38752439471563
 20
-82.80252547843132
 30
0.0
 10
77.31345484178276
 20
-82.95962183255871
 30
0.0
 10
77.31345484178276
 20
-83.08812389415853
 30
0.0
  0
HATCH
  5
6C
330
5A
100
AcDbEntity
  8
_U+30EC_U+30A4_U+30E4_U+30FC 1
 62
   179
420
  2234388
100
AcDbHatch
 10
0.0
 20
0.0
 30
0.0
210
0.0
220
0.0
230
1.0
  2
SOLID
 70
     1
 71
     0
 91
        3
 92
        1
 93
        1
 72
     4
 94
        3
 73
     0
 74
     1
 95
       29
 96
       25
 40
0.0
 40
0.0
 40
0.0
 40
0.0
 40
1.0
 40
1.0
 40
1.0
 40
2.0
 40
2.0
 40
2.0
 40
3.0
 40
3.0
 40
3.0
 40
4.0
 40
4.0
 40
4.0
 40
5.0
 40
5.0
 40
5.0
 40
6.0
 40
6.0
 40
6.0
 40
7.0
 40
7.0
 40
7.0
 40
8.0
 40
8.0
 40
8.0
 40
8.0
 10
78.10444876519611
 20
-83.08812389415853
 10
78.10444876519611
 20
-83.34512801735816
 10
77.96698945533464
 20
-83.5897297968109
 10
77.61800128267883
 20
-83.5897297968109
 10
77.36203068812478
 20
-83.5897297968109
 10
77.26694605273188
 20
-83.45330401559501
 10
77.20562335309442
 20
-83.35132918923162
 10
77.14636771074814
 20
-83.47156302166684
 10
77.03199054063784
 20
-83.54494355550266
 10
76.87110458147667
 20
-83.54494355550266
 10
76.59618596175373
 20
-83.54494355550266
 10
76.46079370918342
 20
-83.35339624652276
 10
76.46079370918342
 20
-83.08812389415853
 10
76.46079370918342
 20
-82.8145833126297
 10
76.60479870046686
 20
-82.63095972326587
 10
76.87110458147667
 20
-82.63095972326587
 10
77.03199054063784
 20
-82.63095972326587
 10
77.14636771074814
 20
-82.70640731439285
 10
77.20562335309442
 20
-82.82698565637659
 10
77.2562662567276
 20
-82.74120277879386
 10
77.3513508921205
 20
-82.58824053924877
 10
77.61386716809653
 20
-82.58824053924877
 10
77.98834904734319
 20
-82.58824053924877
 10
78.10444876519611
 20
-82.85764700619531
 10
78.10444876519611
 20
-83.08812389415853
 97
        0
 97
        0
 92
        1
 93
        1
 72
     4
 94
        3
 73
     0
 74
     1
 95
       17
 96
       13
 40
0.0
 40
0.0
 40
0.0
 40
0.0
 40
1.0
 40
1.0
 40
1.0
 40
2.0
 40
2.0
 40
2.0
 40
3.0
 40
3.0
 40
3.0
 40
4.0
 40
4.0
 40
4.0
 40
4.0
 10
76.65337454680888
 20
-83.08812389415853
 10
76.65337454680888
 20
-83.24728730557707
 10
76.74845918220177
 20
-83.32859155902896
 10
76.8838514347721
 20
-83.32859155902896
 10
77.00649683404698
 20
-83.32859155902896
 10
77.12500811873959
 20
-83.25934513977545
 10
77.12500811873959
 20
-83.08812389415853
 10
77.12500811873959
 20
-82.91655813899308
 10
77.00649683404698
 20
-82.84731171973957
 10
76.8838514347721
 20
-82.84731171973957
 10
76.74845918220177
 20
-82.84731171973957
 10
76.65337454680888
 20
-82.93102754003114
 10
76.65337454680888
 20
-83.08812389415853
 97
        0
 97
        0
 92
        1
 93
        1
 72
     4
 94
        3
 73
     0
 74
     1
 95
       17
 96
       13
 40
0.0
 40
0.0
 40
0.0
 40
0.0
 40
1.0
 40
1.0
 40
1.0
 40
2.0
 40
2.0
 40
2.0
 40
3.0
 40
3.0
 40
3.0
 40
4.0
 40
4.0
 40
4.0
 40
4.0
 10
77.31345484178276
 20
-83.08812389415853
 10
77.31345484178276
 20
-83.22661673266558
 10
77.40027124801105
 20
-83.37372230988574
 10
77.60318737209226
 20
-83.37372230988574
 10
77.80851506301315
 20
-83.37372230988574
 10
77.9098008702795
 20
-83.25107691061085
 10
77.9098008702795
 20
-83.08812389415853
 10
77.9098008702795
 20
-82.90863441937701
 10
77.78715547100461
 20
-82.80252547843132
 10
77.60938854396571
 20
-82.80252547843132
 10
77.38752439471563
 20
-82.80252547843132
 10
77.31345484178276
 20
-82.95962183255871
 10
77.31345484178276
 20
-83.08812389415853
 97
        0
 97
        0
 75
     2
 76
     1
 98
        0
  0
ENDBLK
  5
5D
330
5A
100
AcDbEntity
  8
0
100
AcDbBlockEnd
  0
BLOCK
  5
7B
330
79
100
AcDbEntity
  8
0
100
AcDbBlockBegin
  2
block 3
 70
     0
 10
0.0
 20
0.0
 30
0.0
  3
block 3
  1

  0
SPLINE
  5
7D
330
79
100
AcDbEntity
  8
_U+30EC_U+30A4_U+30E4_U+30FC 1
370
     0
100
AcDbSpline
210
0.0
220
0.0
230
1.0
 70
    11
 71
     3
 72
    26
 73
    22
 74
     0
 42
0.0000000001
 43
0.0000000001
 12
1.0
 22
0.0
 32
0.0
 13
1.0
 23
0.0
 33
0.0
 40
0.0
 40
0.0
 40
0.0
 40
0.0
 40
1.0
 40
1.0
 40
1.0
 40
2.0
 40
2.0
 40
2.0
 40
3.0
 40
3.0
 40
3.0
 40
4.0
 40
4.0
 40
4.0
 40
5.0
 40
5.0
 40
5.0
 40
6.0
 40
6.0
 40
6.0
 40
7.0
 40
7.0
 40
7.0
 40
7.0
 10
74.5260280846671
 20
-90.00553111899168
 30
0.0
 10
74.5260280846671
 20
-90.00553111899168
 30
0.0
 10
73.42187498164454
 20
-90.00553111899168
 30
0.0
 10
73.42187498164454
 20
-90.00553111899168
 30
0.0
 10
73.42187498164454
 20
-90.00553111899168
 30
0.0
 10
73.42187498164454
 20
-90.32385794182876
 30
0.0
 10
73.42187498164454
 20
-90.32385794182876
 30
0.0
 10
73.42187498164454
 20
-90.32385794182876
 30
0.0
 10
73.2737358757788
 20
-90.32385794182876
 30
0.0
 10
73.2737358757788
 20
-90.32385794182876
 30
0.0
 10
73.25892196519221
 20
-90.00346406170053
 30
0.0
 10
73.0959689487399
 20
-89.95867782039228
 30
0.0
 10
72.9815917786296
 20
-89.93008352786471
 30
0.0
 10
72.9815917786296
 20
-89.93008352786471
 30
0.0
 10
72.9815917786296
 20
-89.789179122518
 30
0.0
 10
72.9815917786296
 20
-89.789179122518
 30
0.0
 10
72.9815917786296
 20
-89.789179122518
 30
0.0
 10
74.5260280846671
 20
-89.789179122518
 30
0.0
 10
74.5260280846671
 20
-89.789179122518
 30
0.0
 10
74.5260280846671
 20
-89.789179122518
 30
0.0
 10
74.5260280846671
 20
-90.00553111899168
 30
0.0
 10
74.5260280846671
 20
-90.00553111899168
 30
0.0
  0
HATCH
  5
7E
330
79
100
AcDbEntity
  8
_U+30EC_U+30A4_U+30E4_U+30FC 1
 62
   179
420
  2234388
100
AcDbHatch
 10
0.0
 20
0.0
 30
0.0
210
0.0
220
0.0
230
1.0
  2
SOLID
 70
     1
 71
     0
 91
        1
 92
        1
 93
        1
 72
     4
 94
        3
 73
     0
 74
     1
 95
       26
 96
       22
 40
0.0
 40
0.0
 40
0.0
 40
0.0
 40
1.0
 40
1.0
 40
1.0
 40
2.0
 40
2.0
 40
2.0
 40
3.0
 40
3.0
 40
3.0
 40
4.0
 40
4.0
 40
4.0
 40
5.0
 40
5.0
 40
5.0
 40
6.0
 40
6.0
 40
6.0
 40
7.0
 40
7.0
 40
7.0
 40
7.0
 10
74.5260280846671
 20
-90.00553111899168
 10
74.5260280846671
 20
-90.00553111899168
 10
73.42187498164454
 20
-90.00553111899168
 10
73.42187498164454
 20
-90.00553111899168
 10
73.42187498164454
 20
-90.00553111899168
 10
73.42187498164454
 20
-90.32385794182876
 10
73.42187498164454
 20
-90.32385794182876
 10
73.42187498164454
 20
-90.32385794182876
 10
73.2737358757788
 20
-90.32385794182876
 10
73.2737358757788
 20
-90.32385794182876
 10
73.25892196519221
 20
-90.00346406170053
 10
73.0959689487399
 20
-89.95867782039228
 10
72.9815917786296
 20
-89.93008352786471
 10
72.9815917786296
 20
-89.93008352786471
 10
72.9815917786296
 20
-89.789179122518
 10
72.9815917786296
 20
-89.789179122518
 10
72.9815917786296
 20
-89.789179122518
 10
74.5260280846671
 20
-89.789179122518
 10
74.5260280846671
 20
-89.789179122518
 10
74.5260280846671
 20
-89.789179122518
 10
74.5260280846671
 20
-90.00553111899168
 10
74.5260280846671
 20
-90.00553111899168
 97
        0
 97
        0
 75
     2
 76
     1
 98
        0
  0
SPLINE
  5
7F
330
79
100
AcDbEntity
  8
_U+30EC_U+30A4_U+30E4_U+30FC 1
370
     0
100
AcDbSpline
210
0.0
220
0.0
230
1.0
 70
    11
 71
     3
 72
    29
 73
    25
 74
     0
 42
0.0000000001
 43
0.0000000001
 12
1.0
 22
0.0
 32
0.0
 13
1.0
 23
0.0
 33
0.0
 40
0.0
 40
0.0
 40
0.0
 40
0.0
 40
1.0
 40
1.0
 40
1.0
 40
2.0
 40
2.0
 40
2.0
 40
3.0
 40
3.0
 40
3.0
 40
4.0
 40
4.0
 40
4.0
 40
5.0
 40
5.0
 40
5.0
 40
6.0
 40
6.0
 40
6.0
 40
7.0
 40
7.0
 40
7.0
 40
8.0
 40
8.0
 40
8.0
 40
8.0
 10
74.34826115762822
 20
-88.44145776868825
 30
0.0
 10
74.55772296313141
 20
-88.5454996523428
 30
0.0
 10
74.57667098830028
 20
-88.71293129292594
 30
0.0
 10
74.57667098830028
 20
-88.82524140574509
 30
0.0
 10
74.57667098830028
 20
-88.98027070258132
 30
0.0
 10
74.5301621992494
 20
-89.11704099334574
 30
0.0
 10
74.34826115762822
 20
-89.20868053325339
 30
0.0
 10
74.1536132627116
 20
-89.30858830232563
 30
0.0
 10
73.91659069332641
 20
-89.32719181794599
 30
0.0
 10
73.75398218642262
 20
-89.32719181794599
 30
0.0
 10
73.60997719513918
 20
-89.32719181794599
 30
0.0
 10
73.35814071516741
 20
-89.31065535961679
 30
0.0
 10
73.1593587056685
 20
-89.20868053325339
 30
0.0
 10
72.95644258158728
 20
-89.10463864959884
 30
0.0
 10
72.93301593228759
 20
-88.94960935276261
 30
0.0
 10
72.93301593228759
 20
-88.82524140574509
 30
0.0
 10
72.93301593228759
 20
-88.67227916619998
 30
0.0
 10
72.97745766404731
 20
-88.53344181814442
 30
0.0
 10
73.1593587056685
 20
-88.44145776868825
 30
0.0
 10
73.35193954329397
 20
-88.3456841141983
 30
0.0
 10
73.58034937396603
 20
-88.32329099354418
 30
0.0
 10
73.75398218642262
 20
-88.32329099354418
 30
0.0
 10
73.92520343203954
 20
-88.32329099354418
 30
0.0
 10
74.15568032000274
 20
-88.34361705690715
 30
0.0
 10
74.34826115762822
 20
-88.44145776868825
 30
0.0
  0
SPLINE
  5
80
330
79
100
AcDbEntity
  8
_U+30EC_U+30A4_U+30E4_U+30FC 1
370
     0
100
AcDbSpline
210
0.0
220
0.0
230
1.0
 70
    11
 71
     3
 72
    17
 73
    13
 74
     0
 42
0.0000000001
 43
0.0000000001
 12
1.0
 22
0.0
 32
0.0
 13
1.0
 23
0.0
 33
0.0
 40
0.0
 40
0.0
 40
0.0
 40
0.0
 40
1.0
 40
1.0
 40
1.0
 40
2.0
 40
2.0
 40
2.0
 40
3.0
 40
3.0
 40
3.0
 40
4.0
 40
4.0
 40
4.0
 40
4.0
 10
73.12559676991305
 20
-88.82524140574509
 30
0.0
 10
73.12559676991305
 20
-89.06605358016405
 30
0.0
 10
73.40912812834911
 20
-89.1108398214723
 30
0.0
 10
73.75398218642262
 20
-89.1108398214723
 30
0.0
 10
74.07334253790528
 20
-89.1108398214723
 30
0.0
 10
74.38202309338367
 20
-89.07604435707127
 30
0.0
 10
74.38202309338367
 20
-88.82524140574509
 30
0.0
 10
74.38202309338367
 20
-88.58649628861727
 30
0.0
 10
74.10090330178728
 20
-88.53964299001787
 30
0.0
 10
73.75398218642262
 20
-88.53964299001787
 30
0.0
 10
73.43427732539143
 20
-88.53964299001787
 30
0.0
 10
73.12559676991305
 20
-88.57616100216151
 30
0.0
 10
73.12559676991305
 20
-88.82524140574509
 30
0.0
  0
HATCH
  5
81
330
79
100
AcDbEntity
  8
_U+30EC_U+30A4_U+30E4_U+30FC 1
 62
   179
420
  2234388
100
AcDbHatch
 10
0.0
 20
0.0
 30
0.0
210
0.0
220
0.0
230
1.0
  2
SOLID
 70
     1
 71
     0
 91
        2
 92
        1
 93
        1
 72
     4
 94
        3
 73
     0
 74
     1
 95
       29
 96
       25
 40
0.0
 40
0.0
 40
0.0
 40
0.0
 40
1.0
 40
1.0
 40
1.0
 40
2.0
 40
2.0
 40
2.0
 40
3.0
 40
3.0
 40
3.0
 40
4.0
 40
4.0
 40
4.0
 40
5.0
 40
5.0
 40
5.0
 40
6.0
 40
6.0
 40
6.0
 40
7.0
 40
7.0
 40
7.0
 40
8.0
 40
8.0
 40
8.0
 40
8.0
 10
74.34826115762822
 20
-88.44145776868825
 10
74.55772296313141
 20
-88.5454996523428
 10
74.57667098830028
 20
-88.71293129292594
 10
74.57667098830028
 20
-88.82524140574509
 10
74.57667098830028
 20
-88.98027070258132
 10
74.5301621992494
 20
-89.11704099334574
 10
74.34826115762822
 20
-89.20868053325339
 10
74.1536132627116
 20
-89.30858830232563
 10
73.91659069332641
 20
-89.32719181794599
 10
73.75398218642262
 20
-89.32719181794599
 10
73.60997719513918
 20
-89.32719181794599
 10
73.35814071516741
 20
-89.31065535961679
 10
73.1593587056685
 20
-89.20868053325339
 10
72.95644258158728
 20
-89.10463864959884
 10
72.93301593228759
 20
-88.94960935276261
 10
72.93301593228759
 20
-88.82524140574509
 10
72.93301593228759
 20
-88.67227916619998
 10
72.97745766404731
 20
-88.53344181814442
 10
73.1593587056685
 20
-88.44145776868825
 10
73.35193954329397
 20
-88.3456841141983
 10
73.58034937396603
 20
-88.32329099354418
 10
73.75398218642262
 20
-88.32329099354418
 10
73.92520343203954
 20
-88.32329099354418
 10
74.15568032000274
 20
-88.34361705690715
 10
74.34826115762822
 20
-88.44145776868825
 97
        0
 97
        0
 92
        1
 93
        1
 72
     4
 94
        3
 73
     0
 74
     1
 95
       17
 96
       13
 40
0.0
 40
0.0
 40
0.0
 40
0.0
 40
1.0
 40
1.0
 40
1.0
 40
2.0
 40
2.0
 40
2.0
 40
3.0
 40
3.0
 40
3.0
 40
4.0
 40
4.0
 40
4.0
 40
4.0
 10
73.12559676991305
 20
-88.82524140574509
 10
73.12559676991305
 20
-89.06605358016405
 10
73.40912812834911
 20
-89.1108398214723
 10
73.75398218642262
 20
-89.1108398214723
 10
74.07334253790528
 20
-89.1108398214723
 10
74.38202309338367
 20
-89.07604435707127
 10
74.38202309338367
 20
-88.82524140574509
 10
74.38202309338367
 20
-88.58649628861727
 10
74.10090330178728
 20
-88.53964299001787
 10
73.75398218642262
 20
-88.53964299001787
 10
73.43427732539143
 20
-88.53964299001787
 10
73.12559676991305
 20
-88.57616100216151
 10
73.12559676991305
 20
-88.82524140574509
 97
        0
 97
        0
 75
     2
 76
     1
 98
        0
  0
ENDBLK
  5
7C
330
79
100
AcDbEntity
  8
0
100
AcDbBlockEnd
  0
BLOCK
  5
90
330
8E
100
AcDbEntity
  8
0
100
AcDbBlockBegin
  2
block 4
 70
     0
 10
0.0
 20
0.0
 30
0.0
  3
block 4
  1

  0
SPLINE
  5
92
330
8E
100
AcDbEntity
  8
_U+30EC_U+30A4_U+30E4_U+30FC 1
370
     0
100
AcDbSpline
210
0.0
220
0.0
230
1.0
 70
    11
 71
     3
 72
    53
 73
    49
 74
     0
 42
0.0000000001
 43
0.0000000001
 12
1.0
 22
0.0
 32
0.0
 13
1.0
 23
0.0
 33
0.0
 40
0.0
 40
0.0
 40
0.0
 40
0.0
 40
1.0
 40
1.0
 40
1.0
 40
2.0
 40
2.0
 40
2.0
 40
3.0
 40
3.0
 40
3.0
 40
4.0
 40
4.0
 40
4.0
 40
5.0
 40
5.0
 40
5.0
 40
6.0
 40
6.0
 40
6.0
 40
7.0
 40
7.0
 40
7.0
 40
8.0
 40
8.0
 40
8.0
 40
9.0
 40
9.0
 40
9.0
 40
10.0
 40
10.0
 40
10.0
 40
11.0
 40
11.0
 40
11.0
 40
12.0
 40
12.0
 40
12.0
 40
13.0
 40
13.0
 40
13.0
 40
14.0
 40
14.0
 40
14.0
 40
15.0
 40
15.0
 40
15.0
 40
16.0
 40
16.0
 40
16.0
 40
16.0
 10
49.2541856430684
 20
-100.7969482169883
 30
0.0
 10
49.17873805194143
 20
-100.7969482169883
 30
0.0
 10
49.08072508538607
 20
-100.7800672491105
 30
0.0
 10
48.98288437360497
 20
-100.7166774921819
 30
0.0
 10
48.8156249877961
 20
-100.6067789462025
 30
0.0
 10
48.79512666965886
 20
-100.4755208082145
 30
0.0
 10
48.77686766358703
 20
-100.3676893195261
 30
0.0
 10
48.77686766358703
 20
-100.3676893195261
 30
0.0
 10
48.99098034799531
 20
-100.3676893195261
 30
0.0
 10
48.99098034799531
 20
-100.3676893195261
 30
0.0
 10
49.04403481846816
 20
-100.566471329025
 30
0.0
 10
49.16650796296879
 20
-100.5960991501982
 30
0.0
 10
49.25625270035955
 20
-100.5960991501982
 30
0.0
 10
49.39078367905856
 20
-100.5960991501982
 30
0.0
 10
49.53771700150446
 20
-100.4965358906745
 30
0.0
 10
49.53771700150446
 20
-100.2639919454201
 30
0.0
 10
49.53771700150446
 20
-100.0080213508661
 30
0.0
 10
49.36442869859639
 20
-99.93808591251549
 30
0.0
 10
49.24798447119495
 20
-99.93808591251549
 30
0.0
 10
49.21749537615049
 20
-99.93808591251549
 30
0.0
 10
49.08072508538607
 20
-99.93808591251549
 30
0.0
 10
48.99511446257761
 20
-100.0672769932123
 30
0.0
 10
48.99511446257761
 20
-100.0672769932123
 30
0.0
 10
48.82578801947759
 20
-100.0483289680435
 30
0.0
 10
48.82578801947759
 20
-100.0483289680435
 30
0.0
 10
48.82578801947759
 20
-100.0483289680435
 30
0.0
 10
48.94205999210477
 20
-99.2018690073176
 30
0.0
 10
48.94205999210477
 20
-99.2018690073176
 30
0.0
 10
48.94205999210477
 20
-99.2018690073176
 30
0.0
 10
49.6927462983407
 20
-99.2018690073176
 30
0.0
 10
49.6927462983407
 20
-99.2018690073176
 30
0.0
 10
49.6927462983407
 20
-99.2018690073176
 30
0.0
 10
49.6927462983407
 20
-99.39651690223421
 30
0.0
 10
49.6927462983407
 20
-99.39651690223421
 30
0.0
 10
49.6927462983407
 20
-99.39651690223421
 30
0.0
 10
49.09915634623216
 20
-99.39651690223421
 30
0.0
 10
49.09915634623216
 20
-99.39651690223421
 30
0.0
 10
49.09915634623216
 20
-99.39651690223421
 30
0.0
 10
49.03593884407783
 20
-99.81957462782289
 30
0.0
 10
49.03593884407783
 20
-99.81957462782289
 30
0.0
 10
49.09502223164986
 20
-99.78581269206744
 30
0.0
 10
49.17460393735913
 20
-99.74550507489002
 30
0.0
 10
49.28880885269516
 20
-99.74550507489002
 30
0.0
 10
49.53375514169642
 20
-99.74550507489002
 30
0.0
 10
49.76216497236849
 20
-99.93188474064203
 30
0.0
 10
49.76216497236849
 20
-100.2450439202512
 30
0.0
 10
49.76216497236849
 20
-100.5623372144427
 30
0.0
 10
49.54598523066906
 20
-100.7969482169883
 30
0.0
 10
49.2541856430684
 20
-100.7969482169883
 30
0.0
  0
HATCH
  5
93
330
8E
100
AcDbEntity
  8
_U+30EC_U+30A4_U+30E4_U+30FC 1
 62
   179
420
  2234388
100
AcDbHatch
 10
0.0
 20
0.0
 30
0.0
210
0.0
220
0.0
230
1.0
  2
SOLID
 70
     1
 71
     0
 91
        1
 92
        1
 93
        1
 72
     4
 94
        3
 73
     0
 74
     1
 95
       53
 96
       49
 40
0.0
 40
0.0
 40
0.0
 40
0.0
 40
1.0
 40
1.0
 40
1.0
 40
2.0
 40
2.0
 40
2.0
 40
3.0
 40
3.0
 40
3.0
 40
4.0
 40
4.0
 40
4.0
 40
5.0
 40
5.0
 40
5.0
 40
6.0
 40
6.0
 40
6.0
 40
7.0
 40
7.0
 40
7.0
 40
8.0
 40
8.0
 40
8.0
 40
9.0
 40
9.0
 40
9.0
 40
10.0
 40
10.0
 40
10.0
 40
11.0
 40
11.0
 40
11.0
 40
12.0
 40
12.0
 40
12.0
 40
13.0
 40
13.0
 40
13.0
 40
14.0
 40
14.0
 40
14.0
 40
15.0
 40
15.0
 40
15.0
 40
16.0
 40
16.0
 40
16.0
 40
16.0
 10
49.2541856430684
 20
-100.7969482169883
 10
49.17873805194143
 20
-100.7969482169883
 10
49.08072508538607
 20
-100.7800672491105
 10
48.98288437360497
 20
-100.7166774921819
 10
48.8156249877961
 20
-100.6067789462025
 10
48.79512666965886
 20
-100.4755208082145
 10
48.77686766358703
 20
-100.3676893195261
 10
48.77686766358703
 20
-100.3676893195261
 10
48.99098034799531
 20
-100.3676893195261
 10
48.99098034799531
 20
-100.3676893195261
 10
49.04403481846816
 20
-100.566471329025
 10
49.16650796296879
 20
-100.5960991501982
 10
49.25625270035955
 20
-100.5960991501982
 10
49.39078367905856
 20
-100.5960991501982
 10
49.53771700150446
 20
-100.4965358906745
 10
49.53771700150446
 20
-100.2639919454201
 10
49.53771700150446
 20
-100.0080213508661
 10
49.36442869859639
 20
-99.93808591251549
 10
49.24798447119495
 20
-99.93808591251549
 10
49.21749537615049
 20
-99.93808591251549
 10
49.08072508538607
 20
-99.93808591251549
 10
48.99511446257761
 20
-100.0672769932123
 10
48.99511446257761
 20
-100.0672769932123
 10
48.82578801947759
 20
-100.0483289680435
 10
48.82578801947759
 20
-100.0483289680435
 10
48.82578801947759
 20
-100.0483289680435
 10
48.94205999210477
 20
-99.2018690073176
 10
48.94205999210477
 20
-99.2018690073176
 10
48.94205999210477
 20
-99.2018690073176
 10
49.6927462983407
 20
-99.2018690073176
 10
49.6927462983407
 20
-99.2018690073176
 10
49.6927462983407
 20
-99.2018690073176
 10
49.6927462983407
 20
-99.39651690223421
 10
49.6927462983407
 20
-99.39651690223421
 10
49.6927462983407
 20
-99.39651690223421
 10
49.09915634623216
 20
-99.39651690223421
 10
49.09915634623216
 20
-99.39651690223421
 10
49.09915634623216
 20
-99.39651690223421
 10
49.03593884407783
 20
-99.81957462782289
 10
49.03593884407783
 20
-99.81957462782289
 10
49.09502223164986
 20
-99.78581269206744
 10
49.17460393735913
 20
-99.74550507489002
 10
49.28880885269516
 20
-99.74550507489002
 10
49.53375514169642
 20
-99.74550507489002
 10
49.76216497236849
 20
-99.93188474064203
 10
49.76216497236849
 20
-100.2450439202512
 10
49.76216497236849
 20
-100.5623372144427
 10
49.54598523066906
 20
-100.7969482169883
 10
49.2541856430684
 20
-100.7969482169883
 97
        0
 97
        0
 75
     2
 76
     1
 98
        0
  0
ENDBLK
  5
91
330
8E
100
AcDbEntity
  8
0
100
AcDbBlockEnd
  0
BLOCK
  5
A2
330
A0
100
AcDbEntity
  8
0
100
AcDbBlockBegin
  2
block 5
 70
     0
 10
0.0
 20
0.0
 30
0.0
  3
block 5
  1

  0
SPLINE
  5
A4
330
A0
100
AcDbEntity
  8
_U+30EC_U+30A4_U+30E4_U+30FC 1
370
     0
100
AcDbSpline
210
0.0
220
0.0
230
1.0
 70
    11
 71
     3
 72
    62
 73
    58
 74
     0
 42
0.0000000001
 43
0.0000000001
 12
1.0
 22
0.0
 32
0.0
 13
1.0
 23
0.0
 33
0.0
 40
0.0
 40
0.0
 40
0.0
 40
0.0
 40
1.0
 40
1.0
 40
1.0
 40
2.0
 40
2.0
 40
2.0
 40
3.0
 40
3.0
 40
3.0
 40
4.0
 40
4.0
 40
4.0
 40
5.0
 40
5.0
 40
5.0
 40
6.0
 40
6.0
 40
6.0
 40
7.0
 40
7.0
 40
7.0
 40
8.0
 40
8.0
 40
8.0
 40
9.0
 40
9.0
 40
9.0
 40
10.0
 40
10.0
 40
10.0
 40
11.0
 40
11.0
 40
11.0
 40
12.0
 40
12.0
 40
12.0
 40
13.0
 40
13.0
 40
13.0
 40
14.0
 40
14.0
 40
14.0
 40
15.0
 40
15.0
 40
15.0
 40
16.0
 40
16.0
 40
16.0
 40
17.0
 40
17.0
 40
17.0
 40
18.0
 40
18.0
 40
18.0
 40
19.0
 40
19.0
 40
19.0
 40
19.0
 10
55.17664929176139
 20
-95.90008949425415
 30
0.0
 10
55.17664929176139
 20
-95.99207354371032
 30
0.0
 10
55.15563420930137
 20
-96.20222436831055
 30
0.0
 10
54.96959905309788
 20
-96.32245820074579
 30
0.0
 10
54.85728894027874
 20
-96.39377167729045
 30
0.0
 10
54.75807019030354
 20
-96.39790579187274
 30
0.0
 10
54.6733208413664
 20
-96.40203990645504
 30
0.0
 10
54.6733208413664
 20
-96.40203990645504
 30
0.0
 10
54.6733208413664
 20
-96.18982202456365
 30
0.0
 10
54.6733208413664
 20
-96.18982202456365
 30
0.0
 10
54.74739039429927
 20
-96.18775496727251
 30
0.0
 10
54.98200139684478
 20
-96.17776419036528
 30
0.0
 10
54.98200139684478
 20
-95.90422360883645
 30
0.0
 10
54.98200139684478
 20
-95.77158743265433
 30
0.0
 10
54.91241046804274
 20
-95.62482636498268
 30
0.0
 10
54.68400063737067
 20
-95.62482636498268
 30
0.0
 10
54.56755640996922
 20
-95.62482636498268
 30
0.0
 10
54.5189805636272
 20
-95.66168888667487
 30
0.0
 10
54.4872856851629
 20
-95.69200572694506
 30
0.0
 10
54.41321613223003
 20
-95.76366371303826
 30
0.0
 10
54.40046927893461
 20
-95.87562931630887
 30
0.0
 10
54.40046927893461
 20
-95.92868378678172
 30
0.0
 10
54.40046927893461
 20
-95.94728730240207
 30
0.0
 10
54.40253633622576
 20
-95.98173825725458
 30
0.0
 10
54.40667045080806
 20
-96.00826549249099
 30
0.0
 10
54.40667045080806
 20
-96.00826549249099
 30
0.0
 10
54.21202255589144
 20
-96.00826549249099
 30
0.0
 10
54.21202255589144
 20
-96.00826549249099
 30
0.0
 10
54.21856823731341
 20
-95.97174748034735
 30
0.0
 10
54.22063529460456
 20
-95.93075084407288
 30
0.0
 10
54.22063529460456
 20
-95.92454967219942
 30
0.0
 10
54.22063529460456
 20
-95.86150442481934
 30
0.0
 10
54.19927570259602
 20
-95.66961260629094
 30
0.0
 10
53.96259764275936
 20
-95.66961260629094
 30
0.0
 10
53.78483071572046
 20
-95.66961260629094
 30
0.0
 10
53.72970918795647
 20
-95.7960476105996
 30
0.0
 10
53.72970918795647
 20
-95.9021565515453
 30
0.0
 10
53.72970918795647
 20
-96.15743812700231
 30
0.0
 10
53.96259764275936
 20
-96.16536184661838
 30
0.0
 10
54.03425562885255
 20
-96.16949596120068
 30
0.0
 10
54.03425562885255
 20
-96.16949596120068
 30
0.0
 10
54.03425562885255
 20
-96.3655218943114
 30
0.0
 10
54.03425562885255
 20
-96.3655218943114
 30
0.0
 10
53.9095431722865
 20
-96.3572536651468
 30
0.0
 10
53.5329942357487
 20
-96.33072642991038
 30
0.0
 10
53.5329942357487
 20
-95.89009871734693
 30
0.0
 10
53.5329942357487
 20
-95.67374672087324
 30
0.0
 10
53.66011825915442
 20
-95.44120277561888
 30
0.0
 10
53.95605196133738
 20
-95.44120277561888
 30
0.0
 10
54.14243162708939
 20
-95.44120277561888
 30
0.0
 10
54.22476940918686
 20
-95.53284231552652
 30
0.0
 10
54.28609210882431
 20
-95.62896047956498
 30
0.0
 10
54.31365287270631
 20
-95.5697048372187
 30
0.0
 10
54.39392359751263
 20
-95.39434947701947
 30
0.0
 10
54.67125378407525
 20
-95.39434947701947
 30
0.0
 10
55.00956216072678
 20
-95.39434947701947
 30
0.0
 10
55.17664929176139
 20
-95.63309459414728
 30
0.0
 10
55.17664929176139
 20
-95.90008949425415
 30
0.0
  0
HATCH
  5
A5
330
A0
100
AcDbEntity
  8
_U+30EC_U+30A4_U+30E4_U+30FC 1
 62
   179
420
  2234388
100
AcDbHatch
 10
0.0
 20
0.0
 30
0.0
210
0.0
220
0.0
230
1.0
  2
SOLID
 70
     1
 71
     0
 91
        1
 92
        1
 93
        1
 72
     4
 94
        3
 73
     0
 74
     1
 95
       62
 96
       58
 40
0.0
 40
0.0
 40
0.0
 40
0.0
 40
1.0
 40
1.0
 40
1.0
 40
2.0
 40
2.0
 40
2.0
 40
3.0
 40
3.0
 40
3.0
 40
4.0
 40
4.0
 40
4.0
 40
5.0
 40
5.0
 40
5.0
 40
6.0
 40
6.0
 40
6.0
 40
7.0
 40
7.0
 40
7.0
 40
8.0
 40
8.0
 40
8.0
 40
9.0
 40
9.0
 40
9.0
 40
10.0
 40
10.0
 40
10.0
 40
11.0
 40
11.0
 40
11.0
 40
12.0
 40
12.0
 40
12.0
 40
13.0
 40
13.0
 40
13.0
 40
14.0
 40
14.0
 40
14.0
 40
15.0
 40
15.0
 40
15.0
 40
16.0
 40
16.0
 40
16.0
 40
17.0
 40
17.0
 40
17.0
 40
18.0
 40
18.0
 40
18.0
 40
19.0
 40
19.0
 40
19.0
 40
19.0
 10
55.17664929176139
 20
-95.90008949425415
 10
55.17664929176139
 20
-95.99207354371032
 10
55.15563420930137
 20
-96.20222436831055
 10
54.96959905309788
 20
-96.32245820074579
 10
54.85728894027874
 20
-96.39377167729045
 10
54.75807019030354
 20
-96.39790579187274
 10
54.6733208413664
 20
-96.40203990645504
 10
54.6733208413664
 20
-96.40203990645504
 10
54.6733208413664
 20
-96.18982202456365
 10
54.6733208413664
 20
-96.18982202456365
 10
54.74739039429927
 20
-96.18775496727251
 10
54.98200139684478
 20
-96.17776419036528
 10
54.98200139684478
 20
-95.90422360883645
 10
54.98200139684478
 20
-95.77158743265433
 10
54.91241046804274
 20
-95.62482636498268
 10
54.68400063737067
 20
-95.62482636498268
 10
54.56755640996922
 20
-95.62482636498268
 10
54.5189805636272
 20
-95.66168888667487
 10
54.4872856851629
 20
-95.69200572694506
 10
54.41321613223003
 20
-95.76366371303826
 10
54.40046927893461
 20
-95.87562931630887
 10
54.40046927893461
 20
-95.92868378678172
 10
54.40046927893461
 20
-95.94728730240207
 10
54.40253633622576
 20
-95.98173825725458
 10
54.40667045080806
 20
-96.00826549249099
 10
54.40667045080806
 20
-96.00826549249099
 10
54.21202255589144
 20
-96.00826549249099
 10
54.21202255589144
 20
-96.00826549249099
 10
54.21856823731341
 20
-95.97174748034735
 10
54.22063529460456
 20
-95.93075084407288
 10
54.22063529460456
 20
-95.92454967219942
 10
54.22063529460456
 20
-95.86150442481934
 10
54.19927570259602
 20
-95.66961260629094
 10
53.96259764275936
 20
-95.66961260629094
 10
53.78483071572046
 20
-95.66961260629094
 10
53.72970918795647
 20
-95.7960476105996
 10
53.72970918795647
 20
-95.9021565515453
 10
53.72970918795647
 20
-96.15743812700231
 10
53.96259764275936
 20
-96.16536184661838
 10
54.03425562885255
 20
-96.16949596120068
 10
54.03425562885255
 20
-96.16949596120068
 10
54.03425562885255
 20
-96.3655218943114
 10
54.03425562885255
 20
-96.3655218943114
 10
53.9095431722865
 20
-96.3572536651468
 10
53.5329942357487
 20
-96.33072642991038
 10
53.5329942357487
 20
-95.89009871734693
 10
53.5329942357487
 20
-95.67374672087324
 10
53.66011825915442
 20
-95.44120277561888
 10
53.95605196133738
 20
-95.44120277561888
 10
54.14243162708939
 20
-95.44120277561888
 10
54.22476940918686
 20
-95.53284231552652
 10
54.28609210882431
 20
-95.62896047956498
 10
54.31365287270631
 20
-95.5697048372187
 10
54.39392359751263
 20
-95.39434947701947
 10
54.67125378407525
 20
-95.39434947701947
 10
55.00956216072678
 20
-95.39434947701947
 10
55.17664929176139
 20
-95.63309459414728
 10
55.17664929176139
 20
-95.90008949425415
 97
        0
 97
        0
 75
     2
 76
     1
 98
        0
  0
ENDBLK
  5
A3
330
A0
100
AcDbEntity
  8
0
100
AcDbBlockEnd
  0
BLOCK
  5
B4
330
B2
100
AcDbEntity
  8
0
100
AcDbBlockBegin
  2
block 6
 70
     0
 10
0.0
 20
0.0
 30
0.0
  3
block 6
  1

  0
SPLINE
  5
B6
330
B2
100
AcDbEntity
  8
_U+30EC_U+30A4_U+30E4_U+30FC 1
370
     0
100
AcDbSpline
210
0.0
220
0.0
230
1.0
 70
    11
 71
     3
 72
    44
 73
    40
 74
     0
 42
0.0000000001
 43
0.0000000001
 12
1.0
 22
0.0
 32
0.0
 13
1.0
 23
0.0
 33
0.0
 40
0.0
 40
0.0
 40
0.0
 40
0.0
 40
1.0
 40
1.0
 40
1.0
 40
2.0
 40
2.0
 40
2.0
 40
3.0
 40
3.0
 40
3.0
 40
4.0
 40
4.0
 40
4.0
 40
5.0
 40
5.0
 40
5.0
 40
6.0
 40
6.0
 40
6.0
 40
7.0
 40
7.0
 40
7.0
 40
8.0
 40
8.0
 40
8.0
 40
9.0
 40
9.0
 40
9.0
 40
10.0
 40
10.0
 40
10.0
 40
11.0
 40
11.0
 40
11.0
 40
12.0
 40
12.0
 40
12.0
 40
13.0
 40
13.0
 40
13.0
 40
13.0
 10
59.19552543007959
 20
-78.1642211718652
 30
0.0
 10
58.98537460547935
 20
-78.32286781896096
 30
0.0
 10
58.8956298680886
 20
-78.39693737189383
 30
0.0
 10
58.84860431471493
 20
-78.54077010840301
 30
0.0
 10
58.84860431471493
 20
-78.54077010840301
 30
0.0
 10
59.59946287572514
 20
-78.54077010840301
 30
0.0
 10
59.59946287572514
 20
-78.54077010840301
 30
0.0
 10
59.59946287572514
 20
-78.54077010840301
 30
0.0
 10
59.59946287572514
 20
-78.74592554454964
 30
0.0
 10
59.59946287572514
 20
-78.74592554454964
 30
0.0
 10
59.59946287572514
 20
-78.74592554454964
 30
0.0
 10
58.60796439507023
 20
-78.74592554454964
 30
0.0
 10
58.60796439507023
 20
-78.74592554454964
 30
0.0
 10
58.63845349011469
 20
-78.3883246331807
 30
0.0
 10
58.70184324704329
 20
-78.31012096566553
 30
0.0
 10
59.07305228557896
 20
-78.0117756966429
 30
0.0
 10
59.31989337709711
 20
-77.81299368714397
 30
0.0
 10
59.38311087925145
 20
-77.74529756085882
 30
0.0
 10
59.38311087925145
 20
-77.60783825099735
 30
0.0
 10
59.38311087925145
 20
-77.48932696630476
 30
0.0
 10
59.31386445999792
 20
-77.358241083091
 30
0.0
 10
59.12403969876066
 20
-77.358241083091
 30
0.0
 10
58.87306449266021
 20
-77.358241083091
 30
0.0
 10
58.86496851826987
 20
-77.58871797105421
 30
0.0
 10
58.86083440368757
 20
-77.70516219845565
 30
0.0
 10
58.86083440368757
 20
-77.70516219845565
 30
0.0
 10
58.64465466198814
 20
-77.70516219845565
 30
0.0
 10
58.64465466198814
 20
-77.70516219845565
 30
0.0
 10
58.65275063637849
 20
-77.5782104298242
 30
0.0
 10
58.66291366805997
 20
-77.46607257177932
 30
0.0
 10
58.74060057125235
 20
-77.34756128708672
 30
0.0
 10
58.84653725742378
 20
-77.18684758269983
 30
0.0
 10
59.02619898697957
 20
-77.1529133921701
 30
0.0
 10
59.13833684502445
 20
-77.1529133921701
 30
0.0
 10
59.40567625467983
 20
-77.1529133921701
 30
0.0
 10
59.60549179282432
 20
-77.33705374585671
 30
0.0
 10
59.60549179282432
 20
-77.6099053082885
 30
0.0
 10
59.60549179282432
 20
-77.83831513896057
 30
0.0
 10
59.49335393477944
 20
-77.93787839848429
 30
0.0
 10
59.19552543007959
 20
-78.1642211718652
 30
0.0
  0
HATCH
  5
B7
330
B2
100
AcDbEntity
  8
_U+30EC_U+30A4_U+30E4_U+30FC 1
 62
   179
420
  2234388
100
AcDbHatch
 10
0.0
 20
0.0
 30
0.0
210
0.0
220
0.0
230
1.0
  2
SOLID
 70
     1
 71
     0
 91
        1
 92
        1
 93
        1
 72
     4
 94
        3
 73
     0
 74
     1
 95
       44
 96
       40
 40
0.0
 40
0.0
 40
0.0
 40
0.0
 40
1.0
 40
1.0
 40
1.0
 40
2.0
 40
2.0
 40
2.0
 40
3.0
 40
3.0
 40
3.0
 40
4.0
 40
4.0
 40
4.0
 40
5.0
 40
5.0
 40
5.0
 40
6.0
 40
6.0
 40
6.0
 40
7.0
 40
7.0
 40
7.0
 40
8.0
 40
8.0
 40
8.0
 40
9.0
 40
9.0
 40
9.0
 40
10.0
 40
10.0
 40
10.0
 40
11.0
 40
11.0
 40
11.0
 40
12.0
 40
12.0
 40
12.0
 40
13.0
 40
13.0
 40
13.0
 40
13.0
 10
59.19552543007959
 20
-78.1642211718652
 10
58.98537460547935
 20
-78.32286781896096
 10
58.8956298680886
 20
-78.39693737189383
 10
58.84860431471493
 20
-78.54077010840301
 10
58.84860431471493
 20
-78.54077010840301
 10
59.59946287572514
 20
-78.54077010840301
 10
59.59946287572514
 20
-78.54077010840301
 10
59.59946287572514
 20
-78.54077010840301
 10
59.59946287572514
 20
-78.74592554454964
 10
59.59946287572514
 20
-78.74592554454964
 10
59.59946287572514
 20
-78.74592554454964
 10
58.60796439507023
 20
-78.74592554454964
 10
58.60796439507023
 20
-78.74592554454964
 10
58.63845349011469
 20
-78.3883246331807
 10
58.70184324704329
 20
-78.31012096566553
 10
59.07305228557896
 20
-78.0117756966429
 10
59.31989337709711
 20
-77.81299368714397
 10
59.38311087925145
 20
-77.74529756085882
 10
59.38311087925145
 20
-77.60783825099735
 10
59.38311087925145
 20
-77.48932696630476
 10
59.31386445999792
 20
-77.358241083091
 10
59.12403969876066
 20
-77.358241083091
 10
58.87306449266021
 20
-77.358241083091
 10
58.86496851826987
 20
-77.58871797105421
 10
58.86083440368757
 20
-77.70516219845565
 10
58.86083440368757
 20
-77.70516219845565
 10
58.64465466198814
 20
-77.70516219845565
 10
58.64465466198814
 20
-77.70516219845565
 10
58.65275063637849
 20
-77.5782104298242
 10
58.66291366805997
 20
-77.46607257177932
 10
58.74060057125235
 20
-77.34756128708672
 10
58.84653725742378
 20
-77.18684758269983
 10
59.02619898697957
 20
-77.1529133921701
 10
59.13833684502445
 20
-77.1529133921701
 10
59.40567625467983
 20
-77.1529133921701
 10
59.60549179282432
 20
-77.33705374585671
 10
59.60549179282432
 20
-77.6099053082885
 10
59.60549179282432
 20
-77.83831513896057
 10
59.49335393477944
 20
-77.93787839848429
 10
59.19552543007959
 20
-78.1642211718652
 97
        0
 97
        0
 75
     2
 76
     1
 98
        0
  0
SPLINE
  5
B8
330
B2
100
AcDbEntity
  8
_U+30EC_U+30A4_U+30E4_U+30FC 1
370
     0
100
AcDbSpline
210
0.0
220
0.0
230
1.0
 70
    11
 71
     3
 72
    62
 73
    58
 74
     0
 42
0.0000000001
 43
0.0000000001
 12
1.0
 22
0.0
 32
0.0
 13
1.0
 23
0.0
 33
0.0
 40
0.0
 40
0.0
 40
0.0
 40
0.0
 40
1.0
 40
1.0
 40
1.0
 40
2.0
 40
2.0
 40
2.0
 40
3.0
 40
3.0
 40
3.0
 40
4.0
 40
4.0
 40
4.0
 40
5.0
 40
5.0
 40
5.0
 40
6.0
 40
6.0
 40
6.0
 40
7.0
 40
7.0
 40
7.0
 40
8.0
 40
8.0
 40
8.0
 40
9.0
 40
9.0
 40
9.0
 40
10.0
 40
10.0
 40
10.0
 40
11.0
 40
11.0
 40
11.0
 40
12.0
 40
12.0
 40
12.0
 40
13.0
 40
13.0
 40
13.0
 40
14.0
 40
14.0
 40
14.0
 40
15.0
 40
15.0
 40
15.0
 40
16.0
 40
16.0
 40
16.0
 40
17.0
 40
17.0
 40
17.0
 40
18.0
 40
18.0
 40
18.0
 40
19.0
 40
19.0
 40
19.0
 40
19.0
 10
60.23094887817143
 20
-78.79674070295707
 30
0.0
 10
60.13913708348952
 20
-78.79674070295707
 30
0.0
 10
59.92898625888928
 20
-78.77555336572279
 30
0.0
 10
59.80875242645406
 20
-78.58934595474503
 30
0.0
 10
59.73726669513513
 20
-78.47720809670015
 30
0.0
 10
59.73313258055283
 20
-78.37781709195069
 30
0.0
 10
59.72917072074479
 20
-78.29323999778781
 30
0.0
 10
59.72917072074479
 20
-78.29323999778781
 30
0.0
 10
59.94121634786192
 20
-78.29323999778781
 30
0.0
 10
59.94121634786192
 20
-78.29323999778781
 30
0.0
 10
59.94328340515307
 20
-78.36730955072068
 30
0.0
 10
59.95344643683456
 20
-78.60209280804045
 30
0.0
 10
60.2269870183634
 20
-78.60209280804045
 30
0.0
 10
60.35945093977125
 20
-78.60209280804045
 30
0.0
 10
60.50638426221715
 20
-78.53232962446414
 30
0.0
 10
60.50638426221715
 20
-78.30374753901782
 30
0.0
 10
60.50638426221715
 20
-78.18747556639063
 30
0.0
 10
60.46969399529925
 20
-78.13872746527434
 30
0.0
 10
60.43903264548052
 20
-78.10703258681005
 30
0.0
 10
60.36771916893585
 20
-78.03296303387718
 30
0.0
 10
60.2554090561167
 20
-78.02038843535601
 30
0.0
 10
60.20235458564386
 20
-78.02038843535601
 30
0.0
 10
60.18409557957204
 20
-78.02038843535601
 30
0.0
 10
60.14930011517101
 20
-78.02245549264717
 30
0.0
 10
60.12277287993459
 20
-78.02658960722947
 30
0.0
 10
60.12277287993459
 20
-78.02658960722947
 30
0.0
 10
60.12277287993459
 20
-77.83194171231285
 30
0.0
 10
60.12277287993459
 20
-77.83194171231285
 30
0.0
 10
60.15963540162676
 20
-77.83831513896057
 30
0.0
 10
60.20045978312697
 20
-77.84055445102598
 30
0.0
 10
60.20648870022616
 20
-77.84055445102598
 30
0.0
 10
60.26970620238049
 20
-77.84055445102598
 30
0.0
 10
60.46159802090891
 20
-77.81936711379169
 30
0.0
 10
60.46159802090891
 20
-77.5823445444065
 30
0.0
 10
60.46159802090891
 20
-77.40474987214188
 30
0.0
 10
60.33499076182598
 20
-77.34962834437788
 30
0.0
 10
60.22888182088028
 20
-77.34962834437788
 30
0.0
 10
59.9739447549718
 20
-77.34962834437788
 30
0.0
 10
59.96584878058146
 20
-77.5823445444065
 30
0.0
 10
59.96171466599916
 20
-77.65434704004822
 30
0.0
 10
59.96171466599916
 20
-77.65434704004822
 30
0.0
 10
59.76586098766271
 20
-77.65434704004822
 30
0.0
 10
59.76586098766271
 20
-77.65434704004822
 30
0.0
 10
59.77395696205304
 20
-77.52946232870792
 30
0.0
 10
59.80048419728946
 20
-77.1529133921701
 30
0.0
 10
60.24111190985292
 20
-77.1529133921701
 30
0.0
 10
60.45746390632661
 20
-77.1529133921701
 30
0.0
 10
60.69000785158097
 20
-77.27986516080156
 30
0.0
 10
60.69000785158097
 20
-77.57597111775878
 30
0.0
 10
60.69000785158097
 20
-77.76217852873654
 30
0.0
 10
60.59819605689906
 20
-77.84468856560828
 30
0.0
 10
60.50225014763485
 20
-77.90601126524572
 30
0.0
 10
60.56150578998115
 20
-77.93357202912772
 30
0.0
 10
60.73686115018037
 20
-78.0140150087083
 30
0.0
 10
60.73686115018037
 20
-78.29117294049665
 30
0.0
 10
60.73686115018037
 20
-78.62965357192245
 30
0.0
 10
60.49828828782682
 20
-78.79674070295707
 30
0.0
 10
60.23094887817143
 20
-78.79674070295707
 30
0.0
  0
HATCH
  5
B9
330
B2
100
AcDbEntity
  8
_U+30EC_U+30A4_U+30E4_U+30FC 1
 62
   179
420
  2234388
100
AcDbHatch
 10
0.0
 20
0.0
 30
0.0
210
0.0
220
0.0
230
1.0
  2
SOLID
 70
     1
 71
     0
 91
        1
 92
        1
 93
        1
 72
     4
 94
        3
 73
     0
 74
     1
 95
       62
 96
       58
 40
0.0
 40
0.0
 40
0.0
 40
0.0
 40
1.0
 40
1.0
 40
1.0
 40
2.0
 40
2.0
 40
2.0
 40
3.0
 40
3.0
 40
3.0
 40
4.0
 40
4.0
 40
4.0
 40
5.0
 40
5.0
 40
5.0
 40
6.0
 40
6.0
 40
6.0
 40
7.0
 40
7.0
 40
7.0
 40
8.0
 40
8.0
 40
8.0
 40
9.0
 40
9.0
 40
9.0
 40
10.0
 40
10.0
 40
10.0
 40
11.0
 40
11.0
 40
11.0
 40
12.0
 40
12.0
 40
12.0
 40
13.0
 40
13.0
 40
13.0
 40
14.0
 40
14.0
 40
14.0
 40
15.0
 40
15.0
 40
15.0
 40
16.0
 40
16.0
 40
16.0
 40
17.0
 40
17.0
 40
17.0
 40
18.0
 40
18.0
 40
18.0
 40
19.0
 40
19.0
 40
19.0
 40
19.0
 10
60.23094887817143
 20
-78.79674070295707
 10
60.13913708348952
 20
-78.79674070295707
 10
59.92898625888928
 20
-78.77555336572279
 10
59.80875242645406
 20
-78.58934595474503
 10
59.73726669513513
 20
-78.47720809670015
 10
59.73313258055283
 20
-78.37781709195069
 10
59.72917072074479
 20
-78.29323999778781
 10
59.72917072074479
 20
-78.29323999778781
 10
59.94121634786192
 20
-78.29323999778781
 10
59.94121634786192
 20
-78.29323999778781
 10
59.94328340515307
 20
-78.36730955072068
 10
59.95344643683456
 20
-78.60209280804045
 10
60.2269870183634
 20
-78.60209280804045
 10
60.35945093977125
 20
-78.60209280804045
 10
60.50638426221715
 20
-78.53232962446414
 10
60.50638426221715
 20
-78.30374753901782
 10
60.50638426221715
 20
-78.18747556639063
 10
60.46969399529925
 20
-78.13872746527434
 10
60.43903264548052
 20
-78.10703258681005
 10
60.36771916893585
 20
-78.03296303387718
 10
60.2554090561167
 20
-78.02038843535601
 10
60.20235458564386
 20
-78.02038843535601
 10
60.18409557957204
 20
-78.02038843535601
 10
60.14930011517101
 20
-78.02245549264717
 10
60.12277287993459
 20
-78.02658960722947
 10
60.12277287993459
 20
-78.02658960722947
 10
60.12277287993459
 20
-77.83194171231285
 10
60.12277287993459
 20
-77.83194171231285
 10
60.15963540162676
 20
-77.83831513896057
 10
60.20045978312697
 20
-77.84055445102598
 10
60.20648870022616
 20
-77.84055445102598
 10
60.26970620238049
 20
-77.84055445102598
 10
60.46159802090891
 20
-77.81936711379169
 10
60.46159802090891
 20
-77.5823445444065
 10
60.46159802090891
 20
-77.40474987214188
 10
60.33499076182598
 20
-77.34962834437788
 10
60.22888182088028
 20
-77.34962834437788
 10
59.9739447549718
 20
-77.34962834437788
 10
59.96584878058146
 20
-77.5823445444065
 10
59.96171466599916
 20
-77.65434704004822
 10
59.96171466599916
 20
-77.65434704004822
 10
59.76586098766271
 20
-77.65434704004822
 10
59.76586098766271
 20
-77.65434704004822
 10
59.77395696205304
 20
-77.52946232870792
 10
59.80048419728946
 20
-77.1529133921701
 10
60.24111190985292
 20
-77.1529133921701
 10
60.45746390632661
 20
-77.1529133921701
 10
60.69000785158097
 20
-77.27986516080156
 10
60.69000785158097
 20
-77.57597111775878
 10
60.69000785158097
 20
-77.76217852873654
 10
60.59819605689906
 20
-77.84468856560828
 10
60.50225014763485
 20
-77.90601126524572
 10
60.56150578998115
 20
-77.93357202912772
 10
60.73686115018037
 20
-78.0140150087083
 10
60.73686115018037
 20
-78.29117294049665
 10
60.73686115018037
 20
-78.62965357192245
 10
60.49828828782682
 20
-78.79674070295707
 10
60.23094887817143
 20
-78.79674070295707
 97
        0
 97
        0
 75
     2
 76
     1
 98
        0
  0
ENDBLK
  5
B5
330
B2
100
AcDbEntity
  8
0
100
AcDbBlockEnd
  0
ENDSEC
  0
SECTION
  2
ENTITIES
  0
SPLINE
  5
41
330
1F
100
AcDbEntity
  8
_U+30EC_U+30A4_U+30E4_U+30FC 1
 62
   179
420
  2234388
370
     9
100
AcDbSpline
210
0.0
220
0.0
230
1.0
 70
    11
 71
     3
 72
    17
 73
    13
 74
     0
 42
0.0000000001
 43
0.0000000001
 12
1.0
 22
0.0
 32
0.0
 13
1.0
 23
0.0
 33
0.0
 40
0.0
 40
0.0
 40
0.0
 40
0.0
 40
1.0
 40
1.0
 40
1.0
 40
2.0
 40
2.0
 40
2.0
 40
3.0
 40
3.0
 40
3.0
 40
4.0
 40
4.0
 40
4.0
 40
4.0
 10
71.27215123725149
 20
-79.39136886904112
 30
0.0
 10
71.27215123725149
 20
-79.33622970238804
 30
0.0
 10
71.22734846061672
 20
-79.29146220239947
 30
0.0
 10
71.17221109331791
 20
-79.29146220239947
 30
0.0
 10
71.11710540787371
 20
-79.29146220239947
 30
0.0
 10
71.07230263123894
 20
-79.33622970238804
 30
0.0
 10
71.07230263123894
 20
-79.39136886904112
 30
0.0
 10
71.07230263123894
 20
-79.44682553569379
 30
0.0
 10
71.11710540787371
 20
-79.49162831346051
 30
0.0
 10
71.17221109331791
 20
-79.49162831346051
 30
0.0
 10
71.22734846061672
 20
-79.49162831346051
 30
0.0
 10
71.27215123725149
 20
-79.44682553569379
 30
0.0
 10
71.27215123725149
 20
-79.39136886904112
 30
0.0
  0
SPLINE
  5
42
330
1F
100
AcDbEntity
  8
_U+30EC_U+30A4_U+30E4_U+30FC 1
 62
   179
420
  2234388
370
     9
100
AcDbSpline
210
0.0
220
0.0
230
1.0
 70
    11
 71
     3
 72
    17
 73
    13
 74
     0
 42
0.0000000001
 43
0.0000000001
 12
1.0
 22
0.0
 32
0.0
 13
1.0
 23
0.0
 33
0.0
 40
0.0
 40
0.0
 40
0.0
 40
0.0
 40
1.0
 40
1.0
 40
1.0
 40
2.0
 40
2.0
 40
2.0
 40
3.0
 40
3.0
 40
3.0
 40
4.0
 40
4.0
 40
4.0
 40
4.0
 10
75.27187502409893
 20
-83.61316636798576
 30
0.0
 10
75.27187502409893
 20
-83.55767442355491
 30
0.0
 10
75.22710752524104
 20
-83.51290692356635
 30
0.0
 10
75.1719683599811
 20
-83.51290692356635
 30
0.0
 10
75.11686447249802
 20
-83.51290692356635
 30
0.0
 10
75.07206169586325
 20
-83.55767442355491
 30
0.0
 10
75.07206169586325
 20
-83.61316636798576
 30
0.0
 10
75.07206169586325
 20
-83.66827025686067
 30
0.0
 10
75.11686447249802
 20
-83.71307303462739
 30
0.0
 10
75.1719683599811
 20
-83.71307303462739
 30
0.0
 10
75.22710752524104
 20
-83.71307303462739
 30
0.0
 10
75.27187502409893
 20
-83.66827025686067
 30
0.0
 10
75.27187502409893
 20
-83.61316636798576
 30
0.0
  0
SPLINE
  5
43
330
1F
100
AcDbEntity
  8
_U+30EC_U+30A4_U+30E4_U+30FC 1
 62
   179
420
  2234388
370
     9
100
AcDbSpline
210
0.0
220
0.0
230
1.0
 70
    11
 71
     3
 72
    17
 73
    13
 74
     0
 42
0.0000000001
 43
0.0000000001
 12
1.0
 22
0.0
 32
0.0
 13
1.0
 23
0.0
 33
0.0
 40
0.0
 40
0.0
 40
0.0
 40
0.0
 40
1.0
 40
1.0
 40
1.0
 40
2.0
 40
2.0
 40
2.0
 40
3.0
 40
3.0
 40
3.0
 40
4.0
 40
4.0
 40
4.0
 40
4.0
 10
75.27187502409893
 20
-94.39218553195755
 30
0.0
 10
75.27187502409893
 20
-94.33637608752711
 30
0.0
 10
75.22710752524104
 20
-94.29227886531592
 30
0.0
 10
75.1719683599811
 20
-94.29227886531592
 30
0.0
 10
75.11686447249802
 20
-94.29227886531592
 30
0.0
 10
75.07206169586325
 20
-94.33637608752711
 30
0.0
 10
75.07206169586325
 20
-94.39218553195755
 30
0.0
 10
75.07206169586325
 20
-94.44728942083248
 30
0.0
 10
75.11686447249802
 20
-94.4920921985992
 30
0.0
 10
75.1719683599811
 20
-94.4920921985992
 30
0.0
 10
75.22710752524104
 20
-94.4920921985992
 30
0.0
 10
75.27187502409893
 20
-94.44728942083248
 30
0.0
 10
75.27187502409893
 20
-94.39218553195755
 30
0.0
  0
SPLINE
  5
44
330
1F
100
AcDbEntity
  8
_U+30EC_U+30A4_U+30E4_U+30FC 1
 62
   179
420
  2234388
370
     9
100
AcDbSpline
210
0.0
220
0.0
230
1.0
 70
    11
 71
     3
 72
    17
 73
    13
 74
     0
 42
0.0000000001
 43
0.0000000001
 12
1.0
 22
0.0
 32
0.0
 13
1.0
 23
0.0
 33
0.0
 40
0.0
 40
0.0
 40
0.0
 40
0.0
 40
1.0
 40
1.0
 40
1.0
 40
2.0
 40
2.0
 40
2.0
 40
3.0
 40
3.0
 40
3.0
 40
4.0
 40
4.0
 40
4.0
 40
4.0
 10
75.27187502409893
 20
-84.39174692334646
 30
0.0
 10
75.27187502409893
 20
-84.33629025669379
 30
0.0
 10
75.22710752524104
 20
-84.29184025670482
 30
0.0
 10
75.1719683599811
 20
-84.29184025670482
 30
0.0
 10
75.11686447249802
 20
-84.29184025670482
 30
0.0
 10
75.07206169586325
 20
-84.33629025669379
 30
0.0
 10
75.07206169586325
 20
-84.39174692334646
 30
0.0
 10
75.07206169586325
 20
-84.44720358999946
 30
0.0
 10
75.11686447249802
 20
-84.49200636776585
 30
0.0
 10
75.1719683599811
 20
-84.49200636776585
 30
0.0
 10
75.22710752524104
 20
-84.49200636776585
 30
0.0
 10
75.27187502409893
 20
-84.44720358999946
 30
0.0
 10
75.27187502409893
 20
-84.39174692334646
 30
0.0
  0
SPLINE
  5
45
330
1F
100
AcDbEntity
  8
_U+30EC_U+30A4_U+30E4_U+30FC 1
 62
   179
420
  2234388
370
     9
100
AcDbSpline
210
0.0
220
0.0
230
1.0
 70
    11
 71
     3
 72
    17
 73
    13
 74
     0
 42
0.0000000001
 43
0.0000000001
 12
1.0
 22
0.0
 32
0.0
 13
1.0
 23
0.0
 33
0.0
 40
0.0
 40
0.0
 40
0.0
 40
0.0
 40
1.0
 40
1.0
 40
1.0
 40
2.0
 40
2.0
 40
2.0
 40
3.0
 40
3.0
 40
3.0
 40
4.0
 40
4.0
 40
4.0
 40
4.0
 10
55.87202579680809
 20
-94.39218553195755
 30
0.0
 10
55.87202579680809
 20
-94.33637608752711
 30
0.0
 10
55.82725829795021
 20
-94.29227886531592
 30
0.0
 10
55.77211913269026
 20
-94.29227886531592
 30
0.0
 10
55.71701665273745
 20
-94.29227886531592
 30
0.0
 10
55.67221387497073
 20
-94.33637608752711
 30
0.0
 10
55.67221387497073
 20
-94.39218553195755
 30
0.0
 10
55.67221387497073
 20
-94.44728942083248
 30
0.0
 10
55.71701665273745
 20
-94.4920921985992
 30
0.0
 10
55.77211913269026
 20
-94.4920921985992
 30
0.0
 10
55.82725829795021
 20
-94.4920921985992
 30
0.0
 10
55.87202579680809
 20
-94.44728942083248
 30
0.0
 10
55.87202579680809
 20
-94.39218553195755
 30
0.0
  0
SPLINE
  5
46
330
1F
100
AcDbEntity
  8
_U+30EC_U+30A4_U+30E4_U+30FC 1
 62
   179
420
  2234388
370
     9
100
AcDbSpline
210
0.0
220
0.0
230
1.0
 70
    11
 71
     3
 72
    17
 73
    13
 74
     0
 42
0.0000000001
 43
0.0000000001
 12
1.0
 22
0.0
 32
0.0
 13
1.0
 23
0.0
 33
0.0
 40
0.0
 40
0.0
 40
0.0
 40
0.0
 40
1.0
 40
1.0
 40
1.0
 40
2.0
 40
2.0
 40
2.0
 40
3.0
 40
3.0
 40
3.0
 40
4.0
 40
4.0
 40
4.0
 40
4.0
 10
55.87202579680809
 20
-97.39217247565189
 30
0.0
 10
55.87202579680809
 20
-97.33703330899881
 30
0.0
 10
55.82725829795021
 20
-97.29226580901026
 30
0.0
 10
55.77211913269026
 20
-97.29226580901026
 30
0.0
 10
55.71701665273745
 20
-97.29226580901026
 30
0.0
 10
55.67221387497073
 20
-97.33703330899881
 30
0.0
 10
55.67221387497073
 20
-97.39217247565189
 30
0.0
 10
55.67221387497073
 20
-97.44727636452681
 30
0.0
 10
55.71701665273745
 20
-97.49207914229353
 30
0.0
 10
55.77211913269026
 20
-97.49207914229353
 30
0.0
 10
55.82725829795021
 20
-97.49207914229353
 30
0.0
 10
55.87202579680809
 20
-97.44727636452681
 30
0.0
 10
55.87202579680809
 20
-97.39217247565189
 30
0.0
  0
SPLINE
  5
47
330
1F
100
AcDbEntity
  8
_U+30EC_U+30A4_U+30E4_U+30FC 1
 62
   179
420
  2234388
370
     9
100
AcDbSpline
210
0.0
220
0.0
230
1.0
 70
    11
 71
     3
 72
    17
 73
    13
 74
     0
 42
0.0000000001
 43
0.0000000001
 12
1.0
 22
0.0
 32
0.0
 13
1.0
 23
0.0
 33
0.0
 40
0.0
 40
0.0
 40
0.0
 40
0.0
 40
1.0
 40
1.0
 40
1.0
 40
2.0
 40
2.0
 40
2.0
 40
3.0
 40
3.0
 40
3.0
 40
4.0
 40
4.0
 40
4.0
 40
4.0
 10
51.87194923219188
 20
-101.3919316413188
 30
0.0
 10
51.87194923219188
 20
-101.3367924746657
 30
0.0
 10
51.82714645555712
 20
-101.2920249746771
 30
0.0
 10
51.77204256807404
 20
-101.2920249746771
 30
0.0
 10
51.71655062504531
 20
-101.2920249746771
 30
0.0
 10
51.67178312618744
 20
-101.3367924746657
 30
0.0
 10
51.67178312618744
 20
-101.3919316413188
 30
0.0
 10
51.67178312618744
 20
-101.4470355301937
 30
0.0
 10
51.71655062504531
 20
-101.4918383079604
 30
0.0
 10
51.77204256807404
 20
-101.4918383079604
 30
0.0
 10
51.82714645555712
 20
-101.4918383079604
 30
0.0
 10
51.87194923219188
 20
-101.4470355301937
 30
0.0
 10
51.87194923219188
 20
-101.3919316413188
 30
0.0
  0
SPLINE
  5
48
330
1F
100
AcDbEntity
  8
_U+30EC_U+30A4_U+30E4_U+30FC 1
 62
   179
420
  2234388
370
     9
100
AcDbSpline
210
0.0
220
0.0
230
1.0
 70
    11
 71
     3
 72
    17
 73
    13
 74
     0
 42
0.0000000001
 43
0.0000000001
 12
1.0
 22
0.0
 32
0.0
 13
1.0
 23
0.0
 33
0.0
 40
0.0
 40
0.0
 40
0.0
 40
0.0
 40
1.0
 40
1.0
 40
1.0
 40
2.0
 40
2.0
 40
2.0
 40
3.0
 40
3.0
 40
3.0
 40
4.0
 40
4.0
 40
4.0
 40
4.0
 10
46.87206519308288
 20
-101.3919316413188
 30
0.0
 10
46.87206519308288
 20
-101.3367924746657
 30
0.0
 10
46.827297694225
 20
-101.2920249746771
 30
0.0
 10
46.77215852896504
 20
-101.2920249746771
 30
0.0
 10
46.7167018637132
 20
-101.2920249746771
 30
0.0
 10
46.67225186484721
 20
-101.3367924746657
 30
0.0
 10
46.67225186484721
 20
-101.3919316413188
 30
0.0
 10
46.67225186484721
 20
-101.4470355301937
 30
0.0
 10
46.7167018637132
 20
-101.4918383079604
 30
0.0
 10
46.77215852896504
 20
-101.4918383079604
 30
0.0
 10
46.827297694225
 20
-101.4918383079604
 30
0.0
 10
46.87206519308288
 20
-101.4470355301937
 30
0.0
 10
46.87206519308288
 20
-101.3919316413188
 30
0.0
  0
SPLINE
  5
49
330
1F
100
AcDbEntity
  8
_U+30EC_U+30A4_U+30E4_U+30FC 1
 62
   179
420
  2234388
370
     9
100
AcDbSpline
210
0.0
220
0.0
230
1.0
 70
    11
 71
     3
 72
    17
 73
    13
 74
     0
 42
0.0000000001
 43
0.0000000001
 12
1.0
 22
0.0
 32
0.0
 13
1.0
 23
0.0
 33
0.0
 40
0.0
 40
0.0
 40
0.0
 40
0.0
 40
1.0
 40
1.0
 40
1.0
 40
2.0
 40
2.0
 40
2.0
 40
3.0
 40
3.0
 40
3.0
 40
4.0
 40
4.0
 40
4.0
 40
4.0
 10
48.27216960180769
 20
-79.39136886904112
 30
0.0
 10
48.27216960180769
 20
-79.33622970238804
 30
0.0
 10
48.22736682517292
 20
-79.29146220239947
 30
0.0
 10
48.17226293768985
 20
-79.29146220239947
 30
0.0
 10
48.11677221019311
 20
-79.29146220239947
 30
0.0
 10
48.07200349580324
 20
-79.33622970238804
 30
0.0
 10
48.07200349580324
 20
-79.39136886904112
 30
0.0
 10
48.07200349580324
 20
-79.44682553569379
 30
0.0
 10
48.11677221019311
 20
-79.49162831346051
 30
0.0
 10
48.17226293768985
 20
-79.49162831346051
 30
0.0
 10
48.22736682517292
 20
-79.49162831346051
 30
0.0
 10
48.27216960180769
 20
-79.44682553569379
 30
0.0
 10
48.27216960180769
 20
-79.39136886904112
 30
0.0
  0
POLYLINE
  5
4A
330
1F
100
AcDbEntity
  8
_U+30EC_U+30A4_U+30E4_U+30FC 1
 62
   179
420
  2234388
370
     9
100
AcDb2dPolyline
 66
     1
 10
0.0
 20
0.0
 30
0.0
  0
VERTEX
  5
4B
330
4A
100
AcDbEntity
  8
_U+30EC_U+30A4_U+30E4_U+30FC 1
 62
   179
420
  2234388
370
     9
100
AcDbVertex
100
AcDb2dVertex
 10
75.1719683599811
 20
-83.39197470137424
 30
0.0
  0
VERTEX
  5
4C
330
4A
100
AcDbEntity
  8
_U+30EC_U+30A4_U+30E4_U+30FC 1
 62
   179
420
  2234388
370
     9
100
AcDbVertex
100
AcDb2dVertex
 10
75.1719683599811
 20
-82.39135581273545
 30
0.0
  0
SEQEND
  5
4D
330
4A
100
AcDbEntity
  8
_U+30EC_U+30A4_U+30E4_U+30FC 1
 62
   179
420
  2234388
370
     9
  0
POLYLINE
  5
4E
330
1F
100
AcDbEntity
  8
_U+30EC_U+30A4_U+30E4_U+30FC 1
 62
   179
420
  2234388
370
     9
100
AcDb2dPolyline
 66
     1
 10
0.0
 20
0.0
 30
0.0
  0
VERTEX
  5
4F
330
4E
100
AcDbEntity
  8
_U+30EC_U+30A4_U+30E4_U+30FC 1
 62
   179
420
  2234388
370
     9
100
AcDbVertex
100
AcDb2dVertex
 10
75.1719683599811
 20
-83.39197470137424
 30
0.0
  0
VERTEX
  5
50
330
4E
100
AcDbEntity
  8
_U+30EC_U+30A4_U+30E4_U+30FC 1
 62
   179
420
  2234388
370
     9
100
AcDbVertex
100
AcDb2dVertex
 10
75.1719683599811
 20
-84.39174692334646
 30
0.0
  0
SEQEND
  5
51
330
4E
100
AcDbEntity
  8
_U+30EC_U+30A4_U+30E4_U+30FC 1
 62
   179
420
  2234388
370
     9
  0
POLYLINE
  5
52
330
1F
100
AcDbEntity
  8
_U+30EC_U+30A4_U+30E4_U+30FC 1
 62
   179
420
  2234388
370
     9
100
AcDb2dPolyline
 66
     1
 10
0.0
 20
0.0
 30
0.0
  0
VERTEX
  5
53
330
52
100
AcDbEntity
  8
_U+30EC_U+30A4_U+30E4_U+30FC 1
 62
   179
420
  2234388
370
     9
100
AcDbVertex
100
AcDb2dVertex
 10
73.71196228611784
 20
-83.65655803464142
 30
0.0
  0
VERTEX
  5
54
330
52
100
AcDbEntity
  8
_U+30EC_U+30A4_U+30E4_U+30FC 1
 62
   179
420
  2234388
370
     9
100
AcDbVertex
100
AcDb2dVertex
 10
76.171740556697
 20
-83.65655803464142
 30
0.0
  0
SEQEND
  5
55
330
52
100
AcDbEntity
  8
_U+30EC_U+30A4_U+30E4_U+30FC 1
 62
   179
420
  2234388
370
     9
  0
POLYLINE
  5
56
330
1F
100
AcDbEntity
  8
_U+30EC_U+30A4_U+30E4_U+30FC 1
 62
   179
420
  2234388
370
     9
100
AcDb2dPolyline
 66
     1
 10
0.0
 20
0.0
 30
0.0
  0
VERTEX
  5
57
330
56
100
AcDbEntity
  8
_U+30EC_U+30A4_U+30E4_U+30FC 1
 62
   179
420
  2234388
370
     9
100
AcDbVertex
100
AcDb2dVertex
 10
73.71196228611784
 20
-84.39174692334646
 30
0.0
  0
VERTEX
  5
58
330
56
100
AcDbEntity
  8
_U+30EC_U+30A4_U+30E4_U+30FC 1
 62
   179
420
  2234388
370
     9
100
AcDbVertex
100
AcDb2dVertex
 10
76.171740556697
 20
-84.39174692334646
 30
0.0
  0
SEQEND
  5
59
330
56
100
AcDbEntity
  8
_U+30EC_U+30A4_U+30E4_U+30FC 1
 62
   179
420
  2234388
370
     9
  0
INSERT
  5
5B
330
1F
100
AcDbEntity
  8
_U+30EC_U+30A4_U+30E4_U+30FC 1
100
AcDbBlockReference
  2
block 2
 10
0.0
 20
0.0
 30
0.0
  0
POLYLINE
  5
6D
330
1F
100
AcDbEntity
  8
_U+30EC_U+30A4_U+30E4_U+30FC 1
 62
   179
420
  2234388
370
     9
100
AcDb2dPolyline
 66
     1
 10
0.0
 20
0.0
 30
0.0
  0
VERTEX
  5
6E
330
6D
100
AcDbEntity
  8
_U+30EC_U+30A4_U+30E4_U+30FC 1
 62
   179
420
  2234388
370
     9
100
AcDbVertex
100
AcDb2dVertex
 10
75.1719683599811
 20
-94.39218553195755
 30
0.0
  0
VERTEX
  5
6F
330
6D
100
AcDbEntity
  8
_U+30EC_U+30A4_U+30E4_U+30FC 1
 62
   179
420
  2234388
370
     9
100
AcDbVertex
100
AcDb2dVertex
 10
75.1719683599811
 20
-84.39174692334646
 30
0.0
  0
SEQEND
  5
70
330
6D
100
AcDbEntity
  8
_U+30EC_U+30A4_U+30E4_U+30FC 1
 62
   179
420
  2234388
370
     9
  0
POLYLINE
  5
71
330
1F
100
AcDbEntity
  8
_U+30EC_U+30A4_U+30E4_U+30FC 1
 62
   179
420
  2234388
370
     9
100
AcDb2dPolyline
 66
     1
 10
0.0
 20
0.0
 30
0.0
  0
VERTEX
  5
72
330
71
100
AcDbEntity
  8
_U+30EC_U+30A4_U+30E4_U+30FC 1
 62
   179
420
  2234388
370
     9
100
AcDbVertex
100
AcDb2dVertex
 10
54.312113058827
 20
-94.39218553195755
 30
0.0
  0
VERTEX
  5
73
330
71
100
AcDbEntity
  8
_U+30EC_U+30A4_U+30E4_U+30FC 1
 62
   179
420
  2234388
370
     9
100
AcDbVertex
100
AcDb2dVertex
 10
76.171740556697
 20
-94.39218553195755
 30
0.0
  0
SEQEND
  5
74
330
71
100
AcDbEntity
  8
_U+30EC_U+30A4_U+30E4_U+30FC 1
 62
   179
420
  2234388
370
     9
  0
POLYLINE
  5
75
330
1F
100
AcDbEntity
  8
_U+30EC_U+30A4_U+30E4_U+30FC 1
 62
   179
420
  2234388
370
     9
100
AcDb2dPolyline
 66
     1
 10
0.0
 20
0.0
 30
0.0
  0
VERTEX
  5
76
330
75
100
AcDbEntity
  8
_U+30EC_U+30A4_U+30E4_U+30FC 1
 62
   179
420
  2234388
370
     9
100
AcDbVertex
100
AcDb2dVertex
 10
73.71196228611784
 20
-84.39174692334646
 30
0.0
  0
VERTEX
  5
77
330
75
100
AcDbEntity
  8
_U+30EC_U+30A4_U+30E4_U+30FC 1
 62
   179
420
  2234388
370
     9
100
AcDbVertex
100
AcDb2dVertex
 10
76.171740556697
 20
-84.39174692334646
 30
0.0
  0
SEQEND
  5
78
330
75
100
AcDbEntity
  8
_U+30EC_U+30A4_U+30E4_U+30FC 1
 62
   179
420
  2234388
370
     9
  0
INSERT
  5
7A
330
1F
100
AcDbEntity
  8
_U+30EC_U+30A4_U+30E4_U+30FC 1
100
AcDbBlockReference
  2
block 3
 10
0.0
 20
0.0
 30
0.0
  0
POLYLINE
  5
82
330
1F
100
AcDbEntity
  8
_U+30EC_U+30A4_U+30E4_U+30FC 1
 62
   179
420
  2234388
370
     9
100
AcDb2dPolyline
 66
     1
 10
0.0
 20
0.0
 30
0.0
  0
VERTEX
  5
83
330
82
100
AcDbEntity
  8
_U+30EC_U+30A4_U+30E4_U+30FC 1
 62
   179
420
  2234388
370
     9
100
AcDbVertex
100
AcDb2dVertex
 10
46.77215852896504
 20
-101.3919316413188
 30
0.0
  0
VERTEX
  5
84
330
82
100
AcDbEntity
  8
_U+30EC_U+30A4_U+30E4_U+30FC 1
 62
   179
420
  2234388
370
     9
100
AcDbVertex
100
AcDb2dVertex
 10
51.77204256807404
 20
-101.3919316413188
 30
0.0
  0
SEQEND
  5
85
330
82
100
AcDbEntity
  8
_U+30EC_U+30A4_U+30E4_U+30FC 1
 62
   179
420
  2234388
370
     9
  0
POLYLINE
  5
86
330
1F
100
AcDbEntity
  8
_U+30EC_U+30A4_U+30E4_U+30FC 1
 62
   179
420
  2234388
370
     9
100
AcDb2dPolyline
 66
     1
 10
0.0
 20
0.0
 30
0.0
  0
VERTEX
  5
87
330
86
100
AcDbEntity
  8
_U+30EC_U+30A4_U+30E4_U+30FC 1
 62
   179
420
  2234388
370
     9
100
AcDbVertex
100
AcDb2dVertex
 10
46.77215852896504
 20
-99.93189025279507
 30
0.0
  0
VERTEX
  5
88
330
86
100
AcDbEntity
  8
_U+30EC_U+30A4_U+30E4_U+30FC 1
 62
   179
420
  2234388
370
     9
100
AcDbVertex
100
AcDb2dVertex
 10
46.77215852896504
 20
-102.3916685855132
 30
0.0
  0
SEQEND
  5
89
330
86
100
AcDbEntity
  8
_U+30EC_U+30A4_U+30E4_U+30FC 1
 62
   179
420
  2234388
370
     9
  0
POLYLINE
  5
8A
330
1F
100
AcDbEntity
  8
_U+30EC_U+30A4_U+30E4_U+30FC 1
 62
   179
420
  2234388
370
     9
100
AcDb2dPolyline
 66
     1
 10
0.0
 20
0.0
 30
0.0
  0
VERTEX
  5
8B
330
8A
100
AcDbEntity
  8
_U+30EC_U+30A4_U+30E4_U+30FC 1
 62
   179
420
  2234388
370
     9
100
AcDbVertex
100
AcDb2dVertex
 10
51.77204256807404
 20
-99.93189025279507
 30
0.0
  0
VERTEX
  5
8C
330
8A
100
AcDbEntity
  8
_U+30EC_U+30A4_U+30E4_U+30FC 1
 62
   179
420
  2234388
370
     9
100
AcDbVertex
100
AcDb2dVertex
 10
51.77204256807404
 20
-102.3916685855132
 30
0.0
  0
SEQEND
  5
8D
330
8A
100
AcDbEntity
  8
_U+30EC_U+30A4_U+30E4_U+30FC 1
 62
   179
420
  2234388
370
     9
  0
INSERT
  5
8F
330
1F
100
AcDbEntity
  8
_U+30EC_U+30A4_U+30E4_U+30FC 1
100
AcDbBlockReference
  2
block 4
 10
0.0
 20
0.0
 30
0.0
  0
POLYLINE
  5
94
330
1F
100
AcDbEntity
  8
_U+30EC_U+30A4_U+30E4_U+30FC 1
 62
   179
420
  2234388
370
     9
100
AcDb2dPolyline
 66
     1
 10
0.0
 20
0.0
 30
0.0
  0
VERTEX
  5
95
330
94
100
AcDbEntity
  8
_U+30EC_U+30A4_U+30E4_U+30FC 1
 62
   179
420
  2234388
370
     9
100
AcDbVertex
100
AcDb2dVertex
 10
55.77211913269026
 20
-94.39218553195755
 30
0.0
  0
VERTEX
  5
96
330
94
100
AcDbEntity
  8
_U+30EC_U+30A4_U+30E4_U+30FC 1
 62
   179
420
  2234388
370
     9
100
AcDbVertex
100
AcDb2dVertex
 10
55.77211913269026
 20
-97.39217247565189
 30
0.0
  0
SEQEND
  5
97
330
94
100
AcDbEntity
  8
_U+30EC_U+30A4_U+30E4_U+30FC 1
 62
   179
420
  2234388
370
     9
  0
POLYLINE
  5
98
330
1F
100
AcDbEntity
  8
_U+30EC_U+30A4_U+30E4_U+30FC 1
 62
   179
420
  2234388
370
     9
100
AcDb2dPolyline
 66
     1
 10
0.0
 20
0.0
 30
0.0
  0
VERTEX
  5
99
330
98
100
AcDbEntity
  8
_U+30EC_U+30A4_U+30E4_U+30FC 1
 62
   179
420
  2234388
370
     9
100
AcDbVertex
100
AcDb2dVertex
 10
54.312113058827
 20
-94.39218553195755
 30
0.0
  0
VERTEX
  5
9A
330
98
100
AcDbEntity
  8
_U+30EC_U+30A4_U+30E4_U+30FC 1
 62
   179
420
  2234388
370
     9
100
AcDbVertex
100
AcDb2dVertex
 10
56.77189132940617
 20
-94.39218553195755
 30
0.0
  0
SEQEND
  5
9B
330
98
100
AcDbEntity
  8
_U+30EC_U+30A4_U+30E4_U+30FC 1
 62
   179
420
  2234388
370
     9
  0
POLYLINE
  5
9C
330
1F
100
AcDbEntity
  8
_U+30EC_U+30A4_U+30E4_U+30FC 1
 62
   179
420
  2234388
370
     9
100
AcDb2dPolyline
 66
     1
 10
0.0
 20
0.0
 30
0.0
  0
VERTEX
  5
9D
330
9C
100
AcDbEntity
  8
_U+30EC_U+30A4_U+30E4_U+30FC 1
 62
   179
420
  2234388
370
     9
100
AcDbVertex
100
AcDb2dVertex
 10
54.312113058827
 20
-97.39217247565189
 30
0.0
  0
VERTEX
  5
9E
330
9C
100
AcDbEntity
  8
_U+30EC_U+30A4_U+30E4_U+30FC 1
 62
   179
420
  2234388
370
     9
100
AcDbVertex
100
AcDb2dVertex
 10
56.77189132940617
 20
-97.39217247565189
 30
0.0
  0
SEQEND
  5
9F
330
9C
100
AcDbEntity
  8
_U+30EC_U+30A4_U+30E4_U+30FC 1
 62
   179
420
  2234388
370
     9
  0
INSERT
  5
A1
330
1F
100
AcDbEntity
  8
_U+30EC_U+30A4_U+30E4_U+30FC 1
100
AcDbBlockReference
  2
block 5
 10
0.0
 20
0.0
 30
0.0
  0
POLYLINE
  5
A6
330
1F
100
AcDbEntity
  8
_U+30EC_U+30A4_U+30E4_U+30FC 1
 62
   179
420
  2234388
370
     9
100
AcDb2dPolyline
 66
     1
 10
0.0
 20
0.0
 30
0.0
  0
VERTEX
  5
A7
330
A6
100
AcDbEntity
  8
_U+30EC_U+30A4_U+30E4_U+30FC 1
 62
   179
420
  2234388
370
     9
100
AcDbVertex
100
AcDb2dVertex
 10
48.17226293768985
 20
-79.39136886904112
 30
0.0
  0
VERTEX
  5
A8
330
A6
100
AcDbEntity
  8
_U+30EC_U+30A4_U+30E4_U+30FC 1
 62
   179
420
  2234388
370
     9
100
AcDbVertex
100
AcDb2dVertex
 10
71.17221109331791
 20
-79.39136886904112
 30
0.0
  0
SEQEND
  5
A9
330
A6
100
AcDbEntity
  8
_U+30EC_U+30A4_U+30E4_U+30FC 1
 62
   179
420
  2234388
370
     9
  0
POLYLINE
  5
AA
330
1F
100
AcDbEntity
  8
_U+30EC_U+30A4_U+30E4_U+30FC 1
 62
   179
420
  2234388
370
     9
100
AcDb2dPolyline
 66
     1
 10
0.0
 20
0.0
 30
0.0
  0
VERTEX
  5
AB
330
AA
100
AcDbEntity
  8
_U+30EC_U+30A4_U+30E4_U+30FC 1
 62
   179
420
  2234388
370
     9
100
AcDbVertex
100
AcDb2dVertex
 10
48.17226293768985
 20
-80.85141025756482
 30
0.0
  0
VERTEX
  5
AC
330
AA
100
AcDbEntity
  8
_U+30EC_U+30A4_U+30E4_U+30FC 1
 62
   179
420
  2234388
370
     9
100
AcDbVertex
100
AcDb2dVertex
 10
48.17226293768985
 20
-78.3915966470689
 30
0.0
  0
SEQEND
  5
AD
330
AA
100
AcDbEntity
  8
_U+30EC_U+30A4_U+30E4_U+30FC 1
 62
   179
420
  2234388
370
     9
  0
POLYLINE
  5
AE
330
1F
100
AcDbEntity
  8
_U+30EC_U+30A4_U+30E4_U+30FC 1
 62
   179
420
  2234388
370
     9
100
AcDb2dPolyline
 66
     1
 10
0.0
 20
0.0
 30
0.0
  0
VERTEX
  5
AF
330
AE
100
AcDbEntity
  8
_U+30EC_U+30A4_U+30E4_U+30FC 1
 62
   179
420
  2234388
370
     9
100
AcDbVertex
100
AcDb2dVertex
 10
71.17221109331791
 20
-80.85141025756482
 30
0.0
  0
VERTEX
  5
B0
330
AE
100
AcDbEntity
  8
_U+30EC_U+30A4_U+30E4_U+30FC 1
 62
   179
420
  2234388
370
     9
100
AcDbVertex
100
AcDb2dVertex
 10
71.17221109331791
 20
-78.3915966470689
 30
0.0
  0
SEQEND
  5
B1
330
AE
100
AcDbEntity
  8
_U+30EC_U+30A4_U+30E4_U+30FC 1
 62
   179
420
  2234388
370
     9
  0
INSERT
  5
B3
330
1F
100
AcDbEntity
  8
_U+30EC_U+30A4_U+30E4_U+30FC 1
100
AcDbBlockReference
  2
block 6
 10
0.0
 20
0.0
 30
0.0
  0
POLYLINE
  5
BA
330
1F
100
AcDbEntity
  8
_U+30EC_U+30A4_U+30E4_U+30FC 1
 62
   179
420
  2234388
370
    25
100
AcDb2dPolyline
 66
     1
 10
0.0
 20
0.0
 30
0.0
  0
VERTEX
  5
BB
330
BA
100
AcDbEntity
  8
_U+30EC_U+30A4_U+30E4_U+30FC 1
 62
   179
420
  2234388
370
    25
100
AcDbVertex
100
AcDb2dVertex
 10
50.93521842275654
 20
-94.56857442080235
 30
0.0
  0
VERTEX
  5
BC
330
BA
100
AcDbEntity
  8
_U+30EC_U+30A4_U+30E4_U+30FC 1
 62
   179
420
  2234388
370
    25
100
AcDbVertex
100
AcDb2dVertex
 10
51.47369840901877
 20
-94.56857442080235
 30
0.0
  0
SEQEND
  5
BD
330
BA
100
AcDbEntity
  8
_U+30EC_U+30A4_U+30E4_U+30FC 1
 62
   179
420
  2234388
370
    25
  0
POLYLINE
  5
BE
330
1F
100
AcDbEntity
  8
_U+30EC_U+30A4_U+30E4_U+30FC 1
 62
   179
420
  2234388
370
    25
100
AcDb2dPolyline
 66
     1
 10
0.0
 20
0.0
 30
0.0
  0
VERTEX
  5
BF
330
BE
100
AcDbEntity
  8
_U+30EC_U+30A4_U+30E4_U+30FC 1
 62
   179
420
  2234388
370
    25
100
AcDbVertex
100
AcDb2dVertex
 10
71.17221109331791
 20
-83.62350275687179
 30
0.0
  0
VERTEX
  5
C0
330
BE
100
AcDbEntity
  8
_U+30EC_U+30A4_U+30E4_U+30FC 1
 62
   179
420
  2234388
370
    25
100
AcDbVertex
100
AcDb2dVertex
 10
71.17221109331791
 20
-84.18745331228645
 30
0.0
  0
SEQEND
  5
C1
330
BE
100
AcDbEntity
  8
_U+30EC_U+30A4_U+30E4_U+30FC 1
 62
   179
420
  2234388
370
    25
  0
POLYLINE
  5
C2
330
1F
100
AcDbEntity
  8
_U+30EC_U+30A4_U+30E4_U+30FC 1
 62
   179
420
  2234388
370
    25
100
AcDb2dPolyline
 66
     1
 10
0.0
 20
0.0
 30
0.0
  0
VERTEX
  5
C3
330
C2
100
AcDbEntity
  8
_U+30EC_U+30A4_U+30E4_U+30FC 1
 62
   179
420
  2234388
370
    25
100
AcDbVertex
100
AcDb2dVertex
 10
48.84060042063914
 20
-84.30355247892406
 30
0.0
  0
VERTEX
  5
C4
330
C2
100
AcDbEntity
  8
_U+30EC_U+30A4_U+30E4_U+30FC 1
 62
   179
420
  2234388
370
    25
100
AcDbVertex
100
AcDb2dVertex
 10
71.17221109331791
 20
-84.30355247892406
 30
0.0
  0
SEQEND
  5
C5
330
C2
100
AcDbEntity
  8
_U+30EC_U+30A4_U+30E4_U+30FC 1
 62
   179
420
  2234388
370
    25
  0
POLYLINE
  5
C6
330
1F
100
AcDbEntity
  8
_U+30EC_U+30A4_U+30E4_U+30FC 1
 62
   179
420
  2234388
370
    25
100
AcDb2dPolyline
 66
     1
 10
0.0
 20
0.0
 30
0.0
  0
VERTEX
  5
C7
330
C6
100
AcDbEntity
  8
_U+30EC_U+30A4_U+30E4_U+30FC 1
 62
   179
420
  2234388
370
    25
100
AcDbVertex
100
AcDb2dVertex
 10
46.77215852896504
 20
-97.39217247565189
 30
0.0
  0
VERTEX
  5
C8
330
C6
100
AcDbEntity
  8
_U+30EC_U+30A4_U+30E4_U+30FC 1
 62
   179
420
  2234388
370
    25
100
AcDbVertex
100
AcDb2dVertex
 10
51.4368331321815
 20
-97.39217247565189
 30
0.0
  0
SEQEND
  5
C9
330
C6
100
AcDbEntity
  8
_U+30EC_U+30A4_U+30E4_U+30FC 1
 62
   179
420
  2234388
370
    25
  0
POLYLINE
  5
CA
330
1F
100
AcDbEntity
  8
_U+30EC_U+30A4_U+30E4_U+30FC 1
 62
   179
420
  2234388
370
    25
100
AcDb2dPolyline
 66
     1
 10
0.0
 20
0.0
 30
0.0
  0
VERTEX
  5
CB
330
CA
100
AcDbEntity
  8
_U+30EC_U+30A4_U+30E4_U+30FC 1
 62
   179
420
  2234388
370
    25
100
AcDbVertex
100
AcDb2dVertex
 10
48.17226293768985
 20
-83.56836359021904
 30
0.0
  0
VERTEX
  5
CC
330
CA
100
AcDbEntity
  8
_U+30EC_U+30A4_U+30E4_U+30FC 1
 62
   179
420
  2234388
370
    25
100
AcDbVertex
100
AcDb2dVertex
 10
71.17221109331791
 20
-83.56836359021904
 30
0.0
  0
SEQEND
  5
CD
330
CA
100
AcDbEntity
  8
_U+30EC_U+30A4_U+30E4_U+30FC 1
 62
   179
420
  2234388
370
    25
  0
POLYLINE
  5
CE
330
1F
100
AcDbEntity
  8
_U+30EC_U+30A4_U+30E4_U+30FC 1
 62
   179
420
  2234388
370
    25
100
AcDb2dPolyline
 66
     1
 10
0.0
 20
0.0
 30
0.0
  0
VERTEX
  5
CF
330
CE
100
AcDbEntity
  8
_U+30EC_U+30A4_U+30E4_U+30FC 1
 62
   179
420
  2234388
370
    25
100
AcDbVertex
100
AcDb2dVertex
 10
51.59565368368521
 20
-94.56857442080235
 30
0.0
  0
VERTEX
  5
D0
330
CE
100
AcDbEntity
  8
_U+30EC_U+30A4_U+30E4_U+30FC 1
 62
   179
420
  2234388
370
    25
100
AcDbVertex
100
AcDb2dVertex
 10
51.59565368368521
 20
-97.39217247565189
 30
0.0
  0
SEQEND
  5
D1
330
CE
100
AcDbEntity
  8
_U+30EC_U+30A4_U+30E4_U+30FC 1
 62
   179
420
  2234388
370
    25
  0
POLYLINE
  5
D2
330
1F
100
AcDbEntity
  8
_U+30EC_U+30A4_U+30E4_U+30FC 1
 62
   179
420
  2234388
370
    25
100
AcDb2dPolyline
 66
     1
 10
0.0
 20
0.0
 30
0.0
  0
VERTEX
  5
D3
330
D2
100
AcDbEntity
  8
_U+30EC_U+30A4_U+30E4_U+30FC 1
 62
   179
420
  2234388
370
    25
100
AcDbVertex
100
AcDb2dVertex
 10
46.77215852896504
 20
-96.56808358696927
 30
0.0
  0
VERTEX
  5
D4
330
D2
100
AcDbEntity
  8
_U+30EC_U+30A4_U+30E4_U+30FC 1
 62
   179
420
  2234388
370
    25
100
AcDbVertex
100
AcDb2dVertex
 10
47.272044627323
 20
-96.56808358696927
 30
0.0
  0
SEQEND
  5
D5
330
D2
100
AcDbEntity
  8
_U+30EC_U+30A4_U+30E4_U+30FC 1
 62
   179
420
  2234388
370
    25
  0
POLYLINE
  5
D6
330
1F
100
AcDbEntity
  8
_U+30EC_U+30A4_U+30E4_U+30FC 1
 62
   179
420
  2234388
370
    25
100
AcDb2dPolyline
 66
     1
 10
0.0
 20
0.0
 30
0.0
  0
VERTEX
  5
D7
330
D6
100
AcDbEntity
  8
_U+30EC_U+30A4_U+30E4_U+30FC 1
 62
   179
420
  2234388
370
    25
100
AcDbVertex
100
AcDb2dVertex
 10
50.77191759358936
 20
-94.56857442080235
 30
0.0
  0
VERTEX
  5
D8
330
D6
100
AcDbEntity
  8
_U+30EC_U+30A4_U+30E4_U+30FC 1
 62
   179
420
  2234388
370
    25
100
AcDbVertex
100
AcDb2dVertex
 10
50.77191759358936
 20
-96.59013219807487
 30
0.0
  0
SEQEND
  5
D9
330
D6
100
AcDbEntity
  8
_U+30EC_U+30A4_U+30E4_U+30FC 1
 62
   179
420
  2234388
370
    25
  0
POLYLINE
  5
DA
330
1F
100
AcDbEntity
  8
_U+30EC_U+30A4_U+30E4_U+30FC 1
 62
   179
420
  2234388
370
    25
100
AcDb2dPolyline
 66
     1
 10
0.0
 20
0.0
 30
0.0
  0
VERTEX
  5
DB
330
DA
100
AcDbEntity
  8
_U+30EC_U+30A4_U+30E4_U+30FC 1
 62
   179
420
  2234388
370
    25
100
AcDbVertex
100
AcDb2dVertex
 10
46.77215852896504
 20
-96.52606775364647
 30
0.0
  0
VERTEX
  5
DC
330
DA
100
AcDbEntity
  8
_U+30EC_U+30A4_U+30E4_U+30FC 1
 62
   179
420
  2234388
370
    25
100
AcDbVertex
100
AcDb2dVertex
 10
46.77215852896504
 20
-97.3204880312254
 30
0.0
  0
SEQEND
  5
DD
330
DA
100
AcDbEntity
  8
_U+30EC_U+30A4_U+30E4_U+30FC 1
 62
   179
420
  2234388
370
    25
  0
POLYLINE
  5
DE
330
1F
100
AcDbEntity
  8
_U+30EC_U+30A4_U+30E4_U+30FC 1
 62
   179
420
  2234388
370
    25
100
AcDb2dPolyline
 66
     1
 10
0.0
 20
0.0
 30
0.0
  0
VERTEX
  5
DF
330
DE
100
AcDbEntity
  8
_U+30EC_U+30A4_U+30E4_U+30FC 1
 62
   179
420
  2234388
370
    25
100
AcDbVertex
100
AcDb2dVertex
 10
48.00963238628335
 20
-96.56808358696927
 30
0.0
  0
VERTEX
  5
E0
330
DE
100
AcDbEntity
  8
_U+30EC_U+30A4_U+30E4_U+30FC 1
 62
   179
420
  2234388
370
    25
100
AcDbVertex
100
AcDb2dVertex
 10
50.77191759358936
 20
-96.56808358696927
 30
0.0
  0
SEQEND
  5
E1
330
DE
100
AcDbEntity
  8
_U+30EC_U+30A4_U+30E4_U+30FC 1
 62
   179
420
  2234388
370
    25
  0
POLYLINE
  5
E2
330
1F
100
AcDbEntity
  8
_U+30EC_U+30A4_U+30E4_U+30FC 1
 62
   179
420
  2234388
370
    25
100
AcDb2dPolyline
 66
     1
 10
0.0
 20
0.0
 30
0.0
  0
VERTEX
  5
E3
330
E2
100
AcDbEntity
  8
_U+30EC_U+30A4_U+30E4_U+30FC 1
 62
   179
420
  2234388
370
    25
100
AcDbVertex
100
AcDb2dVertex
 10
48.17226293768985
 20
-83.56836359021904
 30
0.0
  0
VERTEX
  5
E4
330
E2
100
AcDbEntity
  8
_U+30EC_U+30A4_U+30E4_U+30FC 1
 62
   179
420
  2234388
370
    25
100
AcDbVertex
100
AcDb2dVertex
 10
47.272044627323
 20
-96.56808358696927
 30
0.0
  0
SEQEND
  5
E5
330
E2
100
AcDbEntity
  8
_U+30EC_U+30A4_U+30E4_U+30FC 1
 62
   179
420
  2234388
370
    25
  0
POLYLINE
  5
E6
330
1F
100
AcDbEntity
  8
_U+30EC_U+30A4_U+30E4_U+30FC 1
 62
   179
420
  2234388
370
    25
100
AcDb2dPolyline
 66
     1
 10
0.0
 20
0.0
 30
0.0
  0
VERTEX
  5
E7
330
E6
100
AcDbEntity
  8
_U+30EC_U+30A4_U+30E4_U+30FC 1
 62
   179
420
  2234388
370
    25
100
AcDbVertex
100
AcDb2dVertex
 10
48.84060042063914
 20
-84.30355247892406
 30
0.0
  0
VERTEX
  5
E8
330
E6
100
AcDbEntity
  8
_U+30EC_U+30A4_U+30E4_U+30FC 1
 62
   179
420
  2234388
370
    25
100
AcDbVertex
100
AcDb2dVertex
 10
48.00963238628335
 20
-96.56808358696927
 30
0.0
  0
SEQEND
  5
E9
330
E6
100
AcDbEntity
  8
_U+30EC_U+30A4_U+30E4_U+30FC 1
 62
   179
420
  2234388
370
    25
  0
ENDSEC
  0
SECTION
  2
OBJECTS
  0
DICTIONARY
  5
C
330
0
100
AcDbDictionary
281
     1
  3
ACAD_GROUP
350
D
  3
ACAD_LAYOUT
350
1A
  3
ACAD_MATERIAL
350
3B
  3
ACAD_MLEADERSTYLE
350
EB
  3
ACAD_MLINESTYLE
350
17
  3
ACAD_PLOTSETTINGS
350
19
  3
ACAD_PLOTSTYLENAME
350
E
  3
ACAD_TABLESTYLE
350
EA
  3
ACAD_VISUALSTYLE
350
2A
  0
SUN
  5
3F
330
29
100
AcDbSun
 90
        1
290
     0
 63
     7
421
 16777215
 40
1.0
291
     1
 91
  2455826
 92
 54000000
292
     0
 70
     2
 71
   256
280
     1
  0
DICTIONARY
  5
D
102
{ACAD_REACTORS
330
C
102
}
330
C
100
AcDbDictionary
281
     1
  0
DICTIONARY
  5
1A
102
{ACAD_REACTORS
330
C
102
}
330
C
100
AcDbDictionary
281
     1
  3
Layout1
350
1E
  3
Layout2
350
26
  3
Model
350
22
  0
DICTIONARY
  5
3B
102
{ACAD_REACTORS
330
C
102
}
330
C
100
AcDbDictionary
281
     1
  3
ByBlock
350
3D
  3
ByLayer
350
3C
  3
Global
350
3E
  0
DICTIONARY
  5
EB
102
{ACAD_REACTORS
330
C
102
}
330
C
100
AcDbDictionary
281
     1
  0
DICTIONARY
  5
17
102
{ACAD_REACTORS
330
C
102
}
330
C
100
AcDbDictionary
281
     1
  3
Standard
350
18
  0
DICTIONARY
  5
19
102
{ACAD_REACTORS
330
C
102
}
330
C
100
AcDbDictionary
281
     1
  0
ACDBDICTIONARYWDFLT
  5
E
102
{ACAD_REACTORS
330
C
102
}
330
C
100
AcDbDictionary
281
     1
  3
Normal
350
F
100
AcDbDictionaryWithDefault
340
F
  0
DICTIONARY
  5
EA
102
{ACAD_REACTORS
330
C
102
}
330
C
100
AcDbDictionary
281
     1
  0
DICTIONARY
  5
2A
102
{ACAD_REACTORS
330
C
102
}
330
C
100
AcDbDictionary
281
     1
  3
2dWireframe
350
2F
  3
3D Hidden
350
31
  3
3dWireframe
350
30
  3
Basic
350
32
  3
Brighten
350
36
  3
ColorChange
350
3A
  3
Conceptual
350
34
  3
Dim
350
35
  3
Facepattern
350
39
  3
Flat
350
2B
  3
FlatWithEdges
350
2C
  3
Gouraud
350
2D
  3
GouraudWithEdges
350
2E
  3
Linepattern
350
38
  3
Realistic
350
33
  3
Thicken
350
37
  0
LAYOUT
  5
1E
102
{ACAD_REACTORS
330
1A
102
}
330
1A
100
AcDbPlotSettings
  1

  2
none_device
  4

  6

 40
0.0
 41
0.0
 42
0.0
 43
0.0
 44
0.0
 45
0.0
 46
0.0
 47
0.0
 48
0.0
 49
0.0
140
0.0
141
0.0
142
1.0
143
1.0
 70
   688
 72
     0
 73
     0
 74
     5
  7

 75
    16
 76
     0
 77
     2
 78
   300
147
1.0
148
0.0
149
0.0
100
AcDbLayout
  1
Layout1
 70
     1
 71
     1
 10
0.0
 20
0.0
 11
12.0
 21
9.0
 12
0.0
 22
0.0
 32
0.0
 14
1.000000000000000E+20
 24
1.000000000000000E+20
 34
1.000000000000000E+20
 15
-1.000000000000000E+20
 25
-1.000000000000000E+20
 35
-1.000000000000000E+20
146
0.0
 13
0.0
 23
0.0
 33
0.0
 16
1.0
 26
0.0
 36
0.0
 17
0.0
 27
1.0
 37
0.0
 76
     0
330
1B
  0
LAYOUT
  5
26
102
{ACAD_REACTORS
330
1A
102
}
330
1A
100
AcDbPlotSettings
  1

  2
none_device
  4

  6

 40
0.0
 41
0.0
 42
0.0
 43
0.0
 44
0.0
 45
0.0
 46
0.0
 47
0.0
 48
0.0
 49
0.0
140
0.0
141
0.0
142
1.0
143
1.0
 70
   688
 72
     0
 73
     0
 74
     5
  7

 75
    16
 76
     0
 77
     2
 78
   300
147
1.0
148
0.0
149
0.0
100
AcDbLayout
  1
Layout2
 70
     1
 71
     2
 10
0.0
 20
0.0
 11
0.0
 21
0.0
 12
0.0
 22
0.0
 32
0.0
 14
0.0
 24
0.0
 34
0.0
 15
0.0
 25
0.0
 35
0.0
146
0.0
 13
0.0
 23
0.0
 33
0.0
 16
1.0
 26
0.0
 36
0.0
 17
0.0
 27
1.0
 37
0.0
 76
     0
330
23
  0
LAYOUT
  5
22
102
{ACAD_REACTORS
330
1A
102
}
330
1A
100
AcDbPlotSettings
  1

  2
none_device
  4

  6

 40
0.0
 41
0.0
 42
0.0
 43
0.0
 44
0.0
 45
0.0
 46
0.0
 47
0.0
 48
0.0
 49
0.0
140
0.0
141
0.0
142
1.0
143
1.0
 70
  1712
 72
     0
 73
     0
 74
     0
  7

 75
     0
 76
     0
 77
     2
 78
   300
147
1.0
148
0.0
149
0.0
100
AcDbLayout
  1
Model
 70
     1
 71
     0
 10
0.0
 20
0.0
 11
12.0
 21
9.0
 12
0.0
 22
0.0
 32
0.0
 14
1.000000000000000E+20
 24
1.000000000000000E+20
 34
1.000000000000000E+20
 15
-1.000000000000000E+20
 25
-1.000000000000000E+20
 35
-1.000000000000000E+20
146
0.0
 13
0.0
 23
0.0
 33
0.0
 16
1.0
 26
0.0
 36
0.0
 17
0.0
 27
1.0
 37
0.0
 76
     0
330
1F
331
29
  0
MATERIAL
  5
3D
102
{ACAD_REACTORS
330
3B
102
}
330
3B
100
AcDbMaterial
  1
ByBlock
 72
     1
 94
      127
  0
MATERIAL
  5
3C
102
{ACAD_REACTORS
330
3B
102
}
330
3B
100
AcDbMaterial
  1
ByLayer
 72
     1
 94
      127
  0
MATERIAL
  5
3E
102
{ACAD_REACTORS
330
3B
102
}
330
3B
100
AcDbMaterial
  1
Global
 72
     1
 94
      127
  0
MLINESTYLE
  5
18
102
{ACAD_REACTORS
330
17
102
}
330
17
100
AcDbMlineStyle
  2
Standard
 70
     0
  3

 62
   256
 51
90.0
 52
90.0
 71
     2
 49
0.5
 62
   256
  6
BYLAYER
 49
-0.5
 62
   256
  6
BYLAYER
  0
ACDBPLACEHOLDER
  5
F
102
{ACAD_REACTORS
330
E
102
}
330
E
  0
VISUALSTYLE
  5
2F
102
{ACAD_REACTORS
330
2A
102
}
330
2A
100
AcDbVisualStyle
  2
2dWireframe
 70
     4
177
     2
291
     0
 71
     0
176
     1
 72
     2
176
     1
 73
     0
176
     1
 90
        0
176
     1
 40
-0.6
176
     1
 41
-30.0
176
     1
 62
     5
 63
     7
421
 16777215
176
     1
 74
     1
176
     1
 91
        4
176
     1
 64
     7
176
     1
 65
   257
176
     1
 75
     1
176
     1
175
     1
176
     1
 42
1.0
176
     1
 92
        0
176
     1
 66
   257
176
     1
 43
1.0
176
     1
 76
     1
176
     1
 77
     6
176
     1
 78
     2
176
     1
 67
     7
176
     1
 79
     5
176
     1
170
     0
176
     1
171
     0
176
     1
290
     0
176
     1
 93
        1
176
     1
 44
0.0
176
     1
173
     0
176
     1
  0
VISUALSTYLE
  5
31
102
{ACAD_REACTORS
330
2A
102
}
330
2A
100
AcDbVisualStyle
  2
3D Hidden
 70
     6
177
     2
291
     0
 71
     1
176
     1
 72
     2
176
     1
 73
     2
176
     1
 90
        0
176
     1
 40
-0.6
176
     1
 41
-30.0
176
     1
 62
     5
 63
     7
421
 16777215
176
     1
 74
     2
176
     1
 91
        2
176
     1
 64
     7
176
     1
 65
   257
176
     1
 75
     2
176
     1
175
     1
176
     1
 42
40.0
176
     1
 92
        0
176
     1
 66
   257
176
     1
 43
1.0
176
     1
 76
     1
176
     1
 77
     6
176
     1
 78
     2
176
     1
 67
     7
176
     1
 79
     3
176
     1
170
     0
176
     1
171
     0
176
     1
290
     0
176
     1
 93
        1
176
     1
 44
0.0
176
     1
173
     0
176
     1
  0
VISUALSTYLE
  5
30
102
{ACAD_REACTORS
330
2A
102
}
330
2A
100
AcDbVisualStyle
  2
3dWireframe
 70
     5
177
     2
291
     0
 71
     0
176
     1
 72
     2
176
     1
 73
     0
176
     1
 90
        0
176
     1
 40
-0.6
176
     1
 41
-30.0
176
     1
 62
     5
 63
     7
421
 16777215
176
     1
 74
     1
176
     1
 91
        4
176
     1
 64
     7
176
     1
 65
   257
176
     1
 75
     1
176
     1
175
     1
176
     1
 42
1.0
176
     1
 92
        0
176
     1
 66
   257
176
     1
 43
1.0
176
     1
 76
     1
176
     1
 77
     6
176
     1
 78
     2
176
     1
 67
     7
176
     1
 79
     5
176
     1
170
     0
176
     1
171
     0
176
     1
290
     0
176
     1
 93
        1
176
     1
 44
0.0
176
     1
173
     0
176
     1
  0
VISUALSTYLE
  5
32
102
{ACAD_REACTORS
330
2A
102
}
330
2A
100
AcDbVisualStyle
  2
Basic
 70
     7
177
     2
291
     1
 71
     1
176
     1
 72
     0
176
     1
 73
     1
176
     1
 90
        0
176
     1
 40
-0.6
176
     1
 41
-30.0
176
     1
 62
     5
 63
     7
421
 16777215
176
     1
 74
     0
176
     1
 91
        4
176
     1
 64
     7
176
     1
 65
   257
176
     1
 75
     1
176
     1
175
     1
176
     1
 42
1.0
176
     1
 92
        8
176
     1
 66
     7
176
     1
 43
1.0
176
     1
 76
     1
176
     1
 77
     6
176
     1
 78
     2
176
     1
 67
     7
176
     1
 79
     5
176
     1
170
     0
176
     1
171
     0
176
     1
290
     0
176
     1
 93
        1
176
     1
 44
0.0
176
     1
173
     0
176
     1
  0
VISUALSTYLE
  5
36
102
{ACAD_REACTORS
330
2A
102
}
330
2A
100
AcDbVisualStyle
  2
Brighten
 70
    12
177
     2
291
     1
 71
     2
176
     1
 72
     2
176
     1
 73
     0
176
     1
 90
        0
176
     1
 40
-0.6
176
     1
 41
-30.0
176
     1
 62
     5
 63
     7
421
 16777215
176
     1
 74
     1
176
     1
 91
        4
176
     1
 64
     7
176
     1
 65
   257
176
     1
 75
     1
176
     1
175
     1
176
     1
 42
1.0
176
     1
 92
        8
176
     1
 66
     7
176
     1
 43
1.0
176
     1
 76
     1
176
     1
 77
     6
176
     1
 78
     2
176
     1
 67
     7
176
     1
 79
     5
176
     1
170
     0
176
     1
171
     0
176
     1
290
     0
176
     1
 93
        1
176
     1
 44
50.0
176
     1
173
     0
176
     1
  0
VISUALSTYLE
  5
3A
102
{ACAD_REACTORS
330
2A
102
}
330
2A
100
AcDbVisualStyle
  2
ColorChange
 70
    16
177
     2
291
     1
 71
     2
176
     1
 72
     2
176
     1
 73
     3
176
     1
 90
        0
176
     1
 40
-0.6
176
     1
 41
-30.0
176
     1
 62
     5
 63
     8
421
  8421504
176
     1
 74
     1
176
     1
 91
        4
176
     1
 64
     7
176
     1
 65
   257
176
     1
 75
     1
176
     1
175
     1
176
     1
 42
1.0
176
     1
 92
        8
176
     1
 66
     8
424
  8421504
176
     1
 43
1.0
176
     1
 76
     1
176
     1
 77
     6
176
     1
 78
     2
176
     1
 67
     7
176
     1
 79
     5
176
     1
170
     0
176
     1
171
     0
176
     1
290
     0
176
     1
 93
        1
176
     1
 44
0.0
176
     1
173
     0
176
     1
  0
VISUALSTYLE
  5
34
102
{ACAD_REACTORS
330
2A
102
}
330
2A
100
AcDbVisualStyle
  2
Conceptual
 70
     9
177
     2
291
     0
 71
     3
176
     1
 72
     2
176
     1
 73
     0
176
     1
 90
        0
176
     1
 40
-0.6
176
     1
 41
-30.0
176
     1
 62
     5
 63
     7
421
 16777215
176
     1
 74
     2
176
     1
 91
        2
176
     1
 64
     7
176
     1
 65
   257
176
     1
 75
     1
176
     1
175
     1
176
     1
 42
40.0
176
     1
 92
        8
176
     1
 66
     7
176
     1
 43
1.0
176
     1
 76
     1
176
     1
 77
     6
176
     1
 78
     2
176
     1
 67
     7
176
     1
 79
     3
176
     1
170
     0
176
     1
171
     0
176
     1
290
     0
176
     1
 93
        1
176
     1
 44
0.0
176
     1
173
     0
176
     1
  0
VISUALSTYLE
  5
35
102
{ACAD_REACTORS
330
2A
102
}
330
2A
100
AcDbVisualStyle
  2
Dim
 70
    11
177
     2
291
     1
 71
     2
176
     1
 72
     2
176
     1
 73
     0
176
     1
 90
        0
176
     1
 40
-0.6
176
     1
 41
-30.0
176
     1
 62
     5
 63
     7
421
 16777215
176
     1
 74
     1
176
     1
 91
        4
176
     1
 64
     7
176
     1
 65
   257
176
     1
 75
     1
176
     1
175
     1
176
     1
 42
1.0
176
     1
 92
        8
176
     1
 66
     7
176
     1
 43
1.0
176
     1
 76
     1
176
     1
 77
     6
176
     1
 78
     2
176
     1
 67
     7
176
     1
 79
     5
176
     1
170
     0
176
     1
171
     0
176
     1
290
     0
176
     1
 93
        1
176
     1
 44
-50.0
176
     1
173
     0
176
     1
  0
VISUALSTYLE
  5
39
102
{ACAD_REACTORS
330
2A
102
}
330
2A
100
AcDbVisualStyle
  2
Facepattern
 70
    15
177
     2
291
     1
 71
     2
176
     1
 72
     2
176
     1
 73
     0
176
     1
 90
        0
176
     1
 40
-0.6
176
     1
 41
-30.0
176
     1
 62
     5
 63
     7
421
 16777215
176
     1
 74
     1
176
     1
 91
        4
176
     1
 64
     7
176
     1
 65
   257
176
     1
 75
     1
176
     1
175
     1
176
     1
 42
1.0
176
     1
 92
        8
176
     1
 66
     7
176
     1
 43
1.0
176
     1
 76
     1
176
     1
 77
     6
176
     1
 78
     2
176
     1
 67
     7
176
     1
 79
     5
176
     1
170
     0
176
     1
171
     0
176
     1
290
     0
176
     1
 93
        1
176
     1
 44
0.0
176
     1
173
     0
176
     1
  0
VISUALSTYLE
  5
2B
102
{ACAD_REACTORS
330
2A
102
}
330
2A
100
AcDbVisualStyle
  2
Flat
 70
     0
177
     2
291
     1
 71
     2
176
     1
 72
     1
176
     1
 73
     1
176
     1
 90
        2
176
     1
 40
-0.6
176
     1
 41
30.0
176
     1
 62
     5
 63
     7
421
 16777215
176
     1
 74
     0
176
     1
 91
        4
176
     1
 64
     7
176
     1
 65
   257
176
     1
 75
     1
176
     1
175
     1
176
     1
 42
1.0
176
     1
 92
        8
176
     1
 66
     7
176
     1
 43
1.0
176
     1
 76
     1
176
     1
 77
     6
176
     1
 78
     2
176
     1
 67
     7
176
     1
 79
     5
176
     1
170
     0
176
     1
171
     0
176
     1
290
     0
176
     1
 93
       13
176
     1
 44
0.0
176
     1
173
     0
176
     1
  0
VISUALSTYLE
  5
2C
102
{ACAD_REACTORS
330
2A
102
}
330
2A
100
AcDbVisualStyle
  2
FlatWithEdges
 70
     1
177
     2
291
     1
 71
     2
176
     1
 72
     1
176
     1
 73
     1
176
     1
 90
        2
176
     1
 40
-0.6
176
     1
 41
30.0
176
     1
 62
     5
 63
     7
421
 16777215
176
     1
 74
     1
176
     1
 91
        4
176
     1
 64
     7
176
     1
 65
   257
176
     1
 75
     1
176
     1
175
     1
176
     1
 42
1.0
176
     1
 92
        0
176
     1
 66
   257
176
     1
 43
1.0
176
     1
 76
     1
176
     1
 77
     6
176
     1
 78
     2
176
     1
 67
     7
176
     1
 79
     5
176
     1
170
     0
176
     1
171
     0
176
     1
290
     0
176
     1
 93
       13
176
     1
 44
0.0
176
     1
173
     0
176
     1
  0
VISUALSTYLE
  5
2D
102
{ACAD_REACTORS
330
2A
102
}
330
2A
100
AcDbVisualStyle
  2
Gouraud
 70
     2
177
     2
291
     1
 71
     2
176
     1
 72
     2
176
     1
 73
     1
176
     1
 90
        2
176
     1
 40
-0.6
176
     1
 41
30.0
176
     1
 62
     5
 63
     7
421
 16777215
176
     1
 74
     0
176
     1
 91
        4
176
     1
 64
     7
176
     1
 65
   257
176
     1
 75
     1
176
     1
175
     1
176
     1
 42
1.0
176
     1
 92
        0
176
     1
 66
     7
176
     1
 43
1.0
176
     1
 76
     1
176
     1
 77
     6
176
     1
 78
     2
176
     1
 67
     7
176
     1
 79
     5
176
     1
170
     0
176
     1
171
     0
176
     1
290
     0
176
     1
 93
       13
176
     1
 44
0.0
176
     1
173
     0
176
     1
  0
VISUALSTYLE
  5
2E
102
{ACAD_REACTORS
330
2A
102
}
330
2A
100
AcDbVisualStyle
  2
GouraudWithEdges
 70
     3
177
     2
291
     1
 71
     2
176
     1
 72
     2
176
     1
 73
     1
176
     1
 90
        2
176
     1
 40
-0.6
176
     1
 41
30.0
176
     1
 62
     5
 63
     7
421
 16777215
176
     1
 74
     1
176
     1
 91
        4
176
     1
 64
     7
176
     1
 65
   257
176
     1
 75
     1
176
     1
175
     1
176
     1
 42
1.0
176
     1
 92
        0
176
     1
 66
   257
176
     1
 43
1.0
176
     1
 76
     1
176
     1
 77
     6
176
     1
 78
     2
176
     1
 67
     7
176
     1
 79
     5
176
     1
170
     0
176
     1
171
     0
176
     1
290
     0
176
     1
 93
       13
176
     1
 44
0.0
176
     1
173
     0
176
     1
  0
VISUALSTYLE
  5
38
102
{ACAD_REACTORS
330
2A
102
}
330
2A
100
AcDbVisualStyle
  2
Linepattern
 70
    14
177
     2
291
     1
 71
     2
176
     1
 72
     2
176
     1
 73
     0
176
     1
 90
        0
176
     1
 40
-0.6
176
     1
 41
-30.0
176
     1
 62
     5
 63
     7
421
 16777215
176
     1
 74
     1
176
     1
 91
        4
176
     1
 64
     7
176
     1
 65
   257
176
     1
 75
     7
176
     1
175
     7
176
     1
 42
1.0
176
     1
 92
        8
176
     1
 66
     7
176
     1
 43
1.0
176
     1
 76
     1
176
     1
 77
     6
176
     1
 78
     2
176
     1
 67
     7
176
     1
 79
     5
176
     1
170
     0
176
     1
171
     0
176
     1
290
     0
176
     1
 93
        1
176
     1
 44
0.0
176
     1
173
     0
176
     1
  0
VISUALSTYLE
  5
33
102
{ACAD_REACTORS
330
2A
102
}
330
2A
100
AcDbVisualStyle
  2
Realistic
 70
     8
177
     2
291
     0
 71
     2
176
     1
 72
     2
176
     1
 73
     0
176
     1
 90
        0
176
     1
 40
-0.6
176
     1
 41
-30.0
176
     1
 62
     5
 63
     7
421
 16777215
176
     1
 74
     1
176
     1
 91
        0
176
     1
 64
     7
176
     1
 65
   257
176
     1
 75
     1
176
     1
175
     1
176
     1
 42
1.0
176
     1
 92
        8
176
     1
 66
     8
424
  7895160
176
     1
 43
1.0
176
     1
 76
     1
176
     1
 77
     6
176
     1
 78
     2
176
     1
 67
     7
176
     1
 79
     5
176
     1
170
     0
176
     1
171
     0
176
     1
290
     0
176
     1
 93
       13
176
     1
 44
0.0
176
     1
173
     0
176
     1
  0
VISUALSTYLE
  5
37
102
{ACAD_REACTORS
330
2A
102
}
330
2A
100
AcDbVisualStyle
  2
Thicken
 70
    13
177
     2
291
     1
 71
     2
176
     1
 72
     2
176
     1
 73
     0
176
     1
 90
        0
176
     1
 40
-0.6
176
     1
 41
-30.0
176
     1
 62
     5
 63
     7
421
 16777215
176
     1
 74
     1
176
     1
 91
        4
176
     1
 64
     7
176
     1
 65
   257
176
     1
 75
     1
176
     1
175
     1
176
     1
 42
1.0
176
     1
 92
       12
176
     1
 66
     7
176
     1
 43
1.0
176
     1
 76
     1
176
     1
 77
     6
176
     1
 78
     2
176
     1
 67
     7
176
     1
 79
     5
176
     1
170
     0
176
     1
171
     0
176
     1
290
     0
176
     1
 93
        1
176
     1
 44
0.0
176
     1
173
     0
176
     1
  0
ENDSEC
  0
EOF
