  0
SECTION
  2
HEADER
  9
$ACADVER
  1
AC1024
  9
$ACADMAINTVER
 70
     6
  9
$DWGCODEPAGE
  3
UNDEFINED
  9
$INSBASE
 10
0.0
 20
0.0
 30
0.0
  9
$EXTMIN
 10
1.000000000000000E+20
 20
1.000000000000000E+20
 30
1.000000000000000E+20
  9
$EXTMAX
 10
-1.000000000000000E+20
 20
-1.000000000000000E+20
 30
-1.000000000000000E+20
  9
$LIMMIN
 10
0.0
 20
0.0
  9
$LIMMAX
 10
12.0
 20
9.0
  9
$ORTHOMODE
 70
     0
  9
$REGENMODE
 70
     1
  9
$FILLMODE
 70
     1
  9
$QTEXTMODE
 70
     0
  9
$MIRRTEXT
 70
     1
  9
$LTSCALE
 40
1.0
  9
$ATTMODE
 70
     1
  9
$TEXTSIZE
 40
0.2
  9
$TRACEWID
 40
0.05
  9
$TEXTSTYLE
  7
Standard
  9
$CLAYER
  8
0
  9
$CELTYPE
  6
ByLayer
  9
$CECOLOR
 62
   256
  9
$CELTSCALE
 40
1.0
  9
$DISPSILH
 70
     0
  9
$DIMSCALE
 40
1.0
  9
$DIMASZ
 40
0.18
  9
$DIMEXO
 40
0.0625
  9
$DIMDLI
 40
0.38
  9
$DIMRND
 40
0.0
  9
$DIMDLE
 40
0.0
  9
$DIMEXE
 40
0.18
  9
$DIMTP
 40
0.0
  9
$DIMTM
 40
0.0
  9
$DIMTXT
 40
0.18
  9
$DIMCEN
 40
0.09
  9
$DIMTSZ
 40
0.0
  9
$DIMTOL
 70
     0
  9
$DIMLIM
 70
     0
  9
$DIMTIH
 70
     1
  9
$DIMTOH
 70
     1
  9
$DIMSE1
 70
     0
  9
$DIMSE2
 70
     0
  9
$DIMTAD
 70
     0
  9
$DIMZIN
 70
     0
  9
$DIMBLK
  1

  9
$DIMASO
 70
     1
  9
$DIMSHO
 70
     1
  9
$DIMPOST
  1

  9
$DIMAPOST
  1

  9
$DIMALT
 70
     0
  9
$DIMALTD
 70
     2
  9
$DIMALTF
 40
25.4
  9
$DIMLFAC
 40
1.0
  9
$DIMTOFL
 70
     0
  9
$DIMTVP
 40
0.0
  9
$DIMTIX
 70
     0
  9
$DIMSOXD
 70
     0
  9
$DIMSAH
 70
     0
  9
$DIMBLK1
  1

  9
$DIMBLK2
  1

  9
$DIMSTYLE
  2
Standard
  9
$DIMCLRD
 70
     0
  9
$DIMCLRE
 70
     0
  9
$DIMCLRT
 70
     0
  9
$DIMTFAC
 40
1.0
  9
$DIMGAP
 40
0.09
  9
$DIMJUST
 70
     0
  9
$DIMSD1
 70
     0
  9
$DIMSD2
 70
     0
  9
$DIMTOLJ
 70
     1
  9
$DIMTZIN
 70
     0
  9
$DIMALTZ
 70
     0
  9
$DIMALTTZ
 70
     0
  9
$DIMUPT
 70
     0
  9
$DIMDEC
 70
     4
  9
$DIMTDEC
 70
     4
  9
$DIMALTU
 70
     2
  9
$DIMALTTD
 70
     2
  9
$DIMTXSTY
  7
Standard
  9
$DIMAUNIT
 70
     0
  9
$DIMADEC
 70
     0
  9
$DIMALTRND
 40
0.0
  9
$DIMAZIN
 70
     0
  9
$DIMDSEP
 70
    46
  9
$DIMATFIT
 70
     3
  9
$DIMFRAC
 70
     0
  9
$DIMLDRBLK
  1

  9
$DIMLUNIT
 70
     2
  9
$DIMLWD
 70
    -2
  9
$DIMLWE
 70
    -2
  9
$DIMTMOVE
 70
     0
  9
$DIMFXL
 40
1.0
  9
$DIMFXLON
 70
     0
  9
$DIMJOGANG
 40
0.7853981633974483
  9
$DIMTFILL
 70
     0
  9
$DIMTFILLCLR
 70
     0
  9
$DIMARCSYM
 70
     0
  9
$DIMLTYPE
  6

  9
$DIMLTEX1
  6

  9
$DIMLTEX2
  6

  9
$DIMTXTDIRECTION
 70
     0
  9
$LUNITS
 70
     2
  9
$LUPREC
 70
     4
  9
$SKETCHINC
 40
0.1
  9
$FILLETRAD
 40
0.5
  9
$AUNITS
 70
     0
  9
$AUPREC
 70
     0
  9
$MENU
  1
.
  9
$ELEVATION
 40
0.0
  9
$PELEVATION
 40
0.0
  9
$THICKNESS
 40
0.0
  9
$LIMCHECK
 70
     0
  9
$CHAMFERA
 40
0.5
  9
$CHAMFERB
 40
0.5
  9
$CHAMFERC
 40
1.0
  9
$CHAMFERD
 40
0.0
  9
$SKPOLY
 70
     0
  9
$TDCREATE
 40
2458263.574548599
  9
$TDUCREATE
 40
2458263.199548611
  9
$TDUPDATE
 40
2458263.574548599
  9
$TDUUPDATE
 40
2458263.199548611
  9
$TDINDWG
 40
0.0000000116
  9
$TDUSRTIMER
 40
0.0000000116
  9
$USRTIMER
 70
     1
  9
$ANGBASE
 50
0.0
  9
$ANGDIR
 70
     0
  9
$PDMODE
 70
     0
  9
$PDSIZE
 40
0.0
  9
$PLINEWID
 40
0.0
  9
$SPLFRAME
 70
     0
  9
$SPLINETYPE
 70
     6
  9
$SPLINESEGS
 70
     8
  9
$HANDSEED
  5
122
  9
$SURFTAB1
 70
     6
  9
$SURFTAB2
 70
     6
  9
$SURFTYPE
 70
     6
  9
$SURFU
 70
     6
  9
$SURFV
 70
     6
  9
$UCSBASE
  2

  9
$UCSNAME
  2

  9
$UCSORG
 10
0.0
 20
0.0
 30
0.0
  9
$UCSXDIR
 10
1.0
 20
0.0
 30
0.0
  9
$UCSYDIR
 10
0.0
 20
1.0
 30
0.0
  9
$UCSORTHOREF
  2

  9
$UCSORTHOVIEW
 70
     0
  9
$UCSORGTOP
 10
0.0
 20
0.0
 30
0.0
  9
$UCSORGBOTTOM
 10
0.0
 20
0.0
 30
0.0
  9
$UCSORGLEFT
 10
0.0
 20
0.0
 30
0.0
  9
$UCSORGRIGHT
 10
0.0
 20
0.0
 30
0.0
  9
$UCSORGFRONT
 10
0.0
 20
0.0
 30
0.0
  9
$UCSORGBACK
 10
0.0
 20
0.0
 30
0.0
  9
$PUCSBASE
  2

  9
$PUCSNAME
  2

  9
$PUCSORG
 10
0.0
 20
0.0
 30
0.0
  9
$PUCSXDIR
 10
1.0
 20
0.0
 30
0.0
  9
$PUCSYDIR
 10
0.0
 20
1.0
 30
0.0
  9
$PUCSORTHOREF
  2

  9
$PUCSORTHOVIEW
 70
     0
  9
$PUCSORGTOP
 10
0.0
 20
0.0
 30
0.0
  9
$PUCSORGBOTTOM
 10
0.0
 20
0.0
 30
0.0
  9
$PUCSORGLEFT
 10
0.0
 20
0.0
 30
0.0
  9
$PUCSORGRIGHT
 10
0.0
 20
0.0
 30
0.0
  9
$PUCSORGFRONT
 10
0.0
 20
0.0
 30
0.0
  9
$PUCSORGBACK
 10
0.0
 20
0.0
 30
0.0
  9
$USERI1
 70
     0
  9
$USERI2
 70
     0
  9
$USERI3
 70
     0
  9
$USERI4
 70
     0
  9
$USERI5
 70
     0
  9
$USERR1
 40
0.0
  9
$USERR2
 40
0.0
  9
$USERR3
 40
0.0
  9
$USERR4
 40
0.0
  9
$USERR5
 40
0.0
  9
$WORLDVIEW
 70
     1
  9
$SHADEDGE
 70
     3
  9
$SHADEDIF
 70
    70
  9
$TILEMODE
 70
     1
  9
$MAXACTVP
 70
    64
  9
$PINSBASE
 10
0.0
 20
0.0
 30
0.0
  9
$PLIMCHECK
 70
     0
  9
$PEXTMIN
 10
1.000000000000000E+20
 20
1.000000000000000E+20
 30
1.000000000000000E+20
  9
$PEXTMAX
 10
-1.000000000000000E+20
 20
-1.000000000000000E+20
 30
-1.000000000000000E+20
  9
$PLIMMIN
 10
0.0
 20
0.0
  9
$PLIMMAX
 10
12.0
 20
9.0
  9
$UNITMODE
 70
     0
  9
$VISRETAIN
 70
     1
  9
$PLINEGEN
 70
     0
  9
$PSLTSCALE
 70
     1
  9
$TREEDEPTH
 70
  3020
  9
$CMLSTYLE
  2
Standard
  9
$CMLJUST
 70
     0
  9
$CMLSCALE
 40
1.0
  9
$PROXYGRAPHICS
 70
     1
  9
$MEASUREMENT
 70
     0
  9
$CELWEIGHT
370
    -1
  9
$ENDCAPS
280
     0
  9
$JOINSTYLE
280
     0
  9
$LWDISPLAY
290
     1
  9
$INSUNITS
 70
     1
  9
$HYPERLINKBASE
  1

  9
$STYLESHEET
  1

  9
$XEDIT
290
     1
  9
$CEPSNTYPE
380
     0
  9
$PSTYLEMODE
290
     1
  9
$FINGERPRINTGUID
  2
{E7EF40F2-620C-6895-6465-07032CC489B2}
  9
$VERSIONGUID
  2
{FAEB1C32-E019-11D5-929B-00C0DF256EC4}
  9
$EXTNAMES
290
     1
  9
$PSVPSCALE
 40
0.0
  9
$OLESTARTUP
290
     0
  9
$SORTENTS
280
   127
  9
$INDEXCTL
280
     0
  9
$HIDETEXT
280
     1
  9
$XCLIPFRAME
280
     2
  9
$HALOGAP
280
     0
  9
$OBSCOLOR
 70
   257
  9
$OBSLTYPE
280
     0
  9
$INTERSECTIONDISPLAY
280
     0
  9
$INTERSECTIONCOLOR
 70
   257
  9
$DIMASSOC
280
     2
  9
$PROJECTNAME
  1

  9
$CAMERADISPLAY
290
     0
  9
$LENSLENGTH
 40
50.0
  9
$CAMERAHEIGHT
 40
0.0
  9
$STEPSPERSEC
 40
2.0
  9
$STEPSIZE
 40
6.0
  9
$3DDWFPREC
 40
2.0
  9
$PSOLWIDTH
 40
0.25
  9
$PSOLHEIGHT
 40
4.0
  9
$LOFTANG1
 40
1.570796326794897
  9
$LOFTANG2
 40
1.570796326794897
  9
$LOFTMAG1
 40
0.0
  9
$LOFTMAG2
 40
0.0
  9
$LOFTPARAM
 70
     7
  9
$LOFTNORMALS
280
     1
  9
$LATITUDE
 40
37.795
  9
$LONGITUDE
 40
-122.394
  9
$NORTHDIRECTION
 40
0.0
  9
$TIMEZONE
 70
 -8000
  9
$LIGHTGLYPHDISPLAY
280
     1
  9
$TILEMODELIGHTSYNCH
280
     1
  9
$CMATERIAL
347
3C
  9
$SOLIDHIST
280
     1
  9
$SHOWHIST
280
     1
  9
$DWFFRAME
280
     2
  9
$DGNFRAME
280
     2
  9
$REALWORLDSCALE
290
     1
  9
$INTERFERECOLOR
 62
   256
  9
$CSHADOW
280
     0
  9
$SHADOWPLANELOCATION
 40
0.0
  0
ENDSEC
  0
SECTION
  2
CLASSES
  0
CLASS
  1
ACDBDICTIONARYWDFLT
  2
AcDbDictionaryWithDefault
  3
ObjectDBX Classes
 90
        0
 91
        4
280
     0
281
     0
  0
CLASS
  1
VISUALSTYLE
  2
AcDbVisualStyle
  3
ObjectDBX Classes
 90
     4095
 91
        4
280
     0
281
     0
  0
CLASS
  1
MATERIAL
  2
AcDbMaterial
  3
ObjectDBX Classes
 90
     1153
 91
        4
280
     0
281
     0
  0
CLASS
  1
SUN
  2
AcDbSun
  3
SCENEOE
 90
     1024
 91
        4
280
     0
281
     0
  0
ENDSEC
  0
SECTION
  2
TABLES
  0
TABLE
  2
VPORT
  5
8
330
0
100
AcDbSymbolTable
 70
     1
  0
VPORT
  5
29
330
8
100
AcDbSymbolTableRecord
100
AcDbViewportTableRecord
  2
*Active
 70
     0
 10
0.0
 20
0.0
 11
1.0
 21
1.0
 12
0.0
 22
0.0
 13
0.0
 23
0.0
 14
0.5
 24
0.5
 15
0.5
 25
0.5
 16
0.0
 26
0.0
 36
1.0
 17
105.0007777515277
 27
-148.5000416295416
 37
0.0
 40
297.0000832590831
 41
0.7070757462376333
 42
50.0
 43
0.0
 44
0.0
 50
0.0
 51
0.0
 71
     0
 72
   100
 73
     1
 74
     3
 75
     0
 76
     0
 77
     0
 78
     0
281
     0
 65
     1
110
0.0
120
0.0
130
0.0
111
1.0
121
0.0
131
0.0
112
0.0
122
1.0
132
0.0
 79
     0
146
0.0
 60
     3
 61
     5
292
     1
282
     1
141
0.0
142
0.0
 63
   250
361
3F
  0
ENDTAB
  0
TABLE
  2
LTYPE
  5
5
330
0
100
AcDbSymbolTable
 70
     1
  0
LTYPE
  5
14
330
5
100
AcDbSymbolTableRecord
100
AcDbLinetypeTableRecord
  2
ByBlock
 70
     0
  3

 72
    65
 73
     0
 40
0.0
  0
LTYPE
  5
15
330
5
100
AcDbSymbolTableRecord
100
AcDbLinetypeTableRecord
  2
ByLayer
 70
     0
  3

 72
    65
 73
     0
 40
0.0
  0
LTYPE
  5
16
330
5
100
AcDbSymbolTableRecord
100
AcDbLinetypeTableRecord
  2
Continuous
 70
     0
  3
Solid line
 72
    65
 73
     0
 40
0.0
  0
ENDTAB
  0
TABLE
  2
LAYER
  5
2
330
0
100
AcDbSymbolTable
 70
     2
  0
LAYER
  5
10
330
2
100
AcDbSymbolTableRecord
100
AcDbLayerTableRecord
  2
0
 70
     0
 62
     7
  6
Continuous
370
    -3
390
F
347
3E
  0
LAYER
  5
40
330
2
100
AcDbSymbolTableRecord
100
AcDbLayerTableRecord
  2
_U+30EC_U+30A4_U+30E4_U+30FC 1
 70
     0
 62
     7
  6
Continuous
370
    -3
390
F
347
3E
  0
ENDTAB
  0
TABLE
  2
STYLE
  5
3
330
0
100
AcDbSymbolTable
 70
     1
  0
STYLE
  5
11
330
3
100
AcDbSymbolTableRecord
100
AcDbTextStyleTableRecord
  2
Standard
 70
     0
 40
0.0
 41
1.0
 50
0.0
 71
     0
 42
0.2
  3
txt
  4

  0
ENDTAB
  0
TABLE
  2
VIEW
  5
6
330
0
100
AcDbSymbolTable
 70
     0
  0
ENDTAB
  0
TABLE
  2
UCS
  5
7
330
0
100
AcDbSymbolTable
 70
     0
  0
ENDTAB
  0
TABLE
  2
APPID
  5
9
330
0
100
AcDbSymbolTable
 70
     1
  0
APPID
  5
12
330
9
100
AcDbSymbolTableRecord
100
AcDbRegAppTableRecord
  2
ACAD
 70
     0
  0
ENDTAB
  0
TABLE
  2
DIMSTYLE
  5
A
330
0
100
AcDbSymbolTable
 70
     1
100
AcDbDimStyleTable
  0
DIMSTYLE
105
27
330
A
100
AcDbSymbolTableRecord
100
AcDbDimStyleTableRecord
  2
Standard
 70
     0
178
     0
340
11
  0
ENDTAB
  0
TABLE
  2
BLOCK_RECORD
  5
1
330
0
100
AcDbSymbolTable
 70
     7
  0
BLOCK_RECORD
  5
1F
330
1
100
AcDbSymbolTableRecord
100
AcDbBlockTableRecord
  2
*Model_Space
340
22
 70
     0
280
     1
281
     0
  0
BLOCK_RECORD
  5
1B
330
1
100
AcDbSymbolTableRecord
100
AcDbBlockTableRecord
  2
*Paper_Space
340
1E
 70
     0
280
     1
281
     0
  0
BLOCK_RECORD
  5
23
330
1
100
AcDbSymbolTableRecord
100
AcDbBlockTableRecord
  2
*Paper_Space0
340
26
 70
     0
280
     1
281
     0
  0
BLOCK_RECORD
  5
93
330
1
100
AcDbSymbolTableRecord
100
AcDbBlockTableRecord
  2
block 2
340
0
102
{BLKREFS
331
94
102
}
 70
     0
280
     1
281
     0
  0
BLOCK_RECORD
  5
A9
330
1
100
AcDbSymbolTableRecord
100
AcDbBlockTableRecord
  2
block 3
340
0
102
{BLKREFS
331
AA
102
}
 70
     0
280
     1
281
     0
  0
BLOCK_RECORD
  5
C6
330
1
100
AcDbSymbolTableRecord
100
AcDbBlockTableRecord
  2
block 4
340
0
102
{BLKREFS
331
C7
102
}
 70
     0
280
     1
281
     0
  0
BLOCK_RECORD
  5
D7
330
1
100
AcDbSymbolTableRecord
100
AcDbBlockTableRecord
  2
block 5
340
0
102
{BLKREFS
331
D8
102
}
 70
     0
280
     1
281
     0
  0
BLOCK_RECORD
  5
EB
330
1
100
AcDbSymbolTableRecord
100
AcDbBlockTableRecord
  2
block 6
340
0
102
{BLKREFS
331
EC
102
}
 70
     0
280
     1
281
     0
  0
BLOCK_RECORD
  5
10E
330
1
100
AcDbSymbolTableRecord
100
AcDbBlockTableRecord
  2
block 7
340
0
102
{BLKREFS
331
10F
102
}
 70
     0
280
     1
281
     0
  0
ENDTAB
  0
ENDSEC
  0
SECTION
  2
BLOCKS
  0
BLOCK
  5
20
330
1F
100
AcDbEntity
  8
0
100
AcDbBlockBegin
  2
*Model_Space
 70
     0
 10
0.0
 20
0.0
 30
0.0
  3
*Model_Space
  1

  0
ENDBLK
  5
21
330
1F
100
AcDbEntity
  8
0
100
AcDbBlockEnd
  0
BLOCK
  5
1C
330
1B
100
AcDbEntity
 67
     1
  8
0
100
AcDbBlockBegin
  2
*Paper_Space
 70
     0
 10
0.0
 20
0.0
 30
0.0
  3
*Paper_Space
  1

  0
ENDBLK
  5
1D
330
1B
100
AcDbEntity
 67
     1
  8
0
100
AcDbBlockEnd
  0
BLOCK
  5
24
330
23
100
AcDbEntity
  8
0
100
AcDbBlockBegin
  2
*Paper_Space0
 70
     0
 10
0.0
 20
0.0
 30
0.0
  3
*Paper_Space0
  1

  0
ENDBLK
  5
25
330
23
100
AcDbEntity
  8
0
100
AcDbBlockEnd
  0
BLOCK
  5
95
330
93
100
AcDbEntity
  8
0
100
AcDbBlockBegin
  2
block 2
 70
     0
 10
0.0
 20
0.0
 30
0.0
  3
block 2
  1

  0
SPLINE
  5
97
330
93
100
AcDbEntity
  8
_U+30EC_U+30A4_U+30E4_U+30FC 1
370
     0
100
AcDbSpline
210
0.0
220
0.0
230
1.0
 70
    11
 71
     3
 72
    26
 73
    22
 74
     0
 42
0.0000000001
 43
0.0000000001
 12
1.0
 22
0.0
 32
0.0
 13
1.0
 23
0.0
 33
0.0
 40
0.0
 40
0.0
 40
0.0
 40
0.0
 40
1.0
 40
1.0
 40
1.0
 40
2.0
 40
2.0
 40
2.0
 40
3.0
 40
3.0
 40
3.0
 40
4.0
 40
4.0
 40
4.0
 40
5.0
 40
5.0
 40
5.0
 40
6.0
 40
6.0
 40
6.0
 40
7.0
 40
7.0
 40
7.0
 40
7.0
 10
122.2612711282889
 20
-141.78221567636
 30
0.0
 10
122.2612711282889
 20
-141.78221567636
 30
0.0
 10
121.1571180252663
 20
-141.78221567636
 30
0.0
 10
121.1571180252663
 20
-141.78221567636
 30
0.0
 10
121.1571180252663
 20
-141.78221567636
 30
0.0
 10
121.1571180252663
 20
-142.1346489445011
 30
0.0
 10
121.1571180252663
 20
-142.1346489445011
 30
0.0
 10
121.1571180252663
 20
-142.1346489445011
 30
0.0
 10
121.0089789194005
 20
-142.1346489445011
 30
0.0
 10
121.0089789194005
 20
-142.1346489445011
 30
0.0
 10
120.994165008814
 20
-141.7798041095203
 30
0.0
 10
120.8312119923616
 20
-141.7301947345327
 30
0.0
 10
120.7171793317999
 20
-141.6984998560684
 30
0.0
 10
120.7171793317999
 20
-141.6984998560684
 30
0.0
 10
120.7171793317999
 20
-141.5424370305866
 30
0.0
 10
120.7171793317999
 20
-141.5424370305866
 30
0.0
 10
120.7171793317999
 20
-141.5424370305866
 30
0.0
 10
122.2612711282889
 20
-141.5424370305866
 30
0.0
 10
122.2612711282889
 20
-141.5424370305866
 30
0.0
 10
122.2612711282889
 20
-141.5424370305866
 30
0.0
 10
122.2612711282889
 20
-141.78221567636
 30
0.0
 10
122.2612711282889
 20
-141.78221567636
 30
0.0
  0
HATCH
  5
98
330
93
100
AcDbEntity
  8
_U+30EC_U+30A4_U+30E4_U+30FC 1
 62
   179
420
  2234388
100
AcDbHatch
 10
0.0
 20
0.0
 30
0.0
210
0.0
220
0.0
230
1.0
  2
SOLID
 70
     1
 71
     0
 91
        1
 92
        1
 93
        1
 72
     4
 94
        3
 73
     0
 74
     1
 95
       26
 96
       22
 40
0.0
 40
0.0
 40
0.0
 40
0.0
 40
1.0
 40
1.0
 40
1.0
 40
2.0
 40
2.0
 40
2.0
 40
3.0
 40
3.0
 40
3.0
 40
4.0
 40
4.0
 40
4.0
 40
5.0
 40
5.0
 40
5.0
 40
6.0
 40
6.0
 40
6.0
 40
7.0
 40
7.0
 40
7.0
 40
7.0
 10
122.2612711282889
 20
-141.78221567636
 10
122.2612711282889
 20
-141.78221567636
 10
121.1571180252663
 20
-141.78221567636
 10
121.1571180252663
 20
-141.78221567636
 10
121.1571180252663
 20
-141.78221567636
 10
121.1571180252663
 20
-142.1346489445011
 10
121.1571180252663
 20
-142.1346489445011
 10
121.1571180252663
 20
-142.1346489445011
 10
121.0089789194005
 20
-142.1346489445011
 10
121.0089789194005
 20
-142.1346489445011
 10
120.994165008814
 20
-141.7798041095203
 10
120.8312119923616
 20
-141.7301947345327
 10
120.7171793317999
 20
-141.6984998560684
 10
120.7171793317999
 20
-141.6984998560684
 10
120.7171793317999
 20
-141.5424370305866
 10
120.7171793317999
 20
-141.5424370305866
 10
120.7171793317999
 20
-141.5424370305866
 10
122.2612711282889
 20
-141.5424370305866
 10
122.2612711282889
 20
-141.5424370305866
 10
122.2612711282889
 20
-141.5424370305866
 10
122.2612711282889
 20
-141.78221567636
 10
122.2612711282889
 20
-141.78221567636
 97
        0
 97
        0
 75
     2
 76
     1
 98
        0
  0
ENDBLK
  5
96
330
93
100
AcDbEntity
  8
0
100
AcDbBlockEnd
  0
BLOCK
  5
AB
330
A9
100
AcDbEntity
  8
0
100
AcDbBlockBegin
  2
block 3
 70
     0
 10
0.0
 20
0.0
 30
0.0
  3
block 3
  1

  0
SPLINE
  5
AD
330
A9
100
AcDbEntity
  8
_U+30EC_U+30A4_U+30E4_U+30FC 1
370
     0
100
AcDbSpline
210
0.0
220
0.0
230
1.0
 70
    11
 71
     3
 72
    29
 73
    25
 74
     0
 42
0.0000000001
 43
0.0000000001
 12
1.0
 22
0.0
 32
0.0
 13
1.0
 23
0.0
 33
0.0
 40
0.0
 40
0.0
 40
0.0
 40
0.0
 40
1.0
 40
1.0
 40
1.0
 40
2.0
 40
2.0
 40
2.0
 40
3.0
 40
3.0
 40
3.0
 40
4.0
 40
4.0
 40
4.0
 40
5.0
 40
5.0
 40
5.0
 40
6.0
 40
6.0
 40
6.0
 40
7.0
 40
7.0
 40
7.0
 40
8.0
 40
8.0
 40
8.0
 40
8.0
 10
110.0832030974792
 20
-151.6220974013306
 30
0.0
 10
110.2926649029824
 20
-151.7375081000865
 30
0.0
 10
110.3119574376998
 20
-151.9228542371929
 30
0.0
 10
110.3119574376998
 20
-152.0472221842104
 30
0.0
 10
110.3119574376998
 20
-152.2187879393759
 30
0.0
 10
110.2654486486489
 20
-152.3703721407269
 30
0.0
 10
110.0832030974792
 20
-152.4720024575417
 30
0.0
 10
109.8888997121111
 20
-152.5829345321668
 30
0.0
 10
109.6518771427259
 20
-152.6032605955297
 30
0.0
 10
109.4889241262736
 20
-152.6032605955297
 30
0.0
 10
109.3452636445387
 20
-152.6032605955297
 30
0.0
 10
109.0934271645669
 20
-152.5853460990064
 30
0.0
 10
108.894645155068
 20
-152.4720024575417
 30
0.0
 10
108.6913845214383
 20
-152.3569362683344
 30
0.0
 10
108.6679578721386
 20
-152.1850260036204
 30
0.0
 10
108.6679578721386
 20
-152.0472221842104
 30
0.0
 10
108.6679578721386
 20
-151.8773789767876
 30
0.0
 10
108.7127441134468
 20
-151.7237277181455
 30
0.0
 10
108.894645155068
 20
-151.6220974013306
 30
0.0
 10
109.0868814831449
 20
-151.5156439508364
 30
0.0
 10
109.3156358233655
 20
-151.4908392633426
 30
0.0
 10
109.4889241262736
 20
-151.4908392633426
 30
0.0
 10
109.6601453718905
 20
-151.4908392633426
 30
0.0
 10
109.8909667694023
 20
-151.5135768935452
 30
0.0
 10
110.0832030974792
 20
-151.6220974013306
 30
0.0
  0
SPLINE
  5
AE
330
A9
100
AcDbEntity
  8
_U+30EC_U+30A4_U+30E4_U+30FC 1
370
     0
100
AcDbSpline
210
0.0
220
0.0
230
1.0
 70
    11
 71
     3
 72
    17
 73
    13
 74
     0
 42
0.0000000001
 43
0.0000000001
 12
1.0
 22
0.0
 32
0.0
 13
1.0
 23
0.0
 33
0.0
 40
0.0
 40
0.0
 40
0.0
 40
0.0
 40
1.0
 40
1.0
 40
1.0
 40
2.0
 40
2.0
 40
2.0
 40
3.0
 40
3.0
 40
3.0
 40
4.0
 40
4.0
 40
4.0
 40
4.0
 10
108.8608832193126
 20
-152.0472221842104
 30
0.0
 10
108.8608832193126
 20
-152.3138725747688
 30
0.0
 10
109.1440700682001
 20
-152.3634819497564
 30
0.0
 10
109.4889241262736
 20
-152.3634819497564
 30
0.0
 10
109.8082844777563
 20
-152.3634819497564
 30
0.0
 10
110.1173095427832
 20
-152.3252413898701
 30
0.0
 10
110.1173095427832
 20
-152.0472221842104
 30
0.0
 10
110.1173095427832
 20
-151.7826388509432
 30
0.0
 10
109.8358452416383
 20
-151.730617909116
 30
0.0
 10
109.4889241262736
 20
-151.730617909116
 30
0.0
 10
109.1695637747909
 20
-151.730617909116
 30
0.0
 10
108.8608832193126
 20
-151.7712700358419
 30
0.0
 10
108.8608832193126
 20
-152.0472221842104
 30
0.0
  0
HATCH
  5
AF
330
A9
100
AcDbEntity
  8
_U+30EC_U+30A4_U+30E4_U+30FC 1
 62
   179
420
  2234388
100
AcDbHatch
 10
0.0
 20
0.0
 30
0.0
210
0.0
220
0.0
230
1.0
  2
SOLID
 70
     1
 71
     0
 91
        2
 92
        1
 93
        1
 72
     4
 94
        3
 73
     0
 74
     1
 95
       29
 96
       25
 40
0.0
 40
0.0
 40
0.0
 40
0.0
 40
1.0
 40
1.0
 40
1.0
 40
2.0
 40
2.0
 40
2.0
 40
3.0
 40
3.0
 40
3.0
 40
4.0
 40
4.0
 40
4.0
 40
5.0
 40
5.0
 40
5.0
 40
6.0
 40
6.0
 40
6.0
 40
7.0
 40
7.0
 40
7.0
 40
8.0
 40
8.0
 40
8.0
 40
8.0
 10
110.0832030974792
 20
-151.6220974013306
 10
110.2926649029824
 20
-151.7375081000865
 10
110.3119574376998
 20
-151.9228542371929
 10
110.3119574376998
 20
-152.0472221842104
 10
110.3119574376998
 20
-152.2187879393759
 10
110.2654486486489
 20
-152.3703721407269
 10
110.0832030974792
 20
-152.4720024575417
 10
109.8888997121111
 20
-152.5829345321668
 10
109.6518771427259
 20
-152.6032605955297
 10
109.4889241262736
 20
-152.6032605955297
 10
109.3452636445387
 20
-152.6032605955297
 10
109.0934271645669
 20
-152.5853460990064
 10
108.894645155068
 20
-152.4720024575417
 10
108.6913845214383
 20
-152.3569362683344
 10
108.6679578721386
 20
-152.1850260036204
 10
108.6679578721386
 20
-152.0472221842104
 10
108.6679578721386
 20
-151.8773789767876
 10
108.7127441134468
 20
-151.7237277181455
 10
108.894645155068
 20
-151.6220974013306
 10
109.0868814831449
 20
-151.5156439508364
 10
109.3156358233655
 20
-151.4908392633426
 10
109.4889241262736
 20
-151.4908392633426
 10
109.6601453718905
 20
-151.4908392633426
 10
109.8909667694023
 20
-151.5135768935452
 10
110.0832030974792
 20
-151.6220974013306
 97
        0
 97
        0
 92
        1
 93
        1
 72
     4
 94
        3
 73
     0
 74
     1
 95
       17
 96
       13
 40
0.0
 40
0.0
 40
0.0
 40
0.0
 40
1.0
 40
1.0
 40
1.0
 40
2.0
 40
2.0
 40
2.0
 40
3.0
 40
3.0
 40
3.0
 40
4.0
 40
4.0
 40
4.0
 40
4.0
 10
108.8608832193126
 20
-152.0472221842104
 10
108.8608832193126
 20
-152.3138725747688
 10
109.1440700682001
 20
-152.3634819497564
 10
109.4889241262736
 20
-152.3634819497564
 10
109.8082844777563
 20
-152.3634819497564
 10
110.1173095427832
 20
-152.3252413898701
 10
110.1173095427832
 20
-152.0472221842104
 10
110.1173095427832
 20
-151.7826388509432
 10
109.8358452416383
 20
-151.730617909116
 10
109.4889241262736
 20
-151.730617909116
 10
109.1695637747909
 20
-151.730617909116
 10
108.8608832193126
 20
-151.7712700358419
 10
108.8608832193126
 20
-152.0472221842104
 97
        0
 97
        0
 75
     2
 76
     1
 98
        0
  0
POLYLINE
  5
B0
330
A9
100
AcDbEntity
  8
_U+30EC_U+30A4_U+30E4_U+30FC 1
370
     0
100
AcDb2dPolyline
 66
     1
 10
0.0
 20
0.0
 30
0.0
  0
VERTEX
  5
B1
330
B0
100
AcDbEntity
  8
_U+30EC_U+30A4_U+30E4_U+30FC 1
370
     0
100
AcDbVertex
100
AcDb2dVertex
 10
110.2609700245181
 20
-151.2596733562823
 30
0.0
  0
VERTEX
  5
B2
330
B0
100
AcDbEntity
  8
_U+30EC_U+30A4_U+30E4_U+30FC 1
370
     0
100
AcDbVertex
100
AcDb2dVertex
 10
110.0094780540949
 20
-151.2596733562823
 30
0.0
  0
VERTEX
  5
B3
330
B0
100
AcDbEntity
  8
_U+30EC_U+30A4_U+30E4_U+30FC 1
370
     0
100
AcDbVertex
100
AcDb2dVertex
 10
110.0094780540949
 20
-150.9906113988843
 30
0.0
  0
VERTEX
  5
B4
330
B0
100
AcDbEntity
  8
_U+30EC_U+30A4_U+30E4_U+30FC 1
370
     0
100
AcDbVertex
100
AcDb2dVertex
 10
110.2609700245181
 20
-150.9906113988843
 30
0.0
  0
VERTEX
  5
B5
330
B0
100
AcDbEntity
  8
_U+30EC_U+30A4_U+30E4_U+30FC 1
370
     0
100
AcDbVertex
100
AcDb2dVertex
 10
110.2609700245181
 20
-151.2596733562823
 30
0.0
  0
SEQEND
  5
B6
330
B0
100
AcDbEntity
  8
_U+30EC_U+30A4_U+30E4_U+30FC 1
370
     0
  0
HATCH
  5
B7
330
A9
100
AcDbEntity
  8
_U+30EC_U+30A4_U+30E4_U+30FC 1
 62
   179
420
  2234388
100
AcDbHatch
 10
0.0
 20
0.0
 30
0.0
210
0.0
220
0.0
230
1.0
  2
SOLID
 70
     1
 71
     0
 91
        1
 92
        1
 93
        4
 72
     1
 10
110.2609700245181
 20
-151.2596733562823
 11
110.0094780540949
 21
-151.2596733562823
 72
     1
 10
110.0094780540949
 20
-151.2596733562823
 11
110.0094780540949
 21
-150.9906113988843
 72
     1
 10
110.0094780540949
 20
-150.9906113988843
 11
110.2609700245181
 21
-150.9906113988843
 72
     1
 10
110.2609700245181
 20
-150.9906113988843
 11
110.2609700245181
 21
-151.2596733562823
 97
        0
 75
     2
 76
     1
 98
        0
  0
SPLINE
  5
B8
330
A9
100
AcDbEntity
  8
_U+30EC_U+30A4_U+30E4_U+30FC 1
370
     0
100
AcDbSpline
210
0.0
220
0.0
230
1.0
 70
    11
 71
     3
 72
    62
 73
    58
 74
     0
 42
0.0000000001
 43
0.0000000001
 12
1.0
 22
0.0
 32
0.0
 13
1.0
 23
0.0
 33
0.0
 40
0.0
 40
0.0
 40
0.0
 40
0.0
 40
1.0
 40
1.0
 40
1.0
 40
2.0
 40
2.0
 40
2.0
 40
3.0
 40
3.0
 40
3.0
 40
4.0
 40
4.0
 40
4.0
 40
5.0
 40
5.0
 40
5.0
 40
6.0
 40
6.0
 40
6.0
 40
7.0
 40
7.0
 40
7.0
 40
8.0
 40
8.0
 40
8.0
 40
9.0
 40
9.0
 40
9.0
 40
10.0
 40
10.0
 40
10.0
 40
11.0
 40
11.0
 40
11.0
 40
12.0
 40
12.0
 40
12.0
 40
13.0
 40
13.0
 40
13.0
 40
14.0
 40
14.0
 40
14.0
 40
15.0
 40
15.0
 40
15.0
 40
16.0
 40
16.0
 40
16.0
 40
17.0
 40
17.0
 40
17.0
 40
18.0
 40
18.0
 40
18.0
 40
19.0
 40
19.0
 40
19.0
 40
19.0
 10
110.3119574376998
 20
-150.2123643287664
 30
0.0
 10
110.3119574376998
 20
-150.3139946455812
 30
0.0
 10
110.2905978456912
 20
-150.5468831003841
 30
0.0
 10
110.1045626894878
 20
-150.6802082956633
 30
0.0
 10
109.9922525766686
 20
-150.759445491824
 30
0.0
 10
109.8930338266934
 20
-150.7639241159549
 30
0.0
 10
109.8082844777563
 20
-150.7684027400857
 30
0.0
 10
109.8082844777563
 20
-150.7684027400857
 30
0.0
 10
109.8082844777563
 20
-150.5334472279916
 30
0.0
 10
109.8082844777563
 20
-150.5334472279916
 30
0.0
 10
109.8826985402377
 20
-150.531035661152
 30
0.0
 10
110.1173095427832
 20
-150.5196668460507
 30
0.0
 10
110.1173095427832
 20
-150.2168429528972
 30
0.0
 10
110.1173095427832
 20
-150.069737375677
 30
0.0
 10
110.0473741044326
 20
-149.9071288687732
 30
0.0
 10
109.8189642737605
 20
-149.9071288687732
 30
0.0
 10
109.7028645559076
 20
-149.9071288687732
 30
0.0
 10
109.6539442000171
 20
-149.9477809954992
 30
0.0
 10
109.6222493215528
 20
-149.9815429312546
 30
0.0
 10
109.5481797686199
 20
-150.0607801274154
 30
0.0
 10
109.5354329153245
 20
-150.1851480744329
 30
0.0
 10
109.5354329153245
 20
-150.2440592072307
 30
0.0
 10
109.5354329153245
 20
-150.2643852705936
 30
0.0
 10
109.5374999726156
 20
-150.3026258304799
 30
0.0
 10
109.5416340871979
 20
-150.332253651653
 30
0.0
 10
109.5416340871979
 20
-150.332253651653
 30
0.0
 10
109.3473307018298
 20
-150.332253651653
 30
0.0
 10
109.3473307018298
 20
-150.332253651653
 30
0.0
 10
109.3535318737033
 20
-150.2916015249271
 30
0.0
 10
109.3555989309944
 20
-150.2461262645218
 30
0.0
 10
109.3555989309944
 20
-150.2395805830998
 30
0.0
 10
109.3555989309944
 20
-150.1693006352007
 30
0.0
 10
109.3345838485344
 20
-149.9567382437608
 30
0.0
 10
109.0975612791492
 20
-149.9567382437608
 30
0.0
 10
108.9201388616589
 20
-149.9567382437608
 30
0.0
 10
108.8650173338949
 20
-150.0969536300105
 30
0.0
 10
108.8650173338949
 20
-150.2144313860575
 30
0.0
 10
108.8650173338949
 20
-150.4972737253965
 30
0.0
 10
109.0975612791492
 20
-150.5062309736582
 30
0.0
 10
109.1695637747909
 20
-150.510709597789
 30
0.0
 10
109.1695637747909
 20
-150.510709597789
 30
0.0
 10
109.1695637747909
 20
-150.7277506133597
 30
0.0
 10
109.1695637747909
 20
-150.7277506133597
 30
0.0
 10
109.0448513182249
 20
-150.7187933650981
 30
0.0
 10
108.6679578721386
 20
-150.6895100534735
 30
0.0
 10
108.6679578721386
 20
-150.200995513665
 30
0.0
 10
108.6679578721386
 20
-149.9612168678916
 30
0.0
 10
108.7950818955443
 20
-149.7035237255949
 30
0.0
 10
109.0910155977272
 20
-149.7035237255949
 30
0.0
 10
109.2773952634793
 20
-149.7035237255949
 30
0.0
 10
109.3597330455767
 20
-149.8054985519584
 30
0.0
 10
109.4210557452142
 20
-149.911607492904
 30
0.0
 10
109.4486165090962
 20
-149.8461506786843
 30
0.0
 10
109.529231743451
 20
-149.6515027837677
 30
0.0
 10
109.8062174204651
 20
-149.6515027837677
 30
0.0
 10
110.1448703066652
 20
-149.6515027837677
 30
0.0
 10
110.3119574376998
 20
-149.9160861170349
 30
0.0
 10
110.3119574376998
 20
-150.2123643287664
 30
0.0
  0
HATCH
  5
B9
330
A9
100
AcDbEntity
  8
_U+30EC_U+30A4_U+30E4_U+30FC 1
 62
   179
420
  2234388
100
AcDbHatch
 10
0.0
 20
0.0
 30
0.0
210
0.0
220
0.0
230
1.0
  2
SOLID
 70
     1
 71
     0
 91
        1
 92
        1
 93
        1
 72
     4
 94
        3
 73
     0
 74
     1
 95
       62
 96
       58
 40
0.0
 40
0.0
 40
0.0
 40
0.0
 40
1.0
 40
1.0
 40
1.0
 40
2.0
 40
2.0
 40
2.0
 40
3.0
 40
3.0
 40
3.0
 40
4.0
 40
4.0
 40
4.0
 40
5.0
 40
5.0
 40
5.0
 40
6.0
 40
6.0
 40
6.0
 40
7.0
 40
7.0
 40
7.0
 40
8.0
 40
8.0
 40
8.0
 40
9.0
 40
9.0
 40
9.0
 40
10.0
 40
10.0
 40
10.0
 40
11.0
 40
11.0
 40
11.0
 40
12.0
 40
12.0
 40
12.0
 40
13.0
 40
13.0
 40
13.0
 40
14.0
 40
14.0
 40
14.0
 40
15.0
 40
15.0
 40
15.0
 40
16.0
 40
16.0
 40
16.0
 40
17.0
 40
17.0
 40
17.0
 40
18.0
 40
18.0
 40
18.0
 40
19.0
 40
19.0
 40
19.0
 40
19.0
 10
110.3119574376998
 20
-150.2123643287664
 10
110.3119574376998
 20
-150.3139946455812
 10
110.2905978456912
 20
-150.5468831003841
 10
110.1045626894878
 20
-150.6802082956633
 10
109.9922525766686
 20
-150.759445491824
 10
109.8930338266934
 20
-150.7639241159549
 10
109.8082844777563
 20
-150.7684027400857
 10
109.8082844777563
 20
-150.7684027400857
 10
109.8082844777563
 20
-150.5334472279916
 10
109.8082844777563
 20
-150.5334472279916
 10
109.8826985402377
 20
-150.531035661152
 10
110.1173095427832
 20
-150.5196668460507
 10
110.1173095427832
 20
-150.2168429528972
 10
110.1173095427832
 20
-150.069737375677
 10
110.0473741044326
 20
-149.9071288687732
 10
109.8189642737605
 20
-149.9071288687732
 10
109.7028645559076
 20
-149.9071288687732
 10
109.6539442000171
 20
-149.9477809954992
 10
109.6222493215528
 20
-149.9815429312546
 10
109.5481797686199
 20
-150.0607801274154
 10
109.5354329153245
 20
-150.1851480744329
 10
109.5354329153245
 20
-150.2440592072307
 10
109.5354329153245
 20
-150.2643852705936
 10
109.5374999726156
 20
-150.3026258304799
 10
109.5416340871979
 20
-150.332253651653
 10
109.5416340871979
 20
-150.332253651653
 10
109.3473307018298
 20
-150.332253651653
 10
109.3473307018298
 20
-150.332253651653
 10
109.3535318737033
 20
-150.2916015249271
 10
109.3555989309944
 20
-150.2461262645218
 10
109.3555989309944
 20
-150.2395805830998
 10
109.3555989309944
 20
-150.1693006352007
 10
109.3345838485344
 20
-149.9567382437608
 10
109.0975612791492
 20
-149.9567382437608
 10
108.9201388616589
 20
-149.9567382437608
 10
108.8650173338949
 20
-150.0969536300105
 10
108.8650173338949
 20
-150.2144313860575
 10
108.8650173338949
 20
-150.4972737253965
 10
109.0975612791492
 20
-150.5062309736582
 10
109.1695637747909
 20
-150.510709597789
 10
109.1695637747909
 20
-150.510709597789
 10
109.1695637747909
 20
-150.7277506133597
 10
109.1695637747909
 20
-150.7277506133597
 10
109.0448513182249
 20
-150.7187933650981
 10
108.6679578721386
 20
-150.6895100534735
 10
108.6679578721386
 20
-150.200995513665
 10
108.6679578721386
 20
-149.9612168678916
 10
108.7950818955443
 20
-149.7035237255949
 10
109.0910155977272
 20
-149.7035237255949
 10
109.2773952634793
 20
-149.7035237255949
 10
109.3597330455767
 20
-149.8054985519584
 10
109.4210557452142
 20
-149.911607492904
 10
109.4486165090962
 20
-149.8461506786843
 10
109.529231743451
 20
-149.6515027837677
 10
109.8062174204651
 20
-149.6515027837677
 10
110.1448703066652
 20
-149.6515027837677
 10
110.3119574376998
 20
-149.9160861170349
 10
110.3119574376998
 20
-150.2123643287664
 97
        0
 97
        0
 75
     2
 76
     1
 98
        0
  0
ENDBLK
  5
AC
330
A9
100
AcDbEntity
  8
0
100
AcDbBlockEnd
  0
BLOCK
  5
C8
330
C6
100
AcDbEntity
  8
0
100
AcDbBlockBegin
  2
block 4
 70
     0
 10
0.0
 20
0.0
 30
0.0
  3
block 4
  1

  0
SPLINE
  5
CA
330
C6
100
AcDbEntity
  8
_U+30EC_U+30A4_U+30E4_U+30FC 1
370
     0
100
AcDbSpline
210
0.0
220
0.0
230
1.0
 70
    11
 71
     3
 72
    26
 73
    22
 74
     0
 42
0.0000000001
 43
0.0000000001
 12
1.0
 22
0.0
 32
0.0
 13
1.0
 23
0.0
 33
0.0
 40
0.0
 40
0.0
 40
0.0
 40
0.0
 40
1.0
 40
1.0
 40
1.0
 40
2.0
 40
2.0
 40
2.0
 40
3.0
 40
3.0
 40
3.0
 40
4.0
 40
4.0
 40
4.0
 40
5.0
 40
5.0
 40
5.0
 40
6.0
 40
6.0
 40
6.0
 40
7.0
 40
7.0
 40
7.0
 40
7.0
 10
101.8869764285213
 20
-157.970719361549
 30
0.0
 10
101.8869764285213
 20
-157.970719361549
 30
0.0
 10
101.8869764285213
 20
-156.8665662585264
 30
0.0
 10
101.8869764285213
 20
-156.8665662585264
 30
0.0
 10
101.8869764285213
 20
-156.8665662585264
 30
0.0
 10
101.5345431603803
 20
-156.8665662585264
 30
0.0
 10
101.5345431603803
 20
-156.8665662585264
 30
0.0
 10
101.5345431603803
 20
-156.8665662585264
 30
0.0
 10
101.5345431603803
 20
-156.7184271526607
 30
0.0
 10
101.5345431603803
 20
-156.7184271526607
 30
0.0
 10
101.889387995361
 20
-156.7036132420741
 30
0.0
 10
101.9389973703486
 20
-156.5406602256218
 30
0.0
 10
101.9706922488129
 20
-156.42662756506
 30
0.0
 10
101.9706922488129
 20
-156.42662756506
 30
0.0
 10
102.1267550742947
 20
-156.42662756506
 30
0.0
 10
102.1267550742947
 20
-156.42662756506
 30
0.0
 10
102.1267550742947
 20
-156.42662756506
 30
0.0
 10
102.1267550742947
 20
-157.970719361549
 30
0.0
 10
102.1267550742947
 20
-157.970719361549
 30
0.0
 10
102.1267550742947
 20
-157.970719361549
 30
0.0
 10
101.8869764285213
 20
-157.970719361549
 30
0.0
 10
101.8869764285213
 20
-157.970719361549
 30
0.0
  0
HATCH
  5
CB
330
C6
100
AcDbEntity
  8
_U+30EC_U+30A4_U+30E4_U+30FC 1
 62
   179
420
  2234388
100
AcDbHatch
 10
0.0
 20
0.0
 30
0.0
210
0.0
220
0.0
230
1.0
  2
SOLID
 70
     1
 71
     0
 91
        1
 92
        1
 93
        1
 72
     4
 94
        3
 73
     0
 74
     1
 95
       26
 96
       22
 40
0.0
 40
0.0
 40
0.0
 40
0.0
 40
1.0
 40
1.0
 40
1.0
 40
2.0
 40
2.0
 40
2.0
 40
3.0
 40
3.0
 40
3.0
 40
4.0
 40
4.0
 40
4.0
 40
5.0
 40
5.0
 40
5.0
 40
6.0
 40
6.0
 40
6.0
 40
7.0
 40
7.0
 40
7.0
 40
7.0
 10
101.8869764285213
 20
-157.970719361549
 10
101.8869764285213
 20
-157.970719361549
 10
101.8869764285213
 20
-156.8665662585264
 10
101.8869764285213
 20
-156.8665662585264
 10
101.8869764285213
 20
-156.8665662585264
 10
101.5345431603803
 20
-156.8665662585264
 10
101.5345431603803
 20
-156.8665662585264
 10
101.5345431603803
 20
-156.8665662585264
 10
101.5345431603803
 20
-156.7184271526607
 10
101.5345431603803
 20
-156.7184271526607
 10
101.889387995361
 20
-156.7036132420741
 10
101.9389973703486
 20
-156.5406602256218
 10
101.9706922488129
 20
-156.42662756506
 10
101.9706922488129
 20
-156.42662756506
 10
102.1267550742947
 20
-156.42662756506
 10
102.1267550742947
 20
-156.42662756506
 10
102.1267550742947
 20
-156.42662756506
 10
102.1267550742947
 20
-157.970719361549
 10
102.1267550742947
 20
-157.970719361549
 10
102.1267550742947
 20
-157.970719361549
 10
101.8869764285213
 20
-157.970719361549
 10
101.8869764285213
 20
-157.970719361549
 97
        0
 97
        0
 75
     2
 76
     1
 98
        0
  0
SPLINE
  5
CC
330
C6
100
AcDbEntity
  8
_U+30EC_U+30A4_U+30E4_U+30FC 1
370
     0
100
AcDbSpline
210
0.0
220
0.0
230
1.0
 70
    11
 71
     3
 72
    29
 73
    25
 74
     0
 42
0.0000000001
 43
0.0000000001
 12
1.0
 22
0.0
 32
0.0
 13
1.0
 23
0.0
 33
0.0
 40
0.0
 40
0.0
 40
0.0
 40
0.0
 40
1.0
 40
1.0
 40
1.0
 40
2.0
 40
2.0
 40
2.0
 40
3.0
 40
3.0
 40
3.0
 40
4.0
 40
4.0
 40
4.0
 40
5.0
 40
5.0
 40
5.0
 40
6.0
 40
6.0
 40
6.0
 40
7.0
 40
7.0
 40
7.0
 40
8.0
 40
8.0
 40
8.0
 40
8.0
 10
103.6219265148931
 20
-157.7929524345101
 30
0.0
 10
103.5065158161373
 20
-158.0024142400133
 30
0.0
 10
103.3211696790308
 20
-158.0217067747307
 30
0.0
 10
103.1968017320133
 20
-158.0217067747307
 30
0.0
 10
103.0252359768479
 20
-158.0217067747307
 30
0.0
 10
102.8736517754969
 20
-157.9751979856798
 30
0.0
 10
102.772021458682
 20
-157.7929524345101
 30
0.0
 10
102.661089384057
 20
-157.5983045395935
 30
0.0
 10
102.640763320694
 20
-157.3616264797568
 30
0.0
 10
102.640763320694
 20
-157.1986734633045
 30
0.0
 10
102.640763320694
 20
-157.0546684720211
 30
0.0
 10
102.6590223267658
 20
-156.8031765015978
 30
0.0
 10
102.772021458682
 20
-156.6040499825504
 30
0.0
 10
102.8870876478893
 20
-156.4011338584692
 30
0.0
 10
103.0589979126033
 20
-156.3777072091695
 30
0.0
 10
103.1968017320133
 20
-156.3777072091695
 30
0.0
 10
103.3666449394361
 20
-156.3777072091695
 30
0.0
 10
103.5202961980783
 20
-156.4221489409292
 30
0.0
 10
103.6219265148931
 20
-156.6040499825504
 30
0.0
 10
103.7283799653873
 20
-156.7966308201759
 30
0.0
 10
103.7531846528812
 20
-157.0250406508479
 30
0.0
 10
103.7531846528812
 20
-157.1986734633045
 30
0.0
 10
103.7531846528812
 20
-157.3698947089214
 30
0.0
 10
103.7304470226785
 20
-157.6007161064332
 30
0.0
 10
103.6219265148931
 20
-157.7929524345101
 30
0.0
  0
SPLINE
  5
CD
330
C6
100
AcDbEntity
  8
_U+30EC_U+30A4_U+30E4_U+30FC 1
370
     0
100
AcDbSpline
210
0.0
220
0.0
230
1.0
 70
    11
 71
     3
 72
    17
 73
    13
 74
     0
 42
0.0000000001
 43
0.0000000001
 12
1.0
 22
0.0
 32
0.0
 13
1.0
 23
0.0
 33
0.0
 40
0.0
 40
0.0
 40
0.0
 40
0.0
 40
1.0
 40
1.0
 40
1.0
 40
2.0
 40
2.0
 40
2.0
 40
3.0
 40
3.0
 40
3.0
 40
4.0
 40
4.0
 40
4.0
 40
4.0
 10
103.1968017320133
 20
-156.5702880467949
 30
0.0
 10
102.930151341455
 20
-156.5702880467949
 30
0.0
 10
102.8805419664674
 20
-156.853819405231
 30
0.0
 10
102.8805419664674
 20
-157.1986734633045
 30
0.0
 10
102.8805419664674
 20
-157.5180338147872
 30
0.0
 10
102.9187825263536
 20
-157.8270588798141
 30
0.0
 10
103.1968017320133
 20
-157.8270588798141
 30
0.0
 10
103.4613850652805
 20
-157.8270588798141
 30
0.0
 10
103.5134060071078
 20
-157.5455945786692
 30
0.0
 10
103.5134060071078
 20
-157.1986734633045
 30
0.0
 10
103.5134060071078
 20
-156.8793131118219
 30
0.0
 10
103.4727538803818
 20
-156.5702880467949
 30
0.0
 10
103.1968017320133
 20
-156.5702880467949
 30
0.0
  0
HATCH
  5
CE
330
C6
100
AcDbEntity
  8
_U+30EC_U+30A4_U+30E4_U+30FC 1
 62
   179
420
  2234388
100
AcDbHatch
 10
0.0
 20
0.0
 30
0.0
210
0.0
220
0.0
230
1.0
  2
SOLID
 70
     1
 71
     0
 91
        2
 92
        1
 93
        1
 72
     4
 94
        3
 73
     0
 74
     1
 95
       29
 96
       25
 40
0.0
 40
0.0
 40
0.0
 40
0.0
 40
1.0
 40
1.0
 40
1.0
 40
2.0
 40
2.0
 40
2.0
 40
3.0
 40
3.0
 40
3.0
 40
4.0
 40
4.0
 40
4.0
 40
5.0
 40
5.0
 40
5.0
 40
6.0
 40
6.0
 40
6.0
 40
7.0
 40
7.0
 40
7.0
 40
8.0
 40
8.0
 40
8.0
 40
8.0
 10
103.6219265148931
 20
-157.7929524345101
 10
103.5065158161373
 20
-158.0024142400133
 10
103.3211696790308
 20
-158.0217067747307
 10
103.1968017320133
 20
-158.0217067747307
 10
103.0252359768479
 20
-158.0217067747307
 10
102.8736517754969
 20
-157.9751979856798
 10
102.772021458682
 20
-157.7929524345101
 10
102.661089384057
 20
-157.5983045395935
 10
102.640763320694
 20
-157.3616264797568
 10
102.640763320694
 20
-157.1986734633045
 10
102.640763320694
 20
-157.0546684720211
 10
102.6590223267658
 20
-156.8031765015978
 10
102.772021458682
 20
-156.6040499825504
 10
102.8870876478893
 20
-156.4011338584692
 10
103.0589979126033
 20
-156.3777072091695
 10
103.1968017320133
 20
-156.3777072091695
 10
103.3666449394361
 20
-156.3777072091695
 10
103.5202961980783
 20
-156.4221489409292
 10
103.6219265148931
 20
-156.6040499825504
 10
103.7283799653873
 20
-156.7966308201759
 10
103.7531846528812
 20
-157.0250406508479
 10
103.7531846528812
 20
-157.1986734633045
 10
103.7531846528812
 20
-157.3698947089214
 10
103.7304470226785
 20
-157.6007161064332
 10
103.6219265148931
 20
-157.7929524345101
 97
        0
 97
        0
 92
        1
 93
        1
 72
     4
 94
        3
 73
     0
 74
     1
 95
       17
 96
       13
 40
0.0
 40
0.0
 40
0.0
 40
0.0
 40
1.0
 40
1.0
 40
1.0
 40
2.0
 40
2.0
 40
2.0
 40
3.0
 40
3.0
 40
3.0
 40
4.0
 40
4.0
 40
4.0
 40
4.0
 10
103.1968017320133
 20
-156.5702880467949
 10
102.930151341455
 20
-156.5702880467949
 10
102.8805419664674
 20
-156.853819405231
 10
102.8805419664674
 20
-157.1986734633045
 10
102.8805419664674
 20
-157.5180338147872
 10
102.9187825263536
 20
-157.8270588798141
 10
103.1968017320133
 20
-157.8270588798141
 10
103.4613850652805
 20
-157.8270588798141
 10
103.5134060071078
 20
-157.5455945786692
 10
103.5134060071078
 20
-157.1986734633045
 10
103.5134060071078
 20
-156.8793131118219
 10
103.4727538803818
 20
-156.5702880467949
 10
103.1968017320133
 20
-156.5702880467949
 97
        0
 97
        0
 75
     2
 76
     1
 98
        0
  0
ENDBLK
  5
C9
330
C6
100
AcDbEntity
  8
0
100
AcDbBlockEnd
  0
BLOCK
  5
D9
330
D7
100
AcDbEntity
  8
0
100
AcDbBlockBegin
  2
block 5
 70
     0
 10
0.0
 20
0.0
 30
0.0
  3
block 5
  1

  0
SPLINE
  5
DB
330
D7
100
AcDbEntity
  8
_U+30EC_U+30A4_U+30E4_U+30FC 1
370
     0
100
AcDbSpline
210
0.0
220
0.0
230
1.0
 70
    11
 71
     3
 72
    26
 73
    22
 74
     0
 42
0.0000000001
 43
0.0000000001
 12
1.0
 22
0.0
 32
0.0
 13
1.0
 23
0.0
 33
0.0
 40
0.0
 40
0.0
 40
0.0
 40
0.0
 40
1.0
 40
1.0
 40
1.0
 40
2.0
 40
2.0
 40
2.0
 40
3.0
 40
3.0
 40
3.0
 40
4.0
 40
4.0
 40
4.0
 40
5.0
 40
5.0
 40
5.0
 40
6.0
 40
6.0
 40
6.0
 40
7.0
 40
7.0
 40
7.0
 40
7.0
 10
90.8871310536671
 20
-157.970719361549
 30
0.0
 10
90.8871310536671
 20
-157.970719361549
 30
0.0
 10
90.8871310536671
 20
-156.8665662585264
 30
0.0
 10
90.8871310536671
 20
-156.8665662585264
 30
0.0
 10
90.8871310536671
 20
-156.8665662585264
 30
0.0
 10
90.53469778552605
 20
-156.8665662585264
 30
0.0
 10
90.53469778552605
 20
-156.8665662585264
 30
0.0
 10
90.53469778552605
 20
-156.8665662585264
 30
0.0
 10
90.53469778552605
 20
-156.7184271526607
 30
0.0
 10
90.53469778552605
 20
-156.7184271526607
 30
0.0
 10
90.88954262050679
 20
-156.7036132420741
 30
0.0
 10
90.93915199549438
 20
-156.5406602256218
 30
0.0
 10
90.97084687395868
 20
-156.42662756506
 30
0.0
 10
90.97084687395868
 20
-156.42662756506
 30
0.0
 10
91.1269096994405
 20
-156.42662756506
 30
0.0
 10
91.1269096994405
 20
-156.42662756506
 30
0.0
 10
91.1269096994405
 20
-156.42662756506
 30
0.0
 10
91.1269096994405
 20
-157.970719361549
 30
0.0
 10
91.1269096994405
 20
-157.970719361549
 30
0.0
 10
91.1269096994405
 20
-157.970719361549
 30
0.0
 10
90.8871310536671
 20
-157.970719361549
 30
0.0
 10
90.8871310536671
 20
-157.970719361549
 30
0.0
  0
HATCH
  5
DC
330
D7
100
AcDbEntity
  8
_U+30EC_U+30A4_U+30E4_U+30FC 1
 62
   179
420
  2234388
100
AcDbHatch
 10
0.0
 20
0.0
 30
0.0
210
0.0
220
0.0
230
1.0
  2
SOLID
 70
     1
 71
     0
 91
        1
 92
        1
 93
        1
 72
     4
 94
        3
 73
     0
 74
     1
 95
       26
 96
       22
 40
0.0
 40
0.0
 40
0.0
 40
0.0
 40
1.0
 40
1.0
 40
1.0
 40
2.0
 40
2.0
 40
2.0
 40
3.0
 40
3.0
 40
3.0
 40
4.0
 40
4.0
 40
4.0
 40
5.0
 40
5.0
 40
5.0
 40
6.0
 40
6.0
 40
6.0
 40
7.0
 40
7.0
 40
7.0
 40
7.0
 10
90.8871310536671
 20
-157.970719361549
 10
90.8871310536671
 20
-157.970719361549
 10
90.8871310536671
 20
-156.8665662585264
 10
90.8871310536671
 20
-156.8665662585264
 10
90.8871310536671
 20
-156.8665662585264
 10
90.53469778552605
 20
-156.8665662585264
 10
90.53469778552605
 20
-156.8665662585264
 10
90.53469778552605
 20
-156.8665662585264
 10
90.53469778552605
 20
-156.7184271526607
 10
90.53469778552605
 20
-156.7184271526607
 10
90.88954262050679
 20
-156.7036132420741
 10
90.93915199549438
 20
-156.5406602256218
 10
90.97084687395868
 20
-156.42662756506
 10
90.97084687395868
 20
-156.42662756506
 10
91.1269096994405
 20
-156.42662756506
 10
91.1269096994405
 20
-156.42662756506
 10
91.1269096994405
 20
-156.42662756506
 10
91.1269096994405
 20
-157.970719361549
 10
91.1269096994405
 20
-157.970719361549
 10
91.1269096994405
 20
-157.970719361549
 10
90.8871310536671
 20
-157.970719361549
 10
90.8871310536671
 20
-157.970719361549
 97
        0
 97
        0
 75
     2
 76
     1
 98
        0
  0
SPLINE
  5
DD
330
D7
100
AcDbEntity
  8
_U+30EC_U+30A4_U+30E4_U+30FC 1
370
     0
100
AcDbSpline
210
0.0
220
0.0
230
1.0
 70
    11
 71
     3
 72
    44
 73
    40
 74
     0
 42
0.0000000001
 43
0.0000000001
 12
1.0
 22
0.0
 32
0.0
 13
1.0
 23
0.0
 33
0.0
 40
0.0
 40
0.0
 40
0.0
 40
0.0
 40
1.0
 40
1.0
 40
1.0
 40
2.0
 40
2.0
 40
2.0
 40
3.0
 40
3.0
 40
3.0
 40
4.0
 40
4.0
 40
4.0
 40
5.0
 40
5.0
 40
5.0
 40
6.0
 40
6.0
 40
6.0
 40
7.0
 40
7.0
 40
7.0
 40
8.0
 40
8.0
 40
8.0
 40
9.0
 40
9.0
 40
9.0
 40
10.0
 40
10.0
 40
10.0
 40
11.0
 40
11.0
 40
11.0
 40
12.0
 40
12.0
 40
12.0
 40
13.0
 40
13.0
 40
13.0
 40
13.0
 10
92.29651961668282
 20
-157.3891872436388
 30
0.0
 10
92.06363116187993
 20
-157.5476616359603
 30
0.0
 10
91.9640679023562
 20
-157.6217311888932
 30
0.0
 10
91.91239147007747
 20
-157.7657361801766
 30
0.0
 10
91.91239147007747
 20
-157.7657361801766
 30
0.0
 10
92.74403752021678
 20
-157.7657361801766
 30
0.0
 10
92.74403752021678
 20
-157.7657361801766
 30
0.0
 10
92.74403752021678
 20
-157.7657361801766
 30
0.0
 10
92.74403752021678
 20
-157.970719361549
 30
0.0
 10
92.74403752021678
 20
-157.970719361549
 30
0.0
 10
92.74403752021678
 20
-157.970719361549
 30
0.0
 10
91.6453965699706
 20
-157.970719361549
 30
0.0
 10
91.6453965699706
 20
-157.970719361549
 30
0.0
 10
91.67950301527458
 20
-157.6131184501801
 30
0.0
 10
91.74943845362515
 20
-157.5349147826649
 30
0.0
 10
92.16078285456398
 20
-157.2365695136423
 30
0.0
 10
92.43432343609281
 20
-157.0377875041433
 30
0.0
 10
92.5046033839919
 20
-156.9702636326325
 30
0.0
 10
92.5046033839919
 20
-156.832804322771
 30
0.0
 10
92.5046033839919
 20
-156.7142930380784
 30
0.0
 10
92.42777775467084
 20
-156.5830349000904
 30
0.0
 10
92.21728242052207
 20
-156.5830349000904
 30
0.0
 10
91.93926321486241
 20
-156.5830349000904
 30
0.0
 10
91.93030596660076
 20
-156.8135117880536
 30
0.0
 10
91.92582734246993
 20
-156.929956015455
 30
0.0
 10
91.92582734246993
 20
-156.929956015455
 30
0.0
 10
91.68604869669655
 20
-156.929956015455
 30
0.0
 10
91.68604869669655
 20
-156.929956015455
 30
0.0
 10
91.69535045450672
 20
-156.8031765015978
 30
0.0
 10
91.70637476005952
 20
-156.6908663887787
 30
0.0
 10
91.79250214719077
 20
-156.5723551040861
 30
0.0
 10
91.90997990323778
 20
-156.4118136544734
 30
0.0
 10
92.1087619127367
 20
-156.3777072091695
 30
0.0
 10
92.23312985975423
 20
-156.3777072091695
 30
0.0
 10
92.5294080714857
 20
-156.3777072091695
 30
0.0
 10
92.75092771118727
 20
-156.5620198176303
 30
0.0
 10
92.75092771118727
 20
-156.8348713800621
 30
0.0
 10
92.75092771118727
 20
-157.0632812107342
 30
0.0
 10
92.62655976416976
 20
-157.1628444702579
 30
0.0
 10
92.29651961668282
 20
-157.3891872436388
 30
0.0
  0
HATCH
  5
DE
330
D7
100
AcDbEntity
  8
_U+30EC_U+30A4_U+30E4_U+30FC 1
 62
   179
420
  2234388
100
AcDbHatch
 10
0.0
 20
0.0
 30
0.0
210
0.0
220
0.0
230
1.0
  2
SOLID
 70
     1
 71
     0
 91
        1
 92
        1
 93
        1
 72
     4
 94
        3
 73
     0
 74
     1
 95
       44
 96
       40
 40
0.0
 40
0.0
 40
0.0
 40
0.0
 40
1.0
 40
1.0
 40
1.0
 40
2.0
 40
2.0
 40
2.0
 40
3.0
 40
3.0
 40
3.0
 40
4.0
 40
4.0
 40
4.0
 40
5.0
 40
5.0
 40
5.0
 40
6.0
 40
6.0
 40
6.0
 40
7.0
 40
7.0
 40
7.0
 40
8.0
 40
8.0
 40
8.0
 40
9.0
 40
9.0
 40
9.0
 40
10.0
 40
10.0
 40
10.0
 40
11.0
 40
11.0
 40
11.0
 40
12.0
 40
12.0
 40
12.0
 40
13.0
 40
13.0
 40
13.0
 40
13.0
 10
92.29651961668282
 20
-157.3891872436388
 10
92.06363116187993
 20
-157.5476616359603
 10
91.9640679023562
 20
-157.6217311888932
 10
91.91239147007747
 20
-157.7657361801766
 10
91.91239147007747
 20
-157.7657361801766
 10
92.74403752021678
 20
-157.7657361801766
 10
92.74403752021678
 20
-157.7657361801766
 10
92.74403752021678
 20
-157.7657361801766
 10
92.74403752021678
 20
-157.970719361549
 10
92.74403752021678
 20
-157.970719361549
 10
92.74403752021678
 20
-157.970719361549
 10
91.6453965699706
 20
-157.970719361549
 10
91.6453965699706
 20
-157.970719361549
 10
91.67950301527458
 20
-157.6131184501801
 10
91.74943845362515
 20
-157.5349147826649
 10
92.16078285456398
 20
-157.2365695136423
 10
92.43432343609281
 20
-157.0377875041433
 10
92.5046033839919
 20
-156.9702636326325
 10
92.5046033839919
 20
-156.832804322771
 10
92.5046033839919
 20
-156.7142930380784
 10
92.42777775467084
 20
-156.5830349000904
 10
92.21728242052207
 20
-156.5830349000904
 10
91.93926321486241
 20
-156.5830349000904
 10
91.93030596660076
 20
-156.8135117880536
 10
91.92582734246993
 20
-156.929956015455
 10
91.92582734246993
 20
-156.929956015455
 10
91.68604869669655
 20
-156.929956015455
 10
91.68604869669655
 20
-156.929956015455
 10
91.69535045450672
 20
-156.8031765015978
 10
91.70637476005952
 20
-156.6908663887787
 10
91.79250214719077
 20
-156.5723551040861
 10
91.90997990323778
 20
-156.4118136544734
 10
92.1087619127367
 20
-156.3777072091695
 10
92.23312985975423
 20
-156.3777072091695
 10
92.5294080714857
 20
-156.3777072091695
 10
92.75092771118727
 20
-156.5620198176303
 10
92.75092771118727
 20
-156.8348713800621
 10
92.75092771118727
 20
-157.0632812107342
 10
92.62655976416976
 20
-157.1628444702579
 10
92.29651961668282
 20
-157.3891872436388
 97
        0
 97
        0
 75
     2
 76
     1
 98
        0
  0
ENDBLK
  5
DA
330
D7
100
AcDbEntity
  8
0
100
AcDbBlockEnd
  0
BLOCK
  5
ED
330
EB
100
AcDbEntity
  8
0
100
AcDbBlockBegin
  2
block 6
 70
     0
 10
0.0
 20
0.0
 30
0.0
  3
block 6
  1

  0
SPLINE
  5
EF
330
EB
100
AcDbEntity
  8
_U+30EC_U+30A4_U+30E4_U+30FC 1
370
     0
100
AcDbSpline
210
0.0
220
0.0
230
1.0
 70
    11
 71
     3
 72
    62
 73
    58
 74
     0
 42
0.0000000001
 43
0.0000000001
 12
1.0
 22
0.0
 32
0.0
 13
1.0
 23
0.0
 33
0.0
 40
0.0
 40
0.0
 40
0.0
 40
0.0
 40
1.0
 40
1.0
 40
1.0
 40
2.0
 40
2.0
 40
2.0
 40
3.0
 40
3.0
 40
3.0
 40
4.0
 40
4.0
 40
4.0
 40
5.0
 40
5.0
 40
5.0
 40
6.0
 40
6.0
 40
6.0
 40
7.0
 40
7.0
 40
7.0
 40
8.0
 40
8.0
 40
8.0
 40
9.0
 40
9.0
 40
9.0
 40
10.0
 40
10.0
 40
10.0
 40
11.0
 40
11.0
 40
11.0
 40
12.0
 40
12.0
 40
12.0
 40
13.0
 40
13.0
 40
13.0
 40
14.0
 40
14.0
 40
14.0
 40
15.0
 40
15.0
 40
15.0
 40
16.0
 40
16.0
 40
16.0
 40
17.0
 40
17.0
 40
17.0
 40
18.0
 40
18.0
 40
18.0
 40
19.0
 40
19.0
 40
19.0
 40
19.0
 10
101.9303846316355
 20
-139.5218885284876
 30
0.0
 10
101.8287543148206
 20
-139.5218885284876
 30
0.0
 10
101.5958658600177
 20
-139.5007011912533
 30
0.0
 10
101.4625406647385
 20
-139.3144937802755
 30
0.0
 10
101.3833034685778
 20
-139.2023559222307
 30
0.0
 10
101.378824844447
 20
-139.1029649174812
 30
0.0
 10
101.3743462203161
 20
-139.0183878233183
 30
0.0
 10
101.3743462203161
 20
-139.0183878233183
 30
0.0
 10
101.6093017324102
 20
-139.0183878233183
 30
0.0
 10
101.6093017324102
 20
-139.0183878233183
 30
0.0
 10
101.6117132992499
 20
-139.0924573762512
 30
0.0
 10
101.6230821143512
 20
-139.327240633571
 30
0.0
 10
101.9259060075046
 20
-139.327240633571
 30
0.0
 10
102.0730115847248
 20
-139.327240633571
 30
0.0
 10
102.2356200916286
 20
-139.2574774499947
 30
0.0
 10
102.2356200916286
 20
-139.0288953645483
 30
0.0
 10
102.2356200916286
 20
-138.9126233919212
 30
0.0
 10
102.1949679649026
 20
-138.8638752908049
 30
0.0
 10
102.1608615195987
 20
-138.8321804123406
 30
0.0
 10
102.0819688329865
 20
-138.7581108594077
 30
0.0
 10
101.9576008859689
 20
-138.7455362608866
 30
0.0
 10
101.8986897531712
 20
-138.7455362608866
 30
0.0
 10
101.8783636898082
 20
-138.7455362608866
 30
0.0
 10
101.8401231299219
 20
-138.7476033181777
 30
0.0
 10
101.8104953087488
 20
-138.75173743276
 30
0.0
 10
101.8104953087488
 20
-138.75173743276
 30
0.0
 10
101.8104953087488
 20
-138.5570895378434
 30
0.0
 10
101.8104953087488
 20
-138.5570895378434
 30
0.0
 10
101.8511474354747
 20
-138.5634629644911
 30
0.0
 10
101.89662269588
 20
-138.5657022765565
 30
0.0
 10
101.903168377302
 20
-138.5657022765565
 30
0.0
 10
101.9734483252011
 20
-138.5657022765565
 30
0.0
 10
102.186010716641
 20
-138.5445149393222
 30
0.0
 10
102.186010716641
 20
-138.307492369937
 30
0.0
 10
102.186010716641
 20
-138.1298976976724
 30
0.0
 10
102.0457953303913
 20
-138.0747761699084
 30
0.0
 10
101.9283175743443
 20
-138.0747761699084
 30
0.0
 10
101.6454752350053
 20
-138.0747761699084
 30
0.0
 10
101.6365179867437
 20
-138.307492369937
 30
0.0
 10
101.6320393626128
 20
-138.3794948655787
 30
0.0
 10
101.6320393626128
 20
-138.3794948655787
 30
0.0
 10
101.4149983470421
 20
-138.3794948655787
 30
0.0
 10
101.4149983470421
 20
-138.3794948655787
 30
0.0
 10
101.4239555953037
 20
-138.2546101542384
 30
0.0
 10
101.4532389069284
 20
-137.8780612177006
 30
0.0
 10
101.9417534467368
 20
-137.8780612177006
 30
0.0
 10
102.1815320925102
 20
-137.8780612177006
 30
0.0
 10
102.4392252348069
 20
-138.0050129863321
 30
0.0
 10
102.4392252348069
 20
-138.3011189432893
 30
0.0
 10
102.4392252348069
 20
-138.4873263542671
 30
0.0
 10
102.3372504084435
 20
-138.5698363911388
 30
0.0
 10
102.2311414674978
 20
-138.6311590907762
 30
0.0
 10
102.2965982817175
 20
-138.6587198546582
 30
0.0
 10
102.4912461766341
 20
-138.7391628342388
 30
0.0
 10
102.4912461766341
 20
-139.0163207660272
 30
0.0
 10
102.4912461766341
 20
-139.354801397453
 30
0.0
 10
102.226662843367
 20
-139.5218885284876
 30
0.0
 10
101.9303846316355
 20
-139.5218885284876
 30
0.0
  0
HATCH
  5
F0
330
EB
100
AcDbEntity
  8
_U+30EC_U+30A4_U+30E4_U+30FC 1
 62
   179
420
  2234388
100
AcDbHatch
 10
0.0
 20
0.0
 30
0.0
210
0.0
220
0.0
230
1.0
  2
SOLID
 70
     1
 71
     0
 91
        1
 92
        1
 93
        1
 72
     4
 94
        3
 73
     0
 74
     1
 95
       62
 96
       58
 40
0.0
 40
0.0
 40
0.0
 40
0.0
 40
1.0
 40
1.0
 40
1.0
 40
2.0
 40
2.0
 40
2.0
 40
3.0
 40
3.0
 40
3.0
 40
4.0
 40
4.0
 40
4.0
 40
5.0
 40
5.0
 40
5.0
 40
6.0
 40
6.0
 40
6.0
 40
7.0
 40
7.0
 40
7.0
 40
8.0
 40
8.0
 40
8.0
 40
9.0
 40
9.0
 40
9.0
 40
10.0
 40
10.0
 40
10.0
 40
11.0
 40
11.0
 40
11.0
 40
12.0
 40
12.0
 40
12.0
 40
13.0
 40
13.0
 40
13.0
 40
14.0
 40
14.0
 40
14.0
 40
15.0
 40
15.0
 40
15.0
 40
16.0
 40
16.0
 40
16.0
 40
17.0
 40
17.0
 40
17.0
 40
18.0
 40
18.0
 40
18.0
 40
19.0
 40
19.0
 40
19.0
 40
19.0
 10
101.9303846316355
 20
-139.5218885284876
 10
101.8287543148206
 20
-139.5218885284876
 10
101.5958658600177
 20
-139.5007011912533
 10
101.4625406647385
 20
-139.3144937802755
 10
101.3833034685778
 20
-139.2023559222307
 10
101.378824844447
 20
-139.1029649174812
 10
101.3743462203161
 20
-139.0183878233183
 10
101.3743462203161
 20
-139.0183878233183
 10
101.6093017324102
 20
-139.0183878233183
 10
101.6093017324102
 20
-139.0183878233183
 10
101.6117132992499
 20
-139.0924573762512
 10
101.6230821143512
 20
-139.327240633571
 10
101.9259060075046
 20
-139.327240633571
 10
102.0730115847248
 20
-139.327240633571
 10
102.2356200916286
 20
-139.2574774499947
 10
102.2356200916286
 20
-139.0288953645483
 10
102.2356200916286
 20
-138.9126233919212
 10
102.1949679649026
 20
-138.8638752908049
 10
102.1608615195987
 20
-138.8321804123406
 10
102.0819688329865
 20
-138.7581108594077
 10
101.9576008859689
 20
-138.7455362608866
 10
101.8986897531712
 20
-138.7455362608866
 10
101.8783636898082
 20
-138.7455362608866
 10
101.8401231299219
 20
-138.7476033181777
 10
101.8104953087488
 20
-138.75173743276
 10
101.8104953087488
 20
-138.75173743276
 10
101.8104953087488
 20
-138.5570895378434
 10
101.8104953087488
 20
-138.5570895378434
 10
101.8511474354747
 20
-138.5634629644911
 10
101.89662269588
 20
-138.5657022765565
 10
101.903168377302
 20
-138.5657022765565
 10
101.9734483252011
 20
-138.5657022765565
 10
102.186010716641
 20
-138.5445149393222
 10
102.186010716641
 20
-138.307492369937
 10
102.186010716641
 20
-138.1298976976724
 10
102.0457953303913
 20
-138.0747761699084
 10
101.9283175743443
 20
-138.0747761699084
 10
101.6454752350053
 20
-138.0747761699084
 10
101.6365179867437
 20
-138.307492369937
 10
101.6320393626128
 20
-138.3794948655787
 10
101.6320393626128
 20
-138.3794948655787
 10
101.4149983470421
 20
-138.3794948655787
 10
101.4149983470421
 20
-138.3794948655787
 10
101.4239555953037
 20
-138.2546101542384
 10
101.4532389069284
 20
-137.8780612177006
 10
101.9417534467368
 20
-137.8780612177006
 10
102.1815320925102
 20
-137.8780612177006
 10
102.4392252348069
 20
-138.0050129863321
 10
102.4392252348069
 20
-138.3011189432893
 10
102.4392252348069
 20
-138.4873263542671
 10
102.3372504084435
 20
-138.5698363911388
 10
102.2311414674978
 20
-138.6311590907762
 10
102.2965982817175
 20
-138.6587198546582
 10
102.4912461766341
 20
-138.7391628342388
 10
102.4912461766341
 20
-139.0163207660272
 10
102.4912461766341
 20
-139.354801397453
 10
102.226662843367
 20
-139.5218885284876
 10
101.9303846316355
 20
-139.5218885284876
 97
        0
 97
        0
 75
     2
 76
     1
 98
        0
  0
POLYLINE
  5
F1
330
EB
100
AcDbEntity
  8
_U+30EC_U+30A4_U+30E4_U+30FC 1
370
     0
100
AcDb2dPolyline
 66
     1
 10
0.0
 20
0.0
 30
0.0
  0
VERTEX
  5
F2
330
F1
100
AcDbEntity
  8
_U+30EC_U+30A4_U+30E4_U+30FC 1
370
     0
100
AcDbVertex
100
AcDb2dVertex
 10
103.5523355860911
 20
-139.1241522547155
 30
0.0
  0
VERTEX
  5
F3
330
F1
100
AcDbEntity
  8
_U+30EC_U+30A4_U+30E4_U+30FC 1
370
     0
100
AcDbVertex
100
AcDb2dVertex
 10
103.5523355860911
 20
-139.4710733700801
 30
0.0
  0
VERTEX
  5
F4
330
F1
100
AcDbEntity
  8
_U+30EC_U+30A4_U+30E4_U+30FC 1
370
     0
100
AcDbVertex
100
AcDb2dVertex
 10
103.3194471312882
 20
-139.4710733700801
 30
0.0
  0
VERTEX
  5
F5
330
F1
100
AcDbEntity
  8
_U+30EC_U+30A4_U+30E4_U+30FC 1
370
     0
100
AcDbVertex
100
AcDb2dVertex
 10
103.3194471312882
 20
-139.1241522547155
 30
0.0
  0
VERTEX
  5
F6
330
F1
100
AcDbEntity
  8
_U+30EC_U+30A4_U+30E4_U+30FC 1
370
     0
100
AcDbVertex
100
AcDb2dVertex
 10
102.6183702000399
 20
-139.1241522547155
 30
0.0
  0
VERTEX
  5
F7
330
F1
100
AcDbEntity
  8
_U+30EC_U+30A4_U+30E4_U+30FC 1
370
     0
100
AcDbVertex
100
AcDb2dVertex
 10
102.6183702000399
 20
-138.8998765386257
 30
0.0
  0
VERTEX
  5
F8
330
F1
100
AcDbEntity
  8
_U+30EC_U+30A4_U+30E4_U+30FC 1
370
     0
100
AcDbVertex
100
AcDb2dVertex
 10
103.344251818782
 20
-137.9268093188169
 30
0.0
  0
VERTEX
  5
F9
330
F1
100
AcDbEntity
  8
_U+30EC_U+30A4_U+30E4_U+30FC 1
370
     0
100
AcDbVertex
100
AcDb2dVertex
 10
103.5523355860911
 20
-137.9268093188169
 30
0.0
  0
VERTEX
  5
FA
330
F1
100
AcDbEntity
  8
_U+30EC_U+30A4_U+30E4_U+30FC 1
370
     0
100
AcDbVertex
100
AcDb2dVertex
 10
103.5523355860911
 20
-138.9251979904423
 30
0.0
  0
VERTEX
  5
FB
330
F1
100
AcDbEntity
  8
_U+30EC_U+30A4_U+30E4_U+30FC 1
370
     0
100
AcDbVertex
100
AcDb2dVertex
 10
103.7738552257927
 20
-138.9251979904423
 30
0.0
  0
VERTEX
  5
FC
330
F1
100
AcDbEntity
  8
_U+30EC_U+30A4_U+30E4_U+30FC 1
370
     0
100
AcDbVertex
100
AcDb2dVertex
 10
103.7738552257927
 20
-139.1241522547155
 30
0.0
  0
VERTEX
  5
FD
330
F1
100
AcDbEntity
  8
_U+30EC_U+30A4_U+30E4_U+30FC 1
370
     0
100
AcDbVertex
100
AcDb2dVertex
 10
103.5523355860911
 20
-139.1241522547155
 30
0.0
  0
SEQEND
  5
FE
330
F1
100
AcDbEntity
  8
_U+30EC_U+30A4_U+30E4_U+30FC 1
370
     0
  0
POLYLINE
  5
FF
330
EB
100
AcDbEntity
  8
_U+30EC_U+30A4_U+30E4_U+30FC 1
370
     0
100
AcDb2dPolyline
 66
     1
 10
0.0
 20
0.0
 30
0.0
  0
VERTEX
  5
100
330
FF
100
AcDbEntity
  8
_U+30EC_U+30A4_U+30E4_U+30FC 1
370
     0
100
AcDbVertex
100
AcDb2dVertex
 10
103.3194471312882
 20
-138.269424064825
 30
0.0
  0
VERTEX
  5
101
330
FF
100
AcDbEntity
  8
_U+30EC_U+30A4_U+30E4_U+30FC 1
370
     0
100
AcDbVertex
100
AcDb2dVertex
 10
102.8309325914798
 20
-138.9251979904423
 30
0.0
  0
VERTEX
  5
102
330
FF
100
AcDbEntity
  8
_U+30EC_U+30A4_U+30E4_U+30FC 1
370
     0
100
AcDbVertex
100
AcDb2dVertex
 10
103.3194471312882
 20
-138.9251979904423
 30
0.0
  0
VERTEX
  5
103
330
FF
100
AcDbEntity
  8
_U+30EC_U+30A4_U+30E4_U+30FC 1
370
     0
100
AcDbVertex
100
AcDb2dVertex
 10
103.3194471312882
 20
-138.269424064825
 30
0.0
  0
SEQEND
  5
104
330
FF
100
AcDbEntity
  8
_U+30EC_U+30A4_U+30E4_U+30FC 1
370
     0
  0
HATCH
  5
105
330
EB
100
AcDbEntity
  8
_U+30EC_U+30A4_U+30E4_U+30FC 1
 62
   179
420
  2234388
100
AcDbHatch
 10
0.0
 20
0.0
 30
0.0
210
0.0
220
0.0
230
1.0
  2
SOLID
 70
     1
 71
     0
 91
        2
 92
        1
 93
       11
 72
     1
 10
103.5523355860911
 20
-139.1241522547155
 11
103.5523355860911
 21
-139.4710733700801
 72
     1
 10
103.5523355860911
 20
-139.4710733700801
 11
103.3194471312882
 21
-139.4710733700801
 72
     1
 10
103.3194471312882
 20
-139.4710733700801
 11
103.3194471312882
 21
-139.1241522547155
 72
     1
 10
103.3194471312882
 20
-139.1241522547155
 11
102.6183702000399
 21
-139.1241522547155
 72
     1
 10
102.6183702000399
 20
-139.1241522547155
 11
102.6183702000399
 21
-138.8998765386257
 72
     1
 10
102.6183702000399
 20
-138.8998765386257
 11
103.344251818782
 21
-137.9268093188169
 72
     1
 10
103.344251818782
 20
-137.9268093188169
 11
103.5523355860911
 21
-137.9268093188169
 72
     1
 10
103.5523355860911
 20
-137.9268093188169
 11
103.5523355860911
 21
-138.9251979904423
 72
     1
 10
103.5523355860911
 20
-138.9251979904423
 11
103.7738552257927
 21
-138.9251979904423
 72
     1
 10
103.7738552257927
 20
-138.9251979904423
 11
103.7738552257927
 21
-139.1241522547155
 72
     1
 10
103.7738552257927
 20
-139.1241522547155
 11
103.5523355860911
 21
-139.1241522547155
 97
        0
 92
        1
 93
        3
 72
     1
 10
103.3194471312882
 20
-138.269424064825
 11
102.8309325914798
 21
-138.9251979904423
 72
     1
 10
102.8309325914798
 20
-138.9251979904423
 11
103.3194471312882
 21
-138.9251979904423
 72
     1
 10
103.3194471312882
 20
-138.9251979904423
 11
103.3194471312882
 21
-138.269424064825
 97
        0
 75
     2
 76
     1
 98
        0
  0
ENDBLK
  5
EE
330
EB
100
AcDbEntity
  8
0
100
AcDbBlockEnd
  0
BLOCK
  5
110
330
10E
100
AcDbEntity
  8
0
100
AcDbBlockBegin
  2
block 7
 70
     0
 10
0.0
 20
0.0
 30
0.0
  3
block 7
  1

  0
SPLINE
  5
112
330
10E
100
AcDbEntity
  8
_U+30EC_U+30A4_U+30E4_U+30FC 1
370
     0
100
AcDbSpline
210
0.0
220
0.0
230
1.0
 70
    11
 71
     3
 72
    29
 73
    25
 74
     0
 42
0.0000000001
 43
0.0000000001
 12
1.0
 22
0.0
 32
0.0
 13
1.0
 23
0.0
 33
0.0
 40
0.0
 40
0.0
 40
0.0
 40
0.0
 40
1.0
 40
1.0
 40
1.0
 40
2.0
 40
2.0
 40
2.0
 40
3.0
 40
3.0
 40
3.0
 40
4.0
 40
4.0
 40
4.0
 40
5.0
 40
5.0
 40
5.0
 40
6.0
 40
6.0
 40
6.0
 40
7.0
 40
7.0
 40
7.0
 40
8.0
 40
8.0
 40
8.0
 40
8.0
 10
122.3126030510191
 20
-150.7973415421618
 30
0.0
 10
122.3126030510191
 20
-151.0819064292434
 30
0.0
 10
122.1747992316091
 20
-151.3533799534811
 30
0.0
 10
121.8258110589533
 20
-151.3533799534811
 30
0.0
 10
121.5698404643992
 20
-151.3533799534811
 30
0.0
 10
121.4747558290063
 20
-151.2017957521301
 30
0.0
 10
121.4134331293689
 20
-151.0887966202139
 30
0.0
 10
121.3541774870226
 20
-151.2221218154931
 30
0.0
 10
121.2398003169123
 20
-151.3037705784935
 30
0.0
 10
121.0792588672996
 20
-151.3037705784935
 30
0.0
 10
120.8039957380282
 20
-151.3037705784935
 30
0.0
 10
120.6686034854579
 20
-151.0912081870536
 30
0.0
 10
120.6686034854579
 20
-150.7973415421618
 30
0.0
 10
120.6686034854579
 20
-150.4941731394598
 30
0.0
 10
120.8126084767413
 20
-150.2909125058301
 30
0.0
 10
121.0792588672996
 20
-150.2909125058301
 30
0.0
 10
121.2398003169123
 20
-150.2909125058301
 30
0.0
 10
121.3541774870226
 20
-150.3742838165731
 30
0.0
 10
121.4134331293689
 20
-150.5079535214008
 30
0.0
 10
121.464076033002
 20
-150.4128688860079
 30
0.0
 10
121.5595051779435
 20
-150.2433701881336
 30
0.0
 10
121.821676944371
 20
-150.2433701881336
 30
0.0
 10
122.1961588236176
 20
-150.2433701881336
 30
0.0
 10
122.3126030510191
 20
-150.5417154571562
 30
0.0
 10
122.3126030510191
 20
-150.7973415421618
 30
0.0
  0
SPLINE
  5
113
330
10E
100
AcDbEntity
  8
_U+30EC_U+30A4_U+30E4_U+30FC 1
370
     0
100
AcDbSpline
210
0.0
220
0.0
230
1.0
 70
    11
 71
     3
 72
    17
 73
    13
 74
     0
 42
0.0000000001
 43
0.0000000001
 12
1.0
 22
0.0
 32
0.0
 13
1.0
 23
0.0
 33
0.0
 40
0.0
 40
0.0
 40
0.0
 40
0.0
 40
1.0
 40
1.0
 40
1.0
 40
2.0
 40
2.0
 40
2.0
 40
3.0
 40
3.0
 40
3.0
 40
4.0
 40
4.0
 40
4.0
 40
4.0
 10
120.8611843230833
 20
-150.7973415421618
 30
0.0
 10
120.8611843230833
 20
-150.9737304310066
 30
0.0
 10
120.9562689584762
 20
-151.0639919327201
 30
0.0
 10
121.0916612110465
 20
-151.0639919327201
 30
0.0
 10
121.2143066103214
 20
-151.0639919327201
 30
0.0
 10
121.332817895014
 20
-150.9871663033991
 30
0.0
 10
121.332817895014
 20
-150.7973415421618
 30
0.0
 10
121.332817895014
 20
-150.607172271376
 30
0.0
 10
121.2143066103214
 20
-150.5303466420549
 30
0.0
 10
121.0916612110465
 20
-150.5303466420549
 30
0.0
 10
120.9562689584762
 20
-150.5303466420549
 30
0.0
 10
120.8611843230833
 20
-150.6230197106081
 30
0.0
 10
120.8611843230833
 20
-150.7973415421618
 30
0.0
  0
SPLINE
  5
114
330
10E
100
AcDbEntity
  8
_U+30EC_U+30A4_U+30E4_U+30FC 1
370
     0
100
AcDbSpline
210
0.0
220
0.0
230
1.0
 70
    11
 71
     3
 72
    17
 73
    13
 74
     0
 42
0.0000000001
 43
0.0000000001
 12
1.0
 22
0.0
 32
0.0
 13
1.0
 23
0.0
 33
0.0
 40
0.0
 40
0.0
 40
0.0
 40
0.0
 40
1.0
 40
1.0
 40
1.0
 40
2.0
 40
2.0
 40
2.0
 40
3.0
 40
3.0
 40
3.0
 40
4.0
 40
4.0
 40
4.0
 40
4.0
 10
121.5212646180572
 20
-150.7973415421618
 30
0.0
 10
121.5212646180572
 20
-150.9509928008039
 30
0.0
 10
121.607736514737
 20
-151.1136013077077
 30
0.0
 10
121.8109971483667
 20
-151.1136013077077
 30
0.0
 10
122.0163248392876
 20
-151.1136013077077
 30
0.0
 10
122.1176106465539
 20
-150.9782090551374
 30
0.0
 10
122.1176106465539
 20
-150.7973415421618
 30
0.0
 10
122.1176106465539
 20
-150.5982150231143
 30
0.0
 10
121.994965247279
 20
-150.4807372670673
 30
0.0
 10
121.8171983202402
 20
-150.4807372670673
 30
0.0
 10
121.5953341709901
 20
-150.4807372670673
 30
0.0
 10
121.5212646180572
 20
-150.6547145890724
 30
0.0
 10
121.5212646180572
 20
-150.7973415421618
 30
0.0
  0
HATCH
  5
115
330
10E
100
AcDbEntity
  8
_U+30EC_U+30A4_U+30E4_U+30FC 1
 62
   179
420
  2234388
100
AcDbHatch
 10
0.0
 20
0.0
 30
0.0
210
0.0
220
0.0
230
1.0
  2
SOLID
 70
     1
 71
     0
 91
        3
 92
        1
 93
        1
 72
     4
 94
        3
 73
     0
 74
     1
 95
       29
 96
       25
 40
0.0
 40
0.0
 40
0.0
 40
0.0
 40
1.0
 40
1.0
 40
1.0
 40
2.0
 40
2.0
 40
2.0
 40
3.0
 40
3.0
 40
3.0
 40
4.0
 40
4.0
 40
4.0
 40
5.0
 40
5.0
 40
5.0
 40
6.0
 40
6.0
 40
6.0
 40
7.0
 40
7.0
 40
7.0
 40
8.0
 40
8.0
 40
8.0
 40
8.0
 10
122.3126030510191
 20
-150.7973415421618
 10
122.3126030510191
 20
-151.0819064292434
 10
122.1747992316091
 20
-151.3533799534811
 10
121.8258110589533
 20
-151.3533799534811
 10
121.5698404643992
 20
-151.3533799534811
 10
121.4747558290063
 20
-151.2017957521301
 10
121.4134331293689
 20
-151.0887966202139
 10
121.3541774870226
 20
-151.2221218154931
 10
121.2398003169123
 20
-151.3037705784935
 10
121.0792588672996
 20
-151.3037705784935
 10
120.8039957380282
 20
-151.3037705784935
 10
120.6686034854579
 20
-151.0912081870536
 10
120.6686034854579
 20
-150.7973415421618
 10
120.6686034854579
 20
-150.4941731394598
 10
120.8126084767413
 20
-150.2909125058301
 10
121.0792588672996
 20
-150.2909125058301
 10
121.2398003169123
 20
-150.2909125058301
 10
121.3541774870226
 20
-150.3742838165731
 10
121.4134331293689
 20
-150.5079535214008
 10
121.464076033002
 20
-150.4128688860079
 10
121.5595051779435
 20
-150.2433701881336
 10
121.821676944371
 20
-150.2433701881336
 10
122.1961588236176
 20
-150.2433701881336
 10
122.3126030510191
 20
-150.5417154571562
 10
122.3126030510191
 20
-150.7973415421618
 97
        0
 97
        0
 92
        1
 93
        1
 72
     4
 94
        3
 73
     0
 74
     1
 95
       17
 96
       13
 40
0.0
 40
0.0
 40
0.0
 40
0.0
 40
1.0
 40
1.0
 40
1.0
 40
2.0
 40
2.0
 40
2.0
 40
3.0
 40
3.0
 40
3.0
 40
4.0
 40
4.0
 40
4.0
 40
4.0
 10
120.8611843230833
 20
-150.7973415421618
 10
120.8611843230833
 20
-150.9737304310066
 10
120.9562689584762
 20
-151.0639919327201
 10
121.0916612110465
 20
-151.0639919327201
 10
121.2143066103214
 20
-151.0639919327201
 10
121.332817895014
 20
-150.9871663033991
 10
121.332817895014
 20
-150.7973415421618
 10
121.332817895014
 20
-150.607172271376
 10
121.2143066103214
 20
-150.5303466420549
 10
121.0916612110465
 20
-150.5303466420549
 10
120.9562689584762
 20
-150.5303466420549
 10
120.8611843230833
 20
-150.6230197106081
 10
120.8611843230833
 20
-150.7973415421618
 97
        0
 97
        0
 92
        1
 93
        1
 72
     4
 94
        3
 73
     0
 74
     1
 95
       17
 96
       13
 40
0.0
 40
0.0
 40
0.0
 40
0.0
 40
1.0
 40
1.0
 40
1.0
 40
2.0
 40
2.0
 40
2.0
 40
3.0
 40
3.0
 40
3.0
 40
4.0
 40
4.0
 40
4.0
 40
4.0
 10
121.5212646180572
 20
-150.7973415421618
 10
121.5212646180572
 20
-150.9509928008039
 10
121.607736514737
 20
-151.1136013077077
 10
121.8109971483667
 20
-151.1136013077077
 10
122.0163248392876
 20
-151.1136013077077
 10
122.1176106465539
 20
-150.9782090551374
 10
122.1176106465539
 20
-150.7973415421618
 10
122.1176106465539
 20
-150.5982150231143
 10
121.994965247279
 20
-150.4807372670673
 10
121.8171983202402
 20
-150.4807372670673
 10
121.5953341709901
 20
-150.4807372670673
 10
121.5212646180572
 20
-150.6547145890724
 10
121.5212646180572
 20
-150.7973415421618
 97
        0
 97
        0
 75
     2
 76
     1
 98
        0
  0
POLYLINE
  5
116
330
10E
100
AcDbEntity
  8
_U+30EC_U+30A4_U+30E4_U+30FC 1
370
     0
100
AcDb2dPolyline
 66
     1
 10
0.0
 20
0.0
 30
0.0
  0
VERTEX
  5
117
330
116
100
AcDbEntity
  8
_U+30EC_U+30A4_U+30E4_U+30FC 1
370
     0
100
AcDbVertex
100
AcDb2dVertex
 10
122.2616156378374
 20
-150.0097927142337
 30
0.0
  0
VERTEX
  5
118
330
116
100
AcDbEntity
  8
_U+30EC_U+30A4_U+30E4_U+30FC 1
370
     0
100
AcDbVertex
100
AcDb2dVertex
 10
122.0101236674141
 20
-150.0097927142337
 30
0.0
  0
VERTEX
  5
119
330
116
100
AcDbEntity
  8
_U+30EC_U+30A4_U+30E4_U+30FC 1
370
     0
100
AcDbVertex
100
AcDb2dVertex
 10
122.0101236674141
 20
-149.7407307568357
 30
0.0
  0
VERTEX
  5
11A
330
116
100
AcDbEntity
  8
_U+30EC_U+30A4_U+30E4_U+30FC 1
370
     0
100
AcDbVertex
100
AcDb2dVertex
 10
122.2616156378374
 20
-149.7407307568357
 30
0.0
  0
VERTEX
  5
11B
330
116
100
AcDbEntity
  8
_U+30EC_U+30A4_U+30E4_U+30FC 1
370
     0
100
AcDbVertex
100
AcDb2dVertex
 10
122.2616156378374
 20
-150.0097927142337
 30
0.0
  0
SEQEND
  5
11C
330
116
100
AcDbEntity
  8
_U+30EC_U+30A4_U+30E4_U+30FC 1
370
     0
  0
HATCH
  5
11D
330
10E
100
AcDbEntity
  8
_U+30EC_U+30A4_U+30E4_U+30FC 1
 62
   179
420
  2234388
100
AcDbHatch
 10
0.0
 20
0.0
 30
0.0
210
0.0
220
0.0
230
1.0
  2
SOLID
 70
     1
 71
     0
 91
        1
 92
        1
 93
        4
 72
     1
 10
122.2616156378374
 20
-150.0097927142337
 11
122.0101236674141
 21
-150.0097927142337
 72
     1
 10
122.0101236674141
 20
-150.0097927142337
 11
122.0101236674141
 21
-149.7407307568357
 72
     1
 10
122.0101236674141
 20
-149.7407307568357
 11
122.2616156378374
 21
-149.7407307568357
 72
     1
 10
122.2616156378374
 20
-149.7407307568357
 11
122.2616156378374
 21
-150.0097927142337
 97
        0
 75
     2
 76
     1
 98
        0
  0
SPLINE
  5
11E
330
10E
100
AcDbEntity
  8
_U+30EC_U+30A4_U+30E4_U+30FC 1
370
     0
100
AcDbSpline
210
0.0
220
0.0
230
1.0
 70
    11
 71
     3
 72
    53
 73
    49
 74
     0
 42
0.0000000001
 43
0.0000000001
 12
1.0
 22
0.0
 32
0.0
 13
1.0
 23
0.0
 33
0.0
 40
0.0
 40
0.0
 40
0.0
 40
0.0
 40
1.0
 40
1.0
 40
1.0
 40
2.0
 40
2.0
 40
2.0
 40
3.0
 40
3.0
 40
3.0
 40
4.0
 40
4.0
 40
4.0
 40
5.0
 40
5.0
 40
5.0
 40
6.0
 40
6.0
 40
6.0
 40
7.0
 40
7.0
 40
7.0
 40
8.0
 40
8.0
 40
8.0
 40
9.0
 40
9.0
 40
9.0
 40
10.0
 40
10.0
 40
10.0
 40
11.0
 40
11.0
 40
11.0
 40
12.0
 40
12.0
 40
12.0
 40
13.0
 40
13.0
 40
13.0
 40
14.0
 40
14.0
 40
14.0
 40
15.0
 40
15.0
 40
15.0
 40
16.0
 40
16.0
 40
16.0
 40
16.0
 10
122.3126030510191
 20
-148.973852501819
 30
0.0
 10
122.3126030510191
 20
-149.0575683221106
 30
0.0
 10
122.2953775735928
 20
-149.1657443203475
 30
0.0
 10
122.2319878166642
 20
-149.2746093376813
 30
0.0
 10
122.1217447611362
 20
-149.4599554747878
 30
0.0
 10
121.9908311326967
 20
-149.4823485954419
 30
0.0
 10
121.8829996440084
 20
-149.5026746588049
 30
0.0
 10
121.8829996440084
 20
-149.5026746588049
 30
0.0
 10
121.8829996440084
 20
-149.2653075798712
 30
0.0
 10
121.8829996440084
 20
-149.2653075798712
 30
0.0
 10
122.0817816535073
 20
-149.2067409566219
 30
0.0
 10
122.1114094746805
 20
-149.0710041945031
 30
0.0
 10
122.1114094746805
 20
-148.9714409349794
 30
0.0
 10
122.1114094746805
 20
-148.822268300468
 30
0.0
 10
122.0121907247053
 20
-148.6593152840157
 30
0.0
 10
121.7793022699024
 20
-148.6593152840157
 30
0.0
 10
121.5233316753483
 20
-148.6593152840157
 30
0.0
 10
121.4533962369978
 20
-148.8515516120927
 30
0.0
 10
121.4533962369978
 20
-148.980398183241
 30
0.0
 10
121.4533962369978
 20
-149.014504628545
 30
0.0
 10
121.4533962369978
 20
-149.1657443203475
 30
0.0
 10
121.5825873176946
 20
-149.2608289557404
 30
0.0
 10
121.5825873176946
 20
-149.2608289557404
 30
0.0
 10
121.5636392925258
 20
-149.4485866596865
 30
0.0
 10
121.5636392925258
 20
-149.4485866596865
 30
0.0
 10
121.5636392925258
 20
-149.4485866596865
 30
0.0
 10
120.7175238413484
 20
-149.3197400885381
 30
0.0
 10
120.7175238413484
 20
-149.3197400885381
 30
0.0
 10
120.7175238413484
 20
-149.3197400885381
 30
0.0
 10
120.7175238413484
 20
-148.4877495288503
 30
0.0
 10
120.7175238413484
 20
-148.4877495288503
 30
0.0
 10
120.7175238413484
 20
-148.4877495288503
 30
0.0
 10
120.9118272267165
 20
-148.4877495288503
 30
0.0
 10
120.9118272267165
 20
-148.4877495288503
 30
0.0
 10
120.9118272267165
 20
-148.4877495288503
 30
0.0
 10
120.9118272267165
 20
-149.1454182569845
 30
0.0
 10
120.9118272267165
 20
-149.1454182569845
 30
0.0
 10
120.9118272267165
 20
-149.1454182569845
 30
0.0
 10
121.3348849523052
 20
-149.2156982048836
 30
0.0
 10
121.3348849523052
 20
-149.2156982048836
 30
0.0
 10
121.3011230165497
 20
-149.1502413906638
 30
0.0
 10
121.2611599089208
 20
-149.0620469462415
 30
0.0
 10
121.2611599089208
 20
-148.9352674323843
 30
0.0
 10
121.2611599089208
 20
-148.6641384176951
 30
0.0
 10
121.4471950651243
 20
-148.4109238995292
 30
0.0
 10
121.760009735185
 20
-148.4109238995292
 30
0.0
 10
122.077647538925
 20
-148.4109238995292
 30
0.0
 10
122.3126030510191
 20
-148.6503580357541
 30
0.0
 10
122.3126030510191
 20
-148.973852501819
 30
0.0
  0
HATCH
  5
11F
330
10E
100
AcDbEntity
  8
_U+30EC_U+30A4_U+30E4_U+30FC 1
 62
   179
420
  2234388
100
AcDbHatch
 10
0.0
 20
0.0
 30
0.0
210
0.0
220
0.0
230
1.0
  2
SOLID
 70
     1
 71
     0
 91
        1
 92
        1
 93
        1
 72
     4
 94
        3
 73
     0
 74
     1
 95
       53
 96
       49
 40
0.0
 40
0.0
 40
0.0
 40
0.0
 40
1.0
 40
1.0
 40
1.0
 40
2.0
 40
2.0
 40
2.0
 40
3.0
 40
3.0
 40
3.0
 40
4.0
 40
4.0
 40
4.0
 40
5.0
 40
5.0
 40
5.0
 40
6.0
 40
6.0
 40
6.0
 40
7.0
 40
7.0
 40
7.0
 40
8.0
 40
8.0
 40
8.0
 40
9.0
 40
9.0
 40
9.0
 40
10.0
 40
10.0
 40
10.0
 40
11.0
 40
11.0
 40
11.0
 40
12.0
 40
12.0
 40
12.0
 40
13.0
 40
13.0
 40
13.0
 40
14.0
 40
14.0
 40
14.0
 40
15.0
 40
15.0
 40
15.0
 40
16.0
 40
16.0
 40
16.0
 40
16.0
 10
122.3126030510191
 20
-148.973852501819
 10
122.3126030510191
 20
-149.0575683221106
 10
122.2953775735928
 20
-149.1657443203475
 10
122.2319878166642
 20
-149.2746093376813
 10
122.1217447611362
 20
-149.4599554747878
 10
121.9908311326967
 20
-149.4823485954419
 10
121.8829996440084
 20
-149.5026746588049
 10
121.8829996440084
 20
-149.5026746588049
 10
121.8829996440084
 20
-149.2653075798712
 10
121.8829996440084
 20
-149.2653075798712
 10
122.0817816535073
 20
-149.2067409566219
 10
122.1114094746805
 20
-149.0710041945031
 10
122.1114094746805
 20
-148.9714409349794
 10
122.1114094746805
 20
-148.822268300468
 10
122.0121907247053
 20
-148.6593152840157
 10
121.7793022699024
 20
-148.6593152840157
 10
121.5233316753483
 20
-148.6593152840157
 10
121.4533962369978
 20
-148.8515516120927
 10
121.4533962369978
 20
-148.980398183241
 10
121.4533962369978
 20
-149.014504628545
 10
121.4533962369978
 20
-149.1657443203475
 10
121.5825873176946
 20
-149.2608289557404
 10
121.5825873176946
 20
-149.2608289557404
 10
121.5636392925258
 20
-149.4485866596865
 10
121.5636392925258
 20
-149.4485866596865
 10
121.5636392925258
 20
-149.4485866596865
 10
120.7175238413484
 20
-149.3197400885381
 10
120.7175238413484
 20
-149.3197400885381
 10
120.7175238413484
 20
-149.3197400885381
 10
120.7175238413484
 20
-148.4877495288503
 10
120.7175238413484
 20
-148.4877495288503
 10
120.7175238413484
 20
-148.4877495288503
 10
120.9118272267165
 20
-148.4877495288503
 10
120.9118272267165
 20
-148.4877495288503
 10
120.9118272267165
 20
-148.4877495288503
 10
120.9118272267165
 20
-149.1454182569845
 10
120.9118272267165
 20
-149.1454182569845
 10
120.9118272267165
 20
-149.1454182569845
 10
121.3348849523052
 20
-149.2156982048836
 10
121.3348849523052
 20
-149.2156982048836
 10
121.3011230165497
 20
-149.1502413906638
 10
121.2611599089208
 20
-149.0620469462415
 10
121.2611599089208
 20
-148.9352674323843
 10
121.2611599089208
 20
-148.6641384176951
 10
121.4471950651243
 20
-148.4109238995292
 10
121.760009735185
 20
-148.4109238995292
 10
122.077647538925
 20
-148.4109238995292
 10
122.3126030510191
 20
-148.6503580357541
 10
122.3126030510191
 20
-148.973852501819
 97
        0
 97
        0
 75
     2
 76
     1
 98
        0
  0
ENDBLK
  5
111
330
10E
100
AcDbEntity
  8
0
100
AcDbBlockEnd
  0
ENDSEC
  0
SECTION
  2
ENTITIES
  0
POLYLINE
  5
41
330
1F
100
AcDbEntity
  8
_U+30EC_U+30A4_U+30E4_U+30FC 1
 62
   179
420
  2234388
370
    25
100
AcDb2dPolyline
 66
     1
 10
0.0
 20
0.0
 30
0.0
  0
VERTEX
  5
42
330
41
100
AcDbEntity
  8
_U+30EC_U+30A4_U+30E4_U+30FC 1
 62
   179
420
  2234388
370
    25
100
AcDbVertex
100
AcDb2dVertex
 10
85.56356495731463
 20
-144.7728384715651
 30
0.0
  0
VERTEX
  5
43
330
41
100
AcDbEntity
  8
_U+30EC_U+30A4_U+30E4_U+30FC 1
 62
   179
420
  2234388
370
    25
100
AcDbVertex
100
AcDb2dVertex
 10
98.56377272790897
 20
-144.7728384715651
 30
0.0
  0
SEQEND
  5
44
330
41
100
AcDbEntity
  8
_U+30EC_U+30A4_U+30E4_U+30FC 1
 62
   179
420
  2234388
370
    25
  0
POLYLINE
  5
45
330
1F
100
AcDbEntity
  8
_U+30EC_U+30A4_U+30E4_U+30FC 1
 62
   179
420
  2234388
370
    25
100
AcDb2dPolyline
 66
     1
 10
0.0
 20
0.0
 30
0.0
  0
VERTEX
  5
46
330
45
100
AcDbEntity
  8
_U+30EC_U+30A4_U+30E4_U+30FC 1
 62
   179
420
  2234388
370
    25
100
AcDbVertex
100
AcDb2dVertex
 10
100.5634999341693
 20
-145.7725405858445
 30
0.0
  0
VERTEX
  5
47
330
45
100
AcDbEntity
  8
_U+30EC_U+30A4_U+30E4_U+30FC 1
 62
   179
420
  2234388
370
    25
100
AcDbVertex
100
AcDb2dVertex
 10
119.5630508123944
 20
-145.7725405858445
 30
0.0
  0
SEQEND
  5
48
330
45
100
AcDbEntity
  8
_U+30EC_U+30A4_U+30E4_U+30FC 1
 62
   179
420
  2234388
370
    25
  0
POLYLINE
  5
49
330
1F
100
AcDbEntity
  8
_U+30EC_U+30A4_U+30E4_U+30FC 1
 62
   179
420
  2234388
370
    25
100
AcDb2dPolyline
 66
     1
 10
0.0
 20
0.0
 30
0.0
  0
VERTEX
  5
4A
330
49
100
AcDbEntity
  8
_U+30EC_U+30A4_U+30E4_U+30FC 1
 62
   179
420
  2234388
370
    25
100
AcDbVertex
100
AcDb2dVertex
 10
85.56356495731463
 20
-144.7728384715651
 30
0.0
  0
VERTEX
  5
4B
330
49
100
AcDbEntity
  8
_U+30EC_U+30A4_U+30E4_U+30FC 1
 62
   179
420
  2234388
370
    25
100
AcDbVertex
100
AcDb2dVertex
 10
85.56356495731463
 20
-145.7726267132317
 30
0.0
  0
SEQEND
  5
4C
330
49
100
AcDbEntity
  8
_U+30EC_U+30A4_U+30E4_U+30FC 1
 62
   179
420
  2234388
370
    25
  0
POLYLINE
  5
4D
330
1F
100
AcDbEntity
  8
_U+30EC_U+30A4_U+30E4_U+30FC 1
 62
   179
420
  2234388
370
    25
100
AcDb2dPolyline
 66
     1
 10
0.0
 20
0.0
 30
0.0
  0
VERTEX
  5
4E
330
4D
100
AcDbEntity
  8
_U+30EC_U+30A4_U+30E4_U+30FC 1
 62
   179
420
  2234388
370
    25
100
AcDbVertex
100
AcDb2dVertex
 10
97.56352155153685
 20
-145.7725405858445
 30
0.0
  0
VERTEX
  5
4F
330
4D
100
AcDbEntity
  8
_U+30EC_U+30A4_U+30E4_U+30FC 1
 62
   179
420
  2234388
370
    25
100
AcDbVertex
100
AcDb2dVertex
 10
97.56352155153685
 20
-155.2728650870498
 30
0.0
  0
SEQEND
  5
50
330
4D
100
AcDbEntity
  8
_U+30EC_U+30A4_U+30E4_U+30FC 1
 62
   179
420
  2234388
370
    25
  0
POLYLINE
  5
51
330
1F
100
AcDbEntity
  8
_U+30EC_U+30A4_U+30E4_U+30FC 1
 62
   179
420
  2234388
370
    25
100
AcDb2dPolyline
 66
     1
 10
0.0
 20
0.0
 30
0.0
  0
VERTEX
  5
52
330
51
100
AcDbEntity
  8
_U+30EC_U+30A4_U+30E4_U+30FC 1
 62
   179
420
  2234388
370
    25
100
AcDbVertex
100
AcDb2dVertex
 10
107.5636002165716
 20
-154.2729691861497
 30
0.0
  0
VERTEX
  5
53
330
51
100
AcDbEntity
  8
_U+30EC_U+30A4_U+30E4_U+30FC 1
 62
   179
420
  2234388
370
    25
100
AcDbVertex
100
AcDb2dVertex
 10
107.5636002165716
 20
-154.5728432162939
 30
0.0
  0
SEQEND
  5
54
330
51
100
AcDbEntity
  8
_U+30EC_U+30A4_U+30E4_U+30FC 1
 62
   179
420
  2234388
370
    25
  0
POLYLINE
  5
55
330
1F
100
AcDbEntity
  8
_U+30EC_U+30A4_U+30E4_U+30FC 1
 62
   179
420
  2234388
370
    25
100
AcDb2dPolyline
 66
     1
 10
0.0
 20
0.0
 30
0.0
  0
VERTEX
  5
56
330
55
100
AcDbEntity
  8
_U+30EC_U+30A4_U+30E4_U+30FC 1
 62
   179
420
  2234388
370
    25
100
AcDbVertex
100
AcDb2dVertex
 10
100.5634999341693
 20
-154.2729691861497
 30
0.0
  0
VERTEX
  5
57
330
55
100
AcDbEntity
  8
_U+30EC_U+30A4_U+30E4_U+30FC 1
 62
   179
420
  2234388
370
    25
100
AcDbVertex
100
AcDb2dVertex
 10
107.5636648121119
 20
-154.2729691861497
 30
0.0
  0
SEQEND
  5
58
330
55
100
AcDbEntity
  8
_U+30EC_U+30A4_U+30E4_U+30FC 1
 62
   179
420
  2234388
370
    25
  0
POLYLINE
  5
59
330
1F
100
AcDbEntity
  8
_U+30EC_U+30A4_U+30E4_U+30FC 1
 62
   179
420
  2234388
370
    25
100
AcDb2dPolyline
 66
     1
 10
0.0
 20
0.0
 30
0.0
  0
VERTEX
  5
5A
330
59
100
AcDbEntity
  8
_U+30EC_U+30A4_U+30E4_U+30FC 1
 62
   179
420
  2234388
370
    25
100
AcDbVertex
100
AcDb2dVertex
 10
99.56334565110743
 20
-144.7728384715651
 30
0.0
  0
VERTEX
  5
5B
330
59
100
AcDbEntity
  8
_U+30EC_U+30A4_U+30E4_U+30FC 1
 62
   179
420
  2234388
370
    25
100
AcDbVertex
100
AcDb2dVertex
 10
119.5630077487008
 20
-144.7728384715651
 30
0.0
  0
SEQEND
  5
5C
330
59
100
AcDbEntity
  8
_U+30EC_U+30A4_U+30E4_U+30FC 1
 62
   179
420
  2234388
370
    25
  0
POLYLINE
  5
5D
330
1F
100
AcDbEntity
  8
_U+30EC_U+30A4_U+30E4_U+30FC 1
 62
   179
420
  2234388
370
    25
100
AcDb2dPolyline
 66
     1
 10
0.0
 20
0.0
 30
0.0
  0
VERTEX
  5
5E
330
5D
100
AcDbEntity
  8
_U+30EC_U+30A4_U+30E4_U+30FC 1
 62
   179
420
  2234388
370
    25
100
AcDbVertex
100
AcDb2dVertex
 10
98.5636112390581
 20
-144.7728384715651
 30
0.0
  0
VERTEX
  5
5F
330
5D
100
AcDbEntity
  8
_U+30EC_U+30A4_U+30E4_U+30FC 1
 62
   179
420
  2234388
370
    25
100
AcDbVertex
100
AcDb2dVertex
 10
98.5636112390581
 20
-154.2731629727707
 30
0.0
  0
SEQEND
  5
60
330
5D
100
AcDbEntity
  8
_U+30EC_U+30A4_U+30E4_U+30FC 1
 62
   179
420
  2234388
370
    25
  0
POLYLINE
  5
61
330
1F
100
AcDbEntity
  8
_U+30EC_U+30A4_U+30E4_U+30FC 1
 62
   179
420
  2234388
370
    25
100
AcDb2dPolyline
 66
     1
 10
0.0
 20
0.0
 30
0.0
  0
VERTEX
  5
62
330
61
100
AcDbEntity
  8
_U+30EC_U+30A4_U+30E4_U+30FC 1
 62
   179
420
  2234388
370
    25
100
AcDbVertex
100
AcDb2dVertex
 10
99.56334565110743
 20
-144.7728384715651
 30
0.0
  0
VERTEX
  5
63
330
61
100
AcDbEntity
  8
_U+30EC_U+30A4_U+30E4_U+30FC 1
 62
   179
420
  2234388
370
    25
100
AcDbVertex
100
AcDb2dVertex
 10
99.56334565110743
 20
-154.2731629727707
 30
0.0
  0
SEQEND
  5
64
330
61
100
AcDbEntity
  8
_U+30EC_U+30A4_U+30E4_U+30FC 1
 62
   179
420
  2234388
370
    25
  0
POLYLINE
  5
65
330
1F
100
AcDbEntity
  8
_U+30EC_U+30A4_U+30E4_U+30FC 1
 62
   179
420
  2234388
370
    25
100
AcDb2dPolyline
 66
     1
 10
0.0
 20
0.0
 30
0.0
  0
VERTEX
  5
66
330
65
100
AcDbEntity
  8
_U+30EC_U+30A4_U+30E4_U+30FC 1
 62
   179
420
  2234388
370
    25
100
AcDbVertex
100
AcDb2dVertex
 10
100.5634999341693
 20
-145.7725405858445
 30
0.0
  0
VERTEX
  5
67
330
65
100
AcDbEntity
  8
_U+30EC_U+30A4_U+30E4_U+30FC 1
 62
   179
420
  2234388
370
    25
100
AcDbVertex
100
AcDb2dVertex
 10
100.5634999341693
 20
-154.2730768453836
 30
0.0
  0
SEQEND
  5
68
330
65
100
AcDbEntity
  8
_U+30EC_U+30A4_U+30E4_U+30FC 1
 62
   179
420
  2234388
370
    25
  0
POLYLINE
  5
69
330
1F
100
AcDbEntity
  8
_U+30EC_U+30A4_U+30E4_U+30FC 1
 62
   179
420
  2234388
370
    25
100
AcDb2dPolyline
 66
     1
 10
0.0
 20
0.0
 30
0.0
  0
VERTEX
  5
6A
330
69
100
AcDbEntity
  8
_U+30EC_U+30A4_U+30E4_U+30FC 1
 62
   179
420
  2234388
370
    25
100
AcDbVertex
100
AcDb2dVertex
 10
98.5636112390581
 20
-154.2729691861497
 30
0.0
  0
VERTEX
  5
6B
330
69
100
AcDbEntity
  8
_U+30EC_U+30A4_U+30E4_U+30FC 1
 62
   179
420
  2234388
370
    25
100
AcDbVertex
100
AcDb2dVertex
 10
99.5633779488776
 20
-154.2729691861497
 30
0.0
  0
SEQEND
  5
6C
330
69
100
AcDbEntity
  8
_U+30EC_U+30A4_U+30E4_U+30FC 1
 62
   179
420
  2234388
370
    25
  0
POLYLINE
  5
6D
330
1F
100
AcDbEntity
  8
_U+30EC_U+30A4_U+30E4_U+30FC 1
 62
   179
420
  2234388
370
    25
100
AcDb2dPolyline
 66
     1
 10
0.0
 20
0.0
 30
0.0
  0
VERTEX
  5
6E
330
6D
100
AcDbEntity
  8
_U+30EC_U+30A4_U+30E4_U+30FC 1
 62
   179
420
  2234388
370
    25
100
AcDbVertex
100
AcDb2dVertex
 10
97.56352155153685
 20
-155.2727789596627
 30
0.0
  0
VERTEX
  5
6F
330
6D
100
AcDbEntity
  8
_U+30EC_U+30A4_U+30E4_U+30FC 1
 62
   179
420
  2234388
370
    25
100
AcDbVertex
100
AcDb2dVertex
 10
107.5637078758055
 20
-154.5728862799874
 30
0.0
  0
SEQEND
  5
70
330
6D
100
AcDbEntity
  8
_U+30EC_U+30A4_U+30E4_U+30FC 1
 62
   179
420
  2234388
370
    25
  0
POLYLINE
  5
71
330
1F
100
AcDbEntity
  8
_U+30EC_U+30A4_U+30E4_U+30FC 1
 62
   179
420
  2234388
370
    25
100
AcDb2dPolyline
 66
     1
 10
0.0
 20
0.0
 30
0.0
  0
VERTEX
  5
72
330
71
100
AcDbEntity
  8
_U+30EC_U+30A4_U+30E4_U+30FC 1
 62
   179
420
  2234388
370
    25
100
AcDbVertex
100
AcDb2dVertex
 10
119.5632015353219
 20
-144.7728384715651
 30
0.0
  0
VERTEX
  5
73
330
71
100
AcDbEntity
  8
_U+30EC_U+30A4_U+30E4_U+30FC 1
 62
   179
420
  2234388
370
    25
100
AcDbVertex
100
AcDb2dVertex
 10
119.5632015353219
 20
-145.7726267132317
 30
0.0
  0
SEQEND
  5
74
330
71
100
AcDbEntity
  8
_U+30EC_U+30A4_U+30E4_U+30FC 1
 62
   179
420
  2234388
370
    25
  0
POLYLINE
  5
75
330
1F
100
AcDbEntity
  8
_U+30EC_U+30A4_U+30E4_U+30FC 1
 62
   179
420
  2234388
370
    25
100
AcDb2dPolyline
 66
     1
 10
0.0
 20
0.0
 30
0.0
  0
VERTEX
  5
76
330
75
100
AcDbEntity
  8
_U+30EC_U+30A4_U+30E4_U+30FC 1
 62
   179
420
  2234388
370
    25
100
AcDbVertex
100
AcDb2dVertex
 10
85.56356495731463
 20
-145.7725405858445
 30
0.0
  0
VERTEX
  5
77
330
75
100
AcDbEntity
  8
_U+30EC_U+30A4_U+30E4_U+30FC 1
 62
   179
420
  2234388
370
    25
100
AcDbVertex
100
AcDb2dVertex
 10
97.56365074261755
 20
-145.7725405858445
 30
0.0
  0
SEQEND
  5
78
330
75
100
AcDbEntity
  8
_U+30EC_U+30A4_U+30E4_U+30FC 1
 62
   179
420
  2234388
370
    25
  0
SPLINE
  5
79
330
1F
100
AcDbEntity
  8
_U+30EC_U+30A4_U+30E4_U+30FC 1
 62
   179
420
  2234388
370
     9
100
AcDbSpline
210
0.0
220
0.0
230
1.0
 70
    11
 71
     3
 72
    17
 73
    13
 74
     0
 42
0.0000000001
 43
0.0000000001
 12
1.0
 22
0.0
 32
0.0
 13
1.0
 23
0.0
 33
0.0
 40
0.0
 40
0.0
 40
0.0
 40
0.0
 40
1.0
 40
1.0
 40
1.0
 40
2.0
 40
2.0
 40
2.0
 40
3.0
 40
3.0
 40
3.0
 40
4.0
 40
4.0
 40
4.0
 40
4.0
 10
123.663575713713
 20
-144.7728384715651
 30
0.0
 10
123.663575713713
 20
-144.7178246030353
 30
0.0
 10
123.618767940558
 20
-144.6730168298799
 30
0.0
 10
123.5637325401811
 20
-144.6730168298799
 30
0.0
 10
123.5086971398043
 20
-144.6730168298799
 30
0.0
 10
123.4638893666492
 20
-144.7178246030353
 30
0.0
 10
123.4638893666492
 20
-144.7728384715651
 30
0.0
 10
123.4638893666492
 20
-144.8278738719419
 30
0.0
 10
123.5086971398043
 20
-144.8726816450973
 30
0.0
 10
123.5637325401811
 20
-144.8726816450973
 30
0.0
 10
123.618767940558
 20
-144.8726816450973
 30
0.0
 10
123.663575713713
 20
-144.8278738719419
 30
0.0
 10
123.663575713713
 20
-144.7728384715651
 30
0.0
  0
SPLINE
  5
7A
330
1F
100
AcDbEntity
  8
_U+30EC_U+30A4_U+30E4_U+30FC 1
 62
   179
420
  2234388
370
     9
100
AcDbSpline
210
0.0
220
0.0
230
1.0
 70
    11
 71
     3
 72
    17
 73
    13
 74
     0
 42
0.0000000001
 43
0.0000000001
 12
1.0
 22
0.0
 32
0.0
 13
1.0
 23
0.0
 33
0.0
 40
0.0
 40
0.0
 40
0.0
 40
0.0
 40
1.0
 40
1.0
 40
1.0
 40
2.0
 40
2.0
 40
2.0
 40
3.0
 40
3.0
 40
3.0
 40
4.0
 40
4.0
 40
4.0
 40
4.0
 10
123.663575713713
 20
-145.7725405858445
 30
0.0
 10
123.663575713713
 20
-145.7175267173141
 30
0.0
 10
123.618767940558
 20
-145.6727189441594
 30
0.0
 10
123.5637325401811
 20
-145.6727189441594
 30
0.0
 10
123.5086971398043
 20
-145.6727189441594
 30
0.0
 10
123.4638893666492
 20
-145.7175267173141
 30
0.0
 10
123.4638893666492
 20
-145.7725405858445
 30
0.0
 10
123.4638893666492
 20
-145.8279420276164
 30
0.0
 10
123.5086971398043
 20
-145.8727498007714
 30
0.0
 10
123.5637325401811
 20
-145.8727498007714
 30
0.0
 10
123.618767940558
 20
-145.8727498007714
 30
0.0
 10
123.663575713713
 20
-145.8279420276164
 30
0.0
 10
123.663575713713
 20
-145.7725405858445
 30
0.0
  0
SPLINE
  5
7B
330
1F
100
AcDbEntity
  8
_U+30EC_U+30A4_U+30E4_U+30FC 1
 62
   179
420
  2234388
370
     9
100
AcDbSpline
210
0.0
220
0.0
230
1.0
 70
    11
 71
     3
 72
    17
 73
    13
 74
     0
 42
0.0000000001
 43
0.0000000001
 12
1.0
 22
0.0
 32
0.0
 13
1.0
 23
0.0
 33
0.0
 40
0.0
 40
0.0
 40
0.0
 40
0.0
 40
1.0
 40
1.0
 40
1.0
 40
2.0
 40
2.0
 40
2.0
 40
3.0
 40
3.0
 40
3.0
 40
4.0
 40
4.0
 40
4.0
 40
4.0
 10
85.66347272638687
 20
-140.77308261319
 30
0.0
 10
85.66347272638687
 20
-140.7177027032646
 30
0.0
 10
85.61866495323184
 20
-140.6728949301095
 30
0.0
 10
85.56362955285498
 20
-140.6728949301095
 30
0.0
 10
85.50824964292958
 20
-140.6728949301095
 30
0.0
 10
85.46344186977456
 20
-140.7177027032646
 30
0.0
 10
85.46344186977456
 20
-140.77308261319
 30
0.0
 10
85.46344186977456
 20
-140.8281180135668
 30
0.0
 10
85.50824964292958
 20
-140.8729257867222
 30
0.0
 10
85.56362955285498
 20
-140.8729257867222
 30
0.0
 10
85.61866495323184
 20
-140.8729257867222
 30
0.0
 10
85.66347272638687
 20
-140.8281180135668
 30
0.0
 10
85.66347272638687
 20
-140.77308261319
 30
0.0
  0
SPLINE
  5
7C
330
1F
100
AcDbEntity
  8
_U+30EC_U+30A4_U+30E4_U+30FC 1
 62
   179
420
  2234388
370
     9
100
AcDbSpline
210
0.0
220
0.0
230
1.0
 70
    11
 71
     3
 72
    17
 73
    13
 74
     0
 42
0.0000000001
 43
0.0000000001
 12
1.0
 22
0.0
 32
0.0
 13
1.0
 23
0.0
 33
0.0
 40
0.0
 40
0.0
 40
0.0
 40
0.0
 40
1.0
 40
1.0
 40
1.0
 40
2.0
 40
2.0
 40
2.0
 40
3.0
 40
3.0
 40
3.0
 40
4.0
 40
4.0
 40
4.0
 40
4.0
 10
107.6635079856438
 20
-159.2729008594331
 30
0.0
 10
107.6635079856438
 20
-159.217886990903
 30
0.0
 10
107.6187002124888
 20
-159.173079217748
 30
0.0
 10
107.5636648121119
 20
-159.173079217748
 30
0.0
 10
107.508629411735
 20
-159.173079217748
 30
0.0
 10
107.4638324045034
 20
-159.217886990903
 30
0.0
 10
107.4638324045034
 20
-159.2729008594331
 30
0.0
 10
107.4638324045034
 20
-159.3279362598099
 30
0.0
 10
107.508629411735
 20
-159.372744032965
 30
0.0
 10
107.5636648121119
 20
-159.372744032965
 30
0.0
 10
107.6187002124888
 20
-159.372744032965
 30
0.0
 10
107.6635079856438
 20
-159.3279362598099
 30
0.0
 10
107.6635079856438
 20
-159.2729008594331
 30
0.0
  0
SPLINE
  5
7D
330
1F
100
AcDbEntity
  8
_U+30EC_U+30A4_U+30E4_U+30FC 1
 62
   179
420
  2234388
370
     9
100
AcDbSpline
210
0.0
220
0.0
230
1.0
 70
    11
 71
     3
 72
    17
 73
    13
 74
     0
 42
0.0000000001
 43
0.0000000001
 12
1.0
 22
0.0
 32
0.0
 13
1.0
 23
0.0
 33
0.0
 40
0.0
 40
0.0
 40
0.0
 40
0.0
 40
1.0
 40
1.0
 40
1.0
 40
2.0
 40
2.0
 40
2.0
 40
3.0
 40
3.0
 40
3.0
 40
4.0
 40
4.0
 40
4.0
 40
4.0
 10
97.66341855468603
 20
-159.2729008594331
 30
0.0
 10
97.66341855468603
 20
-159.217886990903
 30
0.0
 10
97.61861078153068
 20
-159.173079217748
 30
0.0
 10
97.56357538115381
 20
-159.173079217748
 30
0.0
 10
97.50819547122842
 20
-159.173079217748
 30
0.0
 10
97.46338769807339
 20
-159.217886990903
 30
0.0
 10
97.46338769807339
 20
-159.2729008594331
 30
0.0
 10
97.46338769807339
 20
-159.3279362598099
 30
0.0
 10
97.50819547122842
 20
-159.372744032965
 30
0.0
 10
97.56357538115381
 20
-159.372744032965
 30
0.0
 10
97.61861078153068
 20
-159.372744032965
 30
0.0
 10
97.66341855468603
 20
-159.3279362598099
 30
0.0
 10
97.66341855468603
 20
-159.2729008594331
 30
0.0
  0
SPLINE
  5
7E
330
1F
100
AcDbEntity
  8
_U+30EC_U+30A4_U+30E4_U+30FC 1
 62
   179
420
  2234388
370
     9
100
AcDbSpline
210
0.0
220
0.0
230
1.0
 70
    11
 71
     3
 72
    17
 73
    13
 74
     0
 42
0.0000000001
 43
0.0000000001
 12
1.0
 22
0.0
 32
0.0
 13
1.0
 23
0.0
 33
0.0
 40
0.0
 40
0.0
 40
0.0
 40
0.0
 40
1.0
 40
1.0
 40
1.0
 40
2.0
 40
2.0
 40
2.0
 40
3.0
 40
3.0
 40
3.0
 40
4.0
 40
4.0
 40
4.0
 40
4.0
 10
85.66347272638687
 20
-159.2729008594331
 30
0.0
 10
85.66347272638687
 20
-159.217886990903
 30
0.0
 10
85.61866495323184
 20
-159.173079217748
 30
0.0
 10
85.56362955285498
 20
-159.173079217748
 30
0.0
 10
85.50824964292958
 20
-159.173079217748
 30
0.0
 10
85.46344186977456
 20
-159.217886990903
 30
0.0
 10
85.46344186977456
 20
-159.2729008594331
 30
0.0
 10
85.46344186977456
 20
-159.3279362598099
 30
0.0
 10
85.50824964292958
 20
-159.372744032965
 30
0.0
 10
85.56362955285498
 20
-159.372744032965
 30
0.0
 10
85.61866495323184
 20
-159.372744032965
 30
0.0
 10
85.66347272638687
 20
-159.3279362598099
 30
0.0
 10
85.66347272638687
 20
-159.2729008594331
 30
0.0
  0
SPLINE
  5
7F
330
1F
100
AcDbEntity
  8
_U+30EC_U+30A4_U+30E4_U+30FC 1
 62
   179
420
  2234388
370
     9
100
AcDbSpline
210
0.0
220
0.0
230
1.0
 70
    11
 71
     3
 72
    17
 73
    13
 74
     0
 42
0.0000000001
 43
0.0000000001
 12
1.0
 22
0.0
 32
0.0
 13
1.0
 23
0.0
 33
0.0
 40
0.0
 40
0.0
 40
0.0
 40
0.0
 40
1.0
 40
1.0
 40
1.0
 40
2.0
 40
2.0
 40
2.0
 40
3.0
 40
3.0
 40
3.0
 40
4.0
 40
4.0
 40
4.0
 40
4.0
 10
111.6632746099423
 20
-154.2729691861497
 30
0.0
 10
111.6632746099423
 20
-154.2175892762243
 30
0.0
 10
111.6184668367872
 20
-154.1727815030692
 30
0.0
 10
111.5634314364104
 20
-154.1727815030692
 30
0.0
 10
111.5083960360335
 20
-154.1727815030692
 30
0.0
 10
111.4635882628785
 20
-154.2175892762243
 30
0.0
 10
111.4635882628785
 20
-154.2729691861497
 30
0.0
 10
111.4635882628785
 20
-154.3280045865265
 30
0.0
 10
111.5083960360335
 20
-154.3728123596815
 30
0.0
 10
111.5634314364104
 20
-154.3728123596815
 30
0.0
 10
111.6184668367872
 20
-154.3728123596815
 30
0.0
 10
111.6632746099423
 20
-154.3280045865265
 30
0.0
 10
111.6632746099423
 20
-154.2729691861497
 30
0.0
  0
SPLINE
  5
80
330
1F
100
AcDbEntity
  8
_U+30EC_U+30A4_U+30E4_U+30FC 1
 62
   179
420
  2234388
370
     9
100
AcDbSpline
210
0.0
220
0.0
230
1.0
 70
    11
 71
     3
 72
    17
 73
    13
 74
     0
 42
0.0000000001
 43
0.0000000001
 12
1.0
 22
0.0
 32
0.0
 13
1.0
 23
0.0
 33
0.0
 40
0.0
 40
0.0
 40
0.0
 40
0.0
 40
1.0
 40
1.0
 40
1.0
 40
2.0
 40
2.0
 40
2.0
 40
3.0
 40
3.0
 40
3.0
 40
4.0
 40
4.0
 40
4.0
 40
4.0
 10
111.6632746099423
 20
-154.5727570889067
 30
0.0
 10
111.6632746099423
 20
-154.5177432203766
 30
0.0
 10
111.6184668367872
 20
-154.4729354472216
 30
0.0
 10
111.5634314364104
 20
-154.4729354472216
 30
0.0
 10
111.5083960360335
 20
-154.4729354472216
 30
0.0
 10
111.4635882628785
 20
-154.5177432203766
 30
0.0
 10
111.4635882628785
 20
-154.5727570889067
 30
0.0
 10
111.4635882628785
 20
-154.6281585306789
 30
0.0
 10
111.5083960360335
 20
-154.6729663038339
 30
0.0
 10
111.5634314364104
 20
-154.6729663038339
 30
0.0
 10
111.6184668367872
 20
-154.6729663038339
 30
0.0
 10
111.6632746099423
 20
-154.6281585306789
 30
0.0
 10
111.6632746099423
 20
-154.5727570889067
 30
0.0
  0
SPLINE
  5
81
330
1F
100
AcDbEntity
  8
_U+30EC_U+30A4_U+30E4_U+30FC 1
 62
   179
420
  2234388
370
     9
100
AcDbSpline
210
0.0
220
0.0
230
1.0
 70
    11
 71
     3
 72
    17
 73
    13
 74
     0
 42
0.0000000001
 43
0.0000000001
 12
1.0
 22
0.0
 32
0.0
 13
1.0
 23
0.0
 33
0.0
 40
0.0
 40
0.0
 40
0.0
 40
0.0
 40
1.0
 40
1.0
 40
1.0
 40
2.0
 40
2.0
 40
2.0
 40
3.0
 40
3.0
 40
3.0
 40
4.0
 40
4.0
 40
4.0
 40
4.0
 10
123.663575713713
 20
-154.2729691861497
 30
0.0
 10
123.663575713713
 20
-154.2175892762243
 30
0.0
 10
123.618767940558
 20
-154.1727815030692
 30
0.0
 10
123.5637325401811
 20
-154.1727815030692
 30
0.0
 10
123.5086971398043
 20
-154.1727815030692
 30
0.0
 10
123.4638893666492
 20
-154.2175892762243
 30
0.0
 10
123.4638893666492
 20
-154.2729691861497
 30
0.0
 10
123.4638893666492
 20
-154.3280045865265
 30
0.0
 10
123.5086971398043
 20
-154.3728123596815
 30
0.0
 10
123.5637325401811
 20
-154.3728123596815
 30
0.0
 10
123.618767940558
 20
-154.3728123596815
 30
0.0
 10
123.663575713713
 20
-154.3280045865265
 30
0.0
 10
123.663575713713
 20
-154.2729691861497
 30
0.0
  0
SPLINE
  5
82
330
1F
100
AcDbEntity
  8
_U+30EC_U+30A4_U+30E4_U+30FC 1
 62
   179
420
  2234388
370
     9
100
AcDbSpline
210
0.0
220
0.0
230
1.0
 70
    11
 71
     3
 72
    17
 73
    13
 74
     0
 42
0.0000000001
 43
0.0000000001
 12
1.0
 22
0.0
 32
0.0
 13
1.0
 23
0.0
 33
0.0
 40
0.0
 40
0.0
 40
0.0
 40
0.0
 40
1.0
 40
1.0
 40
1.0
 40
2.0
 40
2.0
 40
2.0
 40
3.0
 40
3.0
 40
3.0
 40
4.0
 40
4.0
 40
4.0
 40
4.0
 10
119.6631093043941
 20
-140.77308261319
 30
0.0
 10
119.6631093043941
 20
-140.7177027032646
 30
0.0
 10
119.6190120821829
 20
-140.6728949301095
 30
0.0
 10
119.5632661308622
 20
-140.6728949301095
 30
0.0
 10
119.5082307304854
 20
-140.6728949301095
 30
0.0
 10
119.4634229573303
 20
-140.7177027032646
 30
0.0
 10
119.4634229573303
 20
-140.77308261319
 30
0.0
 10
119.4634229573303
 20
-140.8281180135668
 30
0.0
 10
119.5082307304854
 20
-140.8729257867222
 30
0.0
 10
119.5632661308622
 20
-140.8729257867222
 30
0.0
 10
119.6190120821829
 20
-140.8729257867222
 30
0.0
 10
119.6631093043941
 20
-140.8281180135668
 30
0.0
 10
119.6631093043941
 20
-140.77308261319
 30
0.0
  0
POLYLINE
  5
83
330
1F
100
AcDbEntity
  8
_U+30EC_U+30A4_U+30E4_U+30FC 1
 62
   179
420
  2234388
370
     9
100
AcDb2dPolyline
 66
     1
 10
0.0
 20
0.0
 30
0.0
  0
VERTEX
  5
84
330
83
100
AcDbEntity
  8
_U+30EC_U+30A4_U+30E4_U+30FC 1
 62
   179
420
  2234388
370
     9
100
AcDbVertex
100
AcDb2dVertex
 10
123.5636679446408
 20
-144.7728384715651
 30
0.0
  0
VERTEX
  5
85
330
83
100
AcDbEntity
  8
_U+30EC_U+30A4_U+30E4_U+30FC 1
 62
   179
420
  2234388
370
     9
100
AcDbVertex
100
AcDb2dVertex
 10
123.5636679446408
 20
-141.0023537177334
 30
0.0
  0
SEQEND
  5
86
330
83
100
AcDbEntity
  8
_U+30EC_U+30A4_U+30E4_U+30FC 1
 62
   179
420
  2234388
370
     9
  0
POLYLINE
  5
87
330
1F
100
AcDbEntity
  8
_U+30EC_U+30A4_U+30E4_U+30FC 1
 62
   179
420
  2234388
370
     9
100
AcDb2dPolyline
 66
     1
 10
0.0
 20
0.0
 30
0.0
  0
VERTEX
  5
88
330
87
100
AcDbEntity
  8
_U+30EC_U+30A4_U+30E4_U+30FC 1
 62
   179
420
  2234388
370
     9
100
AcDbVertex
100
AcDb2dVertex
 10
123.5636679446408
 20
-144.7728384715651
 30
0.0
  0
VERTEX
  5
89
330
87
100
AcDbEntity
  8
_U+30EC_U+30A4_U+30E4_U+30FC 1
 62
   179
420
  2234388
370
     9
100
AcDbVertex
100
AcDb2dVertex
 10
123.5636679446408
 20
-145.7726267132317
 30
0.0
  0
SEQEND
  5
8A
330
87
100
AcDbEntity
  8
_U+30EC_U+30A4_U+30E4_U+30FC 1
 62
   179
420
  2234388
370
     9
  0
POLYLINE
  5
8B
330
1F
100
AcDbEntity
  8
_U+30EC_U+30A4_U+30E4_U+30FC 1
 62
   179
420
  2234388
370
     9
100
AcDb2dPolyline
 66
     1
 10
0.0
 20
0.0
 30
0.0
  0
VERTEX
  5
8C
330
8B
100
AcDbEntity
  8
_U+30EC_U+30A4_U+30E4_U+30FC 1
 62
   179
420
  2234388
370
     9
100
AcDbVertex
100
AcDb2dVertex
 10
122.1036149461451
 20
-144.7728384715651
 30
0.0
  0
VERTEX
  5
8D
330
8B
100
AcDbEntity
  8
_U+30EC_U+30A4_U+30E4_U+30FC 1
 62
   179
420
  2234388
370
     9
100
AcDbVertex
100
AcDb2dVertex
 10
124.5635207818474
 20
-144.7728384715651
 30
0.0
  0
SEQEND
  5
8E
330
8B
100
AcDbEntity
  8
_U+30EC_U+30A4_U+30E4_U+30FC 1
 62
   179
420
  2234388
370
     9
  0
POLYLINE
  5
8F
330
1F
100
AcDbEntity
  8
_U+30EC_U+30A4_U+30E4_U+30FC 1
 62
   179
420
  2234388
370
     9
100
AcDb2dPolyline
 66
     1
 10
0.0
 20
0.0
 30
0.0
  0
VERTEX
  5
90
330
8F
100
AcDbEntity
  8
_U+30EC_U+30A4_U+30E4_U+30FC 1
 62
   179
420
  2234388
370
     9
100
AcDbVertex
100
AcDb2dVertex
 10
122.1036149461451
 20
-145.7725405858445
 30
0.0
  0
VERTEX
  5
91
330
8F
100
AcDbEntity
  8
_U+30EC_U+30A4_U+30E4_U+30FC 1
 62
   179
420
  2234388
370
     9
100
AcDbVertex
100
AcDb2dVertex
 10
124.5635207818474
 20
-145.7725405858445
 30
0.0
  0
SEQEND
  5
92
330
8F
100
AcDbEntity
  8
_U+30EC_U+30A4_U+30E4_U+30FC 1
 62
   179
420
  2234388
370
     9
  0
INSERT
  5
94
330
1F
100
AcDbEntity
  8
_U+30EC_U+30A4_U+30E4_U+30FC 1
100
AcDbBlockReference
  2
block 2
 10
0.0
 20
0.0
 30
0.0
  0
POLYLINE
  5
99
330
1F
100
AcDbEntity
  8
_U+30EC_U+30A4_U+30E4_U+30FC 1
 62
   179
420
  2234388
370
     9
100
AcDb2dPolyline
 66
     1
 10
0.0
 20
0.0
 30
0.0
  0
VERTEX
  5
9A
330
99
100
AcDbEntity
  8
_U+30EC_U+30A4_U+30E4_U+30FC 1
 62
   179
420
  2234388
370
     9
100
AcDbVertex
100
AcDb2dVertex
 10
111.56336684087
 20
-154.2729691861497
 30
0.0
  0
VERTEX
  5
9B
330
99
100
AcDbEntity
  8
_U+30EC_U+30A4_U+30E4_U+30FC 1
 62
   179
420
  2234388
370
     9
100
AcDbVertex
100
AcDb2dVertex
 10
111.56336684087
 20
-149.0151721157953
 30
0.0
  0
SEQEND
  5
9C
330
99
100
AcDbEntity
  8
_U+30EC_U+30A4_U+30E4_U+30FC 1
 62
   179
420
  2234388
370
     9
  0
POLYLINE
  5
9D
330
1F
100
AcDbEntity
  8
_U+30EC_U+30A4_U+30E4_U+30FC 1
 62
   179
420
  2234388
370
     9
100
AcDb2dPolyline
 66
     1
 10
0.0
 20
0.0
 30
0.0
  0
VERTEX
  5
9E
330
9D
100
AcDbEntity
  8
_U+30EC_U+30A4_U+30E4_U+30FC 1
 62
   179
420
  2234388
370
     9
100
AcDbVertex
100
AcDb2dVertex
 10
111.56336684087
 20
-154.2729691861497
 30
0.0
  0
VERTEX
  5
9F
330
9D
100
AcDbEntity
  8
_U+30EC_U+30A4_U+30E4_U+30FC 1
 62
   179
420
  2234388
370
     9
100
AcDbVertex
100
AcDb2dVertex
 10
111.56336684087
 20
-155.5729759675087
 30
0.0
  0
SEQEND
  5
A0
330
9D
100
AcDbEntity
  8
_U+30EC_U+30A4_U+30E4_U+30FC 1
 62
   179
420
  2234388
370
     9
  0
POLYLINE
  5
A1
330
1F
100
AcDbEntity
  8
_U+30EC_U+30A4_U+30E4_U+30FC 1
 62
   179
420
  2234388
370
     9
100
AcDb2dPolyline
 66
     1
 10
0.0
 20
0.0
 30
0.0
  0
VERTEX
  5
A2
330
A1
100
AcDbEntity
  8
_U+30EC_U+30A4_U+30E4_U+30FC 1
 62
   179
420
  2234388
370
     9
100
AcDbVertex
100
AcDb2dVertex
 10
110.1033138423743
 20
-154.2729691861497
 30
0.0
  0
VERTEX
  5
A3
330
A1
100
AcDbEntity
  8
_U+30EC_U+30A4_U+30E4_U+30FC 1
 62
   179
420
  2234388
370
     9
100
AcDbVertex
100
AcDb2dVertex
 10
112.563585719472
 20
-154.2729691861497
 30
0.0
  0
SEQEND
  5
A4
330
A1
100
AcDbEntity
  8
_U+30EC_U+30A4_U+30E4_U+30FC 1
 62
   179
420
  2234388
370
     9
  0
POLYLINE
  5
A5
330
1F
100
AcDbEntity
  8
_U+30EC_U+30A4_U+30E4_U+30FC 1
 62
   179
420
  2234388
370
     9
100
AcDb2dPolyline
 66
     1
 10
0.0
 20
0.0
 30
0.0
  0
VERTEX
  5
A6
330
A5
100
AcDbEntity
  8
_U+30EC_U+30A4_U+30E4_U+30FC 1
 62
   179
420
  2234388
370
     9
100
AcDbVertex
100
AcDb2dVertex
 10
110.1033138423743
 20
-154.5727570889067
 30
0.0
  0
VERTEX
  5
A7
330
A5
100
AcDbEntity
  8
_U+30EC_U+30A4_U+30E4_U+30FC 1
 62
   179
420
  2234388
370
     9
100
AcDbVertex
100
AcDb2dVertex
 10
112.563585719472
 20
-154.5727570889067
 30
0.0
  0
SEQEND
  5
A8
330
A5
100
AcDbEntity
  8
_U+30EC_U+30A4_U+30E4_U+30FC 1
 62
   179
420
  2234388
370
     9
  0
INSERT
  5
AA
330
1F
100
AcDbEntity
  8
_U+30EC_U+30A4_U+30E4_U+30FC 1
100
AcDbBlockReference
  2
block 3
 10
0.0
 20
0.0
 30
0.0
  0
POLYLINE
  5
BA
330
1F
100
AcDbEntity
  8
_U+30EC_U+30A4_U+30E4_U+30FC 1
 62
   179
420
  2234388
370
     9
100
AcDb2dPolyline
 66
     1
 10
0.0
 20
0.0
 30
0.0
  0
VERTEX
  5
BB
330
BA
100
AcDbEntity
  8
_U+30EC_U+30A4_U+30E4_U+30FC 1
 62
   179
420
  2234388
370
     9
100
AcDbVertex
100
AcDb2dVertex
 10
97.56352155153685
 20
-159.2729008594331
 30
0.0
  0
VERTEX
  5
BC
330
BA
100
AcDbEntity
  8
_U+30EC_U+30A4_U+30E4_U+30FC 1
 62
   179
420
  2234388
370
     9
100
AcDbVertex
100
AcDb2dVertex
 10
107.5637078758055
 20
-159.2729008594331
 30
0.0
  0
SEQEND
  5
BD
330
BA
100
AcDbEntity
  8
_U+30EC_U+30A4_U+30E4_U+30FC 1
 62
   179
420
  2234388
370
     9
  0
POLYLINE
  5
BE
330
1F
100
AcDbEntity
  8
_U+30EC_U+30A4_U+30E4_U+30FC 1
 62
   179
420
  2234388
370
     9
100
AcDb2dPolyline
 66
     1
 10
0.0
 20
0.0
 30
0.0
  0
VERTEX
  5
BF
330
BE
100
AcDbEntity
  8
_U+30EC_U+30A4_U+30E4_U+30FC 1
 62
   179
420
  2234388
370
     9
100
AcDbVertex
100
AcDb2dVertex
 10
97.56352155153685
 20
-157.8128478609374
 30
0.0
  0
VERTEX
  5
C0
330
BE
100
AcDbEntity
  8
_U+30EC_U+30A4_U+30E4_U+30FC 1
 62
   179
420
  2234388
370
     9
100
AcDbVertex
100
AcDb2dVertex
 10
97.56352155153685
 20
-160.2731412698818
 30
0.0
  0
SEQEND
  5
C1
330
BE
100
AcDbEntity
  8
_U+30EC_U+30A4_U+30E4_U+30FC 1
 62
   179
420
  2234388
370
     9
  0
POLYLINE
  5
C2
330
1F
100
AcDbEntity
  8
_U+30EC_U+30A4_U+30E4_U+30FC 1
 62
   179
420
  2234388
370
     9
100
AcDb2dPolyline
 66
     1
 10
0.0
 20
0.0
 30
0.0
  0
VERTEX
  5
C3
330
C2
100
AcDbEntity
  8
_U+30EC_U+30A4_U+30E4_U+30FC 1
 62
   179
420
  2234388
370
     9
100
AcDbVertex
100
AcDb2dVertex
 10
107.5636002165716
 20
-157.1127613946411
 30
0.0
  0
VERTEX
  5
C4
330
C2
100
AcDbEntity
  8
_U+30EC_U+30A4_U+30E4_U+30FC 1
 62
   179
420
  2234388
370
     9
100
AcDbVertex
100
AcDb2dVertex
 10
107.5636002165716
 20
-160.2729474832608
 30
0.0
  0
SEQEND
  5
C5
330
C2
100
AcDbEntity
  8
_U+30EC_U+30A4_U+30E4_U+30FC 1
 62
   179
420
  2234388
370
     9
  0
INSERT
  5
C7
330
1F
100
AcDbEntity
  8
_U+30EC_U+30A4_U+30E4_U+30FC 1
100
AcDbBlockReference
  2
block 4
 10
0.0
 20
0.0
 30
0.0
  0
POLYLINE
  5
CF
330
1F
100
AcDbEntity
  8
_U+30EC_U+30A4_U+30E4_U+30FC 1
 62
   179
420
  2234388
370
     9
100
AcDb2dPolyline
 66
     1
 10
0.0
 20
0.0
 30
0.0
  0
VERTEX
  5
D0
330
CF
100
AcDbEntity
  8
_U+30EC_U+30A4_U+30E4_U+30FC 1
 62
   179
420
  2234388
370
     9
100
AcDbVertex
100
AcDb2dVertex
 10
85.56356495731463
 20
-159.2729008594331
 30
0.0
  0
VERTEX
  5
D1
330
CF
100
AcDbEntity
  8
_U+30EC_U+30A4_U+30E4_U+30FC 1
 62
   179
420
  2234388
370
     9
100
AcDbVertex
100
AcDb2dVertex
 10
97.56365074261755
 20
-159.2729008594331
 30
0.0
  0
SEQEND
  5
D2
330
CF
100
AcDbEntity
  8
_U+30EC_U+30A4_U+30E4_U+30FC 1
 62
   179
420
  2234388
370
     9
  0
POLYLINE
  5
D3
330
1F
100
AcDbEntity
  8
_U+30EC_U+30A4_U+30E4_U+30FC 1
 62
   179
420
  2234388
370
     9
100
AcDb2dPolyline
 66
     1
 10
0.0
 20
0.0
 30
0.0
  0
VERTEX
  5
D4
330
D3
100
AcDbEntity
  8
_U+30EC_U+30A4_U+30E4_U+30FC 1
 62
   179
420
  2234388
370
     9
100
AcDbVertex
100
AcDb2dVertex
 10
85.56356495731463
 20
-148.312997060361
 30
0.0
  0
VERTEX
  5
D5
330
D3
100
AcDbEntity
  8
_U+30EC_U+30A4_U+30E4_U+30FC 1
 62
   179
420
  2234388
370
     9
100
AcDbVertex
100
AcDb2dVertex
 10
85.56356495731463
 20
-160.2728828877204
 30
0.0
  0
SEQEND
  5
D6
330
D3
100
AcDbEntity
  8
_U+30EC_U+30A4_U+30E4_U+30FC 1
 62
   179
420
  2234388
370
     9
  0
INSERT
  5
D8
330
1F
100
AcDbEntity
  8
_U+30EC_U+30A4_U+30E4_U+30FC 1
100
AcDbBlockReference
  2
block 5
 10
0.0
 20
0.0
 30
0.0
  0
POLYLINE
  5
DF
330
1F
100
AcDbEntity
  8
_U+30EC_U+30A4_U+30E4_U+30FC 1
 62
   179
420
  2234388
370
     9
100
AcDb2dPolyline
 66
     1
 10
0.0
 20
0.0
 30
0.0
  0
VERTEX
  5
E0
330
DF
100
AcDbEntity
  8
_U+30EC_U+30A4_U+30E4_U+30FC 1
 62
   179
420
  2234388
370
     9
100
AcDbVertex
100
AcDb2dVertex
 10
85.56356495731463
 20
-140.77308261319
 30
0.0
  0
VERTEX
  5
E1
330
DF
100
AcDbEntity
  8
_U+30EC_U+30A4_U+30E4_U+30FC 1
 62
   179
420
  2234388
370
     9
100
AcDbVertex
100
AcDb2dVertex
 10
119.5632230671687
 20
-140.77308261319
 30
0.0
  0
SEQEND
  5
E2
330
DF
100
AcDbEntity
  8
_U+30EC_U+30A4_U+30E4_U+30FC 1
 62
   179
420
  2234388
370
     9
  0
POLYLINE
  5
E3
330
1F
100
AcDbEntity
  8
_U+30EC_U+30A4_U+30E4_U+30FC 1
 62
   179
420
  2234388
370
     9
100
AcDb2dPolyline
 66
     1
 10
0.0
 20
0.0
 30
0.0
  0
VERTEX
  5
E4
330
E3
100
AcDbEntity
  8
_U+30EC_U+30A4_U+30E4_U+30FC 1
 62
   179
420
  2234388
370
     9
100
AcDbVertex
100
AcDb2dVertex
 10
85.56356495731463
 20
-142.2327695702903
 30
0.0
  0
VERTEX
  5
E5
330
E3
100
AcDbEntity
  8
_U+30EC_U+30A4_U+30E4_U+30FC 1
 62
   179
420
  2234388
370
     9
100
AcDbVertex
100
AcDb2dVertex
 10
85.56356495731463
 20
-139.7724976931927
 30
0.0
  0
SEQEND
  5
E6
330
E3
100
AcDbEntity
  8
_U+30EC_U+30A4_U+30E4_U+30FC 1
 62
   179
420
  2234388
370
     9
  0
POLYLINE
  5
E7
330
1F
100
AcDbEntity
  8
_U+30EC_U+30A4_U+30E4_U+30FC 1
 62
   179
420
  2234388
370
     9
100
AcDb2dPolyline
 66
     1
 10
0.0
 20
0.0
 30
0.0
  0
VERTEX
  5
E8
330
E7
100
AcDbEntity
  8
_U+30EC_U+30A4_U+30E4_U+30FC 1
 62
   179
420
  2234388
370
     9
100
AcDbVertex
100
AcDb2dVertex
 10
119.5632015353219
 20
-142.2327695702903
 30
0.0
  0
VERTEX
  5
E9
330
E7
100
AcDbEntity
  8
_U+30EC_U+30A4_U+30E4_U+30FC 1
 62
   179
420
  2234388
370
     9
100
AcDbVertex
100
AcDb2dVertex
 10
119.5632015353219
 20
-139.7724976931927
 30
0.0
  0
SEQEND
  5
EA
330
E7
100
AcDbEntity
  8
_U+30EC_U+30A4_U+30E4_U+30FC 1
 62
   179
420
  2234388
370
     9
  0
INSERT
  5
EC
330
1F
100
AcDbEntity
  8
_U+30EC_U+30A4_U+30E4_U+30FC 1
100
AcDbBlockReference
  2
block 6
 10
0.0
 20
0.0
 30
0.0
  0
POLYLINE
  5
106
330
1F
100
AcDbEntity
  8
_U+30EC_U+30A4_U+30E4_U+30FC 1
 62
   179
420
  2234388
370
     9
100
AcDb2dPolyline
 66
     1
 10
0.0
 20
0.0
 30
0.0
  0
VERTEX
  5
107
330
106
100
AcDbEntity
  8
_U+30EC_U+30A4_U+30E4_U+30FC 1
 62
   179
420
  2234388
370
     9
100
AcDbVertex
100
AcDb2dVertex
 10
123.5636679446408
 20
-145.7725405858445
 30
0.0
  0
VERTEX
  5
108
330
106
100
AcDbEntity
  8
_U+30EC_U+30A4_U+30E4_U+30FC 1
 62
   179
420
  2234388
370
     9
100
AcDbVertex
100
AcDb2dVertex
 10
123.5636679446408
 20
-154.2730768453836
 30
0.0
  0
SEQEND
  5
109
330
106
100
AcDbEntity
  8
_U+30EC_U+30A4_U+30E4_U+30FC 1
 62
   179
420
  2234388
370
     9
  0
POLYLINE
  5
10A
330
1F
100
AcDbEntity
  8
_U+30EC_U+30A4_U+30E4_U+30FC 1
 62
   179
420
  2234388
370
     9
100
AcDb2dPolyline
 66
     1
 10
0.0
 20
0.0
 30
0.0
  0
VERTEX
  5
10B
330
10A
100
AcDbEntity
  8
_U+30EC_U+30A4_U+30E4_U+30FC 1
 62
   179
420
  2234388
370
     9
100
AcDbVertex
100
AcDb2dVertex
 10
110.1033138423743
 20
-154.2729691861497
 30
0.0
  0
VERTEX
  5
10C
330
10A
100
AcDbEntity
  8
_U+30EC_U+30A4_U+30E4_U+30FC 1
 62
   179
420
  2234388
370
     9
100
AcDbVertex
100
AcDb2dVertex
 10
124.5633054633796
 20
-154.2729691861497
 30
0.0
  0
SEQEND
  5
10D
330
10A
100
AcDbEntity
  8
_U+30EC_U+30A4_U+30E4_U+30FC 1
 62
   179
420
  2234388
370
     9
  0
INSERT
  5
10F
330
1F
100
AcDbEntity
  8
_U+30EC_U+30A4_U+30E4_U+30FC 1
100
AcDbBlockReference
  2
block 7
 10
0.0
 20
0.0
 30
0.0
  0
ENDSEC
  0
SECTION
  2
OBJECTS
  0
DICTIONARY
  5
C
330
0
100
AcDbDictionary
281
     1
  3
ACAD_GROUP
350
D
  3
ACAD_LAYOUT
350
1A
  3
ACAD_MATERIAL
350
3B
  3
ACAD_MLEADERSTYLE
350
121
  3
ACAD_MLINESTYLE
350
17
  3
ACAD_PLOTSETTINGS
350
19
  3
ACAD_PLOTSTYLENAME
350
E
  3
ACAD_TABLESTYLE
350
120
  3
ACAD_VISUALSTYLE
350
2A
  0
SUN
  5
3F
330
29
100
AcDbSun
 90
        1
290
     0
 63
     7
421
 16777215
 40
1.0
291
     1
 91
  2455826
 92
 54000000
292
     0
 70
     2
 71
   256
280
     1
  0
DICTIONARY
  5
D
102
{ACAD_REACTORS
330
C
102
}
330
C
100
AcDbDictionary
281
     1
  0
DICTIONARY
  5
1A
102
{ACAD_REACTORS
330
C
102
}
330
C
100
AcDbDictionary
281
     1
  3
Layout1
350
1E
  3
Layout2
350
26
  3
Model
350
22
  0
DICTIONARY
  5
3B
102
{ACAD_REACTORS
330
C
102
}
330
C
100
AcDbDictionary
281
     1
  3
ByBlock
350
3D
  3
ByLayer
350
3C
  3
Global
350
3E
  0
DICTIONARY
  5
121
102
{ACAD_REACTORS
330
C
102
}
330
C
100
AcDbDictionary
281
     1
  0
DICTIONARY
  5
17
102
{ACAD_REACTORS
330
C
102
}
330
C
100
AcDbDictionary
281
     1
  3
Standard
350
18
  0
DICTIONARY
  5
19
102
{ACAD_REACTORS
330
C
102
}
330
C
100
AcDbDictionary
281
     1
  0
ACDBDICTIONARYWDFLT
  5
E
102
{ACAD_REACTORS
330
C
102
}
330
C
100
AcDbDictionary
281
     1
  3
Normal
350
F
100
AcDbDictionaryWithDefault
340
F
  0
DICTIONARY
  5
120
102
{ACAD_REACTORS
330
C
102
}
330
C
100
AcDbDictionary
281
     1
  0
DICTIONARY
  5
2A
102
{ACAD_REACTORS
330
C
102
}
330
C
100
AcDbDictionary
281
     1
  3
2dWireframe
350
2F
  3
3D Hidden
350
31
  3
3dWireframe
350
30
  3
Basic
350
32
  3
Brighten
350
36
  3
ColorChange
350
3A
  3
Conceptual
350
34
  3
Dim
350
35
  3
Facepattern
350
39
  3
Flat
350
2B
  3
FlatWithEdges
350
2C
  3
Gouraud
350
2D
  3
GouraudWithEdges
350
2E
  3
Linepattern
350
38
  3
Realistic
350
33
  3
Thicken
350
37
  0
LAYOUT
  5
1E
102
{ACAD_REACTORS
330
1A
102
}
330
1A
100
AcDbPlotSettings
  1

  2
none_device
  4

  6

 40
0.0
 41
0.0
 42
0.0
 43
0.0
 44
0.0
 45
0.0
 46
0.0
 47
0.0
 48
0.0
 49
0.0
140
0.0
141
0.0
142
1.0
143
1.0
 70
   688
 72
     0
 73
     0
 74
     5
  7

 75
    16
 76
     0
 77
     2
 78
   300
147
1.0
148
0.0
149
0.0
100
AcDbLayout
  1
Layout1
 70
     1
 71
     1
 10
0.0
 20
0.0
 11
12.0
 21
9.0
 12
0.0
 22
0.0
 32
0.0
 14
1.000000000000000E+20
 24
1.000000000000000E+20
 34
1.000000000000000E+20
 15
-1.000000000000000E+20
 25
-1.000000000000000E+20
 35
-1.000000000000000E+20
146
0.0
 13
0.0
 23
0.0
 33
0.0
 16
1.0
 26
0.0
 36
0.0
 17
0.0
 27
1.0
 37
0.0
 76
     0
330
1B
  0
LAYOUT
  5
26
102
{ACAD_REACTORS
330
1A
102
}
330
1A
100
AcDbPlotSettings
  1

  2
none_device
  4

  6

 40
0.0
 41
0.0
 42
0.0
 43
0.0
 44
0.0
 45
0.0
 46
0.0
 47
0.0
 48
0.0
 49
0.0
140
0.0
141
0.0
142
1.0
143
1.0
 70
   688
 72
     0
 73
     0
 74
     5
  7

 75
    16
 76
     0
 77
     2
 78
   300
147
1.0
148
0.0
149
0.0
100
AcDbLayout
  1
Layout2
 70
     1
 71
     2
 10
0.0
 20
0.0
 11
0.0
 21
0.0
 12
0.0
 22
0.0
 32
0.0
 14
0.0
 24
0.0
 34
0.0
 15
0.0
 25
0.0
 35
0.0
146
0.0
 13
0.0
 23
0.0
 33
0.0
 16
1.0
 26
0.0
 36
0.0
 17
0.0
 27
1.0
 37
0.0
 76
     0
330
23
  0
LAYOUT
  5
22
102
{ACAD_REACTORS
330
1A
102
}
330
1A
100
AcDbPlotSettings
  1

  2
none_device
  4

  6

 40
0.0
 41
0.0
 42
0.0
 43
0.0
 44
0.0
 45
0.0
 46
0.0
 47
0.0
 48
0.0
 49
0.0
140
0.0
141
0.0
142
1.0
143
1.0
 70
  1712
 72
     0
 73
     0
 74
     0
  7

 75
     0
 76
     0
 77
     2
 78
   300
147
1.0
148
0.0
149
0.0
100
AcDbLayout
  1
Model
 70
     1
 71
     0
 10
0.0
 20
0.0
 11
12.0
 21
9.0
 12
0.0
 22
0.0
 32
0.0
 14
1.000000000000000E+20
 24
1.000000000000000E+20
 34
1.000000000000000E+20
 15
-1.000000000000000E+20
 25
-1.000000000000000E+20
 35
-1.000000000000000E+20
146
0.0
 13
0.0
 23
0.0
 33
0.0
 16
1.0
 26
0.0
 36
0.0
 17
0.0
 27
1.0
 37
0.0
 76
     0
330
1F
331
29
  0
MATERIAL
  5
3D
102
{ACAD_REACTORS
330
3B
102
}
330
3B
100
AcDbMaterial
  1
ByBlock
 72
     1
 94
      127
  0
MATERIAL
  5
3C
102
{ACAD_REACTORS
330
3B
102
}
330
3B
100
AcDbMaterial
  1
ByLayer
 72
     1
 94
      127
  0
MATERIAL
  5
3E
102
{ACAD_REACTORS
330
3B
102
}
330
3B
100
AcDbMaterial
  1
Global
 72
     1
 94
      127
  0
MLINESTYLE
  5
18
102
{ACAD_REACTORS
330
17
102
}
330
17
100
AcDbMlineStyle
  2
Standard
 70
     0
  3

 62
   256
 51
90.0
 52
90.0
 71
     2
 49
0.5
 62
   256
  6
BYLAYER
 49
-0.5
 62
   256
  6
BYLAYER
  0
ACDBPLACEHOLDER
  5
F
102
{ACAD_REACTORS
330
E
102
}
330
E
  0
VISUALSTYLE
  5
2F
102
{ACAD_REACTORS
330
2A
102
}
330
2A
100
AcDbVisualStyle
  2
2dWireframe
 70
     4
177
     2
291
     0
 71
     0
176
     1
 72
     2
176
     1
 73
     0
176
     1
 90
        0
176
     1
 40
-0.6
176
     1
 41
-30.0
176
     1
 62
     5
 63
     7
421
 16777215
176
     1
 74
     1
176
     1
 91
        4
176
     1
 64
     7
176
     1
 65
   257
176
     1
 75
     1
176
     1
175
     1
176
     1
 42
1.0
176
     1
 92
        0
176
     1
 66
   257
176
     1
 43
1.0
176
     1
 76
     1
176
     1
 77
     6
176
     1
 78
     2
176
     1
 67
     7
176
     1
 79
     5
176
     1
170
     0
176
     1
171
     0
176
     1
290
     0
176
     1
 93
        1
176
     1
 44
0.0
176
     1
173
     0
176
     1
  0
VISUALSTYLE
  5
31
102
{ACAD_REACTORS
330
2A
102
}
330
2A
100
AcDbVisualStyle
  2
3D Hidden
 70
     6
177
     2
291
     0
 71
     1
176
     1
 72
     2
176
     1
 73
     2
176
     1
 90
        0
176
     1
 40
-0.6
176
     1
 41
-30.0
176
     1
 62
     5
 63
     7
421
 16777215
176
     1
 74
     2
176
     1
 91
        2
176
     1
 64
     7
176
     1
 65
   257
176
     1
 75
     2
176
     1
175
     1
176
     1
 42
40.0
176
     1
 92
        0
176
     1
 66
   257
176
     1
 43
1.0
176
     1
 76
     1
176
     1
 77
     6
176
     1
 78
     2
176
     1
 67
     7
176
     1
 79
     3
176
     1
170
     0
176
     1
171
     0
176
     1
290
     0
176
     1
 93
        1
176
     1
 44
0.0
176
     1
173
     0
176
     1
  0
VISUALSTYLE
  5
30
102
{ACAD_REACTORS
330
2A
102
}
330
2A
100
AcDbVisualStyle
  2
3dWireframe
 70
     5
177
     2
291
     0
 71
     0
176
     1
 72
     2
176
     1
 73
     0
176
     1
 90
        0
176
     1
 40
-0.6
176
     1
 41
-30.0
176
     1
 62
     5
 63
     7
421
 16777215
176
     1
 74
     1
176
     1
 91
        4
176
     1
 64
     7
176
     1
 65
   257
176
     1
 75
     1
176
     1
175
     1
176
     1
 42
1.0
176
     1
 92
        0
176
     1
 66
   257
176
     1
 43
1.0
176
     1
 76
     1
176
     1
 77
     6
176
     1
 78
     2
176
     1
 67
     7
176
     1
 79
     5
176
     1
170
     0
176
     1
171
     0
176
     1
290
     0
176
     1
 93
        1
176
     1
 44
0.0
176
     1
173
     0
176
     1
  0
VISUALSTYLE
  5
32
102
{ACAD_REACTORS
330
2A
102
}
330
2A
100
AcDbVisualStyle
  2
Basic
 70
     7
177
     2
291
     1
 71
     1
176
     1
 72
     0
176
     1
 73
     1
176
     1
 90
        0
176
     1
 40
-0.6
176
     1
 41
-30.0
176
     1
 62
     5
 63
     7
421
 16777215
176
     1
 74
     0
176
     1
 91
        4
176
     1
 64
     7
176
     1
 65
   257
176
     1
 75
     1
176
     1
175
     1
176
     1
 42
1.0
176
     1
 92
        8
176
     1
 66
     7
176
     1
 43
1.0
176
     1
 76
     1
176
     1
 77
     6
176
     1
 78
     2
176
     1
 67
     7
176
     1
 79
     5
176
     1
170
     0
176
     1
171
     0
176
     1
290
     0
176
     1
 93
        1
176
     1
 44
0.0
176
     1
173
     0
176
     1
  0
VISUALSTYLE
  5
36
102
{ACAD_REACTORS
330
2A
102
}
330
2A
100
AcDbVisualStyle
  2
Brighten
 70
    12
177
     2
291
     1
 71
     2
176
     1
 72
     2
176
     1
 73
     0
176
     1
 90
        0
176
     1
 40
-0.6
176
     1
 41
-30.0
176
     1
 62
     5
 63
     7
421
 16777215
176
     1
 74
     1
176
     1
 91
        4
176
     1
 64
     7
176
     1
 65
   257
176
     1
 75
     1
176
     1
175
     1
176
     1
 42
1.0
176
     1
 92
        8
176
     1
 66
     7
176
     1
 43
1.0
176
     1
 76
     1
176
     1
 77
     6
176
     1
 78
     2
176
     1
 67
     7
176
     1
 79
     5
176
     1
170
     0
176
     1
171
     0
176
     1
290
     0
176
     1
 93
        1
176
     1
 44
50.0
176
     1
173
     0
176
     1
  0
VISUALSTYLE
  5
3A
102
{ACAD_REACTORS
330
2A
102
}
330
2A
100
AcDbVisualStyle
  2
ColorChange
 70
    16
177
     2
291
     1
 71
     2
176
     1
 72
     2
176
     1
 73
     3
176
     1
 90
        0
176
     1
 40
-0.6
176
     1
 41
-30.0
176
     1
 62
     5
 63
     8
421
  8421504
176
     1
 74
     1
176
     1
 91
        4
176
     1
 64
     7
176
     1
 65
   257
176
     1
 75
     1
176
     1
175
     1
176
     1
 42
1.0
176
     1
 92
        8
176
     1
 66
     8
424
  8421504
176
     1
 43
1.0
176
     1
 76
     1
176
     1
 77
     6
176
     1
 78
     2
176
     1
 67
     7
176
     1
 79
     5
176
     1
170
     0
176
     1
171
     0
176
     1
290
     0
176
     1
 93
        1
176
     1
 44
0.0
176
     1
173
     0
176
     1
  0
VISUALSTYLE
  5
34
102
{ACAD_REACTORS
330
2A
102
}
330
2A
100
AcDbVisualStyle
  2
Conceptual
 70
     9
177
     2
291
     0
 71
     3
176
     1
 72
     2
176
     1
 73
     0
176
     1
 90
        0
176
     1
 40
-0.6
176
     1
 41
-30.0
176
     1
 62
     5
 63
     7
421
 16777215
176
     1
 74
     2
176
     1
 91
        2
176
     1
 64
     7
176
     1
 65
   257
176
     1
 75
     1
176
     1
175
     1
176
     1
 42
40.0
176
     1
 92
        8
176
     1
 66
     7
176
     1
 43
1.0
176
     1
 76
     1
176
     1
 77
     6
176
     1
 78
     2
176
     1
 67
     7
176
     1
 79
     3
176
     1
170
     0
176
     1
171
     0
176
     1
290
     0
176
     1
 93
        1
176
     1
 44
0.0
176
     1
173
     0
176
     1
  0
VISUALSTYLE
  5
35
102
{ACAD_REACTORS
330
2A
102
}
330
2A
100
AcDbVisualStyle
  2
Dim
 70
    11
177
     2
291
     1
 71
     2
176
     1
 72
     2
176
     1
 73
     0
176
     1
 90
        0
176
     1
 40
-0.6
176
     1
 41
-30.0
176
     1
 62
     5
 63
     7
421
 16777215
176
     1
 74
     1
176
     1
 91
        4
176
     1
 64
     7
176
     1
 65
   257
176
     1
 75
     1
176
     1
175
     1
176
     1
 42
1.0
176
     1
 92
        8
176
     1
 66
     7
176
     1
 43
1.0
176
     1
 76
     1
176
     1
 77
     6
176
     1
 78
     2
176
     1
 67
     7
176
     1
 79
     5
176
     1
170
     0
176
     1
171
     0
176
     1
290
     0
176
     1
 93
        1
176
     1
 44
-50.0
176
     1
173
     0
176
     1
  0
VISUALSTYLE
  5
39
102
{ACAD_REACTORS
330
2A
102
}
330
2A
100
AcDbVisualStyle
  2
Facepattern
 70
    15
177
     2
291
     1
 71
     2
176
     1
 72
     2
176
     1
 73
     0
176
     1
 90
        0
176
     1
 40
-0.6
176
     1
 41
-30.0
176
     1
 62
     5
 63
     7
421
 16777215
176
     1
 74
     1
176
     1
 91
        4
176
     1
 64
     7
176
     1
 65
   257
176
     1
 75
     1
176
     1
175
     1
176
     1
 42
1.0
176
     1
 92
        8
176
     1
 66
     7
176
     1
 43
1.0
176
     1
 76
     1
176
     1
 77
     6
176
     1
 78
     2
176
     1
 67
     7
176
     1
 79
     5
176
     1
170
     0
176
     1
171
     0
176
     1
290
     0
176
     1
 93
        1
176
     1
 44
0.0
176
     1
173
     0
176
     1
  0
VISUALSTYLE
  5
2B
102
{ACAD_REACTORS
330
2A
102
}
330
2A
100
AcDbVisualStyle
  2
Flat
 70
     0
177
     2
291
     1
 71
     2
176
     1
 72
     1
176
     1
 73
     1
176
     1
 90
        2
176
     1
 40
-0.6
176
     1
 41
30.0
176
     1
 62
     5
 63
     7
421
 16777215
176
     1
 74
     0
176
     1
 91
        4
176
     1
 64
     7
176
     1
 65
   257
176
     1
 75
     1
176
     1
175
     1
176
     1
 42
1.0
176
     1
 92
        8
176
     1
 66
     7
176
     1
 43
1.0
176
     1
 76
     1
176
     1
 77
     6
176
     1
 78
     2
176
     1
 67
     7
176
     1
 79
     5
176
     1
170
     0
176
     1
171
     0
176
     1
290
     0
176
     1
 93
       13
176
     1
 44
0.0
176
     1
173
     0
176
     1
  0
VISUALSTYLE
  5
2C
102
{ACAD_REACTORS
330
2A
102
}
330
2A
100
AcDbVisualStyle
  2
FlatWithEdges
 70
     1
177
     2
291
     1
 71
     2
176
     1
 72
     1
176
     1
 73
     1
176
     1
 90
        2
176
     1
 40
-0.6
176
     1
 41
30.0
176
     1
 62
     5
 63
     7
421
 16777215
176
     1
 74
     1
176
     1
 91
        4
176
     1
 64
     7
176
     1
 65
   257
176
     1
 75
     1
176
     1
175
     1
176
     1
 42
1.0
176
     1
 92
        0
176
     1
 66
   257
176
     1
 43
1.0
176
     1
 76
     1
176
     1
 77
     6
176
     1
 78
     2
176
     1
 67
     7
176
     1
 79
     5
176
     1
170
     0
176
     1
171
     0
176
     1
290
     0
176
     1
 93
       13
176
     1
 44
0.0
176
     1
173
     0
176
     1
  0
VISUALSTYLE
  5
2D
102
{ACAD_REACTORS
330
2A
102
}
330
2A
100
AcDbVisualStyle
  2
Gouraud
 70
     2
177
     2
291
     1
 71
     2
176
     1
 72
     2
176
     1
 73
     1
176
     1
 90
        2
176
     1
 40
-0.6
176
     1
 41
30.0
176
     1
 62
     5
 63
     7
421
 16777215
176
     1
 74
     0
176
     1
 91
        4
176
     1
 64
     7
176
     1
 65
   257
176
     1
 75
     1
176
     1
175
     1
176
     1
 42
1.0
176
     1
 92
        0
176
     1
 66
     7
176
     1
 43
1.0
176
     1
 76
     1
176
     1
 77
     6
176
     1
 78
     2
176
     1
 67
     7
176
     1
 79
     5
176
     1
170
     0
176
     1
171
     0
176
     1
290
     0
176
     1
 93
       13
176
     1
 44
0.0
176
     1
173
     0
176
     1
  0
VISUALSTYLE
  5
2E
102
{ACAD_REACTORS
330
2A
102
}
330
2A
100
AcDbVisualStyle
  2
GouraudWithEdges
 70
     3
177
     2
291
     1
 71
     2
176
     1
 72
     2
176
     1
 73
     1
176
     1
 90
        2
176
     1
 40
-0.6
176
     1
 41
30.0
176
     1
 62
     5
 63
     7
421
 16777215
176
     1
 74
     1
176
     1
 91
        4
176
     1
 64
     7
176
     1
 65
   257
176
     1
 75
     1
176
     1
175
     1
176
     1
 42
1.0
176
     1
 92
        0
176
     1
 66
   257
176
     1
 43
1.0
176
     1
 76
     1
176
     1
 77
     6
176
     1
 78
     2
176
     1
 67
     7
176
     1
 79
     5
176
     1
170
     0
176
     1
171
     0
176
     1
290
     0
176
     1
 93
       13
176
     1
 44
0.0
176
     1
173
     0
176
     1
  0
VISUALSTYLE
  5
38
102
{ACAD_REACTORS
330
2A
102
}
330
2A
100
AcDbVisualStyle
  2
Linepattern
 70
    14
177
     2
291
     1
 71
     2
176
     1
 72
     2
176
     1
 73
     0
176
     1
 90
        0
176
     1
 40
-0.6
176
     1
 41
-30.0
176
     1
 62
     5
 63
     7
421
 16777215
176
     1
 74
     1
176
     1
 91
        4
176
     1
 64
     7
176
     1
 65
   257
176
     1
 75
     7
176
     1
175
     7
176
     1
 42
1.0
176
     1
 92
        8
176
     1
 66
     7
176
     1
 43
1.0
176
     1
 76
     1
176
     1
 77
     6
176
     1
 78
     2
176
     1
 67
     7
176
     1
 79
     5
176
     1
170
     0
176
     1
171
     0
176
     1
290
     0
176
     1
 93
        1
176
     1
 44
0.0
176
     1
173
     0
176
     1
  0
VISUALSTYLE
  5
33
102
{ACAD_REACTORS
330
2A
102
}
330
2A
100
AcDbVisualStyle
  2
Realistic
 70
     8
177
     2
291
     0
 71
     2
176
     1
 72
     2
176
     1
 73
     0
176
     1
 90
        0
176
     1
 40
-0.6
176
     1
 41
-30.0
176
     1
 62
     5
 63
     7
421
 16777215
176
     1
 74
     1
176
     1
 91
        0
176
     1
 64
     7
176
     1
 65
   257
176
     1
 75
     1
176
     1
175
     1
176
     1
 42
1.0
176
     1
 92
        8
176
     1
 66
     8
424
  7895160
176
     1
 43
1.0
176
     1
 76
     1
176
     1
 77
     6
176
     1
 78
     2
176
     1
 67
     7
176
     1
 79
     5
176
     1
170
     0
176
     1
171
     0
176
     1
290
     0
176
     1
 93
       13
176
     1
 44
0.0
176
     1
173
     0
176
     1
  0
VISUALSTYLE
  5
37
102
{ACAD_REACTORS
330
2A
102
}
330
2A
100
AcDbVisualStyle
  2
Thicken
 70
    13
177
     2
291
     1
 71
     2
176
     1
 72
     2
176
     1
 73
     0
176
     1
 90
        0
176
     1
 40
-0.6
176
     1
 41
-30.0
176
     1
 62
     5
 63
     7
421
 16777215
176
     1
 74
     1
176
     1
 91
        4
176
     1
 64
     7
176
     1
 65
   257
176
     1
 75
     1
176
     1
175
     1
176
     1
 42
1.0
176
     1
 92
       12
176
     1
 66
     7
176
     1
 43
1.0
176
     1
 76
     1
176
     1
 77
     6
176
     1
 78
     2
176
     1
 67
     7
176
     1
 79
     5
176
     1
170
     0
176
     1
171
     0
176
     1
290
     0
176
     1
 93
        1
176
     1
 44
0.0
176
     1
173
     0
176
     1
  0
ENDSEC
  0
EOF
