  0
SECTION
  2
HEADER
  9
$ACADVER
  1
AC1024
  9
$ACADMAINTVER
 70
     6
  9
$DWGCODEPAGE
  3
UNDEFINED
  9
$INSBASE
 10
0.0
 20
0.0
 30
0.0
  9
$EXTMIN
 10
1.000000000000000E+20
 20
1.000000000000000E+20
 30
1.000000000000000E+20
  9
$EXTMAX
 10
-1.000000000000000E+20
 20
-1.000000000000000E+20
 30
-1.000000000000000E+20
  9
$LIMMIN
 10
0.0
 20
0.0
  9
$LIMMAX
 10
12.0
 20
9.0
  9
$ORTHOMODE
 70
     0
  9
$REGENMODE
 70
     1
  9
$FILLMODE
 70
     1
  9
$QTEXTMODE
 70
     0
  9
$MIRRTEXT
 70
     1
  9
$LTSCALE
 40
1.0
  9
$ATTMODE
 70
     1
  9
$TEXTSIZE
 40
0.2
  9
$TRACEWID
 40
0.05
  9
$TEXTSTYLE
  7
Standard
  9
$CLAYER
  8
0
  9
$CELTYPE
  6
ByLayer
  9
$CECOLOR
 62
   256
  9
$CELTSCALE
 40
1.0
  9
$DISPSILH
 70
     0
  9
$DIMSCALE
 40
1.0
  9
$DIMASZ
 40
0.18
  9
$DIMEXO
 40
0.0625
  9
$DIMDLI
 40
0.38
  9
$DIMRND
 40
0.0
  9
$DIMDLE
 40
0.0
  9
$DIMEXE
 40
0.18
  9
$DIMTP
 40
0.0
  9
$DIMTM
 40
0.0
  9
$DIMTXT
 40
0.18
  9
$DIMCEN
 40
0.09
  9
$DIMTSZ
 40
0.0
  9
$DIMTOL
 70
     0
  9
$DIMLIM
 70
     0
  9
$DIMTIH
 70
     1
  9
$DIMTOH
 70
     1
  9
$DIMSE1
 70
     0
  9
$DIMSE2
 70
     0
  9
$DIMTAD
 70
     0
  9
$DIMZIN
 70
     0
  9
$DIMBLK
  1

  9
$DIMASO
 70
     1
  9
$DIMSHO
 70
     1
  9
$DIMPOST
  1

  9
$DIMAPOST
  1

  9
$DIMALT
 70
     0
  9
$DIMALTD
 70
     2
  9
$DIMALTF
 40
25.4
  9
$DIMLFAC
 40
1.0
  9
$DIMTOFL
 70
     0
  9
$DIMTVP
 40
0.0
  9
$DIMTIX
 70
     0
  9
$DIMSOXD
 70
     0
  9
$DIMSAH
 70
     0
  9
$DIMBLK1
  1

  9
$DIMBLK2
  1

  9
$DIMSTYLE
  2
Standard
  9
$DIMCLRD
 70
     0
  9
$DIMCLRE
 70
     0
  9
$DIMCLRT
 70
     0
  9
$DIMTFAC
 40
1.0
  9
$DIMGAP
 40
0.09
  9
$DIMJUST
 70
     0
  9
$DIMSD1
 70
     0
  9
$DIMSD2
 70
     0
  9
$DIMTOLJ
 70
     1
  9
$DIMTZIN
 70
     0
  9
$DIMALTZ
 70
     0
  9
$DIMALTTZ
 70
     0
  9
$DIMUPT
 70
     0
  9
$DIMDEC
 70
     4
  9
$DIMTDEC
 70
     4
  9
$DIMALTU
 70
     2
  9
$DIMALTTD
 70
     2
  9
$DIMTXSTY
  7
Standard
  9
$DIMAUNIT
 70
     0
  9
$DIMADEC
 70
     0
  9
$DIMALTRND
 40
0.0
  9
$DIMAZIN
 70
     0
  9
$DIMDSEP
 70
    46
  9
$DIMATFIT
 70
     3
  9
$DIMFRAC
 70
     0
  9
$DIMLDRBLK
  1

  9
$DIMLUNIT
 70
     2
  9
$DIMLWD
 70
    -2
  9
$DIMLWE
 70
    -2
  9
$DIMTMOVE
 70
     0
  9
$DIMFXL
 40
1.0
  9
$DIMFXLON
 70
     0
  9
$DIMJOGANG
 40
0.7853981633974483
  9
$DIMTFILL
 70
     0
  9
$DIMTFILLCLR
 70
     0
  9
$DIMARCSYM
 70
     0
  9
$DIMLTYPE
  6

  9
$DIMLTEX1
  6

  9
$DIMLTEX2
  6

  9
$DIMTXTDIRECTION
 70
     0
  9
$LUNITS
 70
     2
  9
$LUPREC
 70
     4
  9
$SKETCHINC
 40
0.1
  9
$FILLETRAD
 40
0.5
  9
$AUNITS
 70
     0
  9
$AUPREC
 70
     0
  9
$MENU
  1
.
  9
$ELEVATION
 40
0.0
  9
$PELEVATION
 40
0.0
  9
$THICKNESS
 40
0.0
  9
$LIMCHECK
 70
     0
  9
$CHAMFERA
 40
0.5
  9
$CHAMFERB
 40
0.5
  9
$CHAMFERC
 40
1.0
  9
$CHAMFERD
 40
0.0
  9
$SKPOLY
 70
     0
  9
$TDCREATE
 40
2457917.587083322
  9
$TDUCREATE
 40
2457917.212083333
  9
$TDUPDATE
 40
2457917.587083322
  9
$TDUUPDATE
 40
2457917.212083333
  9
$TDINDWG
 40
0.0000000116
  9
$TDUSRTIMER
 40
0.0000000116
  9
$USRTIMER
 70
     1
  9
$ANGBASE
 50
0.0
  9
$ANGDIR
 70
     0
  9
$PDMODE
 70
     0
  9
$PDSIZE
 40
0.0
  9
$PLINEWID
 40
0.0
  9
$SPLFRAME
 70
     0
  9
$SPLINETYPE
 70
     6
  9
$SPLINESEGS
 70
     8
  9
$HANDSEED
  5
F6
  9
$SURFTAB1
 70
     6
  9
$SURFTAB2
 70
     6
  9
$SURFTYPE
 70
     6
  9
$SURFU
 70
     6
  9
$SURFV
 70
     6
  9
$UCSBASE
  2

  9
$UCSNAME
  2

  9
$UCSORG
 10
0.0
 20
0.0
 30
0.0
  9
$UCSXDIR
 10
1.0
 20
0.0
 30
0.0
  9
$UCSYDIR
 10
0.0
 20
1.0
 30
0.0
  9
$UCSORTHOREF
  2

  9
$UCSORTHOVIEW
 70
     0
  9
$UCSORGTOP
 10
0.0
 20
0.0
 30
0.0
  9
$UCSORGBOTTOM
 10
0.0
 20
0.0
 30
0.0
  9
$UCSORGLEFT
 10
0.0
 20
0.0
 30
0.0
  9
$UCSORGRIGHT
 10
0.0
 20
0.0
 30
0.0
  9
$UCSORGFRONT
 10
0.0
 20
0.0
 30
0.0
  9
$UCSORGBACK
 10
0.0
 20
0.0
 30
0.0
  9
$PUCSBASE
  2

  9
$PUCSNAME
  2

  9
$PUCSORG
 10
0.0
 20
0.0
 30
0.0
  9
$PUCSXDIR
 10
1.0
 20
0.0
 30
0.0
  9
$PUCSYDIR
 10
0.0
 20
1.0
 30
0.0
  9
$PUCSORTHOREF
  2

  9
$PUCSORTHOVIEW
 70
     0
  9
$PUCSORGTOP
 10
0.0
 20
0.0
 30
0.0
  9
$PUCSORGBOTTOM
 10
0.0
 20
0.0
 30
0.0
  9
$PUCSORGLEFT
 10
0.0
 20
0.0
 30
0.0
  9
$PUCSORGRIGHT
 10
0.0
 20
0.0
 30
0.0
  9
$PUCSORGFRONT
 10
0.0
 20
0.0
 30
0.0
  9
$PUCSORGBACK
 10
0.0
 20
0.0
 30
0.0
  9
$USERI1
 70
     0
  9
$USERI2
 70
     0
  9
$USERI3
 70
     0
  9
$USERI4
 70
     0
  9
$USERI5
 70
     0
  9
$USERR1
 40
0.0
  9
$USERR2
 40
0.0
  9
$USERR3
 40
0.0
  9
$USERR4
 40
0.0
  9
$USERR5
 40
0.0
  9
$WORLDVIEW
 70
     1
  9
$SHADEDGE
 70
     3
  9
$SHADEDIF
 70
    70
  9
$TILEMODE
 70
     1
  9
$MAXACTVP
 70
    64
  9
$PINSBASE
 10
0.0
 20
0.0
 30
0.0
  9
$PLIMCHECK
 70
     0
  9
$PEXTMIN
 10
1.000000000000000E+20
 20
1.000000000000000E+20
 30
1.000000000000000E+20
  9
$PEXTMAX
 10
-1.000000000000000E+20
 20
-1.000000000000000E+20
 30
-1.000000000000000E+20
  9
$PLIMMIN
 10
0.0
 20
0.0
  9
$PLIMMAX
 10
12.0
 20
9.0
  9
$UNITMODE
 70
     0
  9
$VISRETAIN
 70
     1
  9
$PLINEGEN
 70
     0
  9
$PSLTSCALE
 70
     1
  9
$TREEDEPTH
 70
  3020
  9
$CMLSTYLE
  2
Standard
  9
$CMLJUST
 70
     0
  9
$CMLSCALE
 40
1.0
  9
$PROXYGRAPHICS
 70
     1
  9
$MEASUREMENT
 70
     0
  9
$CELWEIGHT
370
    -1
  9
$ENDCAPS
280
     0
  9
$JOINSTYLE
280
     0
  9
$LWDISPLAY
290
     1
  9
$INSUNITS
 70
     1
  9
$HYPERLINKBASE
  1

  9
$STYLESHEET
  1

  9
$XEDIT
290
     1
  9
$CEPSNTYPE
380
     0
  9
$PSTYLEMODE
290
     1
  9
$FINGERPRINTGUID
  2
{ECF35CC6-855F-A2D5-2E31-269D8D98D016}
  9
$VERSIONGUID
  2
{FAEB1C32-E019-11D5-929B-00C0DF256EC4}
  9
$EXTNAMES
290
     1
  9
$PSVPSCALE
 40
0.0
  9
$OLESTARTUP
290
     0
  9
$SORTENTS
280
   127
  9
$INDEXCTL
280
     0
  9
$HIDETEXT
280
     1
  9
$XCLIPFRAME
280
     2
  9
$HALOGAP
280
     0
  9
$OBSCOLOR
 70
   257
  9
$OBSLTYPE
280
     0
  9
$INTERSECTIONDISPLAY
280
     0
  9
$INTERSECTIONCOLOR
 70
   257
  9
$DIMASSOC
280
     2
  9
$PROJECTNAME
  1

  9
$CAMERADISPLAY
290
     0
  9
$LENSLENGTH
 40
50.0
  9
$CAMERAHEIGHT
 40
0.0
  9
$STEPSPERSEC
 40
2.0
  9
$STEPSIZE
 40
6.0
  9
$3DDWFPREC
 40
2.0
  9
$PSOLWIDTH
 40
0.25
  9
$PSOLHEIGHT
 40
4.0
  9
$LOFTANG1
 40
1.570796326794897
  9
$LOFTANG2
 40
1.570796326794897
  9
$LOFTMAG1
 40
0.0
  9
$LOFTMAG2
 40
0.0
  9
$LOFTPARAM
 70
     7
  9
$LOFTNORMALS
280
     1
  9
$LATITUDE
 40
37.795
  9
$LONGITUDE
 40
-122.394
  9
$NORTHDIRECTION
 40
0.0
  9
$TIMEZONE
 70
 -8000
  9
$LIGHTGLYPHDISPLAY
280
     1
  9
$TILEMODELIGHTSYNCH
280
     1
  9
$CMATERIAL
347
3C
  9
$SOLIDHIST
280
     1
  9
$SHOWHIST
280
     1
  9
$DWFFRAME
280
     2
  9
$DGNFRAME
280
     2
  9
$REALWORLDSCALE
290
     1
  9
$INTERFERECOLOR
 62
   256
  9
$CSHADOW
280
     0
  9
$SHADOWPLANELOCATION
 40
0.0
  0
ENDSEC
  0
SECTION
  2
CLASSES
  0
CLASS
  1
ACDBDICTIONARYWDFLT
  2
AcDbDictionaryWithDefault
  3
ObjectDBX Classes
 90
        0
 91
        4
280
     0
281
     0
  0
CLASS
  1
VISUALSTYLE
  2
AcDbVisualStyle
  3
ObjectDBX Classes
 90
     4095
 91
        4
280
     0
281
     0
  0
CLASS
  1
MATERIAL
  2
AcDbMaterial
  3
ObjectDBX Classes
 90
     1153
 91
        4
280
     0
281
     0
  0
CLASS
  1
SUN
  2
AcDbSun
  3
SCENEOE
 90
     1024
 91
        4
280
     0
281
     0
  0
ENDSEC
  0
SECTION
  2
TABLES
  0
TABLE
  2
VPORT
  5
8
330
0
100
AcDbSymbolTable
 70
     1
  0
VPORT
  5
29
330
8
100
AcDbSymbolTableRecord
100
AcDbViewportTableRecord
  2
*Active
 70
     0
 10
0.0
 20
0.0
 11
1.0
 21
1.0
 12
0.0
 22
0.0
 13
0.0
 23
0.0
 14
0.5
 24
0.5
 15
0.5
 25
0.5
 16
0.0
 26
0.0
 36
1.0
 17
63.499999984125
 27
-89.00059456108309
 37
0.0
 40
178.0011891221662
 41
0.7134783795241226
 42
50.0
 43
0.0
 44
0.0
 50
0.0
 51
0.0
 71
     0
 72
   100
 73
     1
 74
     3
 75
     0
 76
     0
 77
     0
 78
     0
281
     0
 65
     1
110
0.0
120
0.0
130
0.0
111
1.0
121
0.0
131
0.0
112
0.0
122
1.0
132
0.0
 79
     0
146
0.0
 60
     3
 61
     5
292
     1
282
     1
141
0.0
142
0.0
 63
   250
361
3F
  0
ENDTAB
  0
TABLE
  2
LTYPE
  5
5
330
0
100
AcDbSymbolTable
 70
     1
  0
LTYPE
  5
14
330
5
100
AcDbSymbolTableRecord
100
AcDbLinetypeTableRecord
  2
ByBlock
 70
     0
  3

 72
    65
 73
     0
 40
0.0
  0
LTYPE
  5
15
330
5
100
AcDbSymbolTableRecord
100
AcDbLinetypeTableRecord
  2
ByLayer
 70
     0
  3

 72
    65
 73
     0
 40
0.0
  0
LTYPE
  5
16
330
5
100
AcDbSymbolTableRecord
100
AcDbLinetypeTableRecord
  2
Continuous
 70
     0
  3
Solid line
 72
    65
 73
     0
 40
0.0
  0
ENDTAB
  0
TABLE
  2
LAYER
  5
2
330
0
100
AcDbSymbolTable
 70
     2
  0
LAYER
  5
10
330
2
100
AcDbSymbolTableRecord
100
AcDbLayerTableRecord
  2
0
 70
     0
 62
     7
  6
Continuous
370
    -3
390
F
347
3E
  0
LAYER
  5
40
330
2
100
AcDbSymbolTableRecord
100
AcDbLayerTableRecord
  2
_U+30EC_U+30A4_U+30E4_U+30FC 1
 70
     0
 62
     7
  6
Continuous
370
    -3
390
F
347
3E
  0
ENDTAB
  0
TABLE
  2
STYLE
  5
3
330
0
100
AcDbSymbolTable
 70
     1
  0
STYLE
  5
11
330
3
100
AcDbSymbolTableRecord
100
AcDbTextStyleTableRecord
  2
Standard
 70
     0
 40
0.0
 41
1.0
 50
0.0
 71
     0
 42
0.2
  3
txt
  4

  0
ENDTAB
  0
TABLE
  2
VIEW
  5
6
330
0
100
AcDbSymbolTable
 70
     0
  0
ENDTAB
  0
TABLE
  2
UCS
  5
7
330
0
100
AcDbSymbolTable
 70
     0
  0
ENDTAB
  0
TABLE
  2
APPID
  5
9
330
0
100
AcDbSymbolTable
 70
     1
  0
APPID
  5
12
330
9
100
AcDbSymbolTableRecord
100
AcDbRegAppTableRecord
  2
ACAD
 70
     0
  0
ENDTAB
  0
TABLE
  2
DIMSTYLE
  5
A
330
0
100
AcDbSymbolTable
 70
     1
100
AcDbDimStyleTable
  0
DIMSTYLE
105
27
330
A
100
AcDbSymbolTableRecord
100
AcDbDimStyleTableRecord
  2
Standard
 70
     0
178
     0
340
11
  0
ENDTAB
  0
TABLE
  2
BLOCK_RECORD
  5
1
330
0
100
AcDbSymbolTable
 70
     6
  0
BLOCK_RECORD
  5
1F
330
1
100
AcDbSymbolTableRecord
100
AcDbBlockTableRecord
  2
*Model_Space
340
22
 70
     0
280
     1
281
     0
  0
BLOCK_RECORD
  5
1B
330
1
100
AcDbSymbolTableRecord
100
AcDbBlockTableRecord
  2
*Paper_Space
340
1E
 70
     0
280
     1
281
     0
  0
BLOCK_RECORD
  5
23
330
1
100
AcDbSymbolTableRecord
100
AcDbBlockTableRecord
  2
*Paper_Space0
340
26
 70
     0
280
     1
281
     0
  0
BLOCK_RECORD
  5
76
330
1
100
AcDbSymbolTableRecord
100
AcDbBlockTableRecord
  2
block 2
340
0
102
{BLKREFS
331
77
102
}
 70
     0
280
     1
281
     0
  0
BLOCK_RECORD
  5
98
330
1
100
AcDbSymbolTableRecord
100
AcDbBlockTableRecord
  2
block 3
340
0
102
{BLKREFS
331
99
102
}
 70
     0
280
     1
281
     0
  0
BLOCK_RECORD
  5
AA
330
1
100
AcDbSymbolTableRecord
100
AcDbBlockTableRecord
  2
block 4
340
0
102
{BLKREFS
331
AB
102
}
 70
     0
280
     1
281
     0
  0
BLOCK_RECORD
  5
C7
330
1
100
AcDbSymbolTableRecord
100
AcDbBlockTableRecord
  2
block 5
340
0
102
{BLKREFS
331
C8
102
}
 70
     0
280
     1
281
     0
  0
BLOCK_RECORD
  5
EC
330
1
100
AcDbSymbolTableRecord
100
AcDbBlockTableRecord
  2
block 6
340
0
102
{BLKREFS
331
ED
102
}
 70
     0
280
     1
281
     0
  0
ENDTAB
  0
ENDSEC
  0
SECTION
  2
BLOCKS
  0
BLOCK
  5
20
330
1F
100
AcDbEntity
  8
0
100
AcDbBlockBegin
  2
*Model_Space
 70
     0
 10
0.0
 20
0.0
 30
0.0
  3
*Model_Space
  1

  0
ENDBLK
  5
21
330
1F
100
AcDbEntity
  8
0
100
AcDbBlockEnd
  0
BLOCK
  5
1C
330
1B
100
AcDbEntity
 67
     1
  8
0
100
AcDbBlockBegin
  2
*Paper_Space
 70
     0
 10
0.0
 20
0.0
 30
0.0
  3
*Paper_Space
  1

  0
ENDBLK
  5
1D
330
1B
100
AcDbEntity
 67
     1
  8
0
100
AcDbBlockEnd
  0
BLOCK
  5
24
330
23
100
AcDbEntity
  8
0
100
AcDbBlockBegin
  2
*Paper_Space0
 70
     0
 10
0.0
 20
0.0
 30
0.0
  3
*Paper_Space0
  1

  0
ENDBLK
  5
25
330
23
100
AcDbEntity
  8
0
100
AcDbBlockEnd
  0
BLOCK
  5
78
330
76
100
AcDbEntity
  8
0
100
AcDbBlockBegin
  2
block 2
 70
     0
 10
0.0
 20
0.0
 30
0.0
  3
block 2
  1

  0
SPLINE
  5
7A
330
76
100
AcDbEntity
  8
_U+30EC_U+30A4_U+30E4_U+30FC 1
370
     0
100
AcDbSpline
210
0.0
220
0.0
230
1.0
 70
    11
 71
     3
 72
    29
 73
    25
 74
     0
 42
0.0000000001
 43
0.0000000001
 12
1.0
 22
0.0
 32
0.0
 13
1.0
 23
0.0
 33
0.0
 40
0.0
 40
0.0
 40
0.0
 40
0.0
 40
1.0
 40
1.0
 40
1.0
 40
2.0
 40
2.0
 40
2.0
 40
3.0
 40
3.0
 40
3.0
 40
4.0
 40
4.0
 40
4.0
 40
5.0
 40
5.0
 40
5.0
 40
6.0
 40
6.0
 40
6.0
 40
7.0
 40
7.0
 40
7.0
 40
8.0
 40
8.0
 40
8.0
 40
8.0
 10
48.34295788721982
 20
-90.44443628381251
 30
0.0
 10
48.34295788721982
 20
-90.72934568044266
 30
0.0
 10
48.20549857735835
 20
-91.00047469513183
 30
0.0
 10
47.85651040470254
 20
-91.00047469513183
 30
0.0
 10
47.60053981014848
 20
-91.00047469513183
 30
0.0
 10
47.50528291998132
 20
-90.84889049378084
 30
0.0
 10
47.44396022034388
 20
-90.73589136186465
 30
0.0
 10
47.38470457799757
 20
-90.86921655714382
 30
0.0
 10
47.27049966266154
 20
-90.95086532014423
 30
0.0
 10
47.10978595827464
 20
-90.95086532014423
 30
0.0
 10
46.83469508377744
 20
-90.95086532014423
 30
0.0
 10
46.69930283120712
 20
-90.73830292870431
 30
0.0
 10
46.69930283120712
 20
-90.44443628381251
 30
0.0
 10
46.69930283120712
 20
-90.14126788111052
 30
0.0
 10
46.8431355677163
 20
-89.93800724748078
 30
0.0
 10
47.10978595827464
 20
-89.93800724748078
 30
0.0
 10
47.27049966266154
 20
-89.93800724748078
 30
0.0
 10
47.38470457799757
 20
-90.02137855822383
 30
0.0
 10
47.44396022034388
 20
-90.15504826305153
 30
0.0
 10
47.49477537875131
 20
-90.05996362765862
 30
0.0
 10
47.59003226891846
 20
-89.89046492978433
 30
0.0
 10
47.85237629012024
 20
-89.89046492978433
 30
0.0
 10
48.2268581693669
 20
-89.89046492978433
 30
0.0
 10
48.34295788721982
 20
-90.18881019880696
 30
0.0
 10
48.34295788721982
 20
-90.44443628381251
 30
0.0
  0
SPLINE
  5
7B
330
76
100
AcDbEntity
  8
_U+30EC_U+30A4_U+30E4_U+30FC 1
370
     0
100
AcDbSpline
210
0.0
220
0.0
230
1.0
 70
    11
 71
     3
 72
    17
 73
    13
 74
     0
 42
0.0000000001
 43
0.0000000001
 12
1.0
 22
0.0
 32
0.0
 13
1.0
 23
0.0
 33
0.0
 40
0.0
 40
0.0
 40
0.0
 40
0.0
 40
1.0
 40
1.0
 40
1.0
 40
2.0
 40
2.0
 40
2.0
 40
3.0
 40
3.0
 40
3.0
 40
4.0
 40
4.0
 40
4.0
 40
4.0
 10
46.89188366883258
 20
-90.44443628381251
 30
0.0
 10
46.89188366883258
 20
-90.62048066310878
 30
0.0
 10
46.98696830422548
 20
-90.71108667437085
 30
0.0
 10
47.1223605567958
 20
-90.71108667437085
 30
0.0
 10
47.24517821084495
 20
-90.71108667437085
 30
0.0
 10
47.36368949553755
 20
-90.63426104504977
 30
0.0
 10
47.36368949553755
 20
-90.44443628381251
 30
0.0
 10
47.36368949553755
 20
-90.25426701302672
 30
0.0
 10
47.24517821084495
 20
-90.17744138370564
 30
0.0
 10
47.1223605567958
 20
-90.17744138370564
 30
0.0
 10
46.98696830422548
 20
-90.17744138370564
 30
0.0
 10
46.89188366883258
 20
-90.27011445225887
 30
0.0
 10
46.89188366883258
 20
-90.44443628381251
 30
0.0
  0
SPLINE
  5
7C
330
76
100
AcDbEntity
  8
_U+30EC_U+30A4_U+30E4_U+30FC 1
370
     0
100
AcDbSpline
210
0.0
220
0.0
230
1.0
 70
    11
 71
     3
 72
    17
 73
    13
 74
     0
 42
0.0000000001
 43
0.0000000001
 12
1.0
 22
0.0
 32
0.0
 13
1.0
 23
0.0
 33
0.0
 40
0.0
 40
0.0
 40
0.0
 40
0.0
 40
1.0
 40
1.0
 40
1.0
 40
2.0
 40
2.0
 40
2.0
 40
3.0
 40
3.0
 40
3.0
 40
4.0
 40
4.0
 40
4.0
 40
4.0
 10
47.55196396380646
 20
-90.44443628381251
 30
0.0
 10
47.55196396380646
 20
-90.59808754245465
 30
0.0
 10
47.63860811526049
 20
-90.76069604935844
 30
0.0
 10
47.84169649411596
 20
-90.76069604935844
 30
0.0
 10
48.0468519302626
 20
-90.76069604935844
 30
0.0
 10
48.14848224707747
 20
-90.62530379678812
 30
0.0
 10
48.14848224707747
 20
-90.44443628381251
 30
0.0
 10
48.14848224707747
 20
-90.24530976476507
 30
0.0
 10
48.02583684780257
 20
-90.12783200871804
 30
0.0
 10
47.84806992076368
 20
-90.12783200871804
 30
0.0
 10
47.62586126196506
 20
-90.12783200871804
 30
0.0
 10
47.55196396380646
 20
-90.30180933072316
 30
0.0
 10
47.55196396380646
 20
-90.44443628381251
 30
0.0
  0
HATCH
  5
7D
330
76
100
AcDbEntity
  8
_U+30EC_U+30A4_U+30E4_U+30FC 1
 62
   179
420
  2234388
100
AcDbHatch
 10
0.0
 20
0.0
 30
0.0
210
0.0
220
0.0
230
1.0
  2
SOLID
 70
     1
 71
     0
 91
        3
 92
        1
 93
        1
 72
     4
 94
        3
 73
     0
 74
     1
 95
       29
 96
       25
 40
0.0
 40
0.0
 40
0.0
 40
0.0
 40
1.0
 40
1.0
 40
1.0
 40
2.0
 40
2.0
 40
2.0
 40
3.0
 40
3.0
 40
3.0
 40
4.0
 40
4.0
 40
4.0
 40
5.0
 40
5.0
 40
5.0
 40
6.0
 40
6.0
 40
6.0
 40
7.0
 40
7.0
 40
7.0
 40
8.0
 40
8.0
 40
8.0
 40
8.0
 10
48.34295788721982
 20
-90.44443628381251
 10
48.34295788721982
 20
-90.72934568044266
 10
48.20549857735835
 20
-91.00047469513183
 10
47.85651040470254
 20
-91.00047469513183
 10
47.60053981014848
 20
-91.00047469513183
 10
47.50528291998132
 20
-90.84889049378084
 10
47.44396022034388
 20
-90.73589136186465
 10
47.38470457799757
 20
-90.86921655714382
 10
47.27049966266154
 20
-90.95086532014423
 10
47.10978595827464
 20
-90.95086532014423
 10
46.83469508377744
 20
-90.95086532014423
 10
46.69930283120712
 20
-90.73830292870431
 10
46.69930283120712
 20
-90.44443628381251
 10
46.69930283120712
 20
-90.14126788111052
 10
46.8431355677163
 20
-89.93800724748078
 10
47.10978595827464
 20
-89.93800724748078
 10
47.27049966266154
 20
-89.93800724748078
 10
47.38470457799757
 20
-90.02137855822383
 10
47.44396022034388
 20
-90.15504826305153
 10
47.49477537875131
 20
-90.05996362765862
 10
47.59003226891846
 20
-89.89046492978433
 10
47.85237629012024
 20
-89.89046492978433
 10
48.2268581693669
 20
-89.89046492978433
 10
48.34295788721982
 20
-90.18881019880696
 10
48.34295788721982
 20
-90.44443628381251
 97
        0
 97
        0
 92
        1
 93
        1
 72
     4
 94
        3
 73
     0
 74
     1
 95
       17
 96
       13
 40
0.0
 40
0.0
 40
0.0
 40
0.0
 40
1.0
 40
1.0
 40
1.0
 40
2.0
 40
2.0
 40
2.0
 40
3.0
 40
3.0
 40
3.0
 40
4.0
 40
4.0
 40
4.0
 40
4.0
 10
46.89188366883258
 20
-90.44443628381251
 10
46.89188366883258
 20
-90.62048066310878
 10
46.98696830422548
 20
-90.71108667437085
 10
47.1223605567958
 20
-90.71108667437085
 10
47.24517821084495
 20
-90.71108667437085
 10
47.36368949553755
 20
-90.63426104504977
 10
47.36368949553755
 20
-90.44443628381251
 10
47.36368949553755
 20
-90.25426701302672
 10
47.24517821084495
 20
-90.17744138370564
 10
47.1223605567958
 20
-90.17744138370564
 10
46.98696830422548
 20
-90.17744138370564
 10
46.89188366883258
 20
-90.27011445225887
 10
46.89188366883258
 20
-90.44443628381251
 97
        0
 97
        0
 92
        1
 93
        1
 72
     4
 94
        3
 73
     0
 74
     1
 95
       17
 96
       13
 40
0.0
 40
0.0
 40
0.0
 40
0.0
 40
1.0
 40
1.0
 40
1.0
 40
2.0
 40
2.0
 40
2.0
 40
3.0
 40
3.0
 40
3.0
 40
4.0
 40
4.0
 40
4.0
 40
4.0
 10
47.55196396380646
 20
-90.44443628381251
 10
47.55196396380646
 20
-90.59808754245465
 10
47.63860811526049
 20
-90.76069604935844
 10
47.84169649411596
 20
-90.76069604935844
 10
48.0468519302626
 20
-90.76069604935844
 10
48.14848224707747
 20
-90.62530379678812
 10
48.14848224707747
 20
-90.44443628381251
 10
48.14848224707747
 20
-90.24530976476507
 10
48.02583684780257
 20
-90.12783200871804
 10
47.84806992076368
 20
-90.12783200871804
 10
47.62586126196506
 20
-90.12783200871804
 10
47.55196396380646
 20
-90.30180933072316
 10
47.55196396380646
 20
-90.44443628381251
 97
        0
 97
        0
 75
     2
 76
     1
 98
        0
  0
POLYLINE
  5
7E
330
76
100
AcDbEntity
  8
_U+30EC_U+30A4_U+30E4_U+30FC 1
370
     0
100
AcDb2dPolyline
 66
     1
 10
0.0
 20
0.0
 30
0.0
  0
VERTEX
  5
7F
330
7E
100
AcDbEntity
  8
_U+30EC_U+30A4_U+30E4_U+30FC 1
370
     0
100
AcDbVertex
100
AcDb2dVertex
 10
48.29231498358664
 20
-89.65688745588439
 30
0.0
  0
VERTEX
  5
80
330
7E
100
AcDbEntity
  8
_U+30EC_U+30A4_U+30E4_U+30FC 1
370
     0
100
AcDbVertex
100
AcDb2dVertex
 10
48.04065075838915
 20
-89.65688745588439
 30
0.0
  0
VERTEX
  5
81
330
7E
100
AcDbEntity
  8
_U+30EC_U+30A4_U+30E4_U+30FC 1
370
     0
100
AcDbVertex
100
AcDb2dVertex
 10
48.04065075838915
 20
-89.38782549848638
 30
0.0
  0
VERTEX
  5
82
330
7E
100
AcDbEntity
  8
_U+30EC_U+30A4_U+30E4_U+30FC 1
370
     0
100
AcDbVertex
100
AcDb2dVertex
 10
48.29231498358664
 20
-89.38782549848638
 30
0.0
  0
VERTEX
  5
83
330
7E
100
AcDbEntity
  8
_U+30EC_U+30A4_U+30E4_U+30FC 1
370
     0
100
AcDbVertex
100
AcDb2dVertex
 10
48.29231498358664
 20
-89.65688745588439
 30
0.0
  0
SEQEND
  5
84
330
7E
100
AcDbEntity
  8
_U+30EC_U+30A4_U+30E4_U+30FC 1
370
     0
  0
HATCH
  5
85
330
76
100
AcDbEntity
  8
_U+30EC_U+30A4_U+30E4_U+30FC 1
 62
   179
420
  2234388
100
AcDbHatch
 10
0.0
 20
0.0
 30
0.0
210
0.0
220
0.0
230
1.0
  2
SOLID
 70
     1
 71
     0
 91
        1
 92
        1
 93
        4
 72
     1
 10
48.29231498358664
 20
-89.65688745588439
 11
48.04065075838915
 21
-89.65688745588439
 72
     1
 10
48.04065075838915
 20
-89.65688745588439
 11
48.04065075838915
 21
-89.38782549848638
 72
     1
 10
48.04065075838915
 20
-89.38782549848638
 11
48.29231498358664
 21
-89.38782549848638
 72
     1
 10
48.29231498358664
 20
-89.38782549848638
 11
48.29231498358664
 21
-89.65688745588439
 97
        0
 75
     2
 76
     1
 98
        0
  0
SPLINE
  5
86
330
76
100
AcDbEntity
  8
_U+30EC_U+30A4_U+30E4_U+30FC 1
370
     0
100
AcDbSpline
210
0.0
220
0.0
230
1.0
 70
    11
 71
     3
 72
    44
 73
    40
 74
     0
 42
0.0000000001
 43
0.0000000001
 12
1.0
 22
0.0
 32
0.0
 13
1.0
 23
0.0
 33
0.0
 40
0.0
 40
0.0
 40
0.0
 40
0.0
 40
1.0
 40
1.0
 40
1.0
 40
2.0
 40
2.0
 40
2.0
 40
3.0
 40
3.0
 40
3.0
 40
4.0
 40
4.0
 40
4.0
 40
5.0
 40
5.0
 40
5.0
 40
6.0
 40
6.0
 40
6.0
 40
7.0
 40
7.0
 40
7.0
 40
8.0
 40
8.0
 40
8.0
 40
9.0
 40
9.0
 40
9.0
 40
10.0
 40
10.0
 40
10.0
 40
11.0
 40
11.0
 40
11.0
 40
12.0
 40
12.0
 40
12.0
 40
13.0
 40
13.0
 40
13.0
 40
13.0
 10
47.71061061090221
 20
-88.50105792058308
 30
0.0
 10
47.86925725799797
 20
-88.73394637538597
 30
0.0
 10
47.94332681093083
 20
-88.83350963490969
 30
0.0
 10
48.08715954744002
 20
-88.88553057673695
 30
0.0
 10
48.08715954744002
 20
-88.88553057673695
 30
0.0
 10
48.08715954744002
 20
-88.05319550750059
 30
0.0
 10
48.08715954744002
 20
-88.05319550750059
 30
0.0
 10
48.08715954744002
 20
-88.05319550750059
 30
0.0
 10
48.29231498358664
 20
-88.05319550750059
 30
0.0
 10
48.29231498358664
 20
-88.05319550750059
 30
0.0
 10
48.29231498358664
 20
-88.05319550750059
 30
0.0
 10
48.29231498358664
 20
-89.1521809672953
 30
0.0
 10
48.29231498358664
 20
-89.1521809672953
 30
0.0
 10
47.93471407221772
 20
-89.11807452199132
 30
0.0
 10
47.85651040470254
 20
-89.04813908364075
 30
0.0
 10
47.55816513567991
 20
-88.63679468270192
 30
0.0
 10
47.35938312618099
 20
-88.36325410117308
 30
0.0
 10
47.29168699989583
 20
-88.29297415327399
 30
0.0
 10
47.15422769003436
 20
-88.29297415327399
 30
0.0
 10
47.03571640534177
 20
-88.29297415327399
 30
0.0
 10
46.90463052212801
 20
-88.36979978259505
 30
0.0
 10
46.90463052212801
 20
-88.58029511674381
 30
0.0
 10
46.90463052212801
 20
-88.85831432240349
 30
0.0
 10
47.13510741009122
 20
-88.86727157066512
 30
0.0
 10
47.25155163749267
 20
-88.87175019479595
 30
0.0
 10
47.25155163749267
 20
-88.87175019479595
 30
0.0
 10
47.25155163749267
 20
-89.11152884056935
 30
0.0
 10
47.25155163749267
 20
-89.11152884056935
 30
0.0
 10
47.12459986886121
 20
-89.1025715923077
 30
0.0
 10
47.01246201081633
 20
-89.09120277720638
 30
0.0
 10
46.89395072612373
 20
-89.00507539007512
 30
0.0
 10
46.73323702173683
 20
-88.88759763402811
 30
0.0
 10
46.69930283120712
 20
-88.68881562452918
 30
0.0
 10
46.69930283120712
 20
-88.56444767751167
 30
0.0
 10
46.69930283120712
 20
-88.26816946578019
 30
0.0
 10
46.88344318489372
 20
-88.04664982607862
 30
0.0
 10
47.15629474732551
 20
-88.04664982607862
 30
0.0
 10
47.38470457799757
 20
-88.04664982607862
 30
0.0
 10
47.48426783752129
 20
-88.17101777309614
 30
0.0
 10
47.71061061090221
 20
-88.50105792058308
 30
0.0
  0
HATCH
  5
87
330
76
100
AcDbEntity
  8
_U+30EC_U+30A4_U+30E4_U+30FC 1
 62
   179
420
  2234388
100
AcDbHatch
 10
0.0
 20
0.0
 30
0.0
210
0.0
220
0.0
230
1.0
  2
SOLID
 70
     1
 71
     0
 91
        1
 92
        1
 93
        1
 72
     4
 94
        3
 73
     0
 74
     1
 95
       44
 96
       40
 40
0.0
 40
0.0
 40
0.0
 40
0.0
 40
1.0
 40
1.0
 40
1.0
 40
2.0
 40
2.0
 40
2.0
 40
3.0
 40
3.0
 40
3.0
 40
4.0
 40
4.0
 40
4.0
 40
5.0
 40
5.0
 40
5.0
 40
6.0
 40
6.0
 40
6.0
 40
7.0
 40
7.0
 40
7.0
 40
8.0
 40
8.0
 40
8.0
 40
9.0
 40
9.0
 40
9.0
 40
10.0
 40
10.0
 40
10.0
 40
11.0
 40
11.0
 40
11.0
 40
12.0
 40
12.0
 40
12.0
 40
13.0
 40
13.0
 40
13.0
 40
13.0
 10
47.71061061090221
 20
-88.50105792058308
 10
47.86925725799797
 20
-88.73394637538597
 10
47.94332681093083
 20
-88.83350963490969
 10
48.08715954744002
 20
-88.88553057673695
 10
48.08715954744002
 20
-88.88553057673695
 10
48.08715954744002
 20
-88.05319550750059
 10
48.08715954744002
 20
-88.05319550750059
 10
48.08715954744002
 20
-88.05319550750059
 10
48.29231498358664
 20
-88.05319550750059
 10
48.29231498358664
 20
-88.05319550750059
 10
48.29231498358664
 20
-88.05319550750059
 10
48.29231498358664
 20
-89.1521809672953
 10
48.29231498358664
 20
-89.1521809672953
 10
47.93471407221772
 20
-89.11807452199132
 10
47.85651040470254
 20
-89.04813908364075
 10
47.55816513567991
 20
-88.63679468270192
 10
47.35938312618099
 20
-88.36325410117308
 10
47.29168699989583
 20
-88.29297415327399
 10
47.15422769003436
 20
-88.29297415327399
 10
47.03571640534177
 20
-88.29297415327399
 10
46.90463052212801
 20
-88.36979978259505
 10
46.90463052212801
 20
-88.58029511674381
 10
46.90463052212801
 20
-88.85831432240349
 10
47.13510741009122
 20
-88.86727157066512
 10
47.25155163749267
 20
-88.87175019479595
 10
47.25155163749267
 20
-88.87175019479595
 10
47.25155163749267
 20
-89.11152884056935
 10
47.25155163749267
 20
-89.11152884056935
 10
47.12459986886121
 20
-89.1025715923077
 10
47.01246201081633
 20
-89.09120277720638
 10
46.89395072612373
 20
-89.00507539007512
 10
46.73323702173683
 20
-88.88759763402811
 10
46.69930283120712
 20
-88.68881562452918
 10
46.69930283120712
 20
-88.56444767751167
 10
46.69930283120712
 20
-88.26816946578019
 10
46.88344318489372
 20
-88.04664982607862
 10
47.15629474732551
 20
-88.04664982607862
 10
47.38470457799757
 20
-88.04664982607862
 10
47.48426783752129
 20
-88.17101777309614
 10
47.71061061090221
 20
-88.50105792058308
 97
        0
 97
        0
 75
     2
 76
     1
 98
        0
  0
ENDBLK
  5
79
330
76
100
AcDbEntity
  8
0
100
AcDbBlockEnd
  0
BLOCK
  5
9A
330
98
100
AcDbEntity
  8
0
100
AcDbBlockBegin
  2
block 3
 70
     0
 10
0.0
 20
0.0
 30
0.0
  3
block 3
  1

  0
SPLINE
  5
9C
330
98
100
AcDbEntity
  8
_U+30EC_U+30A4_U+30E4_U+30FC 1
370
     0
100
AcDbSpline
210
0.0
220
0.0
230
1.0
 70
    11
 71
     3
 72
    26
 73
    22
 74
     0
 42
0.0000000001
 43
0.0000000001
 12
1.0
 22
0.0
 32
0.0
 13
1.0
 23
0.0
 33
0.0
 40
0.0
 40
0.0
 40
0.0
 40
0.0
 40
1.0
 40
1.0
 40
1.0
 40
2.0
 40
2.0
 40
2.0
 40
3.0
 40
3.0
 40
3.0
 40
4.0
 40
4.0
 40
4.0
 40
5.0
 40
5.0
 40
5.0
 40
6.0
 40
6.0
 40
6.0
 40
7.0
 40
7.0
 40
7.0
 40
7.0
 10
79.29266219805878
 20
-82.57911103621286
 30
0.0
 10
79.29266219805878
 20
-82.57911103621286
 30
0.0
 10
78.18850909503621
 20
-82.57911103621286
 30
0.0
 10
78.18850909503621
 20
-82.57911103621286
 30
0.0
 10
78.18850909503621
 20
-82.57911103621286
 30
0.0
 10
78.18850909503621
 20
-82.93188881390245
 30
0.0
 10
78.18850909503621
 20
-82.93188881390245
 30
0.0
 10
78.18850909503621
 20
-82.93188881390245
 30
0.0
 10
78.04036998917047
 20
-82.93188881390245
 30
0.0
 10
78.04036998917047
 20
-82.93188881390245
 30
0.0
 10
78.02555607858389
 20
-82.57687172414745
 30
0.0
 10
77.86260306213157
 20
-82.5270900943856
 30
0.0
 10
77.74822589202128
 20
-82.49556747069556
 30
0.0
 10
77.74822589202128
 20
-82.49556747069556
 30
0.0
 10
77.74822589202128
 20
-82.33950464521374
 30
0.0
 10
77.74822589202128
 20
-82.33950464521374
 30
0.0
 10
77.74822589202128
 20
-82.33950464521374
 30
0.0
 10
79.29266219805878
 20
-82.33950464521374
 30
0.0
 10
79.29266219805878
 20
-82.33950464521374
 30
0.0
 10
79.29266219805878
 20
-82.33950464521374
 30
0.0
 10
79.29266219805878
 20
-82.57911103621286
 30
0.0
 10
79.29266219805878
 20
-82.57911103621286
 30
0.0
  0
HATCH
  5
9D
330
98
100
AcDbEntity
  8
_U+30EC_U+30A4_U+30E4_U+30FC 1
 62
   179
420
  2234388
100
AcDbHatch
 10
0.0
 20
0.0
 30
0.0
210
0.0
220
0.0
230
1.0
  2
SOLID
 70
     1
 71
     0
 91
        1
 92
        1
 93
        1
 72
     4
 94
        3
 73
     0
 74
     1
 95
       26
 96
       22
 40
0.0
 40
0.0
 40
0.0
 40
0.0
 40
1.0
 40
1.0
 40
1.0
 40
2.0
 40
2.0
 40
2.0
 40
3.0
 40
3.0
 40
3.0
 40
4.0
 40
4.0
 40
4.0
 40
5.0
 40
5.0
 40
5.0
 40
6.0
 40
6.0
 40
6.0
 40
7.0
 40
7.0
 40
7.0
 40
7.0
 10
79.29266219805878
 20
-82.57911103621286
 10
79.29266219805878
 20
-82.57911103621286
 10
78.18850909503621
 20
-82.57911103621286
 10
78.18850909503621
 20
-82.57911103621286
 10
78.18850909503621
 20
-82.57911103621286
 10
78.18850909503621
 20
-82.93188881390245
 10
78.18850909503621
 20
-82.93188881390245
 10
78.18850909503621
 20
-82.93188881390245
 10
78.04036998917047
 20
-82.93188881390245
 10
78.04036998917047
 20
-82.93188881390245
 10
78.02555607858389
 20
-82.57687172414745
 10
77.86260306213157
 20
-82.5270900943856
 10
77.74822589202128
 20
-82.49556747069556
 10
77.74822589202128
 20
-82.49556747069556
 10
77.74822589202128
 20
-82.33950464521374
 10
77.74822589202128
 20
-82.33950464521374
 10
77.74822589202128
 20
-82.33950464521374
 10
79.29266219805878
 20
-82.33950464521374
 10
79.29266219805878
 20
-82.33950464521374
 10
79.29266219805878
 20
-82.33950464521374
 10
79.29266219805878
 20
-82.57911103621286
 10
79.29266219805878
 20
-82.57911103621286
 97
        0
 97
        0
 75
     2
 76
     1
 98
        0
  0
ENDBLK
  5
9B
330
98
100
AcDbEntity
  8
0
100
AcDbBlockEnd
  0
BLOCK
  5
AC
330
AA
100
AcDbEntity
  8
0
100
AcDbBlockBegin
  2
block 4
 70
     0
 10
0.0
 20
0.0
 30
0.0
  3
block 4
  1

  0
SPLINE
  5
AE
330
AA
100
AcDbEntity
  8
_U+30EC_U+30A4_U+30E4_U+30FC 1
370
     0
100
AcDbSpline
210
0.0
220
0.0
230
1.0
 70
    11
 71
     3
 72
    32
 73
    28
 74
     0
 42
0.0000000001
 43
0.0000000001
 12
1.0
 22
0.0
 32
0.0
 13
1.0
 23
0.0
 33
0.0
 40
0.0
 40
0.0
 40
0.0
 40
0.0
 40
1.0
 40
1.0
 40
1.0
 40
2.0
 40
2.0
 40
2.0
 40
3.0
 40
3.0
 40
3.0
 40
4.0
 40
4.0
 40
4.0
 40
5.0
 40
5.0
 40
5.0
 40
6.0
 40
6.0
 40
6.0
 40
7.0
 40
7.0
 40
7.0
 40
8.0
 40
8.0
 40
8.0
 40
9.0
 40
9.0
 40
9.0
 40
9.0
 10
79.34330510169195
 20
-90.43995765968168
 30
0.0
 10
79.34330510169195
 20
-90.99151744687018
 30
0.0
 10
78.78933374766378
 20
-91.00047469513183
 30
0.0
 10
78.57539331802977
 20
-91.00047469513183
 30
0.0
 10
78.34491643006655
 20
-91.00047469513183
 30
0.0
 10
77.6975829883881
 20
-90.98014863176886
 30
0.0
 10
77.6975829883881
 20
-90.39896102340721
 30
0.0
 10
77.6975829883881
 20
-90.21361488630076
 30
0.0
 10
77.76751842673868
 20
-89.95144311987326
 30
0.0
 10
78.09962563151676
 20
-89.9107909931473
 30
0.0
 10
78.09962563151676
 20
-89.9107909931473
 30
0.0
 10
78.09962563151676
 20
-90.13920082381937
 30
0.0
 10
78.09962563151676
 20
-90.13920082381937
 30
0.0
 10
78.04243704646161
 20
-90.1505696389207
 30
0.0
 10
77.89429794059588
 20
-90.18433157467615
 30
0.0
 10
77.89429794059588
 20
-90.40137259024688
 30
0.0
 10
77.89429794059588
 20
-90.71349824121052
 30
0.0
 10
78.22227103079166
 20
-90.75621742522762
 30
0.0
 10
78.42725421216403
 20
-90.76999780716862
 30
0.0
 10
78.34905054464885
 20
-90.6704345476449
 30
0.0
 10
78.28979490230256
 20
-90.59808754245465
 30
0.0
 10
78.28979490230256
 20
-90.40343964753804
 30
0.0
 10
78.28979490230256
 20
-90.21154782900962
 30
0.0
 10
78.3979709005394
 20
-89.88805336294466
 30
0.0
 10
78.80414765825036
 20
-89.88805336294466
 30
0.0
 10
79.12350800973302
 20
-89.88805336294466
 30
0.0
 10
79.34330510169195
 20
-90.10061575438458
 30
0.0
 10
79.34330510169195
 20
-90.43995765968168
 30
0.0
  0
SPLINE
  5
AF
330
AA
100
AcDbEntity
  8
_U+30EC_U+30A4_U+30E4_U+30FC 1
370
     0
100
AcDbSpline
210
0.0
220
0.0
230
1.0
 70
    11
 71
     3
 72
    17
 73
    13
 74
     0
 42
0.0000000001
 43
0.0000000001
 12
1.0
 22
0.0
 32
0.0
 13
1.0
 23
0.0
 33
0.0
 40
0.0
 40
0.0
 40
0.0
 40
0.0
 40
1.0
 40
1.0
 40
1.0
 40
2.0
 40
2.0
 40
2.0
 40
3.0
 40
3.0
 40
3.0
 40
4.0
 40
4.0
 40
4.0
 40
4.0
 10
78.48444279721917
 20
-90.42169865360985
 30
0.0
 10
78.48444279721917
 20
-90.7021294261092
 30
0.0
 10
78.69597166001351
 20
-90.74278155283514
 30
0.0
 10
78.81241588741496
 20
-90.74278155283514
 30
0.0
 10
78.9881157571627
 20
-90.74278155283514
 30
0.0
 10
79.15106877361501
 20
-90.64115123602028
 30
0.0
 10
79.15106877361501
 20
-90.44443628381251
 30
0.0
 10
79.15106877361501
 20
-90.31558971266416
 30
0.0
 10
79.09181313126872
 20
-90.12783200871804
 30
0.0
 10
78.8062147155415
 20
-90.12783200871804
 30
0.0
 10
78.58193899945174
 20
-90.12783200871804
 30
0.0
 10
78.48444279721917
 20
-90.27700464322936
 30
0.0
 10
78.48444279721917
 20
-90.42169865360985
 30
0.0
  0
HATCH
  5
B0
330
AA
100
AcDbEntity
  8
_U+30EC_U+30A4_U+30E4_U+30FC 1
 62
   179
420
  2234388
100
AcDbHatch
 10
0.0
 20
0.0
 30
0.0
210
0.0
220
0.0
230
1.0
  2
SOLID
 70
     1
 71
     0
 91
        2
 92
        1
 93
        1
 72
     4
 94
        3
 73
     0
 74
     1
 95
       32
 96
       28
 40
0.0
 40
0.0
 40
0.0
 40
0.0
 40
1.0
 40
1.0
 40
1.0
 40
2.0
 40
2.0
 40
2.0
 40
3.0
 40
3.0
 40
3.0
 40
4.0
 40
4.0
 40
4.0
 40
5.0
 40
5.0
 40
5.0
 40
6.0
 40
6.0
 40
6.0
 40
7.0
 40
7.0
 40
7.0
 40
8.0
 40
8.0
 40
8.0
 40
9.0
 40
9.0
 40
9.0
 40
9.0
 10
79.34330510169195
 20
-90.43995765968168
 10
79.34330510169195
 20
-90.99151744687018
 10
78.78933374766378
 20
-91.00047469513183
 10
78.57539331802977
 20
-91.00047469513183
 10
78.34491643006655
 20
-91.00047469513183
 10
77.6975829883881
 20
-90.98014863176886
 10
77.6975829883881
 20
-90.39896102340721
 10
77.6975829883881
 20
-90.21361488630076
 10
77.76751842673868
 20
-89.95144311987326
 10
78.09962563151676
 20
-89.9107909931473
 10
78.09962563151676
 20
-89.9107909931473
 10
78.09962563151676
 20
-90.13920082381937
 10
78.09962563151676
 20
-90.13920082381937
 10
78.04243704646161
 20
-90.1505696389207
 10
77.89429794059588
 20
-90.18433157467615
 10
77.89429794059588
 20
-90.40137259024688
 10
77.89429794059588
 20
-90.71349824121052
 10
78.22227103079166
 20
-90.75621742522762
 10
78.42725421216403
 20
-90.76999780716862
 10
78.34905054464885
 20
-90.6704345476449
 10
78.28979490230256
 20
-90.59808754245465
 10
78.28979490230256
 20
-90.40343964753804
 10
78.28979490230256
 20
-90.21154782900962
 10
78.3979709005394
 20
-89.88805336294466
 10
78.80414765825036
 20
-89.88805336294466
 10
79.12350800973302
 20
-89.88805336294466
 10
79.34330510169195
 20
-90.10061575438458
 10
79.34330510169195
 20
-90.43995765968168
 97
        0
 97
        0
 92
        1
 93
        1
 72
     4
 94
        3
 73
     0
 74
     1
 95
       17
 96
       13
 40
0.0
 40
0.0
 40
0.0
 40
0.0
 40
1.0
 40
1.0
 40
1.0
 40
2.0
 40
2.0
 40
2.0
 40
3.0
 40
3.0
 40
3.0
 40
4.0
 40
4.0
 40
4.0
 40
4.0
 10
78.48444279721917
 20
-90.42169865360985
 10
78.48444279721917
 20
-90.7021294261092
 10
78.69597166001351
 20
-90.74278155283514
 10
78.81241588741496
 20
-90.74278155283514
 10
78.9881157571627
 20
-90.74278155283514
 10
79.15106877361501
 20
-90.64115123602028
 10
79.15106877361501
 20
-90.44443628381251
 10
79.15106877361501
 20
-90.31558971266416
 10
79.09181313126872
 20
-90.12783200871804
 10
78.8062147155415
 20
-90.12783200871804
 10
78.58193899945174
 20
-90.12783200871804
 10
78.48444279721917
 20
-90.27700464322936
 10
78.48444279721917
 20
-90.42169865360985
 97
        0
 97
        0
 75
     2
 76
     1
 98
        0
  0
POLYLINE
  5
B1
330
AA
100
AcDbEntity
  8
_U+30EC_U+30A4_U+30E4_U+30FC 1
370
     0
100
AcDb2dPolyline
 66
     1
 10
0.0
 20
0.0
 30
0.0
  0
VERTEX
  5
B2
330
B1
100
AcDbEntity
  8
_U+30EC_U+30A4_U+30E4_U+30FC 1
370
     0
100
AcDbVertex
100
AcDb2dVertex
 10
79.29266219805878
 20
-89.65688745588439
 30
0.0
  0
VERTEX
  5
B3
330
B1
100
AcDbEntity
  8
_U+30EC_U+30A4_U+30E4_U+30FC 1
370
     0
100
AcDbVertex
100
AcDb2dVertex
 10
79.04082571808702
 20
-89.65688745588439
 30
0.0
  0
VERTEX
  5
B4
330
B1
100
AcDbEntity
  8
_U+30EC_U+30A4_U+30E4_U+30FC 1
370
     0
100
AcDbVertex
100
AcDb2dVertex
 10
79.04082571808702
 20
-89.38782549848638
 30
0.0
  0
VERTEX
  5
B5
330
B1
100
AcDbEntity
  8
_U+30EC_U+30A4_U+30E4_U+30FC 1
370
     0
100
AcDbVertex
100
AcDb2dVertex
 10
79.29266219805878
 20
-89.38782549848638
 30
0.0
  0
VERTEX
  5
B6
330
B1
100
AcDbEntity
  8
_U+30EC_U+30A4_U+30E4_U+30FC 1
370
     0
100
AcDbVertex
100
AcDb2dVertex
 10
79.29266219805878
 20
-89.65688745588439
 30
0.0
  0
SEQEND
  5
B7
330
B1
100
AcDbEntity
  8
_U+30EC_U+30A4_U+30E4_U+30FC 1
370
     0
  0
HATCH
  5
B8
330
AA
100
AcDbEntity
  8
_U+30EC_U+30A4_U+30E4_U+30FC 1
 62
   179
420
  2234388
100
AcDbHatch
 10
0.0
 20
0.0
 30
0.0
210
0.0
220
0.0
230
1.0
  2
SOLID
 70
     1
 71
     0
 91
        1
 92
        1
 93
        4
 72
     1
 10
79.29266219805878
 20
-89.65688745588439
 11
79.04082571808702
 21
-89.65688745588439
 72
     1
 10
79.04082571808702
 20
-89.65688745588439
 11
79.04082571808702
 21
-89.38782549848638
 72
     1
 10
79.04082571808702
 20
-89.38782549848638
 11
79.29266219805878
 21
-89.38782549848638
 72
     1
 10
79.29266219805878
 20
-89.38782549848638
 11
79.29266219805878
 21
-89.65688745588439
 97
        0
 75
     2
 76
     1
 98
        0
  0
SPLINE
  5
B9
330
AA
100
AcDbEntity
  8
_U+30EC_U+30A4_U+30E4_U+30FC 1
370
     0
100
AcDbSpline
210
0.0
220
0.0
230
1.0
 70
    11
 71
     3
 72
    44
 73
    40
 74
     0
 42
0.0000000001
 43
0.0000000001
 12
1.0
 22
0.0
 32
0.0
 13
1.0
 23
0.0
 33
0.0
 40
0.0
 40
0.0
 40
0.0
 40
0.0
 40
1.0
 40
1.0
 40
1.0
 40
2.0
 40
2.0
 40
2.0
 40
3.0
 40
3.0
 40
3.0
 40
4.0
 40
4.0
 40
4.0
 40
5.0
 40
5.0
 40
5.0
 40
6.0
 40
6.0
 40
6.0
 40
7.0
 40
7.0
 40
7.0
 40
8.0
 40
8.0
 40
8.0
 40
9.0
 40
9.0
 40
9.0
 40
10.0
 40
10.0
 40
10.0
 40
11.0
 40
11.0
 40
11.0
 40
12.0
 40
12.0
 40
12.0
 40
13.0
 40
13.0
 40
13.0
 40
13.0
 10
78.71078557060008
 20
-88.50105792058308
 30
0.0
 10
78.8696044724701
 20
-88.73394637538597
 30
0.0
 10
78.94367402540297
 20
-88.83350963490969
 30
0.0
 10
79.0873345071379
 20
-88.88553057673695
 30
0.0
 10
79.0873345071379
 20
-88.88553057673695
 30
0.0
 10
79.0873345071379
 20
-88.05319550750059
 30
0.0
 10
79.0873345071379
 20
-88.05319550750059
 30
0.0
 10
79.0873345071379
 20
-88.05319550750059
 30
0.0
 10
79.29266219805878
 20
-88.05319550750059
 30
0.0
 10
79.29266219805878
 20
-88.05319550750059
 30
0.0
 10
79.29266219805878
 20
-88.05319550750059
 30
0.0
 10
79.29266219805878
 20
-89.1521809672953
 30
0.0
 10
79.29266219805878
 20
-89.1521809672953
 30
0.0
 10
78.93506128668984
 20
-89.11807452199132
 30
0.0
 10
78.85685761917468
 20
-89.04813908364075
 30
0.0
 10
78.55851235015204
 20
-88.63679468270192
 30
0.0
 10
78.35973034065313
 20
-88.36325410117308
 30
0.0
 10
78.2918619595937
 20
-88.29297415327399
 30
0.0
 10
78.15440264973223
 20
-88.29297415327399
 30
0.0
 10
78.03589136503965
 20
-88.29297415327399
 30
0.0
 10
77.90497773660015
 20
-88.36979978259505
 30
0.0
 10
77.90497773660015
 20
-88.58029511674381
 30
0.0
 10
77.90497773660015
 20
-88.85831432240349
 30
0.0
 10
78.13545462456337
 20
-88.86727157066512
 30
0.0
 10
78.25189885196481
 20
-88.87175019479595
 30
0.0
 10
78.25189885196481
 20
-88.87175019479595
 30
0.0
 10
78.25189885196481
 20
-89.11152884056935
 30
0.0
 10
78.25189885196481
 20
-89.11152884056935
 30
0.0
 10
78.12477482855908
 20
-89.1025715923077
 30
0.0
 10
78.01280922528846
 20
-89.09120277720638
 30
0.0
 10
77.89429794059588
 20
-89.00507539007512
 30
0.0
 10
77.7334119814347
 20
-88.88759763402811
 30
0.0
 10
77.69965004567926
 20
-88.68881562452918
 30
0.0
 10
77.69965004567926
 20
-88.56444767751167
 30
0.0
 10
77.69965004567926
 20
-88.26816946578019
 30
0.0
 10
77.8836181445916
 20
-88.04664982607862
 30
0.0
 10
78.15646970702339
 20
-88.04664982607862
 30
0.0
 10
78.38522404724398
 20
-88.04664982607862
 30
0.0
 10
78.48444279721917
 20
-88.17101777309614
 30
0.0
 10
78.71078557060008
 20
-88.50105792058308
 30
0.0
  0
HATCH
  5
BA
330
AA
100
AcDbEntity
  8
_U+30EC_U+30A4_U+30E4_U+30FC 1
 62
   179
420
  2234388
100
AcDbHatch
 10
0.0
 20
0.0
 30
0.0
210
0.0
220
0.0
230
1.0
  2
SOLID
 70
     1
 71
     0
 91
        1
 92
        1
 93
        1
 72
     4
 94
        3
 73
     0
 74
     1
 95
       44
 96
       40
 40
0.0
 40
0.0
 40
0.0
 40
0.0
 40
1.0
 40
1.0
 40
1.0
 40
2.0
 40
2.0
 40
2.0
 40
3.0
 40
3.0
 40
3.0
 40
4.0
 40
4.0
 40
4.0
 40
5.0
 40
5.0
 40
5.0
 40
6.0
 40
6.0
 40
6.0
 40
7.0
 40
7.0
 40
7.0
 40
8.0
 40
8.0
 40
8.0
 40
9.0
 40
9.0
 40
9.0
 40
10.0
 40
10.0
 40
10.0
 40
11.0
 40
11.0
 40
11.0
 40
12.0
 40
12.0
 40
12.0
 40
13.0
 40
13.0
 40
13.0
 40
13.0
 10
78.71078557060008
 20
-88.50105792058308
 10
78.8696044724701
 20
-88.73394637538597
 10
78.94367402540297
 20
-88.83350963490969
 10
79.0873345071379
 20
-88.88553057673695
 10
79.0873345071379
 20
-88.88553057673695
 10
79.0873345071379
 20
-88.05319550750059
 10
79.0873345071379
 20
-88.05319550750059
 10
79.0873345071379
 20
-88.05319550750059
 10
79.29266219805878
 20
-88.05319550750059
 10
79.29266219805878
 20
-88.05319550750059
 10
79.29266219805878
 20
-88.05319550750059
 10
79.29266219805878
 20
-89.1521809672953
 10
79.29266219805878
 20
-89.1521809672953
 10
78.93506128668984
 20
-89.11807452199132
 10
78.85685761917468
 20
-89.04813908364075
 10
78.55851235015204
 20
-88.63679468270192
 10
78.35973034065313
 20
-88.36325410117308
 10
78.2918619595937
 20
-88.29297415327399
 10
78.15440264973223
 20
-88.29297415327399
 10
78.03589136503965
 20
-88.29297415327399
 10
77.90497773660015
 20
-88.36979978259505
 10
77.90497773660015
 20
-88.58029511674381
 10
77.90497773660015
 20
-88.85831432240349
 10
78.13545462456337
 20
-88.86727157066512
 10
78.25189885196481
 20
-88.87175019479595
 10
78.25189885196481
 20
-88.87175019479595
 10
78.25189885196481
 20
-89.11152884056935
 10
78.25189885196481
 20
-89.11152884056935
 10
78.12477482855908
 20
-89.1025715923077
 10
78.01280922528846
 20
-89.09120277720638
 10
77.89429794059588
 20
-89.00507539007512
 10
77.7334119814347
 20
-88.88759763402811
 10
77.69965004567926
 20
-88.68881562452918
 10
77.69965004567926
 20
-88.56444767751167
 10
77.69965004567926
 20
-88.26816946578019
 10
77.8836181445916
 20
-88.04664982607862
 10
78.15646970702339
 20
-88.04664982607862
 10
78.38522404724398
 20
-88.04664982607862
 10
78.48444279721917
 20
-88.17101777309614
 10
78.71078557060008
 20
-88.50105792058308
 97
        0
 97
        0
 75
     2
 76
     1
 98
        0
  0
ENDBLK
  5
AD
330
AA
100
AcDbEntity
  8
0
100
AcDbBlockEnd
  0
BLOCK
  5
C9
330
C7
100
AcDbEntity
  8
0
100
AcDbBlockBegin
  2
block 5
 70
     0
 10
0.0
 20
0.0
 30
0.0
  3
block 5
  1

  0
POLYLINE
  5
CB
330
C7
100
AcDbEntity
  8
_U+30EC_U+30A4_U+30E4_U+30FC 1
370
     0
100
AcDb2dPolyline
 66
     1
 10
0.0
 20
0.0
 30
0.0
  0
VERTEX
  5
CC
330
CB
100
AcDbEntity
  8
_U+30EC_U+30A4_U+30E4_U+30FC 1
370
     0
100
AcDbVertex
100
AcDb2dVertex
 10
55.28603107341808
 20
-96.82647567023783
 30
0.0
  0
VERTEX
  5
CD
330
CB
100
AcDbEntity
  8
_U+30EC_U+30A4_U+30E4_U+30FC 1
370
     0
100
AcDbVertex
100
AcDb2dVertex
 10
55.28603107341808
 20
-97.17339678560249
 30
0.0
  0
VERTEX
  5
CE
330
CB
100
AcDbEntity
  8
_U+30EC_U+30A4_U+30E4_U+30FC 1
370
     0
100
AcDbVertex
100
AcDb2dVertex
 10
55.05331487338945
 20
-97.17339678560249
 30
0.0
  0
VERTEX
  5
CF
330
CB
100
AcDbEntity
  8
_U+30EC_U+30A4_U+30E4_U+30FC 1
370
     0
100
AcDbVertex
100
AcDb2dVertex
 10
55.05331487338945
 20
-96.82647567023783
 30
0.0
  0
VERTEX
  5
D0
330
CB
100
AcDbEntity
  8
_U+30EC_U+30A4_U+30E4_U+30FC 1
370
     0
100
AcDbVertex
100
AcDb2dVertex
 10
54.35241019691537
 20
-96.82647567023783
 30
0.0
  0
VERTEX
  5
D1
330
CB
100
AcDbEntity
  8
_U+30EC_U+30A4_U+30E4_U+30FC 1
370
     0
100
AcDbVertex
100
AcDb2dVertex
 10
54.35241019691537
 20
-96.60219995414806
 30
0.0
  0
VERTEX
  5
D2
330
CB
100
AcDbEntity
  8
_U+30EC_U+30A4_U+30E4_U+30FC 1
370
     0
100
AcDbVertex
100
AcDb2dVertex
 10
55.07811956088325
 20
-95.62896047956498
 30
0.0
  0
VERTEX
  5
D3
330
CB
100
AcDbEntity
  8
_U+30EC_U+30A4_U+30E4_U+30FC 1
370
     0
100
AcDbVertex
100
AcDb2dVertex
 10
55.28603107341808
 20
-95.62896047956498
 30
0.0
  0
VERTEX
  5
D4
330
CB
100
AcDbEntity
  8
_U+30EC_U+30A4_U+30E4_U+30FC 1
370
     0
100
AcDbVertex
100
AcDb2dVertex
 10
55.28603107341808
 20
-96.62769366073891
 30
0.0
  0
VERTEX
  5
D5
330
CB
100
AcDbEntity
  8
_U+30EC_U+30A4_U+30E4_U+30FC 1
370
     0
100
AcDbVertex
100
AcDb2dVertex
 10
55.5077229678939
 20
-96.62769366073891
 30
0.0
  0
VERTEX
  5
D6
330
CB
100
AcDbEntity
  8
_U+30EC_U+30A4_U+30E4_U+30FC 1
370
     0
100
AcDbVertex
100
AcDb2dVertex
 10
55.5077229678939
 20
-96.82647567023783
 30
0.0
  0
VERTEX
  5
D7
330
CB
100
AcDbEntity
  8
_U+30EC_U+30A4_U+30E4_U+30FC 1
370
     0
100
AcDbVertex
100
AcDb2dVertex
 10
55.28603107341808
 20
-96.82647567023783
 30
0.0
  0
SEQEND
  5
D8
330
CB
100
AcDbEntity
  8
_U+30EC_U+30A4_U+30E4_U+30FC 1
370
     0
  0
POLYLINE
  5
D9
330
C7
100
AcDbEntity
  8
_U+30EC_U+30A4_U+30E4_U+30FC 1
370
     0
100
AcDb2dPolyline
 66
     1
 10
0.0
 20
0.0
 30
0.0
  0
VERTEX
  5
DA
330
D9
100
AcDbEntity
  8
_U+30EC_U+30A4_U+30E4_U+30FC 1
370
     0
100
AcDbVertex
100
AcDb2dVertex
 10
55.05331487338945
 20
-95.97174748034735
 30
0.0
  0
VERTEX
  5
DB
330
D9
100
AcDbEntity
  8
_U+30EC_U+30A4_U+30E4_U+30FC 1
370
     0
100
AcDbVertex
100
AcDb2dVertex
 10
54.56480033358103
 20
-96.62769366073891
 30
0.0
  0
VERTEX
  5
DC
330
D9
100
AcDbEntity
  8
_U+30EC_U+30A4_U+30E4_U+30FC 1
370
     0
100
AcDbVertex
100
AcDb2dVertex
 10
55.05331487338945
 20
-96.62769366073891
 30
0.0
  0
VERTEX
  5
DD
330
D9
100
AcDbEntity
  8
_U+30EC_U+30A4_U+30E4_U+30FC 1
370
     0
100
AcDbVertex
100
AcDb2dVertex
 10
55.05331487338945
 20
-95.97174748034735
 30
0.0
  0
SEQEND
  5
DE
330
D9
100
AcDbEntity
  8
_U+30EC_U+30A4_U+30E4_U+30FC 1
370
     0
  0
HATCH
  5
DF
330
C7
100
AcDbEntity
  8
_U+30EC_U+30A4_U+30E4_U+30FC 1
 62
   179
420
  2234388
100
AcDbHatch
 10
0.0
 20
0.0
 30
0.0
210
0.0
220
0.0
230
1.0
  2
SOLID
 70
     1
 71
     0
 91
        2
 92
        1
 93
       11
 72
     1
 10
55.28603107341808
 20
-96.82647567023783
 11
55.28603107341808
 21
-97.17339678560249
 72
     1
 10
55.28603107341808
 20
-97.17339678560249
 11
55.05331487338945
 21
-97.17339678560249
 72
     1
 10
55.05331487338945
 20
-97.17339678560249
 11
55.05331487338945
 21
-96.82647567023783
 72
     1
 10
55.05331487338945
 20
-96.82647567023783
 11
54.35241019691537
 21
-96.82647567023783
 72
     1
 10
54.35241019691537
 20
-96.82647567023783
 11
54.35241019691537
 21
-96.60219995414806
 72
     1
 10
54.35241019691537
 20
-96.60219995414806
 11
55.07811956088325
 21
-95.62896047956498
 72
     1
 10
55.07811956088325
 20
-95.62896047956498
 11
55.28603107341808
 21
-95.62896047956498
 72
     1
 10
55.28603107341808
 20
-95.62896047956498
 11
55.28603107341808
 21
-96.62769366073891
 72
     1
 10
55.28603107341808
 20
-96.62769366073891
 11
55.5077229678939
 21
-96.62769366073891
 72
     1
 10
55.5077229678939
 20
-96.62769366073891
 11
55.5077229678939
 21
-96.82647567023783
 72
     1
 10
55.5077229678939
 20
-96.82647567023783
 11
55.28603107341808
 21
-96.82647567023783
 97
        0
 92
        1
 93
        3
 72
     1
 10
55.05331487338945
 20
-95.97174748034735
 11
54.56480033358103
 21
-96.62769366073891
 72
     1
 10
54.56480033358103
 20
-96.62769366073891
 11
55.05331487338945
 21
-96.62769366073891
 72
     1
 10
55.05331487338945
 20
-96.62769366073891
 11
55.05331487338945
 21
-95.97174748034735
 97
        0
 75
     2
 76
     1
 98
        0
  0
ENDBLK
  5
CA
330
C7
100
AcDbEntity
  8
0
100
AcDbBlockEnd
  0
BLOCK
  5
EE
330
EC
100
AcDbEntity
  8
0
100
AcDbBlockBegin
  2
block 6
 70
     0
 10
0.0
 20
0.0
 30
0.0
  3
block 6
  1

  0
SPLINE
  5
F0
330
EC
100
AcDbEntity
  8
_U+30EC_U+30A4_U+30E4_U+30FC 1
370
     0
100
AcDbSpline
210
0.0
220
0.0
230
1.0
 70
    11
 71
     3
 72
    44
 73
    40
 74
     0
 42
0.0000000001
 43
0.0000000001
 12
1.0
 22
0.0
 32
0.0
 13
1.0
 23
0.0
 33
0.0
 40
0.0
 40
0.0
 40
0.0
 40
0.0
 40
1.0
 40
1.0
 40
1.0
 40
2.0
 40
2.0
 40
2.0
 40
3.0
 40
3.0
 40
3.0
 40
4.0
 40
4.0
 40
4.0
 40
5.0
 40
5.0
 40
5.0
 40
6.0
 40
6.0
 40
6.0
 40
7.0
 40
7.0
 40
7.0
 40
8.0
 40
8.0
 40
8.0
 40
9.0
 40
9.0
 40
9.0
 40
10.0
 40
10.0
 40
10.0
 40
11.0
 40
11.0
 40
11.0
 40
12.0
 40
12.0
 40
12.0
 40
13.0
 40
13.0
 40
13.0
 40
13.0
 10
63.86414657691591
 20
-80.39164765785348
 30
0.0
 10
63.63125812211302
 20
-80.5504665597235
 30
0.0
 10
63.5316948625893
 20
-80.62453611265637
 30
0.0
 10
63.47967392076203
 20
-80.76819659439128
 30
0.0
 10
63.47967392076203
 20
-80.76819659439128
 30
0.0
 10
64.31200898999839
 20
-80.76819659439128
 30
0.0
 10
64.31200898999839
 20
-80.76819659439128
 30
0.0
 10
64.31200898999839
 20
-80.76819659439128
 30
0.0
 10
64.31200898999839
 20
-80.97352428531218
 30
0.0
 10
64.31200898999839
 20
-80.97352428531218
 30
0.0
 10
64.31200898999839
 20
-80.97352428531218
 30
0.0
 10
63.21302353020369
 20
-80.97352428531218
 30
0.0
 10
63.21302353020369
 20
-80.97352428531218
 30
0.0
 10
63.24712997550766
 20
-80.61592337394325
 30
0.0
 10
63.31706541385824
 20
-80.53771970642808
 30
0.0
 10
63.72840981479707
 20
-80.23937443740543
 30
0.0
 10
64.00195039632591
 20
-80.04059242790652
 30
0.0
 10
64.072230344225
 20
-79.9727240468471
 30
0.0
 10
64.072230344225
 20
-79.83526473698564
 30
0.0
 10
64.072230344225
 20
-79.71675345229303
 30
0.0
 10
63.99540471490393
 20
-79.58583982385355
 30
0.0
 10
63.78490938075517
 20
-79.58583982385355
 30
0.0
 10
63.5068901750955
 20
-79.58583982385355
 30
0.0
 10
63.49793292683385
 20
-79.81631671181675
 30
0.0
 10
63.49345430270303
 20
-79.9327609392182
 30
0.0
 10
63.49345430270303
 20
-79.9327609392182
 30
0.0
 10
63.25367565692964
 20
-79.9327609392182
 30
0.0
 10
63.25367565692964
 20
-79.9327609392182
 30
0.0
 10
63.26263290519129
 20
-79.80563691581249
 30
0.0
 10
63.27400172029262
 20
-79.69367131254187
 30
0.0
 10
63.36012910742386
 20
-79.57516002784926
 30
0.0
 10
63.47760686347088
 20
-79.4142740686881
 30
0.0
 10
63.6763888729698
 20
-79.38051213293265
 30
0.0
 10
63.80075681998731
 20
-79.38051213293265
 30
0.0
 10
64.0970350317188
 20
-79.38051213293265
 30
0.0
 10
64.31855467142036
 20
-79.564480231845
 30
0.0
 10
64.31855467142036
 20
-79.83733179427678
 30
0.0
 10
64.31855467142036
 20
-80.06608613449737
 30
0.0
 10
64.19418672440284
 20
-80.16530488447256
 30
0.0
 10
63.86414657691591
 20
-80.39164765785348
 30
0.0
  0
HATCH
  5
F1
330
EC
100
AcDbEntity
  8
_U+30EC_U+30A4_U+30E4_U+30FC 1
 62
   179
420
  2234388
100
AcDbHatch
 10
0.0
 20
0.0
 30
0.0
210
0.0
220
0.0
230
1.0
  2
SOLID
 70
     1
 71
     0
 91
        1
 92
        1
 93
        1
 72
     4
 94
        3
 73
     0
 74
     1
 95
       44
 96
       40
 40
0.0
 40
0.0
 40
0.0
 40
0.0
 40
1.0
 40
1.0
 40
1.0
 40
2.0
 40
2.0
 40
2.0
 40
3.0
 40
3.0
 40
3.0
 40
4.0
 40
4.0
 40
4.0
 40
5.0
 40
5.0
 40
5.0
 40
6.0
 40
6.0
 40
6.0
 40
7.0
 40
7.0
 40
7.0
 40
8.0
 40
8.0
 40
8.0
 40
9.0
 40
9.0
 40
9.0
 40
10.0
 40
10.0
 40
10.0
 40
11.0
 40
11.0
 40
11.0
 40
12.0
 40
12.0
 40
12.0
 40
13.0
 40
13.0
 40
13.0
 40
13.0
 10
63.86414657691591
 20
-80.39164765785348
 10
63.63125812211302
 20
-80.5504665597235
 10
63.5316948625893
 20
-80.62453611265637
 10
63.47967392076203
 20
-80.76819659439128
 10
63.47967392076203
 20
-80.76819659439128
 10
64.31200898999839
 20
-80.76819659439128
 10
64.31200898999839
 20
-80.76819659439128
 10
64.31200898999839
 20
-80.76819659439128
 10
64.31200898999839
 20
-80.97352428531218
 10
64.31200898999839
 20
-80.97352428531218
 10
64.31200898999839
 20
-80.97352428531218
 10
63.21302353020369
 20
-80.97352428531218
 10
63.21302353020369
 20
-80.97352428531218
 10
63.24712997550766
 20
-80.61592337394325
 10
63.31706541385824
 20
-80.53771970642808
 10
63.72840981479707
 20
-80.23937443740543
 10
64.00195039632591
 20
-80.04059242790652
 10
64.072230344225
 20
-79.9727240468471
 10
64.072230344225
 20
-79.83526473698564
 10
64.072230344225
 20
-79.71675345229303
 10
63.99540471490393
 20
-79.58583982385355
 10
63.78490938075517
 20
-79.58583982385355
 10
63.5068901750955
 20
-79.58583982385355
 10
63.49793292683385
 20
-79.81631671181675
 10
63.49345430270303
 20
-79.9327609392182
 10
63.49345430270303
 20
-79.9327609392182
 10
63.25367565692964
 20
-79.9327609392182
 10
63.25367565692964
 20
-79.9327609392182
 10
63.26263290519129
 20
-79.80563691581249
 10
63.27400172029262
 20
-79.69367131254187
 10
63.36012910742386
 20
-79.57516002784926
 10
63.47760686347088
 20
-79.4142740686881
 10
63.6763888729698
 20
-79.38051213293265
 10
63.80075681998731
 20
-79.38051213293265
 10
64.0970350317188
 20
-79.38051213293265
 10
64.31855467142036
 20
-79.564480231845
 10
64.31855467142036
 20
-79.83733179427678
 10
64.31855467142036
 20
-80.06608613449737
 10
64.19418672440284
 20
-80.16530488447256
 10
63.86414657691591
 20
-80.39164765785348
 97
        0
 97
        0
 75
     2
 76
     1
 98
        0
  0
SPLINE
  5
F2
330
EC
100
AcDbEntity
  8
_U+30EC_U+30A4_U+30E4_U+30FC 1
370
     0
100
AcDbSpline
210
0.0
220
0.0
230
1.0
 70
    11
 71
     3
 72
    62
 73
    58
 74
     0
 42
0.0000000001
 43
0.0000000001
 12
1.0
 22
0.0
 32
0.0
 13
1.0
 23
0.0
 33
0.0
 40
0.0
 40
0.0
 40
0.0
 40
0.0
 40
1.0
 40
1.0
 40
1.0
 40
2.0
 40
2.0
 40
2.0
 40
3.0
 40
3.0
 40
3.0
 40
4.0
 40
4.0
 40
4.0
 40
5.0
 40
5.0
 40
5.0
 40
6.0
 40
6.0
 40
6.0
 40
7.0
 40
7.0
 40
7.0
 40
8.0
 40
8.0
 40
8.0
 40
9.0
 40
9.0
 40
9.0
 40
10.0
 40
10.0
 40
10.0
 40
11.0
 40
11.0
 40
11.0
 40
12.0
 40
12.0
 40
12.0
 40
13.0
 40
13.0
 40
13.0
 40
14.0
 40
14.0
 40
14.0
 40
15.0
 40
15.0
 40
15.0
 40
16.0
 40
16.0
 40
16.0
 40
17.0
 40
17.0
 40
17.0
 40
18.0
 40
18.0
 40
18.0
 40
19.0
 40
19.0
 40
19.0
 40
19.0
 10
65.01343043079525
 20
-81.02416718894536
 30
0.0
 10
64.91180011398039
 20
-81.02416718894536
 30
0.0
 10
64.6789116591775
 20
-81.00315210648533
 30
0.0
 10
64.54558646389833
 20
-80.81711695028183
 30
0.0
 10
64.46634926773758
 20
-80.7048068374627
 30
0.0
 10
64.46187064360676
 20
-80.60558808748749
 30
0.0
 10
64.45739201947593
 20
-80.52083873855035
 30
0.0
 10
64.45739201947593
 20
-80.52083873855035
 30
0.0
 10
64.69234753156996
 20
-80.52083873855035
 30
0.0
 10
64.69234753156996
 20
-80.52083873855035
 30
0.0
 10
64.69475909840965
 20
-80.59490829148322
 30
0.0
 10
64.70612791351097
 20
-80.82951929402873
 30
0.0
 10
65.00895180666443
 20
-80.82951929402873
 30
0.0
 10
65.1560573838846
 20
-80.82951929402873
 30
0.0
 10
65.3186658907884
 20
-80.75992836522668
 30
0.0
 10
65.3186658907884
 20
-80.53151853455462
 30
0.0
 10
65.3186658907884
 20
-80.41507430715318
 30
0.0
 10
65.27801376406245
 20
-80.36649846081116
 30
0.0
 10
65.244251828307
 20
-80.33480358234686
 30
0.0
 10
65.16501463214625
 20
-80.26073402941398
 30
0.0
 10
65.04064668512873
 20
-80.24798717611856
 30
0.0
 10
64.98173555233096
 20
-80.24798717611856
 30
0.0
 10
64.96140948896799
 20
-80.24798717611856
 30
0.0
 10
64.92316892908171
 20
-80.25005423340971
 30
0.0
 10
64.89354110790856
 20
-80.25418834799201
 30
0.0
 10
64.89354110790856
 20
-80.25418834799201
 30
0.0
 10
64.89354110790856
 20
-80.0595404530754
 30
0.0
 10
64.89354110790856
 20
-80.0595404530754
 30
0.0
 10
64.9341932346345
 20
-80.06608613449737
 30
0.0
 10
64.9796684950398
 20
-80.06815319178853
 30
0.0
 10
64.98621417646179
 20
-80.06815319178853
 30
0.0
 10
65.05649412436088
 20
-80.06815319178853
 30
0.0
 10
65.2690565158008
 20
-80.04679359977997
 30
0.0
 10
65.2690565158008
 20
-79.81011553994331
 30
0.0
 10
65.2690565158008
 20
-79.63234861290442
 30
0.0
 10
65.12884112955112
 20
-79.57722708514042
 30
0.0
 10
65.01136337350411
 20
-79.57722708514042
 30
0.0
 10
64.7285210341651
 20
-79.57722708514042
 30
0.0
 10
64.71956378590345
 20
-79.81011553994331
 30
0.0
 10
64.71508516177262
 20
-79.88177352603651
 30
0.0
 10
64.71508516177262
 20
-79.88177352603651
 30
0.0
 10
64.49804414620188
 20
-79.88177352603651
 30
0.0
 10
64.49804414620188
 20
-79.88177352603651
 30
0.0
 10
64.50700139446353
 20
-79.75706106947047
 30
0.0
 10
64.53628470608815
 20
-79.38051213293265
 30
0.0
 10
65.02479924589657
 20
-79.38051213293265
 30
0.0
 10
65.26457789166997
 20
-79.38051213293265
 30
0.0
 10
65.52227103396666
 20
-79.50763615633838
 30
0.0
 10
65.52227103396666
 20
-79.80356985852133
 30
0.0
 10
65.52227103396666
 20
-79.98994952427336
 30
0.0
 10
65.42029620760326
 20
-80.07228730637082
 30
0.0
 10
65.31418726665757
 20
-80.13361000600827
 30
0.0
 10
65.37964408087731
 20
-80.16117076989026
 30
0.0
 10
65.57429197579393
 20
-80.24144149469659
 30
0.0
 10
65.57429197579393
 20
-80.5187716812592
 30
0.0
 10
65.57429197579393
 20
-80.85708005791074
 30
0.0
 10
65.30970864252674
 20
-81.02416718894536
 30
0.0
 10
65.01343043079525
 20
-81.02416718894536
 30
0.0
  0
HATCH
  5
F3
330
EC
100
AcDbEntity
  8
_U+30EC_U+30A4_U+30E4_U+30FC 1
 62
   179
420
  2234388
100
AcDbHatch
 10
0.0
 20
0.0
 30
0.0
210
0.0
220
0.0
230
1.0
  2
SOLID
 70
     1
 71
     0
 91
        1
 92
        1
 93
        1
 72
     4
 94
        3
 73
     0
 74
     1
 95
       62
 96
       58
 40
0.0
 40
0.0
 40
0.0
 40
0.0
 40
1.0
 40
1.0
 40
1.0
 40
2.0
 40
2.0
 40
2.0
 40
3.0
 40
3.0
 40
3.0
 40
4.0
 40
4.0
 40
4.0
 40
5.0
 40
5.0
 40
5.0
 40
6.0
 40
6.0
 40
6.0
 40
7.0
 40
7.0
 40
7.0
 40
8.0
 40
8.0
 40
8.0
 40
9.0
 40
9.0
 40
9.0
 40
10.0
 40
10.0
 40
10.0
 40
11.0
 40
11.0
 40
11.0
 40
12.0
 40
12.0
 40
12.0
 40
13.0
 40
13.0
 40
13.0
 40
14.0
 40
14.0
 40
14.0
 40
15.0
 40
15.0
 40
15.0
 40
16.0
 40
16.0
 40
16.0
 40
17.0
 40
17.0
 40
17.0
 40
18.0
 40
18.0
 40
18.0
 40
19.0
 40
19.0
 40
19.0
 40
19.0
 10
65.01343043079525
 20
-81.02416718894536
 10
64.91180011398039
 20
-81.02416718894536
 10
64.6789116591775
 20
-81.00315210648533
 10
64.54558646389833
 20
-80.81711695028183
 10
64.46634926773758
 20
-80.7048068374627
 10
64.46187064360676
 20
-80.60558808748749
 10
64.45739201947593
 20
-80.52083873855035
 10
64.45739201947593
 20
-80.52083873855035
 10
64.69234753156996
 20
-80.52083873855035
 10
64.69234753156996
 20
-80.52083873855035
 10
64.69475909840965
 20
-80.59490829148322
 10
64.70612791351097
 20
-80.82951929402873
 10
65.00895180666443
 20
-80.82951929402873
 10
65.1560573838846
 20
-80.82951929402873
 10
65.3186658907884
 20
-80.75992836522668
 10
65.3186658907884
 20
-80.53151853455462
 10
65.3186658907884
 20
-80.41507430715318
 10
65.27801376406245
 20
-80.36649846081116
 10
65.244251828307
 20
-80.33480358234686
 10
65.16501463214625
 20
-80.26073402941398
 10
65.04064668512873
 20
-80.24798717611856
 10
64.98173555233096
 20
-80.24798717611856
 10
64.96140948896799
 20
-80.24798717611856
 10
64.92316892908171
 20
-80.25005423340971
 10
64.89354110790856
 20
-80.25418834799201
 10
64.89354110790856
 20
-80.25418834799201
 10
64.89354110790856
 20
-80.0595404530754
 10
64.89354110790856
 20
-80.0595404530754
 10
64.9341932346345
 20
-80.06608613449737
 10
64.9796684950398
 20
-80.06815319178853
 10
64.98621417646179
 20
-80.06815319178853
 10
65.05649412436088
 20
-80.06815319178853
 10
65.2690565158008
 20
-80.04679359977997
 10
65.2690565158008
 20
-79.81011553994331
 10
65.2690565158008
 20
-79.63234861290442
 10
65.12884112955112
 20
-79.57722708514042
 10
65.01136337350411
 20
-79.57722708514042
 10
64.7285210341651
 20
-79.57722708514042
 10
64.71956378590345
 20
-79.81011553994331
 10
64.71508516177262
 20
-79.88177352603651
 10
64.71508516177262
 20
-79.88177352603651
 10
64.49804414620188
 20
-79.88177352603651
 10
64.49804414620188
 20
-79.88177352603651
 10
64.50700139446353
 20
-79.75706106947047
 10
64.53628470608815
 20
-79.38051213293265
 10
65.02479924589657
 20
-79.38051213293265
 10
65.26457789166997
 20
-79.38051213293265
 10
65.52227103396666
 20
-79.50763615633838
 10
65.52227103396666
 20
-79.80356985852133
 10
65.52227103396666
 20
-79.98994952427336
 10
65.42029620760326
 20
-80.07228730637082
 10
65.31418726665757
 20
-80.13361000600827
 10
65.37964408087731
 20
-80.16117076989026
 10
65.57429197579393
 20
-80.24144149469659
 10
65.57429197579393
 20
-80.5187716812592
 10
65.57429197579393
 20
-80.85708005791074
 10
65.30970864252674
 20
-81.02416718894536
 10
65.01343043079525
 20
-81.02416718894536
 97
        0
 97
        0
 75
     2
 76
     1
 98
        0
  0
ENDBLK
  5
EF
330
EC
100
AcDbEntity
  8
0
100
AcDbBlockEnd
  0
ENDSEC
  0
SECTION
  2
ENTITIES
  0
POLYLINE
  5
41
330
1F
100
AcDbEntity
  8
_U+30EC_U+30A4_U+30E4_U+30FC 1
 62
   179
420
  2234388
370
    25
100
AcDb2dPolyline
 66
     1
 10
0.0
 20
0.0
 30
0.0
  0
VERTEX
  5
42
330
41
100
AcDbEntity
  8
_U+30EC_U+30A4_U+30E4_U+30FC 1
 62
   179
420
  2234388
370
    25
100
AcDbVertex
100
AcDb2dVertex
 10
52.88876059513975
 20
-85.569813034163
 30
0.0
  0
VERTEX
  5
43
330
41
100
AcDbEntity
  8
_U+30EC_U+30A4_U+30E4_U+30FC 1
 62
   179
420
  2234388
370
    25
100
AcDbVertex
100
AcDb2dVertex
 10
75.88891861946794
 20
-85.569813034163
 30
0.0
  0
SEQEND
  5
44
330
41
100
AcDbEntity
  8
_U+30EC_U+30A4_U+30E4_U+30FC 1
 62
   179
420
  2234388
370
    25
  0
POLYLINE
  5
45
330
1F
100
AcDbEntity
  8
_U+30EC_U+30A4_U+30E4_U+30FC 1
 62
   179
420
  2234388
370
    25
100
AcDb2dPolyline
 66
     1
 10
0.0
 20
0.0
 30
0.0
  0
VERTEX
  5
46
330
45
100
AcDbEntity
  8
_U+30EC_U+30A4_U+30E4_U+30FC 1
 62
   179
420
  2234388
370
    25
100
AcDbVertex
100
AcDb2dVertex
 10
52.88876059513975
 20
-85.569813034163
 30
0.0
  0
VERTEX
  5
47
330
45
100
AcDbEntity
  8
_U+30EC_U+30A4_U+30E4_U+30FC 1
 62
   179
420
  2234388
370
    25
100
AcDbVertex
100
AcDb2dVertex
 10
52.88876059513975
 20
-93.76928580989109
 30
0.0
  0
SEQEND
  5
48
330
45
100
AcDbEntity
  8
_U+30EC_U+30A4_U+30E4_U+30FC 1
 62
   179
420
  2234388
370
    25
  0
POLYLINE
  5
49
330
1F
100
AcDbEntity
  8
_U+30EC_U+30A4_U+30E4_U+30FC 1
 62
   179
420
  2234388
370
    25
100
AcDb2dPolyline
 66
     1
 10
0.0
 20
0.0
 30
0.0
  0
VERTEX
  5
4A
330
49
100
AcDbEntity
  8
_U+30EC_U+30A4_U+30E4_U+30FC 1
 62
   179
420
  2234388
370
    25
100
AcDbVertex
100
AcDb2dVertex
 10
75.88891861946794
 20
-85.569813034163
 30
0.0
  0
VERTEX
  5
4B
330
49
100
AcDbEntity
  8
_U+30EC_U+30A4_U+30E4_U+30FC 1
 62
   179
420
  2234388
370
    25
100
AcDbVertex
100
AcDb2dVertex
 10
75.88891861946794
 20
-86.5695499783577
 30
0.0
  0
SEQEND
  5
4C
330
49
100
AcDbEntity
  8
_U+30EC_U+30A4_U+30E4_U+30FC 1
 62
   179
420
  2234388
370
    25
  0
POLYLINE
  5
4D
330
1F
100
AcDbEntity
  8
_U+30EC_U+30A4_U+30E4_U+30FC 1
 62
   179
420
  2234388
370
    25
100
AcDb2dPolyline
 66
     1
 10
0.0
 20
0.0
 30
0.0
  0
VERTEX
  5
4E
330
4D
100
AcDbEntity
  8
_U+30EC_U+30A4_U+30E4_U+30FC 1
 62
   179
420
  2234388
370
    25
100
AcDbVertex
100
AcDb2dVertex
 10
53.88888556962443
 20
-86.5695499783577
 30
0.0
  0
VERTEX
  5
4F
330
4D
100
AcDbEntity
  8
_U+30EC_U+30A4_U+30E4_U+30FC 1
 62
   179
420
  2234388
370
    25
100
AcDbVertex
100
AcDb2dVertex
 10
75.88891861946794
 20
-86.5695499783577
 30
0.0
  0
SEQEND
  5
50
330
4D
100
AcDbEntity
  8
_U+30EC_U+30A4_U+30E4_U+30FC 1
 62
   179
420
  2234388
370
    25
  0
POLYLINE
  5
51
330
1F
100
AcDbEntity
  8
_U+30EC_U+30A4_U+30E4_U+30FC 1
 62
   179
420
  2234388
370
    25
100
AcDb2dPolyline
 66
     1
 10
0.0
 20
0.0
 30
0.0
  0
VERTEX
  5
52
330
51
100
AcDbEntity
  8
_U+30EC_U+30A4_U+30E4_U+30FC 1
 62
   179
420
  2234388
370
    25
100
AcDbVertex
100
AcDb2dVertex
 10
56.88887243753284
 20
-92.7695488656967
 30
0.0
  0
VERTEX
  5
53
330
51
100
AcDbEntity
  8
_U+30EC_U+30A4_U+30E4_U+30FC 1
 62
   179
420
  2234388
370
    25
100
AcDbVertex
100
AcDb2dVertex
 10
56.88887243753284
 20
-93.76928580989109
 30
0.0
  0
SEQEND
  5
54
330
51
100
AcDbEntity
  8
_U+30EC_U+30A4_U+30E4_U+30FC 1
 62
   179
420
  2234388
370
    25
  0
POLYLINE
  5
55
330
1F
100
AcDbEntity
  8
_U+30EC_U+30A4_U+30E4_U+30FC 1
 62
   179
420
  2234388
370
    25
100
AcDb2dPolyline
 66
     1
 10
0.0
 20
0.0
 30
0.0
  0
VERTEX
  5
56
330
55
100
AcDbEntity
  8
_U+30EC_U+30A4_U+30E4_U+30FC 1
 62
   179
420
  2234388
370
    25
100
AcDbVertex
100
AcDb2dVertex
 10
53.88888556962443
 20
-92.7695488656967
 30
0.0
  0
VERTEX
  5
57
330
55
100
AcDbEntity
  8
_U+30EC_U+30A4_U+30E4_U+30FC 1
 62
   179
420
  2234388
370
    25
100
AcDbVertex
100
AcDb2dVertex
 10
56.88887243753284
 20
-92.7695488656967
 30
0.0
  0
SEQEND
  5
58
330
55
100
AcDbEntity
  8
_U+30EC_U+30A4_U+30E4_U+30FC 1
 62
   179
420
  2234388
370
    25
  0
POLYLINE
  5
59
330
1F
100
AcDbEntity
  8
_U+30EC_U+30A4_U+30E4_U+30FC 1
 62
   179
420
  2234388
370
    25
100
AcDb2dPolyline
 66
     1
 10
0.0
 20
0.0
 30
0.0
  0
VERTEX
  5
5A
330
59
100
AcDbEntity
  8
_U+30EC_U+30A4_U+30E4_U+30FC 1
 62
   179
420
  2234388
370
    25
100
AcDbVertex
100
AcDb2dVertex
 10
53.88888556962443
 20
-86.5695499783577
 30
0.0
  0
VERTEX
  5
5B
330
59
100
AcDbEntity
  8
_U+30EC_U+30A4_U+30E4_U+30FC 1
 62
   179
420
  2234388
370
    25
100
AcDbVertex
100
AcDb2dVertex
 10
53.88888556962443
 20
-92.7695488656967
 30
0.0
  0
SEQEND
  5
5C
330
59
100
AcDbEntity
  8
_U+30EC_U+30A4_U+30E4_U+30FC 1
 62
   179
420
  2234388
370
    25
  0
POLYLINE
  5
5D
330
1F
100
AcDbEntity
  8
_U+30EC_U+30A4_U+30E4_U+30FC 1
 62
   179
420
  2234388
370
    25
100
AcDb2dPolyline
 66
     1
 10
0.0
 20
0.0
 30
0.0
  0
VERTEX
  5
5E
330
5D
100
AcDbEntity
  8
_U+30EC_U+30A4_U+30E4_U+30FC 1
 62
   179
420
  2234388
370
    25
100
AcDbVertex
100
AcDb2dVertex
 10
52.88876059513975
 20
-93.76928580989109
 30
0.0
  0
VERTEX
  5
5F
330
5D
100
AcDbEntity
  8
_U+30EC_U+30A4_U+30E4_U+30FC 1
 62
   179
420
  2234388
370
    25
100
AcDbVertex
100
AcDb2dVertex
 10
56.88887243753284
 20
-93.76928580989109
 30
0.0
  0
SEQEND
  5
60
330
5D
100
AcDbEntity
  8
_U+30EC_U+30A4_U+30E4_U+30FC 1
 62
   179
420
  2234388
370
    25
  0
SPLINE
  5
61
330
1F
100
AcDbEntity
  8
_U+30EC_U+30A4_U+30E4_U+30FC 1
 62
   179
420
  2234388
370
     9
100
AcDbSpline
210
0.0
220
0.0
230
1.0
 70
    11
 71
     3
 72
    17
 73
    13
 74
     0
 42
0.0000000001
 43
0.0000000001
 12
1.0
 22
0.0
 32
0.0
 13
1.0
 23
0.0
 33
0.0
 40
0.0
 40
0.0
 40
0.0
 40
0.0
 40
1.0
 40
1.0
 40
1.0
 40
2.0
 40
2.0
 40
2.0
 40
3.0
 40
3.0
 40
3.0
 40
4.0
 40
4.0
 40
4.0
 40
4.0
 10
52.98866725925758
 20
-81.56934831294092
 30
0.0
 10
52.98866725925758
 20
-81.51424442406599
 30
0.0
 10
52.94386448262282
 20
-81.46944164629927
 30
0.0
 10
52.88876059513975
 20
-81.46944164629927
 30
0.0
 10
52.8336214298798
 20
-81.46944164629927
 30
0.0
 10
52.78885393102191
 20
-81.51424442406599
 30
0.0
 10
52.78885393102191
 20
-81.56934831294092
 30
0.0
 10
52.78885393102191
 20
-81.6248049795939
 30
0.0
 10
52.8336214298798
 20
-81.66960775736031
 30
0.0
 10
52.88876059513975
 20
-81.66960775736031
 30
0.0
 10
52.94386448262282
 20
-81.66960775736031
 30
0.0
 10
52.98866725925758
 20
-81.6248049795939
 30
0.0
 10
52.98866725925758
 20
-81.56934831294092
 30
0.0
  0
SPLINE
  5
62
330
1F
100
AcDbEntity
  8
_U+30EC_U+30A4_U+30E4_U+30FC 1
 62
   179
420
  2234388
370
     9
100
AcDbSpline
210
0.0
220
0.0
230
1.0
 70
    11
 71
     3
 72
    17
 73
    13
 74
     0
 42
0.0000000001
 43
0.0000000001
 12
1.0
 22
0.0
 32
0.0
 13
1.0
 23
0.0
 33
0.0
 40
0.0
 40
0.0
 40
0.0
 40
0.0
 40
1.0
 40
1.0
 40
1.0
 40
2.0
 40
2.0
 40
2.0
 40
3.0
 40
3.0
 40
3.0
 40
4.0
 40
4.0
 40
4.0
 40
4.0
 10
75.98882528358578
 20
-81.56934831294092
 30
0.0
 10
75.98882528358578
 20
-81.51424442406599
 30
0.0
 10
75.94402250695101
 20
-81.46944164629927
 30
0.0
 10
75.88891861946794
 20
-81.46944164629927
 30
0.0
 10
75.833779454208
 20
-81.46944164629927
 30
0.0
 10
75.78901386994133
 20
-81.51424442406599
 30
0.0
 10
75.78901386994133
 20
-81.56934831294092
 30
0.0
 10
75.78901386994133
 20
-81.6248049795939
 30
0.0
 10
75.833779454208
 20
-81.66960775736031
 30
0.0
 10
75.88891861946794
 20
-81.66960775736031
 30
0.0
 10
75.94402250695101
 20
-81.66960775736031
 30
0.0
 10
75.98882528358578
 20
-81.6248049795939
 30
0.0
 10
75.98882528358578
 20
-81.56934831294092
 30
0.0
  0
SPLINE
  5
63
330
1F
100
AcDbEntity
  8
_U+30EC_U+30A4_U+30E4_U+30FC 1
 62
   179
420
  2234388
370
     9
100
AcDbSpline
210
0.0
220
0.0
230
1.0
 70
    11
 71
     3
 72
    17
 73
    13
 74
     0
 42
0.0000000001
 43
0.0000000001
 12
1.0
 22
0.0
 32
0.0
 13
1.0
 23
0.0
 33
0.0
 40
0.0
 40
0.0
 40
0.0
 40
0.0
 40
1.0
 40
1.0
 40
1.0
 40
2.0
 40
2.0
 40
2.0
 40
3.0
 40
3.0
 40
3.0
 40
4.0
 40
4.0
 40
4.0
 40
4.0
 10
79.98890184820199
 20
-85.569813034163
 30
0.0
 10
79.98890184820199
 20
-85.51432108973248
 30
0.0
 10
79.94413434934411
 20
-85.4695535897436
 30
0.0
 10
79.8889972022501
 20
-85.4695535897436
 30
0.0
 10
79.83353851883231
 20
-85.4695535897436
 30
0.0
 10
79.78877101997442
 20
-85.51432108973248
 30
0.0
 10
79.78877101997442
 20
-85.569813034163
 30
0.0
 10
79.78877101997442
 20
-85.62491692303824
 30
0.0
 10
79.83353851883231
 20
-85.66971970080496
 30
0.0
 10
79.8889972022501
 20
-85.66971970080496
 30
0.0
 10
79.94413434934411
 20
-85.66971970080496
 30
0.0
 10
79.98890184820199
 20
-85.62491692303824
 30
0.0
 10
79.98890184820199
 20
-85.569813034163
 30
0.0
  0
SPLINE
  5
64
330
1F
100
AcDbEntity
  8
_U+30EC_U+30A4_U+30E4_U+30FC 1
 62
   179
420
  2234388
370
     9
100
AcDbSpline
210
0.0
220
0.0
230
1.0
 70
    11
 71
     3
 72
    17
 73
    13
 74
     0
 42
0.0000000001
 43
0.0000000001
 12
1.0
 22
0.0
 32
0.0
 13
1.0
 23
0.0
 33
0.0
 40
0.0
 40
0.0
 40
0.0
 40
0.0
 40
1.0
 40
1.0
 40
1.0
 40
2.0
 40
2.0
 40
2.0
 40
3.0
 40
3.0
 40
3.0
 40
4.0
 40
4.0
 40
4.0
 40
4.0
 10
79.98890184820199
 20
-86.5695499783577
 30
0.0
 10
79.98890184820199
 20
-86.51444608948246
 30
0.0
 10
79.94413434934411
 20
-86.46964331171606
 30
0.0
 10
79.8889972022501
 20
-86.46964331171606
 30
0.0
 10
79.83353851883231
 20
-86.46964331171606
 30
0.0
 10
79.78877101997442
 20
-86.51444608948246
 30
0.0
 10
79.78877101997442
 20
-86.5695499783577
 30
0.0
 10
79.78877101997442
 20
-86.62468914501045
 30
0.0
 10
79.83353851883231
 20
-86.66945664499934
 30
0.0
 10
79.8889972022501
 20
-86.66945664499934
 30
0.0
 10
79.94413434934411
 20
-86.66945664499934
 30
0.0
 10
79.98890184820199
 20
-86.62468914501045
 30
0.0
 10
79.98890184820199
 20
-86.5695499783577
 30
0.0
  0
SPLINE
  5
65
330
1F
100
AcDbEntity
  8
_U+30EC_U+30A4_U+30E4_U+30FC 1
 62
   179
420
  2234388
370
     9
100
AcDbSpline
210
0.0
220
0.0
230
1.0
 70
    11
 71
     3
 72
    17
 73
    13
 74
     0
 42
0.0000000001
 43
0.0000000001
 12
1.0
 22
0.0
 32
0.0
 13
1.0
 23
0.0
 33
0.0
 40
0.0
 40
0.0
 40
0.0
 40
0.0
 40
1.0
 40
1.0
 40
1.0
 40
2.0
 40
2.0
 40
2.0
 40
3.0
 40
3.0
 40
3.0
 40
4.0
 40
4.0
 40
4.0
 40
4.0
 10
79.98890184820199
 20
-92.7695488656967
 30
0.0
 10
79.98890184820199
 20
-92.71440969904363
 30
0.0
 10
79.94413434934411
 20
-92.66960692127691
 30
0.0
 10
79.8889972022501
 20
-92.66960692127691
 30
0.0
 10
79.83353851883231
 20
-92.66960692127691
 30
0.0
 10
79.78877101997442
 20
-92.71440969904363
 30
0.0
 10
79.78877101997442
 20
-92.7695488656967
 30
0.0
 10
79.78877101997442
 20
-92.82465275457162
 30
0.0
 10
79.83353851883231
 20
-92.86945553233834
 30
0.0
 10
79.8889972022501
 20
-92.86945553233834
 30
0.0
 10
79.94413434934411
 20
-92.86945553233834
 30
0.0
 10
79.98890184820199
 20
-92.82465275457162
 30
0.0
 10
79.98890184820199
 20
-92.7695488656967
 30
0.0
  0
SPLINE
  5
66
330
1F
100
AcDbEntity
  8
_U+30EC_U+30A4_U+30E4_U+30FC 1
 62
   179
420
  2234388
370
     9
100
AcDbSpline
210
0.0
220
0.0
230
1.0
 70
    11
 71
     3
 72
    17
 73
    13
 74
     0
 42
0.0000000001
 43
0.0000000001
 12
1.0
 22
0.0
 32
0.0
 13
1.0
 23
0.0
 33
0.0
 40
0.0
 40
0.0
 40
0.0
 40
0.0
 40
1.0
 40
1.0
 40
1.0
 40
2.0
 40
2.0
 40
2.0
 40
3.0
 40
3.0
 40
3.0
 40
4.0
 40
4.0
 40
4.0
 40
4.0
 10
48.98890819463328
 20
-93.76928580989109
 30
0.0
 10
48.98890819463328
 20
-93.71418192101616
 30
0.0
 10
48.94414069577539
 20
-93.66937914324944
 30
0.0
 10
48.8890027655554
 20
-93.66937914324944
 30
0.0
 10
48.83389764303237
 20
-93.66937914324944
 30
0.0
 10
48.7890948663976
 20
-93.71418192101616
 30
0.0
 10
48.7890948663976
 20
-93.76928580989109
 30
0.0
 10
48.7890948663976
 20
-93.82509525432152
 30
0.0
 10
48.83389764303237
 20
-93.86989803208824
 30
0.0
 10
48.8890027655554
 20
-93.86989803208824
 30
0.0
 10
48.94414069577539
 20
-93.86989803208824
 30
0.0
 10
48.98890819463328
 20
-93.82509525432152
 30
0.0
 10
48.98890819463328
 20
-93.76928580989109
 30
0.0
  0
SPLINE
  5
67
330
1F
100
AcDbEntity
  8
_U+30EC_U+30A4_U+30E4_U+30FC 1
 62
   179
420
  2234388
370
     9
100
AcDbSpline
210
0.0
220
0.0
230
1.0
 70
    11
 71
     3
 72
    17
 73
    13
 74
     0
 42
0.0000000001
 43
0.0000000001
 12
1.0
 22
0.0
 32
0.0
 13
1.0
 23
0.0
 33
0.0
 40
0.0
 40
0.0
 40
0.0
 40
0.0
 40
1.0
 40
1.0
 40
1.0
 40
2.0
 40
2.0
 40
2.0
 40
3.0
 40
3.0
 40
3.0
 40
4.0
 40
4.0
 40
4.0
 40
4.0
 10
48.98890819463328
 20
-85.569813034163
 30
0.0
 10
48.98890819463328
 20
-85.51432108973248
 30
0.0
 10
48.94414069577539
 20
-85.4695535897436
 30
0.0
 10
48.8890027655554
 20
-85.4695535897436
 30
0.0
 10
48.83389764303237
 20
-85.4695535897436
 30
0.0
 10
48.7890948663976
 20
-85.51432108973248
 30
0.0
 10
48.7890948663976
 20
-85.569813034163
 30
0.0
 10
48.7890948663976
 20
-85.62491692303824
 30
0.0
 10
48.83389764303237
 20
-85.66971970080496
 30
0.0
 10
48.8890027655554
 20
-85.66971970080496
 30
0.0
 10
48.94414069577539
 20
-85.66971970080496
 30
0.0
 10
48.98890819463328
 20
-85.62491692303824
 30
0.0
 10
48.98890819463328
 20
-85.569813034163
 30
0.0
  0
SPLINE
  5
68
330
1F
100
AcDbEntity
  8
_U+30EC_U+30A4_U+30E4_U+30FC 1
 62
   179
420
  2234388
370
     9
100
AcDbSpline
210
0.0
220
0.0
230
1.0
 70
    11
 71
     3
 72
    17
 73
    13
 74
     0
 42
0.0000000001
 43
0.0000000001
 12
1.0
 22
0.0
 32
0.0
 13
1.0
 23
0.0
 33
0.0
 40
0.0
 40
0.0
 40
0.0
 40
0.0
 40
1.0
 40
1.0
 40
1.0
 40
2.0
 40
2.0
 40
2.0
 40
3.0
 40
3.0
 40
3.0
 40
4.0
 40
4.0
 40
4.0
 40
4.0
 10
56.98909660164257
 20
-97.76975053111285
 30
0.0
 10
56.98909660164257
 20
-97.71461136446041
 30
0.0
 10
56.94433054131961
 20
-97.6698438644712
 30
0.0
 10
56.88887243753284
 20
-97.6698438644712
 30
0.0
 10
56.83338049450411
 20
-97.6698438644712
 30
0.0
 10
56.788965773415
 20
-97.71461136446041
 30
0.0
 10
56.788965773415
 20
-97.76975053111285
 30
0.0
 10
56.788965773415
 20
-97.82485441998841
 30
0.0
 10
56.83338049450411
 20
-97.86965719775513
 30
0.0
 10
56.88887243753284
 20
-97.86965719775513
 30
0.0
 10
56.94433054131961
 20
-97.86965719775513
 30
0.0
 10
56.98909660164257
 20
-97.82485441998841
 30
0.0
 10
56.98909660164257
 20
-97.76975053111285
 30
0.0
  0
SPLINE
  5
69
330
1F
100
AcDbEntity
  8
_U+30EC_U+30A4_U+30E4_U+30FC 1
 62
   179
420
  2234388
370
     9
100
AcDbSpline
210
0.0
220
0.0
230
1.0
 70
    11
 71
     3
 72
    17
 73
    13
 74
     0
 42
0.0000000001
 43
0.0000000001
 12
1.0
 22
0.0
 32
0.0
 13
1.0
 23
0.0
 33
0.0
 40
0.0
 40
0.0
 40
0.0
 40
0.0
 40
1.0
 40
1.0
 40
1.0
 40
2.0
 40
2.0
 40
2.0
 40
3.0
 40
3.0
 40
3.0
 40
4.0
 40
4.0
 40
4.0
 40
4.0
 10
52.98866725925758
 20
-97.76975053111285
 30
0.0
 10
52.98866725925758
 20
-97.71461136446041
 30
0.0
 10
52.94386448262282
 20
-97.6698438644712
 30
0.0
 10
52.88876059513975
 20
-97.6698438644712
 30
0.0
 10
52.8336214298798
 20
-97.6698438644712
 30
0.0
 10
52.78885393102191
 20
-97.71461136446041
 30
0.0
 10
52.78885393102191
 20
-97.76975053111285
 30
0.0
 10
52.78885393102191
 20
-97.82485441998841
 30
0.0
 10
52.8336214298798
 20
-97.86965719775513
 30
0.0
 10
52.88876059513975
 20
-97.86965719775513
 30
0.0
 10
52.94386448262282
 20
-97.86965719775513
 30
0.0
 10
52.98866725925758
 20
-97.82485441998841
 30
0.0
 10
52.98866725925758
 20
-97.76975053111285
 30
0.0
  0
POLYLINE
  5
6A
330
1F
100
AcDbEntity
  8
_U+30EC_U+30A4_U+30E4_U+30FC 1
 62
   179
420
  2234388
370
     9
100
AcDb2dPolyline
 66
     1
 10
0.0
 20
0.0
 30
0.0
  0
VERTEX
  5
6B
330
6A
100
AcDbEntity
  8
_U+30EC_U+30A4_U+30E4_U+30FC 1
 62
   179
420
  2234388
370
     9
100
AcDbVertex
100
AcDb2dVertex
 10
48.8890027655554
 20
-85.569813034163
 30
0.0
  0
VERTEX
  5
6C
330
6A
100
AcDbEntity
  8
_U+30EC_U+30A4_U+30E4_U+30FC 1
 62
   179
420
  2234388
370
     9
100
AcDbVertex
100
AcDb2dVertex
 10
48.8890027655554
 20
-93.76928580989109
 30
0.0
  0
SEQEND
  5
6D
330
6A
100
AcDbEntity
  8
_U+30EC_U+30A4_U+30E4_U+30FC 1
 62
   179
420
  2234388
370
     9
  0
POLYLINE
  5
6E
330
1F
100
AcDbEntity
  8
_U+30EC_U+30A4_U+30E4_U+30FC 1
 62
   179
420
  2234388
370
     9
100
AcDb2dPolyline
 66
     1
 10
0.0
 20
0.0
 30
0.0
  0
VERTEX
  5
6F
330
6E
100
AcDbEntity
  8
_U+30EC_U+30A4_U+30E4_U+30FC 1
 62
   179
420
  2234388
370
     9
100
AcDbVertex
100
AcDb2dVertex
 10
50.34904288215557
 20
-85.569813034163
 30
0.0
  0
VERTEX
  5
70
330
6E
100
AcDbEntity
  8
_U+30EC_U+30A4_U+30E4_U+30FC 1
 62
   179
420
  2234388
370
     9
100
AcDbVertex
100
AcDb2dVertex
 10
47.88887776580542
 20
-85.569813034163
 30
0.0
  0
SEQEND
  5
71
330
6E
100
AcDbEntity
  8
_U+30EC_U+30A4_U+30E4_U+30FC 1
 62
   179
420
  2234388
370
     9
  0
POLYLINE
  5
72
330
1F
100
AcDbEntity
  8
_U+30EC_U+30A4_U+30E4_U+30FC 1
 62
   179
420
  2234388
370
     9
100
AcDb2dPolyline
 66
     1
 10
0.0
 20
0.0
 30
0.0
  0
VERTEX
  5
73
330
72
100
AcDbEntity
  8
_U+30EC_U+30A4_U+30E4_U+30FC 1
 62
   179
420
  2234388
370
     9
100
AcDbVertex
100
AcDb2dVertex
 10
50.34904288215557
 20
-93.76928580989109
 30
0.0
  0
VERTEX
  5
74
330
72
100
AcDbEntity
  8
_U+30EC_U+30A4_U+30E4_U+30FC 1
 62
   179
420
  2234388
370
     9
100
AcDbVertex
100
AcDb2dVertex
 10
47.88887776580542
 20
-93.76928580989109
 30
0.0
  0
SEQEND
  5
75
330
72
100
AcDbEntity
  8
_U+30EC_U+30A4_U+30E4_U+30FC 1
 62
   179
420
  2234388
370
     9
  0
INSERT
  5
77
330
1F
100
AcDbEntity
  8
_U+30EC_U+30A4_U+30E4_U+30FC 1
100
AcDbBlockReference
  2
block 2
 10
0.0
 20
0.0
 30
0.0
  0
POLYLINE
  5
88
330
1F
100
AcDbEntity
  8
_U+30EC_U+30A4_U+30E4_U+30FC 1
 62
   179
420
  2234388
370
     9
100
AcDb2dPolyline
 66
     1
 10
0.0
 20
0.0
 30
0.0
  0
VERTEX
  5
89
330
88
100
AcDbEntity
  8
_U+30EC_U+30A4_U+30E4_U+30FC 1
 62
   179
420
  2234388
370
     9
100
AcDbVertex
100
AcDb2dVertex
 10
79.8889972022501
 20
-85.569813034163
 30
0.0
  0
VERTEX
  5
8A
330
88
100
AcDbEntity
  8
_U+30EC_U+30A4_U+30E4_U+30FC 1
 62
   179
420
  2234388
370
     9
100
AcDbVertex
100
AcDb2dVertex
 10
79.8889972022501
 20
-81.79950053510558
 30
0.0
  0
SEQEND
  5
8B
330
88
100
AcDbEntity
  8
_U+30EC_U+30A4_U+30E4_U+30FC 1
 62
   179
420
  2234388
370
     9
  0
POLYLINE
  5
8C
330
1F
100
AcDbEntity
  8
_U+30EC_U+30A4_U+30E4_U+30FC 1
 62
   179
420
  2234388
370
     9
100
AcDb2dPolyline
 66
     1
 10
0.0
 20
0.0
 30
0.0
  0
VERTEX
  5
8D
330
8C
100
AcDbEntity
  8
_U+30EC_U+30A4_U+30E4_U+30FC 1
 62
   179
420
  2234388
370
     9
100
AcDbVertex
100
AcDb2dVertex
 10
79.8889972022501
 20
-85.569813034163
 30
0.0
  0
VERTEX
  5
8E
330
8C
100
AcDbEntity
  8
_U+30EC_U+30A4_U+30E4_U+30FC 1
 62
   179
420
  2234388
370
     9
100
AcDbVertex
100
AcDb2dVertex
 10
79.8889972022501
 20
-86.5695499783577
 30
0.0
  0
SEQEND
  5
8F
330
8C
100
AcDbEntity
  8
_U+30EC_U+30A4_U+30E4_U+30FC 1
 62
   179
420
  2234388
370
     9
  0
POLYLINE
  5
90
330
1F
100
AcDbEntity
  8
_U+30EC_U+30A4_U+30E4_U+30FC 1
 62
   179
420
  2234388
370
     9
100
AcDb2dPolyline
 66
     1
 10
0.0
 20
0.0
 30
0.0
  0
VERTEX
  5
91
330
90
100
AcDbEntity
  8
_U+30EC_U+30A4_U+30E4_U+30FC 1
 62
   179
420
  2234388
370
     9
100
AcDbVertex
100
AcDb2dVertex
 10
78.4289891102209
 20
-85.569813034163
 30
0.0
  0
VERTEX
  5
92
330
90
100
AcDbEntity
  8
_U+30EC_U+30A4_U+30E4_U+30FC 1
 62
   179
420
  2234388
370
     9
100
AcDbVertex
100
AcDb2dVertex
 10
80.88876942422199
 20
-85.569813034163
 30
0.0
  0
SEQEND
  5
93
330
90
100
AcDbEntity
  8
_U+30EC_U+30A4_U+30E4_U+30FC 1
 62
   179
420
  2234388
370
     9
  0
POLYLINE
  5
94
330
1F
100
AcDbEntity
  8
_U+30EC_U+30A4_U+30E4_U+30FC 1
 62
   179
420
  2234388
370
     9
100
AcDb2dPolyline
 66
     1
 10
0.0
 20
0.0
 30
0.0
  0
VERTEX
  5
95
330
94
100
AcDbEntity
  8
_U+30EC_U+30A4_U+30E4_U+30FC 1
 62
   179
420
  2234388
370
     9
100
AcDbVertex
100
AcDb2dVertex
 10
78.4289891102209
 20
-86.5695499783577
 30
0.0
  0
VERTEX
  5
96
330
94
100
AcDbEntity
  8
_U+30EC_U+30A4_U+30E4_U+30FC 1
 62
   179
420
  2234388
370
     9
100
AcDbVertex
100
AcDb2dVertex
 10
80.88876942422199
 20
-86.5695499783577
 30
0.0
  0
SEQEND
  5
97
330
94
100
AcDbEntity
  8
_U+30EC_U+30A4_U+30E4_U+30FC 1
 62
   179
420
  2234388
370
     9
  0
INSERT
  5
99
330
1F
100
AcDbEntity
  8
_U+30EC_U+30A4_U+30E4_U+30FC 1
100
AcDbBlockReference
  2
block 3
 10
0.0
 20
0.0
 30
0.0
  0
POLYLINE
  5
9E
330
1F
100
AcDbEntity
  8
_U+30EC_U+30A4_U+30E4_U+30FC 1
 62
   179
420
  2234388
370
     9
100
AcDb2dPolyline
 66
     1
 10
0.0
 20
0.0
 30
0.0
  0
VERTEX
  5
9F
330
9E
100
AcDbEntity
  8
_U+30EC_U+30A4_U+30E4_U+30FC 1
 62
   179
420
  2234388
370
     9
100
AcDbVertex
100
AcDb2dVertex
 10
79.8889972022501
 20
-86.5695499783577
 30
0.0
  0
VERTEX
  5
A0
330
9E
100
AcDbEntity
  8
_U+30EC_U+30A4_U+30E4_U+30FC 1
 62
   179
420
  2234388
370
     9
100
AcDbVertex
100
AcDb2dVertex
 10
79.8889972022501
 20
-92.7695488656967
 30
0.0
  0
SEQEND
  5
A1
330
9E
100
AcDbEntity
  8
_U+30EC_U+30A4_U+30E4_U+30FC 1
 62
   179
420
  2234388
370
     9
  0
POLYLINE
  5
A2
330
1F
100
AcDbEntity
  8
_U+30EC_U+30A4_U+30E4_U+30FC 1
 62
   179
420
  2234388
370
     9
100
AcDb2dPolyline
 66
     1
 10
0.0
 20
0.0
 30
0.0
  0
VERTEX
  5
A3
330
A2
100
AcDbEntity
  8
_U+30EC_U+30A4_U+30E4_U+30FC 1
 62
   179
420
  2234388
370
     9
100
AcDbVertex
100
AcDb2dVertex
 10
78.4289891102209
 20
-86.5695499783577
 30
0.0
  0
VERTEX
  5
A4
330
A2
100
AcDbEntity
  8
_U+30EC_U+30A4_U+30E4_U+30FC 1
 62
   179
420
  2234388
370
     9
100
AcDbVertex
100
AcDb2dVertex
 10
80.88876942422199
 20
-86.5695499783577
 30
0.0
  0
SEQEND
  5
A5
330
A2
100
AcDbEntity
  8
_U+30EC_U+30A4_U+30E4_U+30FC 1
 62
   179
420
  2234388
370
     9
  0
POLYLINE
  5
A6
330
1F
100
AcDbEntity
  8
_U+30EC_U+30A4_U+30E4_U+30FC 1
 62
   179
420
  2234388
370
     9
100
AcDb2dPolyline
 66
     1
 10
0.0
 20
0.0
 30
0.0
  0
VERTEX
  5
A7
330
A6
100
AcDbEntity
  8
_U+30EC_U+30A4_U+30E4_U+30FC 1
 62
   179
420
  2234388
370
     9
100
AcDbVertex
100
AcDb2dVertex
 10
59.42894442958723
 20
-92.7695488656967
 30
0.0
  0
VERTEX
  5
A8
330
A6
100
AcDbEntity
  8
_U+30EC_U+30A4_U+30E4_U+30FC 1
 62
   179
420
  2234388
370
     9
100
AcDbVertex
100
AcDb2dVertex
 10
80.88876942422199
 20
-92.7695488656967
 30
0.0
  0
SEQEND
  5
A9
330
A6
100
AcDbEntity
  8
_U+30EC_U+30A4_U+30E4_U+30FC 1
 62
   179
420
  2234388
370
     9
  0
INSERT
  5
AB
330
1F
100
AcDbEntity
  8
_U+30EC_U+30A4_U+30E4_U+30FC 1
100
AcDbBlockReference
  2
block 4
 10
0.0
 20
0.0
 30
0.0
  0
POLYLINE
  5
BB
330
1F
100
AcDbEntity
  8
_U+30EC_U+30A4_U+30E4_U+30FC 1
 62
   179
420
  2234388
370
     9
100
AcDb2dPolyline
 66
     1
 10
0.0
 20
0.0
 30
0.0
  0
VERTEX
  5
BC
330
BB
100
AcDbEntity
  8
_U+30EC_U+30A4_U+30E4_U+30FC 1
 62
   179
420
  2234388
370
     9
100
AcDbVertex
100
AcDb2dVertex
 10
52.88876059513975
 20
-97.76975053111285
 30
0.0
  0
VERTEX
  5
BD
330
BB
100
AcDbEntity
  8
_U+30EC_U+30A4_U+30E4_U+30FC 1
 62
   179
420
  2234388
370
     9
100
AcDbVertex
100
AcDb2dVertex
 10
56.88887243753284
 20
-97.76975053111285
 30
0.0
  0
SEQEND
  5
BE
330
BB
100
AcDbEntity
  8
_U+30EC_U+30A4_U+30E4_U+30FC 1
 62
   179
420
  2234388
370
     9
  0
POLYLINE
  5
BF
330
1F
100
AcDbEntity
  8
_U+30EC_U+30A4_U+30E4_U+30FC 1
 62
   179
420
  2234388
370
     9
100
AcDb2dPolyline
 66
     1
 10
0.0
 20
0.0
 30
0.0
  0
VERTEX
  5
C0
330
BF
100
AcDbEntity
  8
_U+30EC_U+30A4_U+30E4_U+30FC 1
 62
   179
420
  2234388
370
     9
100
AcDbVertex
100
AcDb2dVertex
 10
52.88876059513975
 20
-96.30970914258914
 30
0.0
  0
VERTEX
  5
C1
330
BF
100
AcDbEntity
  8
_U+30EC_U+30A4_U+30E4_U+30FC 1
 62
   179
420
  2234388
370
     9
100
AcDbVertex
100
AcDb2dVertex
 10
52.88876059513975
 20
-98.76952275308538
 30
0.0
  0
SEQEND
  5
C2
330
BF
100
AcDbEntity
  8
_U+30EC_U+30A4_U+30E4_U+30FC 1
 62
   179
420
  2234388
370
     9
  0
POLYLINE
  5
C3
330
1F
100
AcDbEntity
  8
_U+30EC_U+30A4_U+30E4_U+30FC 1
 62
   179
420
  2234388
370
     9
100
AcDb2dPolyline
 66
     1
 10
0.0
 20
0.0
 30
0.0
  0
VERTEX
  5
C4
330
C3
100
AcDbEntity
  8
_U+30EC_U+30A4_U+30E4_U+30FC 1
 62
   179
420
  2234388
370
     9
100
AcDbVertex
100
AcDb2dVertex
 10
56.88887243753284
 20
-96.30970914258914
 30
0.0
  0
VERTEX
  5
C5
330
C3
100
AcDbEntity
  8
_U+30EC_U+30A4_U+30E4_U+30FC 1
 62
   179
420
  2234388
370
     9
100
AcDbVertex
100
AcDb2dVertex
 10
56.88887243753284
 20
-98.76952275308538
 30
0.0
  0
SEQEND
  5
C6
330
C3
100
AcDbEntity
  8
_U+30EC_U+30A4_U+30E4_U+30FC 1
 62
   179
420
  2234388
370
     9
  0
INSERT
  5
C8
330
1F
100
AcDbEntity
  8
_U+30EC_U+30A4_U+30E4_U+30FC 1
100
AcDbBlockReference
  2
block 5
 10
0.0
 20
0.0
 30
0.0
  0
POLYLINE
  5
E0
330
1F
100
AcDbEntity
  8
_U+30EC_U+30A4_U+30E4_U+30FC 1
 62
   179
420
  2234388
370
     9
100
AcDb2dPolyline
 66
     1
 10
0.0
 20
0.0
 30
0.0
  0
VERTEX
  5
E1
330
E0
100
AcDbEntity
  8
_U+30EC_U+30A4_U+30E4_U+30FC 1
 62
   179
420
  2234388
370
     9
100
AcDbVertex
100
AcDb2dVertex
 10
52.88876059513975
 20
-81.56934831294092
 30
0.0
  0
VERTEX
  5
E2
330
E0
100
AcDbEntity
  8
_U+30EC_U+30A4_U+30E4_U+30FC 1
 62
   179
420
  2234388
370
     9
100
AcDbVertex
100
AcDb2dVertex
 10
75.88891861946794
 20
-81.56934831294092
 30
0.0
  0
SEQEND
  5
E3
330
E0
100
AcDbEntity
  8
_U+30EC_U+30A4_U+30E4_U+30FC 1
 62
   179
420
  2234388
370
     9
  0
POLYLINE
  5
E4
330
1F
100
AcDbEntity
  8
_U+30EC_U+30A4_U+30E4_U+30FC 1
 62
   179
420
  2234388
370
     9
100
AcDb2dPolyline
 66
     1
 10
0.0
 20
0.0
 30
0.0
  0
VERTEX
  5
E5
330
E4
100
AcDbEntity
  8
_U+30EC_U+30A4_U+30E4_U+30FC 1
 62
   179
420
  2234388
370
     9
100
AcDbVertex
100
AcDb2dVertex
 10
52.88876059513975
 20
-83.02938970146494
 30
0.0
  0
VERTEX
  5
E6
330
E4
100
AcDbEntity
  8
_U+30EC_U+30A4_U+30E4_U+30FC 1
 62
   179
420
  2234388
370
     9
100
AcDbVertex
100
AcDb2dVertex
 10
52.88876059513975
 20
-80.5695760909687
 30
0.0
  0
SEQEND
  5
E7
330
E4
100
AcDbEntity
  8
_U+30EC_U+30A4_U+30E4_U+30FC 1
 62
   179
420
  2234388
370
     9
  0
POLYLINE
  5
E8
330
1F
100
AcDbEntity
  8
_U+30EC_U+30A4_U+30E4_U+30FC 1
 62
   179
420
  2234388
370
     9
100
AcDb2dPolyline
 66
     1
 10
0.0
 20
0.0
 30
0.0
  0
VERTEX
  5
E9
330
E8
100
AcDbEntity
  8
_U+30EC_U+30A4_U+30E4_U+30FC 1
 62
   179
420
  2234388
370
     9
100
AcDbVertex
100
AcDb2dVertex
 10
75.88891861946794
 20
-83.02938970146494
 30
0.0
  0
VERTEX
  5
EA
330
E8
100
AcDbEntity
  8
_U+30EC_U+30A4_U+30E4_U+30FC 1
 62
   179
420
  2234388
370
     9
100
AcDbVertex
100
AcDb2dVertex
 10
75.88891861946794
 20
-80.5695760909687
 30
0.0
  0
SEQEND
  5
EB
330
E8
100
AcDbEntity
  8
_U+30EC_U+30A4_U+30E4_U+30FC 1
 62
   179
420
  2234388
370
     9
  0
INSERT
  5
ED
330
1F
100
AcDbEntity
  8
_U+30EC_U+30A4_U+30E4_U+30FC 1
100
AcDbBlockReference
  2
block 6
 10
0.0
 20
0.0
 30
0.0
  0
ENDSEC
  0
SECTION
  2
OBJECTS
  0
DICTIONARY
  5
C
330
0
100
AcDbDictionary
281
     1
  3
ACAD_GROUP
350
D
  3
ACAD_LAYOUT
350
1A
  3
ACAD_MATERIAL
350
3B
  3
ACAD_MLEADERSTYLE
350
F5
  3
ACAD_MLINESTYLE
350
17
  3
ACAD_PLOTSETTINGS
350
19
  3
ACAD_PLOTSTYLENAME
350
E
  3
ACAD_TABLESTYLE
350
F4
  3
ACAD_VISUALSTYLE
350
2A
  0
SUN
  5
3F
330
29
100
AcDbSun
 90
        1
290
     0
 63
     7
421
 16777215
 40
1.0
291
     1
 91
  2455826
 92
 54000000
292
     0
 70
     2
 71
   256
280
     1
  0
DICTIONARY
  5
D
102
{ACAD_REACTORS
330
C
102
}
330
C
100
AcDbDictionary
281
     1
  0
DICTIONARY
  5
1A
102
{ACAD_REACTORS
330
C
102
}
330
C
100
AcDbDictionary
281
     1
  3
Layout1
350
1E
  3
Layout2
350
26
  3
Model
350
22
  0
DICTIONARY
  5
3B
102
{ACAD_REACTORS
330
C
102
}
330
C
100
AcDbDictionary
281
     1
  3
ByBlock
350
3D
  3
ByLayer
350
3C
  3
Global
350
3E
  0
DICTIONARY
  5
F5
102
{ACAD_REACTORS
330
C
102
}
330
C
100
AcDbDictionary
281
     1
  0
DICTIONARY
  5
17
102
{ACAD_REACTORS
330
C
102
}
330
C
100
AcDbDictionary
281
     1
  3
Standard
350
18
  0
DICTIONARY
  5
19
102
{ACAD_REACTORS
330
C
102
}
330
C
100
AcDbDictionary
281
     1
  0
ACDBDICTIONARYWDFLT
  5
E
102
{ACAD_REACTORS
330
C
102
}
330
C
100
AcDbDictionary
281
     1
  3
Normal
350
F
100
AcDbDictionaryWithDefault
340
F
  0
DICTIONARY
  5
F4
102
{ACAD_REACTORS
330
C
102
}
330
C
100
AcDbDictionary
281
     1
  0
DICTIONARY
  5
2A
102
{ACAD_REACTORS
330
C
102
}
330
C
100
AcDbDictionary
281
     1
  3
2dWireframe
350
2F
  3
3D Hidden
350
31
  3
3dWireframe
350
30
  3
Basic
350
32
  3
Brighten
350
36
  3
ColorChange
350
3A
  3
Conceptual
350
34
  3
Dim
350
35
  3
Facepattern
350
39
  3
Flat
350
2B
  3
FlatWithEdges
350
2C
  3
Gouraud
350
2D
  3
GouraudWithEdges
350
2E
  3
Linepattern
350
38
  3
Realistic
350
33
  3
Thicken
350
37
  0
LAYOUT
  5
1E
102
{ACAD_REACTORS
330
1A
102
}
330
1A
100
AcDbPlotSettings
  1

  2
none_device
  4

  6

 40
0.0
 41
0.0
 42
0.0
 43
0.0
 44
0.0
 45
0.0
 46
0.0
 47
0.0
 48
0.0
 49
0.0
140
0.0
141
0.0
142
1.0
143
1.0
 70
   688
 72
     0
 73
     0
 74
     5
  7

 75
    16
 76
     0
 77
     2
 78
   300
147
1.0
148
0.0
149
0.0
100
AcDbLayout
  1
Layout1
 70
     1
 71
     1
 10
0.0
 20
0.0
 11
12.0
 21
9.0
 12
0.0
 22
0.0
 32
0.0
 14
1.000000000000000E+20
 24
1.000000000000000E+20
 34
1.000000000000000E+20
 15
-1.000000000000000E+20
 25
-1.000000000000000E+20
 35
-1.000000000000000E+20
146
0.0
 13
0.0
 23
0.0
 33
0.0
 16
1.0
 26
0.0
 36
0.0
 17
0.0
 27
1.0
 37
0.0
 76
     0
330
1B
  0
LAYOUT
  5
26
102
{ACAD_REACTORS
330
1A
102
}
330
1A
100
AcDbPlotSettings
  1

  2
none_device
  4

  6

 40
0.0
 41
0.0
 42
0.0
 43
0.0
 44
0.0
 45
0.0
 46
0.0
 47
0.0
 48
0.0
 49
0.0
140
0.0
141
0.0
142
1.0
143
1.0
 70
   688
 72
     0
 73
     0
 74
     5
  7

 75
    16
 76
     0
 77
     2
 78
   300
147
1.0
148
0.0
149
0.0
100
AcDbLayout
  1
Layout2
 70
     1
 71
     2
 10
0.0
 20
0.0
 11
0.0
 21
0.0
 12
0.0
 22
0.0
 32
0.0
 14
0.0
 24
0.0
 34
0.0
 15
0.0
 25
0.0
 35
0.0
146
0.0
 13
0.0
 23
0.0
 33
0.0
 16
1.0
 26
0.0
 36
0.0
 17
0.0
 27
1.0
 37
0.0
 76
     0
330
23
  0
LAYOUT
  5
22
102
{ACAD_REACTORS
330
1A
102
}
330
1A
100
AcDbPlotSettings
  1

  2
none_device
  4

  6

 40
0.0
 41
0.0
 42
0.0
 43
0.0
 44
0.0
 45
0.0
 46
0.0
 47
0.0
 48
0.0
 49
0.0
140
0.0
141
0.0
142
1.0
143
1.0
 70
  1712
 72
     0
 73
     0
 74
     0
  7

 75
     0
 76
     0
 77
     2
 78
   300
147
1.0
148
0.0
149
0.0
100
AcDbLayout
  1
Model
 70
     1
 71
     0
 10
0.0
 20
0.0
 11
12.0
 21
9.0
 12
0.0
 22
0.0
 32
0.0
 14
1.000000000000000E+20
 24
1.000000000000000E+20
 34
1.000000000000000E+20
 15
-1.000000000000000E+20
 25
-1.000000000000000E+20
 35
-1.000000000000000E+20
146
0.0
 13
0.0
 23
0.0
 33
0.0
 16
1.0
 26
0.0
 36
0.0
 17
0.0
 27
1.0
 37
0.0
 76
     0
330
1F
331
29
  0
MATERIAL
  5
3D
102
{ACAD_REACTORS
330
3B
102
}
330
3B
100
AcDbMaterial
  1
ByBlock
 72
     1
 94
      127
  0
MATERIAL
  5
3C
102
{ACAD_REACTORS
330
3B
102
}
330
3B
100
AcDbMaterial
  1
ByLayer
 72
     1
 94
      127
  0
MATERIAL
  5
3E
102
{ACAD_REACTORS
330
3B
102
}
330
3B
100
AcDbMaterial
  1
Global
 72
     1
 94
      127
  0
MLINESTYLE
  5
18
102
{ACAD_REACTORS
330
17
102
}
330
17
100
AcDbMlineStyle
  2
Standard
 70
     0
  3

 62
   256
 51
90.0
 52
90.0
 71
     2
 49
0.5
 62
   256
  6
BYLAYER
 49
-0.5
 62
   256
  6
BYLAYER
  0
ACDBPLACEHOLDER
  5
F
102
{ACAD_REACTORS
330
E
102
}
330
E
  0
VISUALSTYLE
  5
2F
102
{ACAD_REACTORS
330
2A
102
}
330
2A
100
AcDbVisualStyle
  2
2dWireframe
 70
     4
177
     2
291
     0
 71
     0
176
     1
 72
     2
176
     1
 73
     0
176
     1
 90
        0
176
     1
 40
-0.6
176
     1
 41
-30.0
176
     1
 62
     5
 63
     7
421
 16777215
176
     1
 74
     1
176
     1
 91
        4
176
     1
 64
     7
176
     1
 65
   257
176
     1
 75
     1
176
     1
175
     1
176
     1
 42
1.0
176
     1
 92
        0
176
     1
 66
   257
176
     1
 43
1.0
176
     1
 76
     1
176
     1
 77
     6
176
     1
 78
     2
176
     1
 67
     7
176
     1
 79
     5
176
     1
170
     0
176
     1
171
     0
176
     1
290
     0
176
     1
 93
        1
176
     1
 44
0.0
176
     1
173
     0
176
     1
  0
VISUALSTYLE
  5
31
102
{ACAD_REACTORS
330
2A
102
}
330
2A
100
AcDbVisualStyle
  2
3D Hidden
 70
     6
177
     2
291
     0
 71
     1
176
     1
 72
     2
176
     1
 73
     2
176
     1
 90
        0
176
     1
 40
-0.6
176
     1
 41
-30.0
176
     1
 62
     5
 63
     7
421
 16777215
176
     1
 74
     2
176
     1
 91
        2
176
     1
 64
     7
176
     1
 65
   257
176
     1
 75
     2
176
     1
175
     1
176
     1
 42
40.0
176
     1
 92
        0
176
     1
 66
   257
176
     1
 43
1.0
176
     1
 76
     1
176
     1
 77
     6
176
     1
 78
     2
176
     1
 67
     7
176
     1
 79
     3
176
     1
170
     0
176
     1
171
     0
176
     1
290
     0
176
     1
 93
        1
176
     1
 44
0.0
176
     1
173
     0
176
     1
  0
VISUALSTYLE
  5
30
102
{ACAD_REACTORS
330
2A
102
}
330
2A
100
AcDbVisualStyle
  2
3dWireframe
 70
     5
177
     2
291
     0
 71
     0
176
     1
 72
     2
176
     1
 73
     0
176
     1
 90
        0
176
     1
 40
-0.6
176
     1
 41
-30.0
176
     1
 62
     5
 63
     7
421
 16777215
176
     1
 74
     1
176
     1
 91
        4
176
     1
 64
     7
176
     1
 65
   257
176
     1
 75
     1
176
     1
175
     1
176
     1
 42
1.0
176
     1
 92
        0
176
     1
 66
   257
176
     1
 43
1.0
176
     1
 76
     1
176
     1
 77
     6
176
     1
 78
     2
176
     1
 67
     7
176
     1
 79
     5
176
     1
170
     0
176
     1
171
     0
176
     1
290
     0
176
     1
 93
        1
176
     1
 44
0.0
176
     1
173
     0
176
     1
  0
VISUALSTYLE
  5
32
102
{ACAD_REACTORS
330
2A
102
}
330
2A
100
AcDbVisualStyle
  2
Basic
 70
     7
177
     2
291
     1
 71
     1
176
     1
 72
     0
176
     1
 73
     1
176
     1
 90
        0
176
     1
 40
-0.6
176
     1
 41
-30.0
176
     1
 62
     5
 63
     7
421
 16777215
176
     1
 74
     0
176
     1
 91
        4
176
     1
 64
     7
176
     1
 65
   257
176
     1
 75
     1
176
     1
175
     1
176
     1
 42
1.0
176
     1
 92
        8
176
     1
 66
     7
176
     1
 43
1.0
176
     1
 76
     1
176
     1
 77
     6
176
     1
 78
     2
176
     1
 67
     7
176
     1
 79
     5
176
     1
170
     0
176
     1
171
     0
176
     1
290
     0
176
     1
 93
        1
176
     1
 44
0.0
176
     1
173
     0
176
     1
  0
VISUALSTYLE
  5
36
102
{ACAD_REACTORS
330
2A
102
}
330
2A
100
AcDbVisualStyle
  2
Brighten
 70
    12
177
     2
291
     1
 71
     2
176
     1
 72
     2
176
     1
 73
     0
176
     1
 90
        0
176
     1
 40
-0.6
176
     1
 41
-30.0
176
     1
 62
     5
 63
     7
421
 16777215
176
     1
 74
     1
176
     1
 91
        4
176
     1
 64
     7
176
     1
 65
   257
176
     1
 75
     1
176
     1
175
     1
176
     1
 42
1.0
176
     1
 92
        8
176
     1
 66
     7
176
     1
 43
1.0
176
     1
 76
     1
176
     1
 77
     6
176
     1
 78
     2
176
     1
 67
     7
176
     1
 79
     5
176
     1
170
     0
176
     1
171
     0
176
     1
290
     0
176
     1
 93
        1
176
     1
 44
50.0
176
     1
173
     0
176
     1
  0
VISUALSTYLE
  5
3A
102
{ACAD_REACTORS
330
2A
102
}
330
2A
100
AcDbVisualStyle
  2
ColorChange
 70
    16
177
     2
291
     1
 71
     2
176
     1
 72
     2
176
     1
 73
     3
176
     1
 90
        0
176
     1
 40
-0.6
176
     1
 41
-30.0
176
     1
 62
     5
 63
     8
421
  8421504
176
     1
 74
     1
176
     1
 91
        4
176
     1
 64
     7
176
     1
 65
   257
176
     1
 75
     1
176
     1
175
     1
176
     1
 42
1.0
176
     1
 92
        8
176
     1
 66
     8
424
  8421504
176
     1
 43
1.0
176
     1
 76
     1
176
     1
 77
     6
176
     1
 78
     2
176
     1
 67
     7
176
     1
 79
     5
176
     1
170
     0
176
     1
171
     0
176
     1
290
     0
176
     1
 93
        1
176
     1
 44
0.0
176
     1
173
     0
176
     1
  0
VISUALSTYLE
  5
34
102
{ACAD_REACTORS
330
2A
102
}
330
2A
100
AcDbVisualStyle
  2
Conceptual
 70
     9
177
     2
291
     0
 71
     3
176
     1
 72
     2
176
     1
 73
     0
176
     1
 90
        0
176
     1
 40
-0.6
176
     1
 41
-30.0
176
     1
 62
     5
 63
     7
421
 16777215
176
     1
 74
     2
176
     1
 91
        2
176
     1
 64
     7
176
     1
 65
   257
176
     1
 75
     1
176
     1
175
     1
176
     1
 42
40.0
176
     1
 92
        8
176
     1
 66
     7
176
     1
 43
1.0
176
     1
 76
     1
176
     1
 77
     6
176
     1
 78
     2
176
     1
 67
     7
176
     1
 79
     3
176
     1
170
     0
176
     1
171
     0
176
     1
290
     0
176
     1
 93
        1
176
     1
 44
0.0
176
     1
173
     0
176
     1
  0
VISUALSTYLE
  5
35
102
{ACAD_REACTORS
330
2A
102
}
330
2A
100
AcDbVisualStyle
  2
Dim
 70
    11
177
     2
291
     1
 71
     2
176
     1
 72
     2
176
     1
 73
     0
176
     1
 90
        0
176
     1
 40
-0.6
176
     1
 41
-30.0
176
     1
 62
     5
 63
     7
421
 16777215
176
     1
 74
     1
176
     1
 91
        4
176
     1
 64
     7
176
     1
 65
   257
176
     1
 75
     1
176
     1
175
     1
176
     1
 42
1.0
176
     1
 92
        8
176
     1
 66
     7
176
     1
 43
1.0
176
     1
 76
     1
176
     1
 77
     6
176
     1
 78
     2
176
     1
 67
     7
176
     1
 79
     5
176
     1
170
     0
176
     1
171
     0
176
     1
290
     0
176
     1
 93
        1
176
     1
 44
-50.0
176
     1
173
     0
176
     1
  0
VISUALSTYLE
  5
39
102
{ACAD_REACTORS
330
2A
102
}
330
2A
100
AcDbVisualStyle
  2
Facepattern
 70
    15
177
     2
291
     1
 71
     2
176
     1
 72
     2
176
     1
 73
     0
176
     1
 90
        0
176
     1
 40
-0.6
176
     1
 41
-30.0
176
     1
 62
     5
 63
     7
421
 16777215
176
     1
 74
     1
176
     1
 91
        4
176
     1
 64
     7
176
     1
 65
   257
176
     1
 75
     1
176
     1
175
     1
176
     1
 42
1.0
176
     1
 92
        8
176
     1
 66
     7
176
     1
 43
1.0
176
     1
 76
     1
176
     1
 77
     6
176
     1
 78
     2
176
     1
 67
     7
176
     1
 79
     5
176
     1
170
     0
176
     1
171
     0
176
     1
290
     0
176
     1
 93
        1
176
     1
 44
0.0
176
     1
173
     0
176
     1
  0
VISUALSTYLE
  5
2B
102
{ACAD_REACTORS
330
2A
102
}
330
2A
100
AcDbVisualStyle
  2
Flat
 70
     0
177
     2
291
     1
 71
     2
176
     1
 72
     1
176
     1
 73
     1
176
     1
 90
        2
176
     1
 40
-0.6
176
     1
 41
30.0
176
     1
 62
     5
 63
     7
421
 16777215
176
     1
 74
     0
176
     1
 91
        4
176
     1
 64
     7
176
     1
 65
   257
176
     1
 75
     1
176
     1
175
     1
176
     1
 42
1.0
176
     1
 92
        8
176
     1
 66
     7
176
     1
 43
1.0
176
     1
 76
     1
176
     1
 77
     6
176
     1
 78
     2
176
     1
 67
     7
176
     1
 79
     5
176
     1
170
     0
176
     1
171
     0
176
     1
290
     0
176
     1
 93
       13
176
     1
 44
0.0
176
     1
173
     0
176
     1
  0
VISUALSTYLE
  5
2C
102
{ACAD_REACTORS
330
2A
102
}
330
2A
100
AcDbVisualStyle
  2
FlatWithEdges
 70
     1
177
     2
291
     1
 71
     2
176
     1
 72
     1
176
     1
 73
     1
176
     1
 90
        2
176
     1
 40
-0.6
176
     1
 41
30.0
176
     1
 62
     5
 63
     7
421
 16777215
176
     1
 74
     1
176
     1
 91
        4
176
     1
 64
     7
176
     1
 65
   257
176
     1
 75
     1
176
     1
175
     1
176
     1
 42
1.0
176
     1
 92
        0
176
     1
 66
   257
176
     1
 43
1.0
176
     1
 76
     1
176
     1
 77
     6
176
     1
 78
     2
176
     1
 67
     7
176
     1
 79
     5
176
     1
170
     0
176
     1
171
     0
176
     1
290
     0
176
     1
 93
       13
176
     1
 44
0.0
176
     1
173
     0
176
     1
  0
VISUALSTYLE
  5
2D
102
{ACAD_REACTORS
330
2A
102
}
330
2A
100
AcDbVisualStyle
  2
Gouraud
 70
     2
177
     2
291
     1
 71
     2
176
     1
 72
     2
176
     1
 73
     1
176
     1
 90
        2
176
     1
 40
-0.6
176
     1
 41
30.0
176
     1
 62
     5
 63
     7
421
 16777215
176
     1
 74
     0
176
     1
 91
        4
176
     1
 64
     7
176
     1
 65
   257
176
     1
 75
     1
176
     1
175
     1
176
     1
 42
1.0
176
     1
 92
        0
176
     1
 66
     7
176
     1
 43
1.0
176
     1
 76
     1
176
     1
 77
     6
176
     1
 78
     2
176
     1
 67
     7
176
     1
 79
     5
176
     1
170
     0
176
     1
171
     0
176
     1
290
     0
176
     1
 93
       13
176
     1
 44
0.0
176
     1
173
     0
176
     1
  0
VISUALSTYLE
  5
2E
102
{ACAD_REACTORS
330
2A
102
}
330
2A
100
AcDbVisualStyle
  2
GouraudWithEdges
 70
     3
177
     2
291
     1
 71
     2
176
     1
 72
     2
176
     1
 73
     1
176
     1
 90
        2
176
     1
 40
-0.6
176
     1
 41
30.0
176
     1
 62
     5
 63
     7
421
 16777215
176
     1
 74
     1
176
     1
 91
        4
176
     1
 64
     7
176
     1
 65
   257
176
     1
 75
     1
176
     1
175
     1
176
     1
 42
1.0
176
     1
 92
        0
176
     1
 66
   257
176
     1
 43
1.0
176
     1
 76
     1
176
     1
 77
     6
176
     1
 78
     2
176
     1
 67
     7
176
     1
 79
     5
176
     1
170
     0
176
     1
171
     0
176
     1
290
     0
176
     1
 93
       13
176
     1
 44
0.0
176
     1
173
     0
176
     1
  0
VISUALSTYLE
  5
38
102
{ACAD_REACTORS
330
2A
102
}
330
2A
100
AcDbVisualStyle
  2
Linepattern
 70
    14
177
     2
291
     1
 71
     2
176
     1
 72
     2
176
     1
 73
     0
176
     1
 90
        0
176
     1
 40
-0.6
176
     1
 41
-30.0
176
     1
 62
     5
 63
     7
421
 16777215
176
     1
 74
     1
176
     1
 91
        4
176
     1
 64
     7
176
     1
 65
   257
176
     1
 75
     7
176
     1
175
     7
176
     1
 42
1.0
176
     1
 92
        8
176
     1
 66
     7
176
     1
 43
1.0
176
     1
 76
     1
176
     1
 77
     6
176
     1
 78
     2
176
     1
 67
     7
176
     1
 79
     5
176
     1
170
     0
176
     1
171
     0
176
     1
290
     0
176
     1
 93
        1
176
     1
 44
0.0
176
     1
173
     0
176
     1
  0
VISUALSTYLE
  5
33
102
{ACAD_REACTORS
330
2A
102
}
330
2A
100
AcDbVisualStyle
  2
Realistic
 70
     8
177
     2
291
     0
 71
     2
176
     1
 72
     2
176
     1
 73
     0
176
     1
 90
        0
176
     1
 40
-0.6
176
     1
 41
-30.0
176
     1
 62
     5
 63
     7
421
 16777215
176
     1
 74
     1
176
     1
 91
        0
176
     1
 64
     7
176
     1
 65
   257
176
     1
 75
     1
176
     1
175
     1
176
     1
 42
1.0
176
     1
 92
        8
176
     1
 66
     8
424
  7895160
176
     1
 43
1.0
176
     1
 76
     1
176
     1
 77
     6
176
     1
 78
     2
176
     1
 67
     7
176
     1
 79
     5
176
     1
170
     0
176
     1
171
     0
176
     1
290
     0
176
     1
 93
       13
176
     1
 44
0.0
176
     1
173
     0
176
     1
  0
VISUALSTYLE
  5
37
102
{ACAD_REACTORS
330
2A
102
}
330
2A
100
AcDbVisualStyle
  2
Thicken
 70
    13
177
     2
291
     1
 71
     2
176
     1
 72
     2
176
     1
 73
     0
176
     1
 90
        0
176
     1
 40
-0.6
176
     1
 41
-30.0
176
     1
 62
     5
 63
     7
421
 16777215
176
     1
 74
     1
176
     1
 91
        4
176
     1
 64
     7
176
     1
 65
   257
176
     1
 75
     1
176
     1
175
     1
176
     1
 42
1.0
176
     1
 92
       12
176
     1
 66
     7
176
     1
 43
1.0
176
     1
 76
     1
176
     1
 77
     6
176
     1
 78
     2
176
     1
 67
     7
176
     1
 79
     5
176
     1
170
     0
176
     1
171
     0
176
     1
290
     0
176
     1
 93
        1
176
     1
 44
0.0
176
     1
173
     0
176
     1
  0
ENDSEC
  0
EOF
