  0
SECTION
  2
HEADER
  9
$ACADVER
  1
AC1024
  9
$ACADMAINTVER
 70
     6
  9
$DWGCODEPAGE
  3
UNDEFINED
  9
$INSBASE
 10
0.0
 20
0.0
 30
0.0
  9
$EXTMIN
 10
1.000000000000000E+20
 20
1.000000000000000E+20
 30
1.000000000000000E+20
  9
$EXTMAX
 10
-1.000000000000000E+20
 20
-1.000000000000000E+20
 30
-1.000000000000000E+20
  9
$LIMMIN
 10
0.0
 20
0.0
  9
$LIMMAX
 10
12.0
 20
9.0
  9
$ORTHOMODE
 70
     0
  9
$REGENMODE
 70
     1
  9
$FILLMODE
 70
     1
  9
$QTEXTMODE
 70
     0
  9
$MIRRTEXT
 70
     1
  9
$LTSCALE
 40
1.0
  9
$ATTMODE
 70
     1
  9
$TEXTSIZE
 40
0.2
  9
$TRACEWID
 40
0.05
  9
$TEXTSTYLE
  7
Standard
  9
$CLAYER
  8
0
  9
$CELTYPE
  6
ByLayer
  9
$CECOLOR
 62
   256
  9
$CELTSCALE
 40
1.0
  9
$DISPSILH
 70
     0
  9
$DIMSCALE
 40
1.0
  9
$DIMASZ
 40
0.18
  9
$DIMEXO
 40
0.0625
  9
$DIMDLI
 40
0.38
  9
$DIMRND
 40
0.0
  9
$DIMDLE
 40
0.0
  9
$DIMEXE
 40
0.18
  9
$DIMTP
 40
0.0
  9
$DIMTM
 40
0.0
  9
$DIMTXT
 40
0.18
  9
$DIMCEN
 40
0.09
  9
$DIMTSZ
 40
0.0
  9
$DIMTOL
 70
     0
  9
$DIMLIM
 70
     0
  9
$DIMTIH
 70
     1
  9
$DIMTOH
 70
     1
  9
$DIMSE1
 70
     0
  9
$DIMSE2
 70
     0
  9
$DIMTAD
 70
     0
  9
$DIMZIN
 70
     0
  9
$DIMBLK
  1

  9
$DIMASO
 70
     1
  9
$DIMSHO
 70
     1
  9
$DIMPOST
  1

  9
$DIMAPOST
  1

  9
$DIMALT
 70
     0
  9
$DIMALTD
 70
     2
  9
$DIMALTF
 40
25.4
  9
$DIMLFAC
 40
1.0
  9
$DIMTOFL
 70
     0
  9
$DIMTVP
 40
0.0
  9
$DIMTIX
 70
     0
  9
$DIMSOXD
 70
     0
  9
$DIMSAH
 70
     0
  9
$DIMBLK1
  1

  9
$DIMBLK2
  1

  9
$DIMSTYLE
  2
Standard
  9
$DIMCLRD
 70
     0
  9
$DIMCLRE
 70
     0
  9
$DIMCLRT
 70
     0
  9
$DIMTFAC
 40
1.0
  9
$DIMGAP
 40
0.09
  9
$DIMJUST
 70
     0
  9
$DIMSD1
 70
     0
  9
$DIMSD2
 70
     0
  9
$DIMTOLJ
 70
     1
  9
$DIMTZIN
 70
     0
  9
$DIMALTZ
 70
     0
  9
$DIMALTTZ
 70
     0
  9
$DIMUPT
 70
     0
  9
$DIMDEC
 70
     4
  9
$DIMTDEC
 70
     4
  9
$DIMALTU
 70
     2
  9
$DIMALTTD
 70
     2
  9
$DIMTXSTY
  7
Standard
  9
$DIMAUNIT
 70
     0
  9
$DIMADEC
 70
     0
  9
$DIMALTRND
 40
0.0
  9
$DIMAZIN
 70
     0
  9
$DIMDSEP
 70
    46
  9
$DIMATFIT
 70
     3
  9
$DIMFRAC
 70
     0
  9
$DIMLDRBLK
  1

  9
$DIMLUNIT
 70
     2
  9
$DIMLWD
 70
    -2
  9
$DIMLWE
 70
    -2
  9
$DIMTMOVE
 70
     0
  9
$DIMFXL
 40
1.0
  9
$DIMFXLON
 70
     0
  9
$DIMJOGANG
 40
0.7853981633974483
  9
$DIMTFILL
 70
     0
  9
$DIMTFILLCLR
 70
     0
  9
$DIMARCSYM
 70
     0
  9
$DIMLTYPE
  6

  9
$DIMLTEX1
  6

  9
$DIMLTEX2
  6

  9
$DIMTXTDIRECTION
 70
     0
  9
$LUNITS
 70
     2
  9
$LUPREC
 70
     4
  9
$SKETCHINC
 40
0.1
  9
$FILLETRAD
 40
0.5
  9
$AUNITS
 70
     0
  9
$AUPREC
 70
     0
  9
$MENU
  1
.
  9
$ELEVATION
 40
0.0
  9
$PELEVATION
 40
0.0
  9
$THICKNESS
 40
0.0
  9
$LIMCHECK
 70
     0
  9
$CHAMFERA
 40
0.5
  9
$CHAMFERB
 40
0.5
  9
$CHAMFERC
 40
1.0
  9
$CHAMFERD
 40
0.0
  9
$SKPOLY
 70
     0
  9
$TDCREATE
 40
2457917.587048611
  9
$TDUCREATE
 40
2457917.212048611
  9
$TDUPDATE
 40
2457917.587048611
  9
$TDUUPDATE
 40
2457917.212048611
  9
$TDINDWG
 40
0.0000000116
  9
$TDUSRTIMER
 40
0.0000000116
  9
$USRTIMER
 70
     1
  9
$ANGBASE
 50
0.0
  9
$ANGDIR
 70
     0
  9
$PDMODE
 70
     0
  9
$PDSIZE
 40
0.0
  9
$PLINEWID
 40
0.0
  9
$SPLFRAME
 70
     0
  9
$SPLINETYPE
 70
     6
  9
$SPLINESEGS
 70
     8
  9
$HANDSEED
  5
104
  9
$SURFTAB1
 70
     6
  9
$SURFTAB2
 70
     6
  9
$SURFTYPE
 70
     6
  9
$SURFU
 70
     6
  9
$SURFV
 70
     6
  9
$UCSBASE
  2

  9
$UCSNAME
  2

  9
$UCSORG
 10
0.0
 20
0.0
 30
0.0
  9
$UCSXDIR
 10
1.0
 20
0.0
 30
0.0
  9
$UCSYDIR
 10
0.0
 20
1.0
 30
0.0
  9
$UCSORTHOREF
  2

  9
$UCSORTHOVIEW
 70
     0
  9
$UCSORGTOP
 10
0.0
 20
0.0
 30
0.0
  9
$UCSORGBOTTOM
 10
0.0
 20
0.0
 30
0.0
  9
$UCSORGLEFT
 10
0.0
 20
0.0
 30
0.0
  9
$UCSORGRIGHT
 10
0.0
 20
0.0
 30
0.0
  9
$UCSORGFRONT
 10
0.0
 20
0.0
 30
0.0
  9
$UCSORGBACK
 10
0.0
 20
0.0
 30
0.0
  9
$PUCSBASE
  2

  9
$PUCSNAME
  2

  9
$PUCSORG
 10
0.0
 20
0.0
 30
0.0
  9
$PUCSXDIR
 10
1.0
 20
0.0
 30
0.0
  9
$PUCSYDIR
 10
0.0
 20
1.0
 30
0.0
  9
$PUCSORTHOREF
  2

  9
$PUCSORTHOVIEW
 70
     0
  9
$PUCSORGTOP
 10
0.0
 20
0.0
 30
0.0
  9
$PUCSORGBOTTOM
 10
0.0
 20
0.0
 30
0.0
  9
$PUCSORGLEFT
 10
0.0
 20
0.0
 30
0.0
  9
$PUCSORGRIGHT
 10
0.0
 20
0.0
 30
0.0
  9
$PUCSORGFRONT
 10
0.0
 20
0.0
 30
0.0
  9
$PUCSORGBACK
 10
0.0
 20
0.0
 30
0.0
  9
$USERI1
 70
     0
  9
$USERI2
 70
     0
  9
$USERI3
 70
     0
  9
$USERI4
 70
     0
  9
$USERI5
 70
     0
  9
$USERR1
 40
0.0
  9
$USERR2
 40
0.0
  9
$USERR3
 40
0.0
  9
$USERR4
 40
0.0
  9
$USERR5
 40
0.0
  9
$WORLDVIEW
 70
     1
  9
$SHADEDGE
 70
     3
  9
$SHADEDIF
 70
    70
  9
$TILEMODE
 70
     1
  9
$MAXACTVP
 70
    64
  9
$PINSBASE
 10
0.0
 20
0.0
 30
0.0
  9
$PLIMCHECK
 70
     0
  9
$PEXTMIN
 10
1.000000000000000E+20
 20
1.000000000000000E+20
 30
1.000000000000000E+20
  9
$PEXTMAX
 10
-1.000000000000000E+20
 20
-1.000000000000000E+20
 30
-1.000000000000000E+20
  9
$PLIMMIN
 10
0.0
 20
0.0
  9
$PLIMMAX
 10
12.0
 20
9.0
  9
$UNITMODE
 70
     0
  9
$VISRETAIN
 70
     1
  9
$PLINEGEN
 70
     0
  9
$PSLTSCALE
 70
     1
  9
$TREEDEPTH
 70
  3020
  9
$CMLSTYLE
  2
Standard
  9
$CMLJUST
 70
     0
  9
$CMLSCALE
 40
1.0
  9
$PROXYGRAPHICS
 70
     1
  9
$MEASUREMENT
 70
     0
  9
$CELWEIGHT
370
    -1
  9
$ENDCAPS
280
     0
  9
$JOINSTYLE
280
     0
  9
$LWDISPLAY
290
     1
  9
$INSUNITS
 70
     1
  9
$HYPERLINKBASE
  1

  9
$STYLESHEET
  1

  9
$XEDIT
290
     1
  9
$CEPSNTYPE
380
     0
  9
$PSTYLEMODE
290
     1
  9
$FINGERPRINTGUID
  2
{055BD000-5407-C388-20AB-AF5CFEE856F1}
  9
$VERSIONGUID
  2
{FAEB1C32-E019-11D5-929B-00C0DF256EC4}
  9
$EXTNAMES
290
     1
  9
$PSVPSCALE
 40
0.0
  9
$OLESTARTUP
290
     0
  9
$SORTENTS
280
   127
  9
$INDEXCTL
280
     0
  9
$HIDETEXT
280
     1
  9
$XCLIPFRAME
280
     2
  9
$HALOGAP
280
     0
  9
$OBSCOLOR
 70
   257
  9
$OBSLTYPE
280
     0
  9
$INTERSECTIONDISPLAY
280
     0
  9
$INTERSECTIONCOLOR
 70
   257
  9
$DIMASSOC
280
     2
  9
$PROJECTNAME
  1

  9
$CAMERADISPLAY
290
     0
  9
$LENSLENGTH
 40
50.0
  9
$CAMERAHEIGHT
 40
0.0
  9
$STEPSPERSEC
 40
2.0
  9
$STEPSIZE
 40
6.0
  9
$3DDWFPREC
 40
2.0
  9
$PSOLWIDTH
 40
0.25
  9
$PSOLHEIGHT
 40
4.0
  9
$LOFTANG1
 40
1.570796326794897
  9
$LOFTANG2
 40
1.570796326794897
  9
$LOFTMAG1
 40
0.0
  9
$LOFTMAG2
 40
0.0
  9
$LOFTPARAM
 70
     7
  9
$LOFTNORMALS
280
     1
  9
$LATITUDE
 40
37.795
  9
$LONGITUDE
 40
-122.394
  9
$NORTHDIRECTION
 40
0.0
  9
$TIMEZONE
 70
 -8000
  9
$LIGHTGLYPHDISPLAY
280
     1
  9
$TILEMODELIGHTSYNCH
280
     1
  9
$CMATERIAL
347
3C
  9
$SOLIDHIST
280
     1
  9
$SHOWHIST
280
     1
  9
$DWFFRAME
280
     2
  9
$DGNFRAME
280
     2
  9
$REALWORLDSCALE
290
     1
  9
$INTERFERECOLOR
 62
   256
  9
$CSHADOW
280
     0
  9
$SHADOWPLANELOCATION
 40
0.0
  0
ENDSEC
  0
SECTION
  2
CLASSES
  0
CLASS
  1
ACDBDICTIONARYWDFLT
  2
AcDbDictionaryWithDefault
  3
ObjectDBX Classes
 90
        0
 91
        4
280
     0
281
     0
  0
CLASS
  1
VISUALSTYLE
  2
AcDbVisualStyle
  3
ObjectDBX Classes
 90
     4095
 91
        4
280
     0
281
     0
  0
CLASS
  1
MATERIAL
  2
AcDbMaterial
  3
ObjectDBX Classes
 90
     1153
 91
        4
280
     0
281
     0
  0
CLASS
  1
SUN
  2
AcDbSun
  3
SCENEOE
 90
     1024
 91
        4
280
     0
281
     0
  0
ENDSEC
  0
SECTION
  2
TABLES
  0
TABLE
  2
VPORT
  5
8
330
0
100
AcDbSymbolTable
 70
     1
  0
VPORT
  5
29
330
8
100
AcDbSymbolTableRecord
100
AcDbViewportTableRecord
  2
*Active
 70
     0
 10
0.0
 20
0.0
 11
1.0
 21
1.0
 12
0.0
 22
0.0
 13
0.0
 23
0.0
 14
0.5
 24
0.5
 15
0.5
 25
0.5
 16
0.0
 26
0.0
 36
1.0
 17
105.0008280156501
 27
-148.4999710739862
 37
0.0
 40
296.9999421479724
 41
0.7070764206636528
 42
50.0
 43
0.0
 44
0.0
 50
0.0
 51
0.0
 71
     0
 72
   100
 73
     1
 74
     3
 75
     0
 76
     0
 77
     0
 78
     0
281
     0
 65
     1
110
0.0
120
0.0
130
0.0
111
1.0
121
0.0
131
0.0
112
0.0
122
1.0
132
0.0
 79
     0
146
0.0
 60
     3
 61
     5
292
     1
282
     1
141
0.0
142
0.0
 63
   250
361
3F
  0
ENDTAB
  0
TABLE
  2
LTYPE
  5
5
330
0
100
AcDbSymbolTable
 70
     1
  0
LTYPE
  5
14
330
5
100
AcDbSymbolTableRecord
100
AcDbLinetypeTableRecord
  2
ByBlock
 70
     0
  3

 72
    65
 73
     0
 40
0.0
  0
LTYPE
  5
15
330
5
100
AcDbSymbolTableRecord
100
AcDbLinetypeTableRecord
  2
ByLayer
 70
     0
  3

 72
    65
 73
     0
 40
0.0
  0
LTYPE
  5
16
330
5
100
AcDbSymbolTableRecord
100
AcDbLinetypeTableRecord
  2
Continuous
 70
     0
  3
Solid line
 72
    65
 73
     0
 40
0.0
  0
ENDTAB
  0
TABLE
  2
LAYER
  5
2
330
0
100
AcDbSymbolTable
 70
     2
  0
LAYER
  5
10
330
2
100
AcDbSymbolTableRecord
100
AcDbLayerTableRecord
  2
0
 70
     0
 62
     7
  6
Continuous
370
    -3
390
F
347
3E
  0
LAYER
  5
40
330
2
100
AcDbSymbolTableRecord
100
AcDbLayerTableRecord
  2
_U+30EC_U+30A4_U+30E4_U+30FC 1
 70
     0
 62
     7
  6
Continuous
370
    -3
390
F
347
3E
  0
ENDTAB
  0
TABLE
  2
STYLE
  5
3
330
0
100
AcDbSymbolTable
 70
     1
  0
STYLE
  5
11
330
3
100
AcDbSymbolTableRecord
100
AcDbTextStyleTableRecord
  2
Standard
 70
     0
 40
0.0
 41
1.0
 50
0.0
 71
     0
 42
0.2
  3
txt
  4

  0
ENDTAB
  0
TABLE
  2
VIEW
  5
6
330
0
100
AcDbSymbolTable
 70
     0
  0
ENDTAB
  0
TABLE
  2
UCS
  5
7
330
0
100
AcDbSymbolTable
 70
     0
  0
ENDTAB
  0
TABLE
  2
APPID
  5
9
330
0
100
AcDbSymbolTable
 70
     1
  0
APPID
  5
12
330
9
100
AcDbSymbolTableRecord
100
AcDbRegAppTableRecord
  2
ACAD
 70
     0
  0
ENDTAB
  0
TABLE
  2
DIMSTYLE
  5
A
330
0
100
AcDbSymbolTable
 70
     1
100
AcDbDimStyleTable
  0
DIMSTYLE
105
27
330
A
100
AcDbSymbolTableRecord
100
AcDbDimStyleTableRecord
  2
Standard
 70
     0
178
     0
340
11
  0
ENDTAB
  0
TABLE
  2
BLOCK_RECORD
  5
1
330
0
100
AcDbSymbolTable
 70
     7
  0
BLOCK_RECORD
  5
1F
330
1
100
AcDbSymbolTableRecord
100
AcDbBlockTableRecord
  2
*Model_Space
340
22
 70
     0
280
     1
281
     0
  0
BLOCK_RECORD
  5
1B
330
1
100
AcDbSymbolTableRecord
100
AcDbBlockTableRecord
  2
*Paper_Space
340
1E
 70
     0
280
     1
281
     0
  0
BLOCK_RECORD
  5
23
330
1
100
AcDbSymbolTableRecord
100
AcDbBlockTableRecord
  2
*Paper_Space0
340
26
 70
     0
280
     1
281
     0
  0
BLOCK_RECORD
  5
91
330
1
100
AcDbSymbolTableRecord
100
AcDbBlockTableRecord
  2
block 2
340
0
102
{BLKREFS
331
92
102
}
 70
     0
280
     1
281
     0
  0
BLOCK_RECORD
  5
9F
330
1
100
AcDbSymbolTableRecord
100
AcDbBlockTableRecord
  2
block 3
340
0
102
{BLKREFS
331
A0
102
}
 70
     0
280
     1
281
     0
  0
BLOCK_RECORD
  5
B8
330
1
100
AcDbSymbolTableRecord
100
AcDbBlockTableRecord
  2
block 4
340
0
102
{BLKREFS
331
B9
102
}
 70
     0
280
     1
281
     0
  0
BLOCK_RECORD
  5
D5
330
1
100
AcDbSymbolTableRecord
100
AcDbBlockTableRecord
  2
block 5
340
0
102
{BLKREFS
331
D6
102
}
 70
     0
280
     1
281
     0
  0
BLOCK_RECORD
  5
EA
330
1
100
AcDbSymbolTableRecord
100
AcDbBlockTableRecord
  2
block 6
340
0
102
{BLKREFS
331
EB
102
}
 70
     0
280
     1
281
     0
  0
BLOCK_RECORD
  5
FA
330
1
100
AcDbSymbolTableRecord
100
AcDbBlockTableRecord
  2
block 7
340
0
102
{BLKREFS
331
FB
102
}
 70
     0
280
     1
281
     0
  0
ENDTAB
  0
ENDSEC
  0
SECTION
  2
BLOCKS
  0
BLOCK
  5
20
330
1F
100
AcDbEntity
  8
0
100
AcDbBlockBegin
  2
*Model_Space
 70
     0
 10
0.0
 20
0.0
 30
0.0
  3
*Model_Space
  1

  0
ENDBLK
  5
21
330
1F
100
AcDbEntity
  8
0
100
AcDbBlockEnd
  0
BLOCK
  5
1C
330
1B
100
AcDbEntity
 67
     1
  8
0
100
AcDbBlockBegin
  2
*Paper_Space
 70
     0
 10
0.0
 20
0.0
 30
0.0
  3
*Paper_Space
  1

  0
ENDBLK
  5
1D
330
1B
100
AcDbEntity
 67
     1
  8
0
100
AcDbBlockEnd
  0
BLOCK
  5
24
330
23
100
AcDbEntity
  8
0
100
AcDbBlockBegin
  2
*Paper_Space0
 70
     0
 10
0.0
 20
0.0
 30
0.0
  3
*Paper_Space0
  1

  0
ENDBLK
  5
25
330
23
100
AcDbEntity
  8
0
100
AcDbBlockEnd
  0
BLOCK
  5
93
330
91
100
AcDbEntity
  8
0
100
AcDbBlockBegin
  2
block 2
 70
     0
 10
0.0
 20
0.0
 30
0.0
  3
block 2
  1

  0
SPLINE
  5
95
330
91
100
AcDbEntity
  8
_U+30EC_U+30A4_U+30E4_U+30FC 1
370
     0
100
AcDbSpline
210
0.0
220
0.0
230
1.0
 70
    11
 71
     3
 72
    26
 73
    22
 74
     0
 42
0.0000000001
 43
0.0000000001
 12
1.0
 22
0.0
 32
0.0
 13
1.0
 23
0.0
 33
0.0
 40
0.0
 40
0.0
 40
0.0
 40
0.0
 40
1.0
 40
1.0
 40
1.0
 40
2.0
 40
2.0
 40
2.0
 40
3.0
 40
3.0
 40
3.0
 40
4.0
 40
4.0
 40
4.0
 40
5.0
 40
5.0
 40
5.0
 40
6.0
 40
6.0
 40
6.0
 40
7.0
 40
7.0
 40
7.0
 40
7.0
 10
121.7224581943958
 20
-140.7104464708988
 30
0.0
 10
121.7224581943958
 20
-140.7104464708988
 30
0.0
 10
120.6183050913732
 20
-140.7104464708988
 30
0.0
 10
120.6183050913732
 20
-140.7104464708988
 30
0.0
 10
120.6183050913732
 20
-140.7104464708988
 30
0.0
 10
120.6183050913732
 20
-141.0632242485884
 30
0.0
 10
120.6183050913732
 20
-141.0632242485884
 30
0.0
 10
120.6183050913732
 20
-141.0632242485884
 30
0.0
 10
120.4701659855075
 20
-141.0632242485884
 30
0.0
 10
120.4701659855075
 20
-141.0632242485884
 30
0.0
 10
120.4553520749209
 20
-140.7082071588334
 30
0.0
 10
120.2923990584686
 20
-140.6584255290715
 30
0.0
 10
120.1780218883583
 20
-140.6267306506072
 30
0.0
 10
120.1780218883583
 20
-140.6267306506072
 30
0.0
 10
120.1780218883583
 20
-140.4708400798997
 30
0.0
 10
120.1780218883583
 20
-140.4708400798997
 30
0.0
 10
120.1780218883583
 20
-140.4708400798997
 30
0.0
 10
121.7224581943958
 20
-140.4708400798997
 30
0.0
 10
121.7224581943958
 20
-140.4708400798997
 30
0.0
 10
121.7224581943958
 20
-140.4708400798997
 30
0.0
 10
121.7224581943958
 20
-140.7104464708988
 30
0.0
 10
121.7224581943958
 20
-140.7104464708988
 30
0.0
  0
HATCH
  5
96
330
91
100
AcDbEntity
  8
_U+30EC_U+30A4_U+30E4_U+30FC 1
 62
   179
420
  2234388
100
AcDbHatch
 10
0.0
 20
0.0
 30
0.0
210
0.0
220
0.0
230
1.0
  2
SOLID
 70
     1
 71
     0
 91
        1
 92
        1
 93
        1
 72
     4
 94
        3
 73
     0
 74
     1
 95
       26
 96
       22
 40
0.0
 40
0.0
 40
0.0
 40
0.0
 40
1.0
 40
1.0
 40
1.0
 40
2.0
 40
2.0
 40
2.0
 40
3.0
 40
3.0
 40
3.0
 40
4.0
 40
4.0
 40
4.0
 40
5.0
 40
5.0
 40
5.0
 40
6.0
 40
6.0
 40
6.0
 40
7.0
 40
7.0
 40
7.0
 40
7.0
 10
121.7224581943958
 20
-140.7104464708988
 10
121.7224581943958
 20
-140.7104464708988
 10
120.6183050913732
 20
-140.7104464708988
 10
120.6183050913732
 20
-140.7104464708988
 10
120.6183050913732
 20
-140.7104464708988
 10
120.6183050913732
 20
-141.0632242485884
 10
120.6183050913732
 20
-141.0632242485884
 10
120.6183050913732
 20
-141.0632242485884
 10
120.4701659855075
 20
-141.0632242485884
 10
120.4701659855075
 20
-141.0632242485884
 10
120.4553520749209
 20
-140.7082071588334
 10
120.2923990584686
 20
-140.6584255290715
 10
120.1780218883583
 20
-140.6267306506072
 10
120.1780218883583
 20
-140.6267306506072
 10
120.1780218883583
 20
-140.4708400798997
 10
120.1780218883583
 20
-140.4708400798997
 10
120.1780218883583
 20
-140.4708400798997
 10
121.7224581943958
 20
-140.4708400798997
 10
121.7224581943958
 20
-140.4708400798997
 10
121.7224581943958
 20
-140.4708400798997
 10
121.7224581943958
 20
-140.7104464708988
 10
121.7224581943958
 20
-140.7104464708988
 97
        0
 97
        0
 75
     2
 76
     1
 98
        0
  0
ENDBLK
  5
94
330
91
100
AcDbEntity
  8
0
100
AcDbBlockEnd
  0
BLOCK
  5
A1
330
9F
100
AcDbEntity
  8
0
100
AcDbBlockBegin
  2
block 3
 70
     0
 10
0.0
 20
0.0
 30
0.0
  3
block 3
  1

  0
SPLINE
  5
A3
330
9F
100
AcDbEntity
  8
_U+30EC_U+30A4_U+30E4_U+30FC 1
370
     0
100
AcDbSpline
210
0.0
220
0.0
230
1.0
 70
    11
 71
     3
 72
    26
 73
    22
 74
     0
 42
0.0000000001
 43
0.0000000001
 12
1.0
 22
0.0
 32
0.0
 13
1.0
 23
0.0
 33
0.0
 40
0.0
 40
0.0
 40
0.0
 40
0.0
 40
1.0
 40
1.0
 40
1.0
 40
2.0
 40
2.0
 40
2.0
 40
3.0
 40
3.0
 40
3.0
 40
4.0
 40
4.0
 40
4.0
 40
5.0
 40
5.0
 40
5.0
 40
6.0
 40
6.0
 40
6.0
 40
7.0
 40
7.0
 40
7.0
 40
7.0
 10
121.7217691752987
 20
-150.3777289120584
 30
0.0
 10
121.7217691752987
 20
-150.3777289120584
 30
0.0
 10
120.6176160722762
 20
-150.3777289120584
 30
0.0
 10
120.6176160722762
 20
-150.3777289120584
 30
0.0
 10
120.6176160722762
 20
-150.3777289120584
 30
0.0
 10
120.6176160722762
 20
-150.7301621801994
 30
0.0
 10
120.6176160722762
 20
-150.7301621801994
 30
0.0
 10
120.6176160722762
 20
-150.7301621801994
 30
0.0
 10
120.4694769664104
 20
-150.7301621801994
 30
0.0
 10
120.4694769664104
 20
-150.7301621801994
 30
0.0
 10
120.4546630558238
 20
-150.3753173452187
 30
0.0
 10
120.2917100393715
 20
-150.3257079702311
 30
0.0
 10
120.1773328692612
 20
-150.2940130917668
 30
0.0
 10
120.1773328692612
 20
-150.2940130917668
 30
0.0
 10
120.1773328692612
 20
-150.137950266285
 30
0.0
 10
120.1773328692612
 20
-150.137950266285
 30
0.0
 10
120.1773328692612
 20
-150.137950266285
 30
0.0
 10
121.7217691752987
 20
-150.137950266285
 30
0.0
 10
121.7217691752987
 20
-150.137950266285
 30
0.0
 10
121.7217691752987
 20
-150.137950266285
 30
0.0
 10
121.7217691752987
 20
-150.3777289120584
 30
0.0
 10
121.7217691752987
 20
-150.3777289120584
 30
0.0
  0
HATCH
  5
A4
330
9F
100
AcDbEntity
  8
_U+30EC_U+30A4_U+30E4_U+30FC 1
 62
   179
420
  2234388
100
AcDbHatch
 10
0.0
 20
0.0
 30
0.0
210
0.0
220
0.0
230
1.0
  2
SOLID
 70
     1
 71
     0
 91
        1
 92
        1
 93
        1
 72
     4
 94
        3
 73
     0
 74
     1
 95
       26
 96
       22
 40
0.0
 40
0.0
 40
0.0
 40
0.0
 40
1.0
 40
1.0
 40
1.0
 40
2.0
 40
2.0
 40
2.0
 40
3.0
 40
3.0
 40
3.0
 40
4.0
 40
4.0
 40
4.0
 40
5.0
 40
5.0
 40
5.0
 40
6.0
 40
6.0
 40
6.0
 40
7.0
 40
7.0
 40
7.0
 40
7.0
 10
121.7217691752987
 20
-150.3777289120584
 10
121.7217691752987
 20
-150.3777289120584
 10
120.6176160722762
 20
-150.3777289120584
 10
120.6176160722762
 20
-150.3777289120584
 10
120.6176160722762
 20
-150.3777289120584
 10
120.6176160722762
 20
-150.7301621801994
 10
120.6176160722762
 20
-150.7301621801994
 10
120.6176160722762
 20
-150.7301621801994
 10
120.4694769664104
 20
-150.7301621801994
 10
120.4694769664104
 20
-150.7301621801994
 10
120.4546630558238
 20
-150.3753173452187
 10
120.2917100393715
 20
-150.3257079702311
 10
120.1773328692612
 20
-150.2940130917668
 10
120.1773328692612
 20
-150.2940130917668
 10
120.1773328692612
 20
-150.137950266285
 10
120.1773328692612
 20
-150.137950266285
 10
120.1773328692612
 20
-150.137950266285
 10
121.7217691752987
 20
-150.137950266285
 10
121.7217691752987
 20
-150.137950266285
 10
121.7217691752987
 20
-150.137950266285
 10
121.7217691752987
 20
-150.3777289120584
 10
121.7217691752987
 20
-150.3777289120584
 97
        0
 97
        0
 75
     2
 76
     1
 98
        0
  0
SPLINE
  5
A5
330
9F
100
AcDbEntity
  8
_U+30EC_U+30A4_U+30E4_U+30FC 1
370
     0
100
AcDbSpline
210
0.0
220
0.0
230
1.0
 70
    11
 71
     3
 72
    29
 73
    25
 74
     0
 42
0.0000000001
 43
0.0000000001
 12
1.0
 22
0.0
 32
0.0
 13
1.0
 23
0.0
 33
0.0
 40
0.0
 40
0.0
 40
0.0
 40
0.0
 40
1.0
 40
1.0
 40
1.0
 40
2.0
 40
2.0
 40
2.0
 40
3.0
 40
3.0
 40
3.0
 40
4.0
 40
4.0
 40
4.0
 40
5.0
 40
5.0
 40
5.0
 40
6.0
 40
6.0
 40
6.0
 40
7.0
 40
7.0
 40
7.0
 40
8.0
 40
8.0
 40
8.0
 40
8.0
 10
121.5440022482598
 20
-148.6427788256865
 30
0.0
 10
121.753464053763
 20
-148.7581895244424
 30
0.0
 10
121.7724120789319
 20
-148.9435356615489
 30
0.0
 10
121.7724120789319
 20
-149.0679036085664
 30
0.0
 10
121.7724120789319
 20
-149.2394693637318
 30
0.0
 10
121.725903289881
 20
-149.3910535650828
 30
0.0
 10
121.5440022482598
 20
-149.4926838818977
 30
0.0
 10
121.3493543533432
 20
-149.6036159565227
 30
0.0
 10
121.112331783958
 20
-149.6239420198857
 30
0.0
 10
120.9497232770542
 20
-149.6239420198857
 30
0.0
 10
120.8057182857708
 20
-149.6239420198857
 30
0.0
 10
120.553881805799
 20
-149.6060275233624
 30
0.0
 10
120.3550997963001
 20
-149.4926838818977
 30
0.0
 10
120.1521836722189
 20
-149.3776176926903
 30
0.0
 10
120.1287570229192
 20
-149.2057074279764
 30
0.0
 10
120.1287570229192
 20
-149.0679036085664
 30
0.0
 10
120.1287570229192
 20
-148.8980604011435
 30
0.0
 10
120.1731987546789
 20
-148.7444091425014
 30
0.0
 10
120.3550997963001
 20
-148.6427788256865
 30
0.0
 10
120.5476806339256
 20
-148.5363253751923
 30
0.0
 10
120.7760904645976
 20
-148.5115206876985
 30
0.0
 10
120.9497232770542
 20
-148.5115206876985
 30
0.0
 10
121.1209445226712
 20
-148.5115206876985
 30
0.0
 10
121.3514214106344
 20
-148.5342583179012
 30
0.0
 10
121.5440022482598
 20
-148.6427788256865
 30
0.0
  0
SPLINE
  5
A6
330
9F
100
AcDbEntity
  8
_U+30EC_U+30A4_U+30E4_U+30FC 1
370
     0
100
AcDbSpline
210
0.0
220
0.0
230
1.0
 70
    11
 71
     3
 72
    17
 73
    13
 74
     0
 42
0.0000000001
 43
0.0000000001
 12
1.0
 22
0.0
 32
0.0
 13
1.0
 23
0.0
 33
0.0
 40
0.0
 40
0.0
 40
0.0
 40
0.0
 40
1.0
 40
1.0
 40
1.0
 40
2.0
 40
2.0
 40
2.0
 40
3.0
 40
3.0
 40
3.0
 40
4.0
 40
4.0
 40
4.0
 40
4.0
 10
120.3213378605447
 20
-149.0679036085664
 30
0.0
 10
120.3213378605447
 20
-149.3345539991247
 30
0.0
 10
120.6048692189807
 20
-149.3841633741123
 30
0.0
 10
120.9497232770542
 20
-149.3841633741123
 30
0.0
 10
121.2690836285369
 20
-149.3841633741123
 30
0.0
 10
121.5777641840153
 20
-149.345922814226
 30
0.0
 10
121.5777641840153
 20
-149.0679036085664
 30
0.0
 10
121.5777641840153
 20
-148.8033202752992
 30
0.0
 10
121.2966443924189
 20
-148.7512993334719
 30
0.0
 10
120.9497232770542
 20
-148.7512993334719
 30
0.0
 10
120.6300184160231
 20
-148.7512993334719
 30
0.0
 10
120.3213378605447
 20
-148.7919514601979
 30
0.0
 10
120.3213378605447
 20
-149.0679036085664
 30
0.0
  0
HATCH
  5
A7
330
9F
100
AcDbEntity
  8
_U+30EC_U+30A4_U+30E4_U+30FC 1
 62
   179
420
  2234388
100
AcDbHatch
 10
0.0
 20
0.0
 30
0.0
210
0.0
220
0.0
230
1.0
  2
SOLID
 70
     1
 71
     0
 91
        2
 92
        1
 93
        1
 72
     4
 94
        3
 73
     0
 74
     1
 95
       29
 96
       25
 40
0.0
 40
0.0
 40
0.0
 40
0.0
 40
1.0
 40
1.0
 40
1.0
 40
2.0
 40
2.0
 40
2.0
 40
3.0
 40
3.0
 40
3.0
 40
4.0
 40
4.0
 40
4.0
 40
5.0
 40
5.0
 40
5.0
 40
6.0
 40
6.0
 40
6.0
 40
7.0
 40
7.0
 40
7.0
 40
8.0
 40
8.0
 40
8.0
 40
8.0
 10
121.5440022482598
 20
-148.6427788256865
 10
121.753464053763
 20
-148.7581895244424
 10
121.7724120789319
 20
-148.9435356615489
 10
121.7724120789319
 20
-149.0679036085664
 10
121.7724120789319
 20
-149.2394693637318
 10
121.725903289881
 20
-149.3910535650828
 10
121.5440022482598
 20
-149.4926838818977
 10
121.3493543533432
 20
-149.6036159565227
 10
121.112331783958
 20
-149.6239420198857
 10
120.9497232770542
 20
-149.6239420198857
 10
120.8057182857708
 20
-149.6239420198857
 10
120.553881805799
 20
-149.6060275233624
 10
120.3550997963001
 20
-149.4926838818977
 10
120.1521836722189
 20
-149.3776176926903
 10
120.1287570229192
 20
-149.2057074279764
 10
120.1287570229192
 20
-149.0679036085664
 10
120.1287570229192
 20
-148.8980604011435
 10
120.1731987546789
 20
-148.7444091425014
 10
120.3550997963001
 20
-148.6427788256865
 10
120.5476806339256
 20
-148.5363253751923
 10
120.7760904645976
 20
-148.5115206876985
 10
120.9497232770542
 20
-148.5115206876985
 10
121.1209445226712
 20
-148.5115206876985
 10
121.3514214106344
 20
-148.5342583179012
 10
121.5440022482598
 20
-148.6427788256865
 97
        0
 97
        0
 92
        1
 93
        1
 72
     4
 94
        3
 73
     0
 74
     1
 95
       17
 96
       13
 40
0.0
 40
0.0
 40
0.0
 40
0.0
 40
1.0
 40
1.0
 40
1.0
 40
2.0
 40
2.0
 40
2.0
 40
3.0
 40
3.0
 40
3.0
 40
4.0
 40
4.0
 40
4.0
 40
4.0
 10
120.3213378605447
 20
-149.0679036085664
 10
120.3213378605447
 20
-149.3345539991247
 10
120.6048692189807
 20
-149.3841633741123
 10
120.9497232770542
 20
-149.3841633741123
 10
121.2690836285369
 20
-149.3841633741123
 10
121.5777641840153
 20
-149.345922814226
 10
121.5777641840153
 20
-149.0679036085664
 10
121.5777641840153
 20
-148.8033202752992
 10
121.2966443924189
 20
-148.7512993334719
 10
120.9497232770542
 20
-148.7512993334719
 10
120.6300184160231
 20
-148.7512993334719
 10
120.3213378605447
 20
-148.7919514601979
 10
120.3213378605447
 20
-149.0679036085664
 97
        0
 97
        0
 75
     2
 76
     1
 98
        0
  0
ENDBLK
  5
A2
330
9F
100
AcDbEntity
  8
0
100
AcDbBlockEnd
  0
BLOCK
  5
BA
330
B8
100
AcDbEntity
  8
0
100
AcDbBlockBegin
  2
block 4
 70
     0
 10
0.0
 20
0.0
 30
0.0
  3
block 4
  1

  0
SPLINE
  5
BC
330
B8
100
AcDbEntity
  8
_U+30EC_U+30A4_U+30E4_U+30FC 1
370
     0
100
AcDbSpline
210
0.0
220
0.0
230
1.0
 70
    11
 71
     3
 72
    29
 73
    25
 74
     0
 42
0.0000000001
 43
0.0000000001
 12
1.0
 22
0.0
 32
0.0
 13
1.0
 23
0.0
 33
0.0
 40
0.0
 40
0.0
 40
0.0
 40
0.0
 40
1.0
 40
1.0
 40
1.0
 40
2.0
 40
2.0
 40
2.0
 40
3.0
 40
3.0
 40
3.0
 40
4.0
 40
4.0
 40
4.0
 40
5.0
 40
5.0
 40
5.0
 40
6.0
 40
6.0
 40
6.0
 40
7.0
 40
7.0
 40
7.0
 40
8.0
 40
8.0
 40
8.0
 40
8.0
 10
106.5437119959335
 20
-152.0506672796957
 30
0.0
 10
106.7531738014367
 20
-152.1660779784515
 30
0.0
 10
106.7721218266056
 20
-152.351424115558
 30
0.0
 10
106.7721218266056
 20
-152.4757920625755
 30
0.0
 10
106.7721218266056
 20
-152.647357817741
 30
0.0
 10
106.7256130375547
 20
-152.7989420190919
 30
0.0
 10
106.5437119959335
 20
-152.9005723359068
 30
0.0
 10
106.3490641010169
 20
-153.0115044105318
 30
0.0
 10
106.1123860411802
 20
-153.0318304738948
 30
0.0
 10
105.9494330247279
 20
-153.0318304738948
 30
0.0
 10
105.8054280334445
 20
-153.0318304738948
 30
0.0
 10
105.5535915534727
 20
-153.0139159773715
 30
0.0
 10
105.3548095439738
 20
-152.9005723359068
 30
0.0
 10
105.1518934198926
 20
-152.7855061466995
 30
0.0
 10
105.1284667705929
 20
-152.6135958819855
 30
0.0
 10
105.1284667705929
 20
-152.4757920625755
 30
0.0
 10
105.1284667705929
 20
-152.3059488551527
 30
0.0
 10
105.1729085023526
 20
-152.1522975965106
 30
0.0
 10
105.3548095439738
 20
-152.0506672796957
 30
0.0
 10
105.5473903815993
 20
-151.9442138292015
 30
0.0
 10
105.7758002122713
 20
-151.9194091417077
 30
0.0
 10
105.9494330247279
 20
-151.9194091417077
 30
0.0
 10
106.1206542703448
 20
-151.9194091417077
 30
0.0
 10
106.351131158308
 20
-151.9421467719103
 30
0.0
 10
106.5437119959335
 20
-152.0506672796957
 30
0.0
  0
SPLINE
  5
BD
330
B8
100
AcDbEntity
  8
_U+30EC_U+30A4_U+30E4_U+30FC 1
370
     0
100
AcDbSpline
210
0.0
220
0.0
230
1.0
 70
    11
 71
     3
 72
    17
 73
    13
 74
     0
 42
0.0000000001
 43
0.0000000001
 12
1.0
 22
0.0
 32
0.0
 13
1.0
 23
0.0
 33
0.0
 40
0.0
 40
0.0
 40
0.0
 40
0.0
 40
1.0
 40
1.0
 40
1.0
 40
2.0
 40
2.0
 40
2.0
 40
3.0
 40
3.0
 40
3.0
 40
4.0
 40
4.0
 40
4.0
 40
4.0
 10
105.3210476082184
 20
-152.4757920625755
 30
0.0
 10
105.3210476082184
 20
-152.7424424531338
 30
0.0
 10
105.6045789666544
 20
-152.7920518281214
 30
0.0
 10
105.9494330247279
 20
-152.7920518281214
 30
0.0
 10
106.2687933762106
 20
-152.7920518281214
 30
0.0
 10
106.577473931689
 20
-152.7538112682352
 30
0.0
 10
106.577473931689
 20
-152.4757920625755
 30
0.0
 10
106.577473931689
 20
-152.2112087293083
 30
0.0
 10
106.2963541400926
 20
-152.159187787481
 30
0.0
 10
105.9494330247279
 20
-152.159187787481
 30
0.0
 10
105.6297281636967
 20
-152.159187787481
 30
0.0
 10
105.3210476082184
 20
-152.199839914207
 30
0.0
 10
105.3210476082184
 20
-152.4757920625755
 30
0.0
  0
HATCH
  5
BE
330
B8
100
AcDbEntity
  8
_U+30EC_U+30A4_U+30E4_U+30FC 1
 62
   179
420
  2234388
100
AcDbHatch
 10
0.0
 20
0.0
 30
0.0
210
0.0
220
0.0
230
1.0
  2
SOLID
 70
     1
 71
     0
 91
        2
 92
        1
 93
        1
 72
     4
 94
        3
 73
     0
 74
     1
 95
       29
 96
       25
 40
0.0
 40
0.0
 40
0.0
 40
0.0
 40
1.0
 40
1.0
 40
1.0
 40
2.0
 40
2.0
 40
2.0
 40
3.0
 40
3.0
 40
3.0
 40
4.0
 40
4.0
 40
4.0
 40
5.0
 40
5.0
 40
5.0
 40
6.0
 40
6.0
 40
6.0
 40
7.0
 40
7.0
 40
7.0
 40
8.0
 40
8.0
 40
8.0
 40
8.0
 10
106.5437119959335
 20
-152.0506672796957
 10
106.7531738014367
 20
-152.1660779784515
 10
106.7721218266056
 20
-152.351424115558
 10
106.7721218266056
 20
-152.4757920625755
 10
106.7721218266056
 20
-152.647357817741
 10
106.7256130375547
 20
-152.7989420190919
 10
106.5437119959335
 20
-152.9005723359068
 10
106.3490641010169
 20
-153.0115044105318
 10
106.1123860411802
 20
-153.0318304738948
 10
105.9494330247279
 20
-153.0318304738948
 10
105.8054280334445
 20
-153.0318304738948
 10
105.5535915534727
 20
-153.0139159773715
 10
105.3548095439738
 20
-152.9005723359068
 10
105.1518934198926
 20
-152.7855061466995
 10
105.1284667705929
 20
-152.6135958819855
 10
105.1284667705929
 20
-152.4757920625755
 10
105.1284667705929
 20
-152.3059488551527
 10
105.1729085023526
 20
-152.1522975965106
 10
105.3548095439738
 20
-152.0506672796957
 10
105.5473903815993
 20
-151.9442138292015
 10
105.7758002122713
 20
-151.9194091417077
 10
105.9494330247279
 20
-151.9194091417077
 10
106.1206542703448
 20
-151.9194091417077
 10
106.351131158308
 20
-151.9421467719103
 10
106.5437119959335
 20
-152.0506672796957
 97
        0
 97
        0
 92
        1
 93
        1
 72
     4
 94
        3
 73
     0
 74
     1
 95
       17
 96
       13
 40
0.0
 40
0.0
 40
0.0
 40
0.0
 40
1.0
 40
1.0
 40
1.0
 40
2.0
 40
2.0
 40
2.0
 40
3.0
 40
3.0
 40
3.0
 40
4.0
 40
4.0
 40
4.0
 40
4.0
 10
105.3210476082184
 20
-152.4757920625755
 10
105.3210476082184
 20
-152.7424424531338
 10
105.6045789666544
 20
-152.7920518281214
 10
105.9494330247279
 20
-152.7920518281214
 10
106.2687933762106
 20
-152.7920518281214
 10
106.577473931689
 20
-152.7538112682352
 10
106.577473931689
 20
-152.4757920625755
 10
106.577473931689
 20
-152.2112087293083
 10
106.2963541400926
 20
-152.159187787481
 10
105.9494330247279
 20
-152.159187787481
 10
105.6297281636967
 20
-152.159187787481
 10
105.3210476082184
 20
-152.199839914207
 10
105.3210476082184
 20
-152.4757920625755
 97
        0
 97
        0
 75
     2
 76
     1
 98
        0
  0
POLYLINE
  5
BF
330
B8
100
AcDbEntity
  8
_U+30EC_U+30A4_U+30E4_U+30FC 1
370
     0
100
AcDb2dPolyline
 66
     1
 10
0.0
 20
0.0
 30
0.0
  0
VERTEX
  5
C0
330
BF
100
AcDbEntity
  8
_U+30EC_U+30A4_U+30E4_U+30FC 1
370
     0
100
AcDbVertex
100
AcDb2dVertex
 10
106.7214789229724
 20
-151.6882432346474
 30
0.0
  0
VERTEX
  5
C1
330
BF
100
AcDbEntity
  8
_U+30EC_U+30A4_U+30E4_U+30FC 1
370
     0
100
AcDbVertex
100
AcDb2dVertex
 10
106.4696424430007
 20
-151.6882432346474
 30
0.0
  0
VERTEX
  5
C2
330
BF
100
AcDbEntity
  8
_U+30EC_U+30A4_U+30E4_U+30FC 1
370
     0
100
AcDbVertex
100
AcDb2dVertex
 10
106.4696424430007
 20
-151.4191812772494
 30
0.0
  0
VERTEX
  5
C3
330
BF
100
AcDbEntity
  8
_U+30EC_U+30A4_U+30E4_U+30FC 1
370
     0
100
AcDbVertex
100
AcDb2dVertex
 10
106.7214789229724
 20
-151.4191812772494
 30
0.0
  0
VERTEX
  5
C4
330
BF
100
AcDbEntity
  8
_U+30EC_U+30A4_U+30E4_U+30FC 1
370
     0
100
AcDbVertex
100
AcDb2dVertex
 10
106.7214789229724
 20
-151.6882432346474
 30
0.0
  0
SEQEND
  5
C5
330
BF
100
AcDbEntity
  8
_U+30EC_U+30A4_U+30E4_U+30FC 1
370
     0
  0
HATCH
  5
C6
330
B8
100
AcDbEntity
  8
_U+30EC_U+30A4_U+30E4_U+30FC 1
 62
   179
420
  2234388
100
AcDbHatch
 10
0.0
 20
0.0
 30
0.0
210
0.0
220
0.0
230
1.0
  2
SOLID
 70
     1
 71
     0
 91
        1
 92
        1
 93
        4
 72
     1
 10
106.7214789229724
 20
-151.6882432346474
 11
106.4696424430007
 21
-151.6882432346474
 72
     1
 10
106.4696424430007
 20
-151.6882432346474
 11
106.4696424430007
 21
-151.4191812772494
 72
     1
 10
106.4696424430007
 20
-151.4191812772494
 11
106.7214789229724
 21
-151.4191812772494
 72
     1
 10
106.7214789229724
 20
-151.4191812772494
 11
106.7214789229724
 21
-151.6882432346474
 97
        0
 75
     2
 76
     1
 98
        0
  0
SPLINE
  5
C7
330
B8
100
AcDbEntity
  8
_U+30EC_U+30A4_U+30E4_U+30FC 1
370
     0
100
AcDbSpline
210
0.0
220
0.0
230
1.0
 70
    11
 71
     3
 72
    53
 73
    49
 74
     0
 42
0.0000000001
 43
0.0000000001
 12
1.0
 22
0.0
 32
0.0
 13
1.0
 23
0.0
 33
0.0
 40
0.0
 40
0.0
 40
0.0
 40
0.0
 40
1.0
 40
1.0
 40
1.0
 40
2.0
 40
2.0
 40
2.0
 40
3.0
 40
3.0
 40
3.0
 40
4.0
 40
4.0
 40
4.0
 40
5.0
 40
5.0
 40
5.0
 40
6.0
 40
6.0
 40
6.0
 40
7.0
 40
7.0
 40
7.0
 40
8.0
 40
8.0
 40
8.0
 40
9.0
 40
9.0
 40
9.0
 40
10.0
 40
10.0
 40
10.0
 40
11.0
 40
11.0
 40
11.0
 40
12.0
 40
12.0
 40
12.0
 40
13.0
 40
13.0
 40
13.0
 40
14.0
 40
14.0
 40
14.0
 40
15.0
 40
15.0
 40
15.0
 40
16.0
 40
16.0
 40
16.0
 40
16.0
 10
106.7721218266056
 20
-150.6523030222328
 30
0.0
 10
106.7721218266056
 20
-150.7360188425243
 30
0.0
 10
106.7552408587279
 20
-150.8441948407612
 30
0.0
 10
106.6918511017993
 20
-150.9530598580951
 30
0.0
 10
106.5819525558198
 20
-151.1384059952015
 30
0.0
 10
106.4506944178318
 20
-151.1607991158556
 30
0.0
 10
106.3428629291435
 20
-151.1811251792186
 30
0.0
 10
106.3428629291435
 20
-151.1811251792186
 30
0.0
 10
106.3428629291435
 20
-150.9437581002849
 30
0.0
 10
106.3428629291435
 20
-150.9437581002849
 30
0.0
 10
106.5416449386424
 20
-150.8851914770356
 30
0.0
 10
106.5712727598155
 20
-150.7494547149168
 30
0.0
 10
106.5712727598155
 20
-150.6498914553931
 30
0.0
 10
106.5712727598155
 20
-150.5007188208818
 30
0.0
 10
106.4717095002918
 20
-150.3377658044295
 30
0.0
 10
106.2391655550374
 20
-150.3377658044295
 30
0.0
 10
105.9831949604834
 20
-150.3377658044295
 30
0.0
 10
105.9132595221328
 20
-150.5300021325064
 30
0.0
 10
105.9132595221328
 20
-150.6588487036547
 30
0.0
 10
105.9132595221328
 20
-150.6929551489587
 30
0.0
 10
105.9132595221328
 20
-150.8441948407612
 30
0.0
 10
106.0424506028297
 20
-150.9392794761541
 30
0.0
 10
106.0424506028297
 20
-150.9392794761541
 30
0.0
 10
106.0235025776608
 20
-151.1270371801002
 30
0.0
 10
106.0235025776608
 20
-151.1270371801002
 30
0.0
 10
106.0235025776608
 20
-151.1270371801002
 30
0.0
 10
105.1770426169349
 20
-150.9981906089519
 30
0.0
 10
105.1770426169349
 20
-150.9981906089519
 30
0.0
 10
105.1770426169349
 20
-150.9981906089519
 30
0.0
 10
105.1770426169349
 20
-150.166200049264
 30
0.0
 10
105.1770426169349
 20
-150.166200049264
 30
0.0
 10
105.1770426169349
 20
-150.166200049264
 30
0.0
 10
105.3716905118515
 20
-150.166200049264
 30
0.0
 10
105.3716905118515
 20
-150.166200049264
 30
0.0
 10
105.3716905118515
 20
-150.166200049264
 30
0.0
 10
105.3716905118515
 20
-150.8238687773982
 30
0.0
 10
105.3716905118515
 20
-150.8238687773982
 30
0.0
 10
105.3716905118515
 20
-150.8238687773982
 30
0.0
 10
105.7947482374402
 20
-150.8941487252973
 30
0.0
 10
105.7947482374402
 20
-150.8941487252973
 30
0.0
 10
105.7609863016848
 20
-150.8286919110776
 30
0.0
 10
105.7206786845073
 20
-150.7404974666552
 30
0.0
 10
105.7206786845073
 20
-150.613717952798
 30
0.0
 10
105.7206786845073
 20
-150.3425889381088
 30
0.0
 10
105.9070583502593
 20
-150.0893744199429
 30
0.0
 10
106.2202175298686
 20
-150.0893744199429
 30
0.0
 10
106.5375108240601
 20
-150.0893744199429
 30
0.0
 10
106.7721218266056
 20
-150.3288085561678
 30
0.0
 10
106.7721218266056
 20
-150.6523030222328
 30
0.0
  0
HATCH
  5
C8
330
B8
100
AcDbEntity
  8
_U+30EC_U+30A4_U+30E4_U+30FC 1
 62
   179
420
  2234388
100
AcDbHatch
 10
0.0
 20
0.0
 30
0.0
210
0.0
220
0.0
230
1.0
  2
SOLID
 70
     1
 71
     0
 91
        1
 92
        1
 93
        1
 72
     4
 94
        3
 73
     0
 74
     1
 95
       53
 96
       49
 40
0.0
 40
0.0
 40
0.0
 40
0.0
 40
1.0
 40
1.0
 40
1.0
 40
2.0
 40
2.0
 40
2.0
 40
3.0
 40
3.0
 40
3.0
 40
4.0
 40
4.0
 40
4.0
 40
5.0
 40
5.0
 40
5.0
 40
6.0
 40
6.0
 40
6.0
 40
7.0
 40
7.0
 40
7.0
 40
8.0
 40
8.0
 40
8.0
 40
9.0
 40
9.0
 40
9.0
 40
10.0
 40
10.0
 40
10.0
 40
11.0
 40
11.0
 40
11.0
 40
12.0
 40
12.0
 40
12.0
 40
13.0
 40
13.0
 40
13.0
 40
14.0
 40
14.0
 40
14.0
 40
15.0
 40
15.0
 40
15.0
 40
16.0
 40
16.0
 40
16.0
 40
16.0
 10
106.7721218266056
 20
-150.6523030222328
 10
106.7721218266056
 20
-150.7360188425243
 10
106.7552408587279
 20
-150.8441948407612
 10
106.6918511017993
 20
-150.9530598580951
 10
106.5819525558198
 20
-151.1384059952015
 10
106.4506944178318
 20
-151.1607991158556
 10
106.3428629291435
 20
-151.1811251792186
 10
106.3428629291435
 20
-151.1811251792186
 10
106.3428629291435
 20
-150.9437581002849
 10
106.3428629291435
 20
-150.9437581002849
 10
106.5416449386424
 20
-150.8851914770356
 10
106.5712727598155
 20
-150.7494547149168
 10
106.5712727598155
 20
-150.6498914553931
 10
106.5712727598155
 20
-150.5007188208818
 10
106.4717095002918
 20
-150.3377658044295
 10
106.2391655550374
 20
-150.3377658044295
 10
105.9831949604834
 20
-150.3377658044295
 10
105.9132595221328
 20
-150.5300021325064
 10
105.9132595221328
 20
-150.6588487036547
 10
105.9132595221328
 20
-150.6929551489587
 10
105.9132595221328
 20
-150.8441948407612
 10
106.0424506028297
 20
-150.9392794761541
 10
106.0424506028297
 20
-150.9392794761541
 10
106.0235025776608
 20
-151.1270371801002
 10
106.0235025776608
 20
-151.1270371801002
 10
106.0235025776608
 20
-151.1270371801002
 10
105.1770426169349
 20
-150.9981906089519
 10
105.1770426169349
 20
-150.9981906089519
 10
105.1770426169349
 20
-150.9981906089519
 10
105.1770426169349
 20
-150.166200049264
 10
105.1770426169349
 20
-150.166200049264
 10
105.1770426169349
 20
-150.166200049264
 10
105.3716905118515
 20
-150.166200049264
 10
105.3716905118515
 20
-150.166200049264
 10
105.3716905118515
 20
-150.166200049264
 10
105.3716905118515
 20
-150.8238687773982
 10
105.3716905118515
 20
-150.8238687773982
 10
105.3716905118515
 20
-150.8238687773982
 10
105.7947482374402
 20
-150.8941487252973
 10
105.7947482374402
 20
-150.8941487252973
 10
105.7609863016848
 20
-150.8286919110776
 10
105.7206786845073
 20
-150.7404974666552
 10
105.7206786845073
 20
-150.613717952798
 10
105.7206786845073
 20
-150.3425889381088
 10
105.9070583502593
 20
-150.0893744199429
 10
106.2202175298686
 20
-150.0893744199429
 10
106.5375108240601
 20
-150.0893744199429
 10
106.7721218266056
 20
-150.3288085561678
 10
106.7721218266056
 20
-150.6523030222328
 97
        0
 97
        0
 75
     2
 76
     1
 98
        0
  0
ENDBLK
  5
BB
330
B8
100
AcDbEntity
  8
0
100
AcDbBlockEnd
  0
BLOCK
  5
D7
330
D5
100
AcDbEntity
  8
0
100
AcDbBlockBegin
  2
block 5
 70
     0
 10
0.0
 20
0.0
 30
0.0
  3
block 5
  1

  0
SPLINE
  5
D9
330
D5
100
AcDbEntity
  8
_U+30EC_U+30A4_U+30E4_U+30FC 1
370
     0
100
AcDbSpline
210
0.0
220
0.0
230
1.0
 70
    11
 71
     3
 72
    26
 73
    22
 74
     0
 42
0.0000000001
 43
0.0000000001
 12
1.0
 22
0.0
 32
0.0
 13
1.0
 23
0.0
 33
0.0
 40
0.0
 40
0.0
 40
0.0
 40
0.0
 40
1.0
 40
1.0
 40
1.0
 40
2.0
 40
2.0
 40
2.0
 40
3.0
 40
3.0
 40
3.0
 40
4.0
 40
4.0
 40
4.0
 40
5.0
 40
5.0
 40
5.0
 40
6.0
 40
6.0
 40
6.0
 40
7.0
 40
7.0
 40
7.0
 40
7.0
 10
98.34748532697563
 20
-158.5991047780586
 30
0.0
 10
98.34748532697563
 20
-158.5991047780586
 30
0.0
 10
98.34748532697563
 20
-157.494951675036
 30
0.0
 10
98.34748532697563
 20
-157.494951675036
 30
0.0
 10
98.34748532697563
 20
-157.494951675036
 30
0.0
 10
97.99505205883457
 20
-157.494951675036
 30
0.0
 10
97.99505205883457
 20
-157.494951675036
 30
0.0
 10
97.99505205883457
 20
-157.494951675036
 30
0.0
 10
97.99505205883457
 20
-157.3468125691703
 30
0.0
 10
97.99505205883457
 20
-157.3468125691703
 30
0.0
 10
98.34989689381531
 20
-157.3319986585837
 30
0.0
 10
98.39950626880291
 20
-157.1690456421314
 30
0.0
 10
98.4312011472672
 20
-157.0546684720211
 30
0.0
 10
98.4312011472672
 20
-157.0546684720211
 30
0.0
 10
98.58726397274903
 20
-157.0546684720211
 30
0.0
 10
98.58726397274903
 20
-157.0546684720211
 30
0.0
 10
98.58726397274903
 20
-157.0546684720211
 30
0.0
 10
98.58726397274903
 20
-158.5991047780586
 30
0.0
 10
98.58726397274903
 20
-158.5991047780586
 30
0.0
 10
98.58726397274903
 20
-158.5991047780586
 30
0.0
 10
98.34748532697563
 20
-158.5991047780586
 30
0.0
 10
98.34748532697563
 20
-158.5991047780586
 30
0.0
  0
HATCH
  5
DA
330
D5
100
AcDbEntity
  8
_U+30EC_U+30A4_U+30E4_U+30FC 1
 62
   179
420
  2234388
100
AcDbHatch
 10
0.0
 20
0.0
 30
0.0
210
0.0
220
0.0
230
1.0
  2
SOLID
 70
     1
 71
     0
 91
        1
 92
        1
 93
        1
 72
     4
 94
        3
 73
     0
 74
     1
 95
       26
 96
       22
 40
0.0
 40
0.0
 40
0.0
 40
0.0
 40
1.0
 40
1.0
 40
1.0
 40
2.0
 40
2.0
 40
2.0
 40
3.0
 40
3.0
 40
3.0
 40
4.0
 40
4.0
 40
4.0
 40
5.0
 40
5.0
 40
5.0
 40
6.0
 40
6.0
 40
6.0
 40
7.0
 40
7.0
 40
7.0
 40
7.0
 10
98.34748532697563
 20
-158.5991047780586
 10
98.34748532697563
 20
-158.5991047780586
 10
98.34748532697563
 20
-157.494951675036
 10
98.34748532697563
 20
-157.494951675036
 10
98.34748532697563
 20
-157.494951675036
 10
97.99505205883457
 20
-157.494951675036
 10
97.99505205883457
 20
-157.494951675036
 10
97.99505205883457
 20
-157.494951675036
 10
97.99505205883457
 20
-157.3468125691703
 10
97.99505205883457
 20
-157.3468125691703
 10
98.34989689381531
 20
-157.3319986585837
 10
98.39950626880291
 20
-157.1690456421314
 10
98.4312011472672
 20
-157.0546684720211
 10
98.4312011472672
 20
-157.0546684720211
 10
98.58726397274903
 20
-157.0546684720211
 10
98.58726397274903
 20
-157.0546684720211
 10
98.58726397274903
 20
-157.0546684720211
 10
98.58726397274903
 20
-158.5991047780586
 10
98.58726397274903
 20
-158.5991047780586
 10
98.58726397274903
 20
-158.5991047780586
 10
98.34748532697563
 20
-158.5991047780586
 10
98.34748532697563
 20
-158.5991047780586
 97
        0
 97
        0
 75
     2
 76
     1
 98
        0
  0
SPLINE
  5
DB
330
D5
100
AcDbEntity
  8
_U+30EC_U+30A4_U+30E4_U+30FC 1
370
     0
100
AcDbSpline
210
0.0
220
0.0
230
1.0
 70
    11
 71
     3
 72
    29
 73
    25
 74
     0
 42
0.0000000001
 43
0.0000000001
 12
1.0
 22
0.0
 32
0.0
 13
1.0
 23
0.0
 33
0.0
 40
0.0
 40
0.0
 40
0.0
 40
0.0
 40
1.0
 40
1.0
 40
1.0
 40
2.0
 40
2.0
 40
2.0
 40
3.0
 40
3.0
 40
3.0
 40
4.0
 40
4.0
 40
4.0
 40
5.0
 40
5.0
 40
5.0
 40
6.0
 40
6.0
 40
6.0
 40
7.0
 40
7.0
 40
7.0
 40
8.0
 40
8.0
 40
8.0
 40
8.0
 10
100.0824354133475
 20
-158.4213378510197
 30
0.0
 10
99.96702471459159
 20
-158.6307996565229
 30
0.0
 10
99.78167857748514
 20
-158.6497476816917
 30
0.0
 10
99.65731063046762
 20
-158.6497476816917
 30
0.0
 10
99.48574487530217
 20
-158.6497476816917
 30
0.0
 10
99.33416067395119
 20
-158.6032388926409
 30
0.0
 10
99.23253035713631
 20
-158.4213378510197
 30
0.0
 10
99.12159828251127
 20
-158.2266899561031
 30
0.0
 10
99.1012722191483
 20
-157.9900118962664
 30
0.0
 10
99.1012722191483
 20
-157.8270588798141
 30
0.0
 10
99.1012722191483
 20
-157.6830538885306
 30
0.0
 10
99.11953122522011
 20
-157.4312174085589
 30
0.0
 10
99.23253035713631
 20
-157.23243539906
 30
0.0
 10
99.34759654634367
 20
-157.0295192749787
 30
0.0
 10
99.51950681105762
 20
-157.006092625679
 30
0.0
 10
99.65731063046762
 20
-157.006092625679
 30
0.0
 10
99.82715383789044
 20
-157.006092625679
 30
0.0
 10
99.98080509653258
 20
-157.0505343574387
 30
0.0
 10
100.0824354133475
 20
-157.23243539906
 30
0.0
 10
100.1888888638417
 20
-157.4250162366854
 30
0.0
 10
100.2136935513355
 20
-157.6534260673575
 30
0.0
 10
100.2136935513355
 20
-157.8270588798141
 30
0.0
 10
100.2136935513355
 20
-157.998280125431
 30
0.0
 10
100.1909559211328
 20
-158.2287570133942
 30
0.0
 10
100.0824354133475
 20
-158.4213378510197
 30
0.0
  0
SPLINE
  5
DC
330
D5
100
AcDbEntity
  8
_U+30EC_U+30A4_U+30E4_U+30FC 1
370
     0
100
AcDbSpline
210
0.0
220
0.0
230
1.0
 70
    11
 71
     3
 72
    17
 73
    13
 74
     0
 42
0.0000000001
 43
0.0000000001
 12
1.0
 22
0.0
 32
0.0
 13
1.0
 23
0.0
 33
0.0
 40
0.0
 40
0.0
 40
0.0
 40
0.0
 40
1.0
 40
1.0
 40
1.0
 40
2.0
 40
2.0
 40
2.0
 40
3.0
 40
3.0
 40
3.0
 40
4.0
 40
4.0
 40
4.0
 40
4.0
 10
99.65731063046762
 20
-157.1986734633045
 30
0.0
 10
99.39066023990928
 20
-157.1986734633045
 30
0.0
 10
99.34105086492168
 20
-157.4822048217406
 30
0.0
 10
99.34105086492168
 20
-157.8270588798141
 30
0.0
 10
99.34105086492168
 20
-158.1464192312967
 30
0.0
 10
99.37929142480796
 20
-158.4550997867751
 30
0.0
 10
99.65731063046762
 20
-158.4550997867751
 30
0.0
 10
99.9218939637348
 20
-158.4550997867751
 30
0.0
 10
99.97391490556208
 20
-158.1739799951787
 30
0.0
 10
99.97391490556208
 20
-157.8270588798141
 30
0.0
 10
99.97391490556208
 20
-157.5073540187829
 30
0.0
 10
99.93326277883614
 20
-157.1986734633045
 30
0.0
 10
99.65731063046762
 20
-157.1986734633045
 30
0.0
  0
HATCH
  5
DD
330
D5
100
AcDbEntity
  8
_U+30EC_U+30A4_U+30E4_U+30FC 1
 62
   179
420
  2234388
100
AcDbHatch
 10
0.0
 20
0.0
 30
0.0
210
0.0
220
0.0
230
1.0
  2
SOLID
 70
     1
 71
     0
 91
        2
 92
        1
 93
        1
 72
     4
 94
        3
 73
     0
 74
     1
 95
       29
 96
       25
 40
0.0
 40
0.0
 40
0.0
 40
0.0
 40
1.0
 40
1.0
 40
1.0
 40
2.0
 40
2.0
 40
2.0
 40
3.0
 40
3.0
 40
3.0
 40
4.0
 40
4.0
 40
4.0
 40
5.0
 40
5.0
 40
5.0
 40
6.0
 40
6.0
 40
6.0
 40
7.0
 40
7.0
 40
7.0
 40
8.0
 40
8.0
 40
8.0
 40
8.0
 10
100.0824354133475
 20
-158.4213378510197
 10
99.96702471459159
 20
-158.6307996565229
 10
99.78167857748514
 20
-158.6497476816917
 10
99.65731063046762
 20
-158.6497476816917
 10
99.48574487530217
 20
-158.6497476816917
 10
99.33416067395119
 20
-158.6032388926409
 10
99.23253035713631
 20
-158.4213378510197
 10
99.12159828251127
 20
-158.2266899561031
 10
99.1012722191483
 20
-157.9900118962664
 10
99.1012722191483
 20
-157.8270588798141
 10
99.1012722191483
 20
-157.6830538885306
 10
99.11953122522011
 20
-157.4312174085589
 10
99.23253035713631
 20
-157.23243539906
 10
99.34759654634367
 20
-157.0295192749787
 10
99.51950681105762
 20
-157.006092625679
 10
99.65731063046762
 20
-157.006092625679
 10
99.82715383789044
 20
-157.006092625679
 10
99.98080509653258
 20
-157.0505343574387
 10
100.0824354133475
 20
-157.23243539906
 10
100.1888888638417
 20
-157.4250162366854
 10
100.2136935513355
 20
-157.6534260673575
 10
100.2136935513355
 20
-157.8270588798141
 10
100.2136935513355
 20
-157.998280125431
 10
100.1909559211328
 20
-158.2287570133942
 10
100.0824354133475
 20
-158.4213378510197
 97
        0
 97
        0
 92
        1
 93
        1
 72
     4
 94
        3
 73
     0
 74
     1
 95
       17
 96
       13
 40
0.0
 40
0.0
 40
0.0
 40
0.0
 40
1.0
 40
1.0
 40
1.0
 40
2.0
 40
2.0
 40
2.0
 40
3.0
 40
3.0
 40
3.0
 40
4.0
 40
4.0
 40
4.0
 40
4.0
 10
99.65731063046762
 20
-157.1986734633045
 10
99.39066023990928
 20
-157.1986734633045
 10
99.34105086492168
 20
-157.4822048217406
 10
99.34105086492168
 20
-157.8270588798141
 10
99.34105086492168
 20
-158.1464192312967
 10
99.37929142480796
 20
-158.4550997867751
 10
99.65731063046762
 20
-158.4550997867751
 10
99.9218939637348
 20
-158.4550997867751
 10
99.97391490556208
 20
-158.1739799951787
 10
99.97391490556208
 20
-157.8270588798141
 10
99.97391490556208
 20
-157.5073540187829
 10
99.93326277883614
 20
-157.1986734633045
 10
99.65731063046762
 20
-157.1986734633045
 97
        0
 97
        0
 75
     2
 76
     1
 98
        0
  0
ENDBLK
  5
D8
330
D5
100
AcDbEntity
  8
0
100
AcDbBlockEnd
  0
BLOCK
  5
EC
330
EA
100
AcDbEntity
  8
0
100
AcDbBlockBegin
  2
block 6
 70
     0
 10
0.0
 20
0.0
 30
0.0
  3
block 6
  1

  0
SPLINE
  5
EE
330
EA
100
AcDbEntity
  8
_U+30EC_U+30A4_U+30E4_U+30FC 1
370
     0
100
AcDbSpline
210
0.0
220
0.0
230
1.0
 70
    11
 71
     3
 72
    62
 73
    58
 74
     0
 42
0.0000000001
 43
0.0000000001
 12
1.0
 22
0.0
 32
0.0
 13
1.0
 23
0.0
 33
0.0
 40
0.0
 40
0.0
 40
0.0
 40
0.0
 40
1.0
 40
1.0
 40
1.0
 40
2.0
 40
2.0
 40
2.0
 40
3.0
 40
3.0
 40
3.0
 40
4.0
 40
4.0
 40
4.0
 40
5.0
 40
5.0
 40
5.0
 40
6.0
 40
6.0
 40
6.0
 40
7.0
 40
7.0
 40
7.0
 40
8.0
 40
8.0
 40
8.0
 40
9.0
 40
9.0
 40
9.0
 40
10.0
 40
10.0
 40
10.0
 40
11.0
 40
11.0
 40
11.0
 40
12.0
 40
12.0
 40
12.0
 40
13.0
 40
13.0
 40
13.0
 40
14.0
 40
14.0
 40
14.0
 40
15.0
 40
15.0
 40
15.0
 40
16.0
 40
16.0
 40
16.0
 40
17.0
 40
17.0
 40
17.0
 40
18.0
 40
18.0
 40
18.0
 40
19.0
 40
19.0
 40
19.0
 40
19.0
 10
101.8907660335551
 20
-138.4501193230264
 30
0.0
 10
101.7891357167402
 20
-138.4501193230264
 30
0.0
 10
101.5562472619373
 20
-138.4291042405663
 30
0.0
 10
101.4229220666582
 20
-138.2428968295886
 30
0.0
 10
101.3436848704974
 20
-138.1307589715437
 30
0.0
 10
101.3392062463666
 20
-138.0313679667942
 30
0.0
 10
101.3347276222358
 20
-137.9467908726314
 30
0.0
 10
101.3347276222358
 20
-137.9467908726314
 30
0.0
 10
101.5696831343298
 20
-137.9467908726314
 30
0.0
 10
101.5696831343298
 20
-137.9467908726314
 30
0.0
 10
101.5720947011695
 20
-138.0208604255642
 30
0.0
 10
101.5834635162708
 20
-138.255643682884
 30
0.0
 10
101.8862874094243
 20
-138.255643682884
 30
0.0
 10
102.0333929866444
 20
-138.255643682884
 30
0.0
 10
102.1960014935482
 20
-138.1858804993077
 30
0.0
 10
102.1960014935482
 20
-137.9572984138614
 30
0.0
 10
102.1960014935482
 20
-137.8410264412342
 30
0.0
 10
102.1553493668223
 20
-137.7922783401179
 30
0.0
 10
102.1215874310668
 20
-137.7605834616536
 30
0.0
 10
102.0423502349061
 20
-137.6865139087207
 30
0.0
 10
101.9179822878886
 20
-137.6739393101996
 30
0.0
 10
101.8590711550908
 20
-137.6739393101996
 30
0.0
 10
101.8387450917278
 20
-137.6739393101996
 30
0.0
 10
101.8005045318415
 20
-137.6760063674907
 30
0.0
 10
101.7708767106684
 20
-137.680140482073
 30
0.0
 10
101.7708767106684
 20
-137.680140482073
 30
0.0
 10
101.7708767106684
 20
-137.4854925871564
 30
0.0
 10
101.7708767106684
 20
-137.4854925871564
 30
0.0
 10
101.8115288373943
 20
-137.4918660138041
 30
0.0
 10
101.8570040977996
 20
-137.4941053258695
 30
0.0
 10
101.8635497792216
 20
-137.4941053258695
 30
0.0
 10
101.9338297271207
 20
-137.4941053258695
 30
0.0
 10
102.1463921185606
 20
-137.4729179886353
 30
0.0
 10
102.1463921185606
 20
-137.2358954192501
 30
0.0
 10
102.1463921185606
 20
-137.0583007469854
 30
0.0
 10
102.006176732311
 20
-137.0031792192214
 30
0.0
 10
101.8886989762639
 20
-137.0031792192214
 30
0.0
 10
101.6058566369249
 20
-137.0031792192214
 30
0.0
 10
101.5968993886633
 20
-137.2358954192501
 30
0.0
 10
101.5924207645324
 20
-137.3078979148918
 30
0.0
 10
101.5924207645324
 20
-137.3078979148918
 30
0.0
 10
101.3753797489617
 20
-137.3078979148918
 30
0.0
 10
101.3753797489617
 20
-137.3078979148918
 30
0.0
 10
101.3843369972234
 20
-137.1830132035515
 30
0.0
 10
101.413620308848
 20
-136.8064642670137
 30
0.0
 10
101.9021348486564
 20
-136.8064642670137
 30
0.0
 10
102.1419134944298
 20
-136.8064642670137
 30
0.0
 10
102.3996066367265
 20
-136.9334160356451
 30
0.0
 10
102.3996066367265
 20
-137.2295219926023
 30
0.0
 10
102.3996066367265
 20
-137.4157294035801
 30
0.0
 10
102.2976318103631
 20
-137.4982394404518
 30
0.0
 10
102.1915228694174
 20
-137.5595621400893
 30
0.0
 10
102.2569796836372
 20
-137.5871229039713
 30
0.0
 10
102.4516275785538
 20
-137.6675658835519
 30
0.0
 10
102.4516275785538
 20
-137.9447238153402
 30
0.0
 10
102.4516275785538
 20
-138.283204446766
 30
0.0
 10
102.1870442452866
 20
-138.4501193230264
 30
0.0
 10
101.8907660335551
 20
-138.4501193230264
 30
0.0
  0
HATCH
  5
EF
330
EA
100
AcDbEntity
  8
_U+30EC_U+30A4_U+30E4_U+30FC 1
 62
   179
420
  2234388
100
AcDbHatch
 10
0.0
 20
0.0
 30
0.0
210
0.0
220
0.0
230
1.0
  2
SOLID
 70
     1
 71
     0
 91
        1
 92
        1
 93
        1
 72
     4
 94
        3
 73
     0
 74
     1
 95
       62
 96
       58
 40
0.0
 40
0.0
 40
0.0
 40
0.0
 40
1.0
 40
1.0
 40
1.0
 40
2.0
 40
2.0
 40
2.0
 40
3.0
 40
3.0
 40
3.0
 40
4.0
 40
4.0
 40
4.0
 40
5.0
 40
5.0
 40
5.0
 40
6.0
 40
6.0
 40
6.0
 40
7.0
 40
7.0
 40
7.0
 40
8.0
 40
8.0
 40
8.0
 40
9.0
 40
9.0
 40
9.0
 40
10.0
 40
10.0
 40
10.0
 40
11.0
 40
11.0
 40
11.0
 40
12.0
 40
12.0
 40
12.0
 40
13.0
 40
13.0
 40
13.0
 40
14.0
 40
14.0
 40
14.0
 40
15.0
 40
15.0
 40
15.0
 40
16.0
 40
16.0
 40
16.0
 40
17.0
 40
17.0
 40
17.0
 40
18.0
 40
18.0
 40
18.0
 40
19.0
 40
19.0
 40
19.0
 40
19.0
 10
101.8907660335551
 20
-138.4501193230264
 10
101.7891357167402
 20
-138.4501193230264
 10
101.5562472619373
 20
-138.4291042405663
 10
101.4229220666582
 20
-138.2428968295886
 10
101.3436848704974
 20
-138.1307589715437
 10
101.3392062463666
 20
-138.0313679667942
 10
101.3347276222358
 20
-137.9467908726314
 10
101.3347276222358
 20
-137.9467908726314
 10
101.5696831343298
 20
-137.9467908726314
 10
101.5696831343298
 20
-137.9467908726314
 10
101.5720947011695
 20
-138.0208604255642
 10
101.5834635162708
 20
-138.255643682884
 10
101.8862874094243
 20
-138.255643682884
 10
102.0333929866444
 20
-138.255643682884
 10
102.1960014935482
 20
-138.1858804993077
 10
102.1960014935482
 20
-137.9572984138614
 10
102.1960014935482
 20
-137.8410264412342
 10
102.1553493668223
 20
-137.7922783401179
 10
102.1215874310668
 20
-137.7605834616536
 10
102.0423502349061
 20
-137.6865139087207
 10
101.9179822878886
 20
-137.6739393101996
 10
101.8590711550908
 20
-137.6739393101996
 10
101.8387450917278
 20
-137.6739393101996
 10
101.8005045318415
 20
-137.6760063674907
 10
101.7708767106684
 20
-137.680140482073
 10
101.7708767106684
 20
-137.680140482073
 10
101.7708767106684
 20
-137.4854925871564
 10
101.7708767106684
 20
-137.4854925871564
 10
101.8115288373943
 20
-137.4918660138041
 10
101.8570040977996
 20
-137.4941053258695
 10
101.8635497792216
 20
-137.4941053258695
 10
101.9338297271207
 20
-137.4941053258695
 10
102.1463921185606
 20
-137.4729179886353
 10
102.1463921185606
 20
-137.2358954192501
 10
102.1463921185606
 20
-137.0583007469854
 10
102.006176732311
 20
-137.0031792192214
 10
101.8886989762639
 20
-137.0031792192214
 10
101.6058566369249
 20
-137.0031792192214
 10
101.5968993886633
 20
-137.2358954192501
 10
101.5924207645324
 20
-137.3078979148918
 10
101.5924207645324
 20
-137.3078979148918
 10
101.3753797489617
 20
-137.3078979148918
 10
101.3753797489617
 20
-137.3078979148918
 10
101.3843369972234
 20
-137.1830132035515
 10
101.413620308848
 20
-136.8064642670137
 10
101.9021348486564
 20
-136.8064642670137
 10
102.1419134944298
 20
-136.8064642670137
 10
102.3996066367265
 20
-136.9334160356451
 10
102.3996066367265
 20
-137.2295219926023
 10
102.3996066367265
 20
-137.4157294035801
 10
102.2976318103631
 20
-137.4982394404518
 10
102.1915228694174
 20
-137.5595621400893
 10
102.2569796836372
 20
-137.5871229039713
 10
102.4516275785538
 20
-137.6675658835519
 10
102.4516275785538
 20
-137.9447238153402
 10
102.4516275785538
 20
-138.283204446766
 10
102.1870442452866
 20
-138.4501193230264
 10
101.8907660335551
 20
-138.4501193230264
 97
        0
 97
        0
 75
     2
 76
     1
 98
        0
  0
SPLINE
  5
F0
330
EA
100
AcDbEntity
  8
_U+30EC_U+30A4_U+30E4_U+30FC 1
370
     0
100
AcDbSpline
210
0.0
220
0.0
230
1.0
 70
    11
 71
     3
 72
    62
 73
    58
 74
     0
 42
0.0000000001
 43
0.0000000001
 12
1.0
 22
0.0
 32
0.0
 13
1.0
 23
0.0
 33
0.0
 40
0.0
 40
0.0
 40
0.0
 40
0.0
 40
1.0
 40
1.0
 40
1.0
 40
2.0
 40
2.0
 40
2.0
 40
3.0
 40
3.0
 40
3.0
 40
4.0
 40
4.0
 40
4.0
 40
5.0
 40
5.0
 40
5.0
 40
6.0
 40
6.0
 40
6.0
 40
7.0
 40
7.0
 40
7.0
 40
8.0
 40
8.0
 40
8.0
 40
9.0
 40
9.0
 40
9.0
 40
10.0
 40
10.0
 40
10.0
 40
11.0
 40
11.0
 40
11.0
 40
12.0
 40
12.0
 40
12.0
 40
13.0
 40
13.0
 40
13.0
 40
14.0
 40
14.0
 40
14.0
 40
15.0
 40
15.0
 40
15.0
 40
16.0
 40
16.0
 40
16.0
 40
17.0
 40
17.0
 40
17.0
 40
18.0
 40
18.0
 40
18.0
 40
19.0
 40
19.0
 40
19.0
 40
19.0
 10
103.1485703952198
 20
-138.4501193230264
 30
0.0
 10
103.0469400784049
 20
-138.4501193230264
 30
0.0
 10
102.814051623602
 20
-138.4291042405663
 30
0.0
 10
102.6807264283229
 20
-138.2428968295886
 30
0.0
 10
102.6014892321621
 20
-138.1307589715437
 30
0.0
 10
102.5970106080313
 20
-138.0313679667942
 30
0.0
 10
102.5925319839005
 20
-137.9467908726314
 30
0.0
 10
102.5925319839005
 20
-137.9467908726314
 30
0.0
 10
102.8274874959945
 20
-137.9467908726314
 30
0.0
 10
102.8274874959945
 20
-137.9467908726314
 30
0.0
 10
102.8298990628342
 20
-138.0208604255642
 30
0.0
 10
102.8412678779355
 20
-138.255643682884
 30
0.0
 10
103.144091771089
 20
-138.255643682884
 30
0.0
 10
103.2911973483092
 20
-138.255643682884
 30
0.0
 10
103.4538058552129
 20
-138.1858804993077
 30
0.0
 10
103.4538058552129
 20
-137.9572984138614
 30
0.0
 10
103.4538058552129
 20
-137.8410264412342
 30
0.0
 10
103.413153728487
 20
-137.7922783401179
 30
0.0
 10
103.379047283183
 20
-137.7605834616536
 30
0.0
 10
103.3001545965708
 20
-137.6865139087207
 30
0.0
 10
103.1757866495533
 20
-137.6739393101996
 30
0.0
 10
103.1168755167555
 20
-137.6739393101996
 30
0.0
 10
103.0965494533925
 20
-137.6739393101996
 30
0.0
 10
103.0583088935063
 20
-137.6760063674907
 30
0.0
 10
103.0286810723331
 20
-137.680140482073
 30
0.0
 10
103.0286810723331
 20
-137.680140482073
 30
0.0
 10
103.0286810723331
 20
-137.4854925871564
 30
0.0
 10
103.0286810723331
 20
-137.4854925871564
 30
0.0
 10
103.0693331990591
 20
-137.4918660138041
 30
0.0
 10
103.1148084594644
 20
-137.4941053258695
 30
0.0
 10
103.1213541408863
 20
-137.4941053258695
 30
0.0
 10
103.1916340887854
 20
-137.4941053258695
 30
0.0
 10
103.4041964802253
 20
-137.4729179886353
 30
0.0
 10
103.4041964802253
 20
-137.2358954192501
 30
0.0
 10
103.4041964802253
 20
-137.0583007469854
 30
0.0
 10
103.2639810939757
 20
-137.0031792192214
 30
0.0
 10
103.1465033379286
 20
-137.0031792192214
 30
0.0
 10
102.8636609985897
 20
-137.0031792192214
 30
0.0
 10
102.854703750328
 20
-137.2358954192501
 30
0.0
 10
102.8502251261972
 20
-137.3078979148918
 30
0.0
 10
102.8502251261972
 20
-137.3078979148918
 30
0.0
 10
102.6331841106264
 20
-137.3078979148918
 30
0.0
 10
102.6331841106264
 20
-137.3078979148918
 30
0.0
 10
102.6421413588881
 20
-137.1830132035515
 30
0.0
 10
102.6714246705127
 20
-136.8064642670137
 30
0.0
 10
103.1599392103211
 20
-136.8064642670137
 30
0.0
 10
103.3997178560945
 20
-136.8064642670137
 30
0.0
 10
103.6574109983912
 20
-136.9334160356451
 30
0.0
 10
103.6574109983912
 20
-137.2295219926023
 30
0.0
 10
103.6574109983912
 20
-137.4157294035801
 30
0.0
 10
103.5554361720278
 20
-137.4982394404518
 30
0.0
 10
103.4493272310821
 20
-137.5595621400893
 30
0.0
 10
103.5147840453019
 20
-137.5871229039713
 30
0.0
 10
103.7094319402185
 20
-137.6675658835519
 30
0.0
 10
103.7094319402185
 20
-137.9447238153402
 30
0.0
 10
103.7094319402185
 20
-138.283204446766
 30
0.0
 10
103.4448486069513
 20
-138.4501193230264
 30
0.0
 10
103.1485703952198
 20
-138.4501193230264
 30
0.0
  0
HATCH
  5
F1
330
EA
100
AcDbEntity
  8
_U+30EC_U+30A4_U+30E4_U+30FC 1
 62
   179
420
  2234388
100
AcDbHatch
 10
0.0
 20
0.0
 30
0.0
210
0.0
220
0.0
230
1.0
  2
SOLID
 70
     1
 71
     0
 91
        1
 92
        1
 93
        1
 72
     4
 94
        3
 73
     0
 74
     1
 95
       62
 96
       58
 40
0.0
 40
0.0
 40
0.0
 40
0.0
 40
1.0
 40
1.0
 40
1.0
 40
2.0
 40
2.0
 40
2.0
 40
3.0
 40
3.0
 40
3.0
 40
4.0
 40
4.0
 40
4.0
 40
5.0
 40
5.0
 40
5.0
 40
6.0
 40
6.0
 40
6.0
 40
7.0
 40
7.0
 40
7.0
 40
8.0
 40
8.0
 40
8.0
 40
9.0
 40
9.0
 40
9.0
 40
10.0
 40
10.0
 40
10.0
 40
11.0
 40
11.0
 40
11.0
 40
12.0
 40
12.0
 40
12.0
 40
13.0
 40
13.0
 40
13.0
 40
14.0
 40
14.0
 40
14.0
 40
15.0
 40
15.0
 40
15.0
 40
16.0
 40
16.0
 40
16.0
 40
17.0
 40
17.0
 40
17.0
 40
18.0
 40
18.0
 40
18.0
 40
19.0
 40
19.0
 40
19.0
 40
19.0
 10
103.1485703952198
 20
-138.4501193230264
 10
103.0469400784049
 20
-138.4501193230264
 10
102.814051623602
 20
-138.4291042405663
 10
102.6807264283229
 20
-138.2428968295886
 10
102.6014892321621
 20
-138.1307589715437
 10
102.5970106080313
 20
-138.0313679667942
 10
102.5925319839005
 20
-137.9467908726314
 10
102.5925319839005
 20
-137.9467908726314
 10
102.8274874959945
 20
-137.9467908726314
 10
102.8274874959945
 20
-137.9467908726314
 10
102.8298990628342
 20
-138.0208604255642
 10
102.8412678779355
 20
-138.255643682884
 10
103.144091771089
 20
-138.255643682884
 10
103.2911973483092
 20
-138.255643682884
 10
103.4538058552129
 20
-138.1858804993077
 10
103.4538058552129
 20
-137.9572984138614
 10
103.4538058552129
 20
-137.8410264412342
 10
103.413153728487
 20
-137.7922783401179
 10
103.379047283183
 20
-137.7605834616536
 10
103.3001545965708
 20
-137.6865139087207
 10
103.1757866495533
 20
-137.6739393101996
 10
103.1168755167555
 20
-137.6739393101996
 10
103.0965494533925
 20
-137.6739393101996
 10
103.0583088935063
 20
-137.6760063674907
 10
103.0286810723331
 20
-137.680140482073
 10
103.0286810723331
 20
-137.680140482073
 10
103.0286810723331
 20
-137.4854925871564
 10
103.0286810723331
 20
-137.4854925871564
 10
103.0693331990591
 20
-137.4918660138041
 10
103.1148084594644
 20
-137.4941053258695
 10
103.1213541408863
 20
-137.4941053258695
 10
103.1916340887854
 20
-137.4941053258695
 10
103.4041964802253
 20
-137.4729179886353
 10
103.4041964802253
 20
-137.2358954192501
 10
103.4041964802253
 20
-137.0583007469854
 10
103.2639810939757
 20
-137.0031792192214
 10
103.1465033379286
 20
-137.0031792192214
 10
102.8636609985897
 20
-137.0031792192214
 10
102.854703750328
 20
-137.2358954192501
 10
102.8502251261972
 20
-137.3078979148918
 10
102.8502251261972
 20
-137.3078979148918
 10
102.6331841106264
 20
-137.3078979148918
 10
102.6331841106264
 20
-137.3078979148918
 10
102.6421413588881
 20
-137.1830132035515
 10
102.6714246705127
 20
-136.8064642670137
 10
103.1599392103211
 20
-136.8064642670137
 10
103.3997178560945
 20
-136.8064642670137
 10
103.6574109983912
 20
-136.9334160356451
 10
103.6574109983912
 20
-137.2295219926023
 10
103.6574109983912
 20
-137.4157294035801
 10
103.5554361720278
 20
-137.4982394404518
 10
103.4493272310821
 20
-137.5595621400893
 10
103.5147840453019
 20
-137.5871229039713
 10
103.7094319402185
 20
-137.6675658835519
 10
103.7094319402185
 20
-137.9447238153402
 10
103.7094319402185
 20
-138.283204446766
 10
103.4448486069513
 20
-138.4501193230264
 10
103.1485703952198
 20
-138.4501193230264
 97
        0
 97
        0
 75
     2
 76
     1
 98
        0
  0
ENDBLK
  5
ED
330
EA
100
AcDbEntity
  8
0
100
AcDbBlockEnd
  0
BLOCK
  5
FC
330
FA
100
AcDbEntity
  8
0
100
AcDbBlockBegin
  2
block 7
 70
     0
 10
0.0
 20
0.0
 30
0.0
  3
block 7
  1

  0
SPLINE
  5
FE
330
FA
100
AcDbEntity
  8
_U+30EC_U+30A4_U+30E4_U+30FC 1
370
     0
100
AcDbSpline
210
0.0
220
0.0
230
1.0
 70
    11
 71
     3
 72
    29
 73
    25
 74
     0
 42
0.0000000001
 43
0.0000000001
 12
1.0
 22
0.0
 32
0.0
 13
1.0
 23
0.0
 33
0.0
 40
0.0
 40
0.0
 40
0.0
 40
0.0
 40
1.0
 40
1.0
 40
1.0
 40
2.0
 40
2.0
 40
2.0
 40
3.0
 40
3.0
 40
3.0
 40
4.0
 40
4.0
 40
4.0
 40
5.0
 40
5.0
 40
5.0
 40
6.0
 40
6.0
 40
6.0
 40
7.0
 40
7.0
 40
7.0
 40
8.0
 40
8.0
 40
8.0
 40
8.0
 10
90.06633705430633
 20
-158.6500921912403
 30
0.0
 10
89.78142765767618
 20
-158.6500921912403
 30
0.0
 10
89.51012638821275
 20
-158.5126328813788
 30
0.0
 10
89.51012638821275
 20
-158.163644708723
 30
0.0
 10
89.51012638821275
 20
-157.9076741141689
 30
0.0
 10
89.66153833478948
 20
-157.812589478776
 30
0.0
 10
89.77470972147994
 20
-157.7512667791386
 30
0.0
 10
89.64121227142651
 20
-157.6920111367923
 30
0.0
 10
89.5599080179746
 20
-157.577633966682
 30
0.0
 10
89.5599080179746
 20
-157.4167480075208
 30
0.0
 10
89.5599080179746
 20
-157.1418293877979
 30
0.0
 10
89.77229815464027
 20
-157.0064371352276
 30
0.0
 10
90.06633705430633
 20
-157.0064371352276
 30
0.0
 10
90.36933320223406
 20
-157.0064371352276
 30
0.0
 10
90.57276609063807
 20
-157.150442126511
 30
0.0
 10
90.57276609063807
 20
-157.4167480075208
 30
0.0
 10
90.57276609063807
 20
-157.577633966682
 30
0.0
 10
90.4890502703465
 20
-157.6920111367923
 30
0.0
 10
90.35572507506733
 20
-157.7512667791386
 30
0.0
 10
90.45063745568595
 20
-157.8019096827718
 30
0.0
 10
90.62013615356025
 20
-157.8969943181646
 30
0.0
 10
90.62013615356025
 20
-158.1595105941407
 30
0.0
 10
90.62013615356025
 20
-158.5339924733873
 30
0.0
 10
90.3217908845376
 20
-158.6500921912403
 30
0.0
 10
90.06633705430633
 20
-158.6500921912403
 30
0.0
  0
SPLINE
  5
FF
330
FA
100
AcDbEntity
  8
_U+30EC_U+30A4_U+30E4_U+30FC 1
370
     0
100
AcDbSpline
210
0.0
220
0.0
230
1.0
 70
    11
 71
     3
 72
    17
 73
    13
 74
     0
 42
0.0000000001
 43
0.0000000001
 12
1.0
 22
0.0
 32
0.0
 13
1.0
 23
0.0
 33
0.0
 40
0.0
 40
0.0
 40
0.0
 40
0.0
 40
1.0
 40
1.0
 40
1.0
 40
2.0
 40
2.0
 40
2.0
 40
3.0
 40
3.0
 40
3.0
 40
4.0
 40
4.0
 40
4.0
 40
4.0
 10
90.06633705430633
 20
-157.8590982678269
 30
0.0
 10
89.91251354088993
 20
-157.8590982678269
 30
0.0
 10
89.74973277921188
 20
-157.9459146740552
 30
0.0
 10
89.74973277921188
 20
-158.1488307981364
 30
0.0
 10
89.74973277921188
 20
-158.3541584890573
 30
0.0
 10
89.88546954133072
 20
-158.4554442963236
 30
0.0
 10
90.06633705430633
 20
-158.4554442963236
 30
0.0
 10
90.26529131857951
 20
-158.4554442963236
 30
0.0
 10
90.38276907462654
 20
-158.3327988970487
 30
0.0
 10
90.38276907462654
 20
-158.1550319700099
 30
0.0
 10
90.38276907462654
 20
-157.9331678207598
 30
0.0
 10
90.20879175262142
 20
-157.8590982678269
 30
0.0
 10
90.06633705430633
 20
-157.8590982678269
 30
0.0
  0
SPLINE
  5
100
330
FA
100
AcDbEntity
  8
_U+30EC_U+30A4_U+30E4_U+30FC 1
370
     0
100
AcDbSpline
210
0.0
220
0.0
230
1.0
 70
    11
 71
     3
 72
    17
 73
    13
 74
     0
 42
0.0000000001
 43
0.0000000001
 12
1.0
 22
0.0
 32
0.0
 13
1.0
 23
0.0
 33
0.0
 40
0.0
 40
0.0
 40
0.0
 40
0.0
 40
1.0
 40
1.0
 40
1.0
 40
2.0
 40
2.0
 40
2.0
 40
3.0
 40
3.0
 40
3.0
 40
4.0
 40
4.0
 40
4.0
 40
4.0
 10
90.06633705430633
 20
-157.199017972853
 30
0.0
 10
89.88994816546155
 20
-157.199017972853
 30
0.0
 10
89.79951440897374
 20
-157.2941026082459
 30
0.0
 10
89.79951440897374
 20
-157.4294948608162
 30
0.0
 10
89.79951440897374
 20
-157.5521402600911
 30
0.0
 10
89.87634003829481
 20
-157.6706515447837
 30
0.0
 10
90.06633705430633
 20
-157.6706515447837
 30
0.0
 10
90.2561618155436
 20
-157.6706515447837
 30
0.0
 10
90.33315969963894
 20
-157.5521402600911
 30
0.0
 10
90.33315969963894
 20
-157.4294948608162
 30
0.0
 10
90.33315969963894
 20
-157.2941026082459
 30
0.0
 10
90.24031437631146
 20
-157.199017972853
 30
0.0
 10
90.06633705430633
 20
-157.199017972853
 30
0.0
  0
HATCH
  5
101
330
FA
100
AcDbEntity
  8
_U+30EC_U+30A4_U+30E4_U+30FC 1
 62
   179
420
  2234388
100
AcDbHatch
 10
0.0
 20
0.0
 30
0.0
210
0.0
220
0.0
230
1.0
  2
SOLID
 70
     1
 71
     0
 91
        3
 92
        1
 93
        1
 72
     4
 94
        3
 73
     0
 74
     1
 95
       29
 96
       25
 40
0.0
 40
0.0
 40
0.0
 40
0.0
 40
1.0
 40
1.0
 40
1.0
 40
2.0
 40
2.0
 40
2.0
 40
3.0
 40
3.0
 40
3.0
 40
4.0
 40
4.0
 40
4.0
 40
5.0
 40
5.0
 40
5.0
 40
6.0
 40
6.0
 40
6.0
 40
7.0
 40
7.0
 40
7.0
 40
8.0
 40
8.0
 40
8.0
 40
8.0
 10
90.06633705430633
 20
-158.6500921912403
 10
89.78142765767618
 20
-158.6500921912403
 10
89.51012638821275
 20
-158.5126328813788
 10
89.51012638821275
 20
-158.163644708723
 10
89.51012638821275
 20
-157.9076741141689
 10
89.66153833478948
 20
-157.812589478776
 10
89.77470972147994
 20
-157.7512667791386
 10
89.64121227142651
 20
-157.6920111367923
 10
89.5599080179746
 20
-157.577633966682
 10
89.5599080179746
 20
-157.4167480075208
 10
89.5599080179746
 20
-157.1418293877979
 10
89.77229815464027
 20
-157.0064371352276
 10
90.06633705430633
 20
-157.0064371352276
 10
90.36933320223406
 20
-157.0064371352276
 10
90.57276609063807
 20
-157.150442126511
 10
90.57276609063807
 20
-157.4167480075208
 10
90.57276609063807
 20
-157.577633966682
 10
90.4890502703465
 20
-157.6920111367923
 10
90.35572507506733
 20
-157.7512667791386
 10
90.45063745568595
 20
-157.8019096827718
 10
90.62013615356025
 20
-157.8969943181646
 10
90.62013615356025
 20
-158.1595105941407
 10
90.62013615356025
 20
-158.5339924733873
 10
90.3217908845376
 20
-158.6500921912403
 10
90.06633705430633
 20
-158.6500921912403
 97
        0
 97
        0
 92
        1
 93
        1
 72
     4
 94
        3
 73
     0
 74
     1
 95
       17
 96
       13
 40
0.0
 40
0.0
 40
0.0
 40
0.0
 40
1.0
 40
1.0
 40
1.0
 40
2.0
 40
2.0
 40
2.0
 40
3.0
 40
3.0
 40
3.0
 40
4.0
 40
4.0
 40
4.0
 40
4.0
 10
90.06633705430633
 20
-157.8590982678269
 10
89.91251354088993
 20
-157.8590982678269
 10
89.74973277921188
 20
-157.9459146740552
 10
89.74973277921188
 20
-158.1488307981364
 10
89.74973277921188
 20
-158.3541584890573
 10
89.88546954133072
 20
-158.4554442963236
 10
90.06633705430633
 20
-158.4554442963236
 10
90.26529131857951
 20
-158.4554442963236
 10
90.38276907462654
 20
-158.3327988970487
 10
90.38276907462654
 20
-158.1550319700099
 10
90.38276907462654
 20
-157.9331678207598
 10
90.20879175262142
 20
-157.8590982678269
 10
90.06633705430633
 20
-157.8590982678269
 97
        0
 97
        0
 92
        1
 93
        1
 72
     4
 94
        3
 73
     0
 74
     1
 95
       17
 96
       13
 40
0.0
 40
0.0
 40
0.0
 40
0.0
 40
1.0
 40
1.0
 40
1.0
 40
2.0
 40
2.0
 40
2.0
 40
3.0
 40
3.0
 40
3.0
 40
4.0
 40
4.0
 40
4.0
 40
4.0
 10
90.06633705430633
 20
-157.199017972853
 10
89.88994816546155
 20
-157.199017972853
 10
89.79951440897374
 20
-157.2941026082459
 10
89.79951440897374
 20
-157.4294948608162
 10
89.79951440897374
 20
-157.5521402600911
 10
89.87634003829481
 20
-157.6706515447837
 10
90.06633705430633
 20
-157.6706515447837
 10
90.2561618155436
 20
-157.6706515447837
 10
90.33315969963894
 20
-157.5521402600911
 10
90.33315969963894
 20
-157.4294948608162
 10
90.33315969963894
 20
-157.2941026082459
 10
90.24031437631146
 20
-157.199017972853
 10
90.06633705430633
 20
-157.199017972853
 97
        0
 97
        0
 75
     2
 76
     1
 98
        0
  0
ENDBLK
  5
FD
330
FA
100
AcDbEntity
  8
0
100
AcDbBlockEnd
  0
ENDSEC
  0
SECTION
  2
ENTITIES
  0
POLYLINE
  5
41
330
1F
100
AcDbEntity
  8
_U+30EC_U+30A4_U+30E4_U+30FC 1
 62
   179
420
  2234388
370
    25
100
AcDb2dPolyline
 66
     1
 10
0.0
 20
0.0
 30
0.0
  0
VERTEX
  5
42
330
41
100
AcDbEntity
  8
_U+30EC_U+30A4_U+30E4_U+30FC 1
 62
   179
420
  2234388
370
    25
100
AcDbVertex
100
AcDb2dVertex
 10
86.02436502755783
 20
-143.7013113529636
 30
0.0
  0
VERTEX
  5
43
330
41
100
AcDbEntity
  8
_U+30EC_U+30A4_U+30E4_U+30FC 1
 62
   179
420
  2234388
370
    25
100
AcDbVertex
100
AcDb2dVertex
 10
95.02436090905992
 20
-143.7013113529636
 30
0.0
  0
SEQEND
  5
44
330
41
100
AcDbEntity
  8
_U+30EC_U+30A4_U+30E4_U+30FC 1
 62
   179
420
  2234388
370
    25
  0
POLYLINE
  5
45
330
1F
100
AcDbEntity
  8
_U+30EC_U+30A4_U+30E4_U+30FC 1
 62
   179
420
  2234388
370
    25
100
AcDb2dPolyline
 66
     1
 10
0.0
 20
0.0
 30
0.0
  0
VERTEX
  5
46
330
45
100
AcDbEntity
  8
_U+30EC_U+30A4_U+30E4_U+30FC 1
 62
   179
420
  2234388
370
    25
100
AcDbVertex
100
AcDb2dVertex
 10
119.0242558523271
 20
-143.7013113529636
 30
0.0
  0
VERTEX
  5
47
330
45
100
AcDbEntity
  8
_U+30EC_U+30A4_U+30E4_U+30FC 1
 62
   179
420
  2234388
370
    25
100
AcDbVertex
100
AcDb2dVertex
 10
119.0242558523271
 20
-144.7010835749359
 30
0.0
  0
SEQEND
  5
48
330
45
100
AcDbEntity
  8
_U+30EC_U+30A4_U+30E4_U+30FC 1
 62
   179
420
  2234388
370
    25
  0
POLYLINE
  5
49
330
1F
100
AcDbEntity
  8
_U+30EC_U+30A4_U+30E4_U+30FC 1
 62
   179
420
  2234388
370
    25
100
AcDb2dPolyline
 66
     1
 10
0.0
 20
0.0
 30
0.0
  0
VERTEX
  5
4A
330
49
100
AcDbEntity
  8
_U+30EC_U+30A4_U+30E4_U+30FC 1
 62
   179
420
  2234388
370
    25
100
AcDbVertex
100
AcDb2dVertex
 10
97.02387002471485
 20
-144.7010835749359
 30
0.0
  0
VERTEX
  5
4B
330
49
100
AcDbEntity
  8
_U+30EC_U+30A4_U+30E4_U+30FC 1
 62
   179
420
  2234388
370
    25
100
AcDbVertex
100
AcDb2dVertex
 10
119.0242558523271
 20
-144.7010835749359
 30
0.0
  0
SEQEND
  5
4C
330
49
100
AcDbEntity
  8
_U+30EC_U+30A4_U+30E4_U+30FC 1
 62
   179
420
  2234388
370
    25
  0
POLYLINE
  5
4D
330
1F
100
AcDbEntity
  8
_U+30EC_U+30A4_U+30E4_U+30FC 1
 62
   179
420
  2234388
370
    25
100
AcDb2dPolyline
 66
     1
 10
0.0
 20
0.0
 30
0.0
  0
VERTEX
  5
4E
330
4D
100
AcDbEntity
  8
_U+30EC_U+30A4_U+30E4_U+30FC 1
 62
   179
420
  2234388
370
    25
100
AcDbVertex
100
AcDb2dVertex
 10
104.0243215127851
 20
-154.7013105168803
 30
0.0
  0
VERTEX
  5
4F
330
4D
100
AcDbEntity
  8
_U+30EC_U+30A4_U+30E4_U+30FC 1
 62
   179
420
  2234388
370
    25
100
AcDbVertex
100
AcDb2dVertex
 10
104.0243215127851
 20
-155.201549405644
 30
0.0
  0
SEQEND
  5
50
330
4D
100
AcDbEntity
  8
_U+30EC_U+30A4_U+30E4_U+30FC 1
 62
   179
420
  2234388
370
    25
  0
POLYLINE
  5
51
330
1F
100
AcDbEntity
  8
_U+30EC_U+30A4_U+30E4_U+30FC 1
 62
   179
420
  2234388
370
    25
100
AcDb2dPolyline
 66
     1
 10
0.0
 20
0.0
 30
0.0
  0
VERTEX
  5
52
330
51
100
AcDbEntity
  8
_U+30EC_U+30A4_U+30E4_U+30FC 1
 62
   179
420
  2234388
370
    25
100
AcDbVertex
100
AcDb2dVertex
 10
97.02387002471485
 20
-154.7013105168803
 30
0.0
  0
VERTEX
  5
53
330
51
100
AcDbEntity
  8
_U+30EC_U+30A4_U+30E4_U+30FC 1
 62
   179
420
  2234388
370
    25
100
AcDbVertex
100
AcDb2dVertex
 10
104.0243215127851
 20
-154.7013105168803
 30
0.0
  0
SEQEND
  5
54
330
51
100
AcDbEntity
  8
_U+30EC_U+30A4_U+30E4_U+30FC 1
 62
   179
420
  2234388
370
    25
  0
POLYLINE
  5
55
330
1F
100
AcDbEntity
  8
_U+30EC_U+30A4_U+30E4_U+30FC 1
 62
   179
420
  2234388
370
    25
100
AcDb2dPolyline
 66
     1
 10
0.0
 20
0.0
 30
0.0
  0
VERTEX
  5
56
330
55
100
AcDbEntity
  8
_U+30EC_U+30A4_U+30E4_U+30FC 1
 62
   179
420
  2234388
370
    25
100
AcDbVertex
100
AcDb2dVertex
 10
96.02409782799894
 20
-143.7013113529636
 30
0.0
  0
VERTEX
  5
57
330
55
100
AcDbEntity
  8
_U+30EC_U+30A4_U+30E4_U+30FC 1
 62
   179
420
  2234388
370
    25
100
AcDbVertex
100
AcDb2dVertex
 10
119.0242558523271
 20
-143.7013113529636
 30
0.0
  0
SEQEND
  5
58
330
55
100
AcDbEntity
  8
_U+30EC_U+30A4_U+30E4_U+30FC 1
 62
   179
420
  2234388
370
    25
  0
POLYLINE
  5
59
330
1F
100
AcDbEntity
  8
_U+30EC_U+30A4_U+30E4_U+30FC 1
 62
   179
420
  2234388
370
    25
100
AcDb2dPolyline
 66
     1
 10
0.0
 20
0.0
 30
0.0
  0
VERTEX
  5
5A
330
59
100
AcDbEntity
  8
_U+30EC_U+30A4_U+30E4_U+30FC 1
 62
   179
420
  2234388
370
    25
100
AcDbVertex
100
AcDb2dVertex
 10
86.02436502755783
 20
-144.6135594082912
 30
0.0
  0
VERTEX
  5
5B
330
59
100
AcDbEntity
  8
_U+30EC_U+30A4_U+30E4_U+30FC 1
 62
   179
420
  2234388
370
    25
100
AcDbVertex
100
AcDb2dVertex
 10
94.02388315680645
 20
-144.6135594082912
 30
0.0
  0
SEQEND
  5
5C
330
59
100
AcDbEntity
  8
_U+30EC_U+30A4_U+30E4_U+30FC 1
 62
   179
420
  2234388
370
    25
  0
POLYLINE
  5
5D
330
1F
100
AcDbEntity
  8
_U+30EC_U+30A4_U+30E4_U+30FC 1
 62
   179
420
  2234388
370
    25
100
AcDb2dPolyline
 66
     1
 10
0.0
 20
0.0
 30
0.0
  0
VERTEX
  5
5E
330
5D
100
AcDbEntity
  8
_U+30EC_U+30A4_U+30E4_U+30FC 1
 62
   179
420
  2234388
370
    25
100
AcDbVertex
100
AcDb2dVertex
 10
95.02436090905992
 20
-143.7013113529636
 30
0.0
  0
VERTEX
  5
5F
330
5D
100
AcDbEntity
  8
_U+30EC_U+30A4_U+30E4_U+30FC 1
 62
   179
420
  2234388
370
    25
100
AcDbVertex
100
AcDb2dVertex
 10
95.02436090905992
 20
-154.7013105168803
 30
0.0
  0
SEQEND
  5
60
330
5D
100
AcDbEntity
  8
_U+30EC_U+30A4_U+30E4_U+30FC 1
 62
   179
420
  2234388
370
    25
  0
POLYLINE
  5
61
330
1F
100
AcDbEntity
  8
_U+30EC_U+30A4_U+30E4_U+30FC 1
 62
   179
420
  2234388
370
    25
100
AcDb2dPolyline
 66
     1
 10
0.0
 20
0.0
 30
0.0
  0
VERTEX
  5
62
330
61
100
AcDbEntity
  8
_U+30EC_U+30A4_U+30E4_U+30FC 1
 62
   179
420
  2234388
370
    25
100
AcDbVertex
100
AcDb2dVertex
 10
96.02409782799894
 20
-143.7013113529636
 30
0.0
  0
VERTEX
  5
63
330
61
100
AcDbEntity
  8
_U+30EC_U+30A4_U+30E4_U+30FC 1
 62
   179
420
  2234388
370
    25
100
AcDbVertex
100
AcDb2dVertex
 10
96.02409782799894
 20
-154.7013105168803
 30
0.0
  0
SEQEND
  5
64
330
61
100
AcDbEntity
  8
_U+30EC_U+30A4_U+30E4_U+30FC 1
 62
   179
420
  2234388
370
    25
  0
POLYLINE
  5
65
330
1F
100
AcDbEntity
  8
_U+30EC_U+30A4_U+30E4_U+30FC 1
 62
   179
420
  2234388
370
    25
100
AcDb2dPolyline
 66
     1
 10
0.0
 20
0.0
 30
0.0
  0
VERTEX
  5
66
330
65
100
AcDbEntity
  8
_U+30EC_U+30A4_U+30E4_U+30FC 1
 62
   179
420
  2234388
370
    25
100
AcDbVertex
100
AcDb2dVertex
 10
97.02387002471485
 20
-144.7010835749359
 30
0.0
  0
VERTEX
  5
67
330
65
100
AcDbEntity
  8
_U+30EC_U+30A4_U+30E4_U+30FC 1
 62
   179
420
  2234388
370
    25
100
AcDbVertex
100
AcDb2dVertex
 10
97.02387002471485
 20
-154.7013105168803
 30
0.0
  0
SEQEND
  5
68
330
65
100
AcDbEntity
  8
_U+30EC_U+30A4_U+30E4_U+30FC 1
 62
   179
420
  2234388
370
    25
  0
POLYLINE
  5
69
330
1F
100
AcDbEntity
  8
_U+30EC_U+30A4_U+30E4_U+30FC 1
 62
   179
420
  2234388
370
    25
100
AcDb2dPolyline
 66
     1
 10
0.0
 20
0.0
 30
0.0
  0
VERTEX
  5
6A
330
69
100
AcDbEntity
  8
_U+30EC_U+30A4_U+30E4_U+30FC 1
 62
   179
420
  2234388
370
    25
100
AcDbVertex
100
AcDb2dVertex
 10
95.02436090905992
 20
-154.7013105168803
 30
0.0
  0
VERTEX
  5
6B
330
69
100
AcDbEntity
  8
_U+30EC_U+30A4_U+30E4_U+30FC 1
 62
   179
420
  2234388
370
    25
100
AcDbVertex
100
AcDb2dVertex
 10
96.02409782799894
 20
-154.7013105168803
 30
0.0
  0
SEQEND
  5
6C
330
69
100
AcDbEntity
  8
_U+30EC_U+30A4_U+30E4_U+30FC 1
 62
   179
420
  2234388
370
    25
  0
POLYLINE
  5
6D
330
1F
100
AcDbEntity
  8
_U+30EC_U+30A4_U+30E4_U+30FC 1
 62
   179
420
  2234388
370
    25
100
AcDb2dPolyline
 66
     1
 10
0.0
 20
0.0
 30
0.0
  0
VERTEX
  5
6E
330
6D
100
AcDbEntity
  8
_U+30EC_U+30A4_U+30E4_U+30FC 1
 62
   179
420
  2234388
370
    25
100
AcDbVertex
100
AcDb2dVertex
 10
94.02388315680645
 20
-144.6135594082912
 30
0.0
  0
VERTEX
  5
6F
330
6D
100
AcDbEntity
  8
_U+30EC_U+30A4_U+30E4_U+30FC 1
 62
   179
420
  2234388
370
    25
100
AcDbVertex
100
AcDb2dVertex
 10
94.02388315680645
 20
-155.6438974610888
 30
0.0
  0
VERTEX
  5
70
330
6D
100
AcDbEntity
  8
_U+30EC_U+30A4_U+30E4_U+30FC 1
 62
   179
420
  2234388
370
    25
100
AcDbVertex
100
AcDb2dVertex
 10
94.02388315680645
 20
-155.9016016276916
 30
0.0
  0
VERTEX
  5
71
330
6D
100
AcDbEntity
  8
_U+30EC_U+30A4_U+30E4_U+30FC 1
 62
   179
420
  2234388
370
    25
100
AcDbVertex
100
AcDb2dVertex
 10
104.0243215127851
 20
-155.201549405644
 30
0.0
  0
SEQEND
  5
72
330
6D
100
AcDbEntity
  8
_U+30EC_U+30A4_U+30E4_U+30FC 1
 62
   179
420
  2234388
370
    25
  0
POLYLINE
  5
73
330
1F
100
AcDbEntity
  8
_U+30EC_U+30A4_U+30E4_U+30FC 1
 62
   179
420
  2234388
370
    25
100
AcDb2dPolyline
 66
     1
 10
0.0
 20
0.0
 30
0.0
  0
VERTEX
  5
74
330
73
100
AcDbEntity
  8
_U+30EC_U+30A4_U+30E4_U+30FC 1
 62
   179
420
  2234388
370
    25
100
AcDbVertex
100
AcDb2dVertex
 10
86.02436502755783
 20
-143.7013113529636
 30
0.0
  0
VERTEX
  5
75
330
73
100
AcDbEntity
  8
_U+30EC_U+30A4_U+30E4_U+30FC 1
 62
   179
420
  2234388
370
    25
100
AcDbVertex
100
AcDb2dVertex
 10
86.02436502755783
 20
-144.7010835749359
 30
0.0
  0
SEQEND
  5
76
330
73
100
AcDbEntity
  8
_U+30EC_U+30A4_U+30E4_U+30FC 1
 62
   179
420
  2234388
370
    25
  0
SPLINE
  5
77
330
1F
100
AcDbEntity
  8
_U+30EC_U+30A4_U+30E4_U+30FC 1
 62
   179
420
  2234388
370
     9
100
AcDbSpline
210
0.0
220
0.0
230
1.0
 70
    11
 71
     3
 72
    17
 73
    13
 74
     0
 42
0.0000000001
 43
0.0000000001
 12
1.0
 22
0.0
 32
0.0
 13
1.0
 23
0.0
 33
0.0
 40
0.0
 40
0.0
 40
0.0
 40
0.0
 40
1.0
 40
1.0
 40
1.0
 40
2.0
 40
2.0
 40
2.0
 40
3.0
 40
3.0
 40
3.0
 40
4.0
 40
4.0
 40
4.0
 40
4.0
 10
119.124162516445
 20
-139.7015521872968
 30
0.0
 10
119.124162516445
 20
-139.646413020644
 30
0.0
 10
119.0793950175871
 20
-139.6016455206551
 30
0.0
 10
119.0242558523271
 20
-139.6016455206551
 30
0.0
 10
118.9691519648441
 20
-139.6016455206551
 30
0.0
 10
118.9243491882093
 20
-139.646413020644
 30
0.0
 10
118.9243491882093
 20
-139.7015521872968
 30
0.0
 10
118.9243491882093
 20
-139.756656076172
 30
0.0
 10
118.9691519648441
 20
-139.8014588539384
 30
0.0
 10
119.0242558523271
 20
-139.8014588539384
 30
0.0
 10
119.0793950175871
 20
-139.8014588539384
 30
0.0
 10
119.124162516445
 20
-139.756656076172
 30
0.0
 10
119.124162516445
 20
-139.7015521872968
 30
0.0
  0
SPLINE
  5
78
330
1F
100
AcDbEntity
  8
_U+30EC_U+30A4_U+30E4_U+30FC 1
 62
   179
420
  2234388
370
     9
100
AcDbSpline
210
0.0
220
0.0
230
1.0
 70
    11
 71
     3
 72
    17
 73
    13
 74
     0
 42
0.0000000001
 43
0.0000000001
 12
1.0
 22
0.0
 32
0.0
 13
1.0
 23
0.0
 33
0.0
 40
0.0
 40
0.0
 40
0.0
 40
0.0
 40
1.0
 40
1.0
 40
1.0
 40
2.0
 40
2.0
 40
2.0
 40
3.0
 40
3.0
 40
3.0
 40
4.0
 40
4.0
 40
4.0
 40
4.0
 10
123.1239215810693
 20
-143.7013113529636
 30
0.0
 10
123.1239215810693
 20
-143.6461721863106
 30
0.0
 10
123.0791188044345
 20
-143.601404686322
 30
0.0
 10
123.0240149169515
 20
-143.601404686322
 30
0.0
 10
122.9688757516915
 20
-143.601404686322
 30
0.0
 10
122.9241082528336
 20
-143.6461721863106
 30
0.0
 10
122.9241082528336
 20
-143.7013113529636
 30
0.0
 10
122.9241082528336
 20
-143.7564152418386
 30
0.0
 10
122.9688757516915
 20
-143.8012180196053
 30
0.0
 10
123.0240149169515
 20
-143.8012180196053
 30
0.0
 10
123.0791188044345
 20
-143.8012180196053
 30
0.0
 10
123.1239215810693
 20
-143.7564152418386
 30
0.0
 10
123.1239215810693
 20
-143.7013113529636
 30
0.0
  0
SPLINE
  5
79
330
1F
100
AcDbEntity
  8
_U+30EC_U+30A4_U+30E4_U+30FC 1
 62
   179
420
  2234388
370
     9
100
AcDbSpline
210
0.0
220
0.0
230
1.0
 70
    11
 71
     3
 72
    17
 73
    13
 74
     0
 42
0.0000000001
 43
0.0000000001
 12
1.0
 22
0.0
 32
0.0
 13
1.0
 23
0.0
 33
0.0
 40
0.0
 40
0.0
 40
0.0
 40
0.0
 40
1.0
 40
1.0
 40
1.0
 40
2.0
 40
2.0
 40
2.0
 40
3.0
 40
3.0
 40
3.0
 40
4.0
 40
4.0
 40
4.0
 40
4.0
 10
123.1239215810693
 20
-144.7010835749359
 30
0.0
 10
123.1239215810693
 20
-144.6459444082831
 30
0.0
 10
123.0791188044345
 20
-144.6011769082942
 30
0.0
 10
123.0240149169515
 20
-144.6011769082942
 30
0.0
 10
122.9688757516915
 20
-144.6011769082942
 30
0.0
 10
122.9241082528336
 20
-144.6459444082831
 30
0.0
 10
122.9241082528336
 20
-144.7010835749359
 30
0.0
 10
122.9241082528336
 20
-144.7568930193663
 30
0.0
 10
122.9688757516915
 20
-144.8018369082441
 30
0.0
 10
123.0240149169515
 20
-144.8018369082441
 30
0.0
 10
123.0791188044345
 20
-144.8018369082441
 30
0.0
 10
123.1239215810693
 20
-144.7568930193663
 30
0.0
 10
123.1239215810693
 20
-144.7010835749359
 30
0.0
  0
SPLINE
  5
7A
330
1F
100
AcDbEntity
  8
_U+30EC_U+30A4_U+30E4_U+30FC 1
 62
   179
420
  2234388
370
     9
100
AcDbSpline
210
0.0
220
0.0
230
1.0
 70
    11
 71
     3
 72
    17
 73
    13
 74
     0
 42
0.0000000001
 43
0.0000000001
 12
1.0
 22
0.0
 32
0.0
 13
1.0
 23
0.0
 33
0.0
 40
0.0
 40
0.0
 40
0.0
 40
0.0
 40
1.0
 40
1.0
 40
1.0
 40
2.0
 40
2.0
 40
2.0
 40
3.0
 40
3.0
 40
3.0
 40
4.0
 40
4.0
 40
4.0
 40
4.0
 10
86.12427169167567
 20
-139.7015521872968
 30
0.0
 10
86.12427169167567
 20
-139.646413020644
 30
0.0
 10
86.07950419281778
 20
-139.6016455206551
 30
0.0
 10
86.02436502755783
 20
-139.6016455206551
 30
0.0
 10
85.9685555845372
 20
-139.6016455206551
 30
0.0
 10
85.92378808567932
 20
-139.646413020644
 30
0.0
 10
85.92378808567932
 20
-139.7015521872968
 30
0.0
 10
85.92378808567932
 20
-139.756656076172
 30
0.0
 10
85.9685555845372
 20
-139.8014588539384
 30
0.0
 10
86.02436502755783
 20
-139.8014588539384
 30
0.0
 10
86.07950419281778
 20
-139.8014588539384
 30
0.0
 10
86.12427169167567
 20
-139.756656076172
 30
0.0
 10
86.12427169167567
 20
-139.7015521872968
 30
0.0
  0
SPLINE
  5
7B
330
1F
100
AcDbEntity
  8
_U+30EC_U+30A4_U+30E4_U+30FC 1
 62
   179
420
  2234388
370
     9
100
AcDbSpline
210
0.0
220
0.0
230
1.0
 70
    11
 71
     3
 72
    17
 73
    13
 74
     0
 42
0.0000000001
 43
0.0000000001
 12
1.0
 22
0.0
 32
0.0
 13
1.0
 23
0.0
 33
0.0
 40
0.0
 40
0.0
 40
0.0
 40
0.0
 40
1.0
 40
1.0
 40
1.0
 40
2.0
 40
2.0
 40
2.0
 40
3.0
 40
3.0
 40
3.0
 40
4.0
 40
4.0
 40
4.0
 40
4.0
 10
104.124228176903
 20
-159.9020310711358
 30
0.0
 10
104.124228176903
 20
-159.8469271822603
 30
0.0
 10
104.0794254002682
 20
-159.8021244044942
 30
0.0
 10
104.0243215127851
 20
-159.8021244044942
 30
0.0
 10
103.9691823475252
 20
-159.8021244044942
 30
0.0
 10
103.9244148486673
 20
-159.8469271822603
 30
0.0
 10
103.9244148486673
 20
-159.9020310711358
 30
0.0
 10
103.9244148486673
 20
-159.9571702377883
 30
0.0
 10
103.9691823475252
 20
-160.0019377377775
 30
0.0
 10
104.0243215127851
 20
-160.0019377377775
 30
0.0
 10
104.0794254002682
 20
-160.0019377377775
 30
0.0
 10
104.124228176903
 20
-159.9571702377883
 30
0.0
 10
104.124228176903
 20
-159.9020310711358
 30
0.0
  0
SPLINE
  5
7C
330
1F
100
AcDbEntity
  8
_U+30EC_U+30A4_U+30E4_U+30FC 1
 62
   179
420
  2234388
370
     9
100
AcDbSpline
210
0.0
220
0.0
230
1.0
 70
    11
 71
     3
 72
    17
 73
    13
 74
     0
 42
0.0000000001
 43
0.0000000001
 12
1.0
 22
0.0
 32
0.0
 13
1.0
 23
0.0
 33
0.0
 40
0.0
 40
0.0
 40
0.0
 40
0.0
 40
1.0
 40
1.0
 40
1.0
 40
2.0
 40
2.0
 40
2.0
 40
3.0
 40
3.0
 40
3.0
 40
4.0
 40
4.0
 40
4.0
 40
4.0
 10
94.12378982092429
 20
-159.9020310711358
 30
0.0
 10
94.12378982092429
 20
-159.8469271822603
 30
0.0
 10
94.07902232206641
 20
-159.8021244044942
 30
0.0
 10
94.02388315680645
 20
-159.8021244044942
 30
0.0
 10
93.96877926932338
 20
-159.8021244044942
 30
0.0
 10
93.92397649268862
 20
-159.8469271822603
 30
0.0
 10
93.92397649268862
 20
-159.9020310711358
 30
0.0
 10
93.92397649268862
 20
-159.9571702377883
 30
0.0
 10
93.96877926932338
 20
-160.0019377377775
 30
0.0
 10
94.02388315680645
 20
-160.0019377377775
 30
0.0
 10
94.07902232206641
 20
-160.0019377377775
 30
0.0
 10
94.12378982092429
 20
-159.9571702377883
 30
0.0
 10
94.12378982092429
 20
-159.9020310711358
 30
0.0
  0
SPLINE
  5
7D
330
1F
100
AcDbEntity
  8
_U+30EC_U+30A4_U+30E4_U+30FC 1
 62
   179
420
  2234388
370
     9
100
AcDbSpline
210
0.0
220
0.0
230
1.0
 70
    11
 71
     3
 72
    17
 73
    13
 74
     0
 42
0.0000000001
 43
0.0000000001
 12
1.0
 22
0.0
 32
0.0
 13
1.0
 23
0.0
 33
0.0
 40
0.0
 40
0.0
 40
0.0
 40
0.0
 40
1.0
 40
1.0
 40
1.0
 40
2.0
 40
2.0
 40
2.0
 40
3.0
 40
3.0
 40
3.0
 40
4.0
 40
4.0
 40
4.0
 40
4.0
 10
86.12427169167567
 20
-159.9020310711358
 30
0.0
 10
86.12427169167567
 20
-159.8469271822603
 30
0.0
 10
86.07950419281778
 20
-159.8021244044942
 30
0.0
 10
86.02436502755783
 20
-159.8021244044942
 30
0.0
 10
85.9685555845372
 20
-159.8021244044942
 30
0.0
 10
85.92378808567932
 20
-159.8469271822603
 30
0.0
 10
85.92378808567932
 20
-159.9020310711358
 30
0.0
 10
85.92378808567932
 20
-159.9571702377883
 30
0.0
 10
85.9685555845372
 20
-160.0019377377775
 30
0.0
 10
86.02436502755783
 20
-160.0019377377775
 30
0.0
 10
86.07950419281778
 20
-160.0019377377775
 30
0.0
 10
86.12427169167567
 20
-159.9571702377883
 30
0.0
 10
86.12427169167567
 20
-159.9020310711358
 30
0.0
  0
SPLINE
  5
7E
330
1F
100
AcDbEntity
  8
_U+30EC_U+30A4_U+30E4_U+30FC 1
 62
   179
420
  2234388
370
     9
100
AcDbSpline
210
0.0
220
0.0
230
1.0
 70
    11
 71
     3
 72
    17
 73
    13
 74
     0
 42
0.0000000001
 43
0.0000000001
 12
1.0
 22
0.0
 32
0.0
 13
1.0
 23
0.0
 33
0.0
 40
0.0
 40
0.0
 40
0.0
 40
0.0
 40
1.0
 40
1.0
 40
1.0
 40
2.0
 40
2.0
 40
2.0
 40
3.0
 40
3.0
 40
3.0
 40
4.0
 40
4.0
 40
4.0
 40
4.0
 10
108.1239872415273
 20
-154.7013105168803
 30
0.0
 10
108.1239872415273
 20
-154.6462066280053
 30
0.0
 10
108.0791844648925
 20
-154.6014038502386
 30
0.0
 10
108.024083306327
 20
-154.6014038502386
 30
0.0
 10
107.9689414121495
 20
-154.6014038502386
 30
0.0
 10
107.9241739132916
 20
-154.6462066280053
 30
0.0
 10
107.9241739132916
 20
-154.7013105168803
 30
0.0
 10
107.9241739132916
 20
-154.7564496835333
 30
0.0
 10
107.9689414121495
 20
-154.8012171835219
 30
0.0
 10
108.024083306327
 20
-154.8012171835219
 30
0.0
 10
108.0791844648925
 20
-154.8012171835219
 30
0.0
 10
108.1239872415273
 20
-154.7564496835333
 30
0.0
 10
108.1239872415273
 20
-154.7013105168803
 30
0.0
  0
SPLINE
  5
7F
330
1F
100
AcDbEntity
  8
_U+30EC_U+30A4_U+30E4_U+30FC 1
 62
   179
420
  2234388
370
     9
100
AcDbSpline
210
0.0
220
0.0
230
1.0
 70
    11
 71
     3
 72
    17
 73
    13
 74
     0
 42
0.0000000001
 43
0.0000000001
 12
1.0
 22
0.0
 32
0.0
 13
1.0
 23
0.0
 33
0.0
 40
0.0
 40
0.0
 40
0.0
 40
0.0
 40
1.0
 40
1.0
 40
1.0
 40
2.0
 40
2.0
 40
2.0
 40
3.0
 40
3.0
 40
3.0
 40
4.0
 40
4.0
 40
4.0
 40
4.0
 10
108.1239872415273
 20
-155.201549405644
 30
0.0
 10
108.1239872415273
 20
-155.146445516769
 30
0.0
 10
108.0791844648925
 20
-155.1016427390023
 30
0.0
 10
108.024083306327
 20
-155.1016427390023
 30
0.0
 10
107.9689414121495
 20
-155.1016427390023
 30
0.0
 10
107.9241739132916
 20
-155.146445516769
 30
0.0
 10
107.9241739132916
 20
-155.201549405644
 30
0.0
 10
107.9241739132916
 20
-155.256688572297
 30
0.0
 10
107.9689414121495
 20
-155.3014560722856
 30
0.0
 10
108.024083306327
 20
-155.3014560722856
 30
0.0
 10
108.0791844648925
 20
-155.3014560722856
 30
0.0
 10
108.1239872415273
 20
-155.256688572297
 30
0.0
 10
108.1239872415273
 20
-155.201549405644
 30
0.0
  0
SPLINE
  5
80
330
1F
100
AcDbEntity
  8
_U+30EC_U+30A4_U+30E4_U+30FC 1
 62
   179
420
  2234388
370
     9
100
AcDbSpline
210
0.0
220
0.0
230
1.0
 70
    11
 71
     3
 72
    17
 73
    13
 74
     0
 42
0.0000000001
 43
0.0000000001
 12
1.0
 22
0.0
 32
0.0
 13
1.0
 23
0.0
 33
0.0
 40
0.0
 40
0.0
 40
0.0
 40
0.0
 40
1.0
 40
1.0
 40
1.0
 40
2.0
 40
2.0
 40
2.0
 40
3.0
 40
3.0
 40
3.0
 40
4.0
 40
4.0
 40
4.0
 40
4.0
 10
123.1239215810693
 20
-154.7013105168803
 30
0.0
 10
123.1239215810693
 20
-154.6462066280053
 30
0.0
 10
123.0791188044345
 20
-154.6014038502386
 30
0.0
 10
123.0240149169515
 20
-154.6014038502386
 30
0.0
 10
122.9688757516915
 20
-154.6014038502386
 30
0.0
 10
122.9241082528336
 20
-154.6462066280053
 30
0.0
 10
122.9241082528336
 20
-154.7013105168803
 30
0.0
 10
122.9241082528336
 20
-154.7564496835333
 30
0.0
 10
122.9688757516915
 20
-154.8012171835219
 30
0.0
 10
123.0240149169515
 20
-154.8012171835219
 30
0.0
 10
123.0791188044345
 20
-154.8012171835219
 30
0.0
 10
123.1239215810693
 20
-154.7564496835333
 30
0.0
 10
123.1239215810693
 20
-154.7013105168803
 30
0.0
  0
POLYLINE
  5
81
330
1F
100
AcDbEntity
  8
_U+30EC_U+30A4_U+30E4_U+30FC 1
 62
   179
420
  2234388
370
     9
100
AcDb2dPolyline
 66
     1
 10
0.0
 20
0.0
 30
0.0
  0
VERTEX
  5
82
330
81
100
AcDbEntity
  8
_U+30EC_U+30A4_U+30E4_U+30FC 1
 62
   179
420
  2234388
370
     9
100
AcDbVertex
100
AcDb2dVertex
 10
123.0240149169515
 20
-143.7013113529636
 30
0.0
  0
VERTEX
  5
83
330
81
100
AcDbEntity
  8
_U+30EC_U+30A4_U+30E4_U+30FC 1
 62
   179
420
  2234388
370
     9
100
AcDbVertex
100
AcDb2dVertex
 10
123.0240149169515
 20
-139.9309988539062
 30
0.0
  0
SEQEND
  5
84
330
81
100
AcDbEntity
  8
_U+30EC_U+30A4_U+30E4_U+30FC 1
 62
   179
420
  2234388
370
     9
  0
POLYLINE
  5
85
330
1F
100
AcDbEntity
  8
_U+30EC_U+30A4_U+30E4_U+30FC 1
 62
   179
420
  2234388
370
     9
100
AcDb2dPolyline
 66
     1
 10
0.0
 20
0.0
 30
0.0
  0
VERTEX
  5
86
330
85
100
AcDbEntity
  8
_U+30EC_U+30A4_U+30E4_U+30FC 1
 62
   179
420
  2234388
370
     9
100
AcDbVertex
100
AcDb2dVertex
 10
123.0240149169515
 20
-143.7013113529636
 30
0.0
  0
VERTEX
  5
87
330
85
100
AcDbEntity
  8
_U+30EC_U+30A4_U+30E4_U+30FC 1
 62
   179
420
  2234388
370
     9
100
AcDbVertex
100
AcDb2dVertex
 10
123.0240149169515
 20
-144.7010835749359
 30
0.0
  0
SEQEND
  5
88
330
85
100
AcDbEntity
  8
_U+30EC_U+30A4_U+30E4_U+30FC 1
 62
   179
420
  2234388
370
     9
  0
POLYLINE
  5
89
330
1F
100
AcDbEntity
  8
_U+30EC_U+30A4_U+30E4_U+30FC 1
 62
   179
420
  2234388
370
     9
100
AcDb2dPolyline
 66
     1
 10
0.0
 20
0.0
 30
0.0
  0
VERTEX
  5
8A
330
89
100
AcDbEntity
  8
_U+30EC_U+30A4_U+30E4_U+30FC 1
 62
   179
420
  2234388
370
     9
100
AcDbVertex
100
AcDb2dVertex
 10
121.5639735653113
 20
-143.7013113529636
 30
0.0
  0
VERTEX
  5
8B
330
89
100
AcDbEntity
  8
_U+30EC_U+30A4_U+30E4_U+30FC 1
 62
   179
420
  2234388
370
     9
100
AcDbVertex
100
AcDb2dVertex
 10
124.0237871136674
 20
-143.7013113529636
 30
0.0
  0
SEQEND
  5
8C
330
89
100
AcDbEntity
  8
_U+30EC_U+30A4_U+30E4_U+30FC 1
 62
   179
420
  2234388
370
     9
  0
POLYLINE
  5
8D
330
1F
100
AcDbEntity
  8
_U+30EC_U+30A4_U+30E4_U+30FC 1
 62
   179
420
  2234388
370
     9
100
AcDb2dPolyline
 66
     1
 10
0.0
 20
0.0
 30
0.0
  0
VERTEX
  5
8E
330
8D
100
AcDbEntity
  8
_U+30EC_U+30A4_U+30E4_U+30FC 1
 62
   179
420
  2234388
370
     9
100
AcDbVertex
100
AcDb2dVertex
 10
121.5639735653113
 20
-144.7010835749359
 30
0.0
  0
VERTEX
  5
8F
330
8D
100
AcDbEntity
  8
_U+30EC_U+30A4_U+30E4_U+30FC 1
 62
   179
420
  2234388
370
     9
100
AcDbVertex
100
AcDb2dVertex
 10
124.0237871136674
 20
-144.7010835749359
 30
0.0
  0
SEQEND
  5
90
330
8D
100
AcDbEntity
  8
_U+30EC_U+30A4_U+30E4_U+30FC 1
 62
   179
420
  2234388
370
     9
  0
INSERT
  5
92
330
1F
100
AcDbEntity
  8
_U+30EC_U+30A4_U+30E4_U+30FC 1
100
AcDbBlockReference
  2
block 2
 10
0.0
 20
0.0
 30
0.0
  0
POLYLINE
  5
97
330
1F
100
AcDbEntity
  8
_U+30EC_U+30A4_U+30E4_U+30FC 1
 62
   179
420
  2234388
370
     9
100
AcDb2dPolyline
 66
     1
 10
0.0
 20
0.0
 30
0.0
  0
VERTEX
  5
98
330
97
100
AcDbEntity
  8
_U+30EC_U+30A4_U+30E4_U+30FC 1
 62
   179
420
  2234388
370
     9
100
AcDbVertex
100
AcDb2dVertex
 10
123.0240149169515
 20
-144.7010835749359
 30
0.0
  0
VERTEX
  5
99
330
97
100
AcDbEntity
  8
_U+30EC_U+30A4_U+30E4_U+30FC 1
 62
   179
420
  2234388
370
     9
100
AcDbVertex
100
AcDb2dVertex
 10
123.0240149169515
 20
-154.7013105168803
 30
0.0
  0
SEQEND
  5
9A
330
97
100
AcDbEntity
  8
_U+30EC_U+30A4_U+30E4_U+30FC 1
 62
   179
420
  2234388
370
     9
  0
POLYLINE
  5
9B
330
1F
100
AcDbEntity
  8
_U+30EC_U+30A4_U+30E4_U+30FC 1
 62
   179
420
  2234388
370
     9
100
AcDb2dPolyline
 66
     1
 10
0.0
 20
0.0
 30
0.0
  0
VERTEX
  5
9C
330
9B
100
AcDbEntity
  8
_U+30EC_U+30A4_U+30E4_U+30FC 1
 62
   179
420
  2234388
370
     9
100
AcDbVertex
100
AcDb2dVertex
 10
106.5640392257693
 20
-154.7013105168803
 30
0.0
  0
VERTEX
  5
9D
330
9B
100
AcDbEntity
  8
_U+30EC_U+30A4_U+30E4_U+30FC 1
 62
   179
420
  2234388
370
     9
100
AcDbVertex
100
AcDb2dVertex
 10
124.0237871136674
 20
-154.7013105168803
 30
0.0
  0
SEQEND
  5
9E
330
9B
100
AcDbEntity
  8
_U+30EC_U+30A4_U+30E4_U+30FC 1
 62
   179
420
  2234388
370
     9
  0
INSERT
  5
A0
330
1F
100
AcDbEntity
  8
_U+30EC_U+30A4_U+30E4_U+30FC 1
100
AcDbBlockReference
  2
block 3
 10
0.0
 20
0.0
 30
0.0
  0
POLYLINE
  5
A8
330
1F
100
AcDbEntity
  8
_U+30EC_U+30A4_U+30E4_U+30FC 1
 62
   179
420
  2234388
370
     9
100
AcDb2dPolyline
 66
     1
 10
0.0
 20
0.0
 30
0.0
  0
VERTEX
  5
A9
330
A8
100
AcDbEntity
  8
_U+30EC_U+30A4_U+30E4_U+30FC 1
 62
   179
420
  2234388
370
     9
100
AcDbVertex
100
AcDb2dVertex
 10
108.024083306327
 20
-154.7013105168803
 30
0.0
  0
VERTEX
  5
AA
330
A8
100
AcDbEntity
  8
_U+30EC_U+30A4_U+30E4_U+30FC 1
 62
   179
420
  2234388
370
     9
100
AcDbVertex
100
AcDb2dVertex
 10
108.024083306327
 20
-149.4437574626391
 30
0.0
  0
SEQEND
  5
AB
330
A8
100
AcDbEntity
  8
_U+30EC_U+30A4_U+30E4_U+30FC 1
 62
   179
420
  2234388
370
     9
  0
POLYLINE
  5
AC
330
1F
100
AcDbEntity
  8
_U+30EC_U+30A4_U+30E4_U+30FC 1
 62
   179
420
  2234388
370
     9
100
AcDb2dPolyline
 66
     1
 10
0.0
 20
0.0
 30
0.0
  0
VERTEX
  5
AD
330
AC
100
AcDbEntity
  8
_U+30EC_U+30A4_U+30E4_U+30FC 1
 62
   179
420
  2234388
370
     9
100
AcDbVertex
100
AcDb2dVertex
 10
108.024083306327
 20
-154.7013105168803
 30
0.0
  0
VERTEX
  5
AE
330
AC
100
AcDbEntity
  8
_U+30EC_U+30A4_U+30E4_U+30FC 1
 62
   179
420
  2234388
370
     9
100
AcDbVertex
100
AcDb2dVertex
 10
108.024083306327
 20
-156.2019919053939
 30
0.0
  0
SEQEND
  5
AF
330
AC
100
AcDbEntity
  8
_U+30EC_U+30A4_U+30E4_U+30FC 1
 62
   179
420
  2234388
370
     9
  0
POLYLINE
  5
B0
330
1F
100
AcDbEntity
  8
_U+30EC_U+30A4_U+30E4_U+30FC 1
 62
   179
420
  2234388
370
     9
100
AcDb2dPolyline
 66
     1
 10
0.0
 20
0.0
 30
0.0
  0
VERTEX
  5
B1
330
B0
100
AcDbEntity
  8
_U+30EC_U+30A4_U+30E4_U+30FC 1
 62
   179
420
  2234388
370
     9
100
AcDbVertex
100
AcDb2dVertex
 10
106.5640392257693
 20
-154.7013105168803
 30
0.0
  0
VERTEX
  5
B2
330
B0
100
AcDbEntity
  8
_U+30EC_U+30A4_U+30E4_U+30FC 1
 62
   179
420
  2234388
370
     9
100
AcDbVertex
100
AcDb2dVertex
 10
109.0238174963485
 20
-154.7013105168803
 30
0.0
  0
SEQEND
  5
B3
330
B0
100
AcDbEntity
  8
_U+30EC_U+30A4_U+30E4_U+30FC 1
 62
   179
420
  2234388
370
     9
  0
POLYLINE
  5
B4
330
1F
100
AcDbEntity
  8
_U+30EC_U+30A4_U+30E4_U+30FC 1
 62
   179
420
  2234388
370
     9
100
AcDb2dPolyline
 66
     1
 10
0.0
 20
0.0
 30
0.0
  0
VERTEX
  5
B5
330
B4
100
AcDbEntity
  8
_U+30EC_U+30A4_U+30E4_U+30FC 1
 62
   179
420
  2234388
370
     9
100
AcDbVertex
100
AcDb2dVertex
 10
106.5640392257693
 20
-155.201549405644
 30
0.0
  0
VERTEX
  5
B6
330
B4
100
AcDbEntity
  8
_U+30EC_U+30A4_U+30E4_U+30FC 1
 62
   179
420
  2234388
370
     9
100
AcDbVertex
100
AcDb2dVertex
 10
109.0238174963485
 20
-155.201549405644
 30
0.0
  0
SEQEND
  5
B7
330
B4
100
AcDbEntity
  8
_U+30EC_U+30A4_U+30E4_U+30FC 1
 62
   179
420
  2234388
370
     9
  0
INSERT
  5
B9
330
1F
100
AcDbEntity
  8
_U+30EC_U+30A4_U+30E4_U+30FC 1
100
AcDbBlockReference
  2
block 4
 10
0.0
 20
0.0
 30
0.0
  0
POLYLINE
  5
C9
330
1F
100
AcDbEntity
  8
_U+30EC_U+30A4_U+30E4_U+30FC 1
 62
   179
420
  2234388
370
     9
100
AcDb2dPolyline
 66
     1
 10
0.0
 20
0.0
 30
0.0
  0
VERTEX
  5
CA
330
C9
100
AcDbEntity
  8
_U+30EC_U+30A4_U+30E4_U+30FC 1
 62
   179
420
  2234388
370
     9
100
AcDbVertex
100
AcDb2dVertex
 10
94.02388315680645
 20
-159.9020310711358
 30
0.0
  0
VERTEX
  5
CB
330
C9
100
AcDbEntity
  8
_U+30EC_U+30A4_U+30E4_U+30FC 1
 62
   179
420
  2234388
370
     9
100
AcDbVertex
100
AcDb2dVertex
 10
104.0243215127851
 20
-159.9020310711358
 30
0.0
  0
SEQEND
  5
CC
330
C9
100
AcDbEntity
  8
_U+30EC_U+30A4_U+30E4_U+30FC 1
 62
   179
420
  2234388
370
     9
  0
POLYLINE
  5
CD
330
1F
100
AcDbEntity
  8
_U+30EC_U+30A4_U+30E4_U+30FC 1
 62
   179
420
  2234388
370
     9
100
AcDb2dPolyline
 66
     1
 10
0.0
 20
0.0
 30
0.0
  0
VERTEX
  5
CE
330
CD
100
AcDbEntity
  8
_U+30EC_U+30A4_U+30E4_U+30FC 1
 62
   179
420
  2234388
370
     9
100
AcDbVertex
100
AcDb2dVertex
 10
94.02388315680645
 20
-158.4420249603896
 30
0.0
  0
VERTEX
  5
CF
330
CD
100
AcDbEntity
  8
_U+30EC_U+30A4_U+30E4_U+30FC 1
 62
   179
420
  2234388
370
     9
100
AcDbVertex
100
AcDb2dVertex
 10
94.02388315680645
 20
-160.9025088486632
 30
0.0
  0
SEQEND
  5
D0
330
CD
100
AcDbEntity
  8
_U+30EC_U+30A4_U+30E4_U+30FC 1
 62
   179
420
  2234388
370
     9
  0
POLYLINE
  5
D1
330
1F
100
AcDbEntity
  8
_U+30EC_U+30A4_U+30E4_U+30FC 1
 62
   179
420
  2234388
370
     9
100
AcDb2dPolyline
 66
     1
 10
0.0
 20
0.0
 30
0.0
  0
VERTEX
  5
D2
330
D1
100
AcDbEntity
  8
_U+30EC_U+30A4_U+30E4_U+30FC 1
 62
   179
420
  2234388
370
     9
100
AcDbVertex
100
AcDb2dVertex
 10
104.0243215127851
 20
-157.741972738342
 30
0.0
  0
VERTEX
  5
D3
330
D1
100
AcDbEntity
  8
_U+30EC_U+30A4_U+30E4_U+30FC 1
 62
   179
420
  2234388
370
     9
100
AcDbVertex
100
AcDb2dVertex
 10
104.0243215127851
 20
-160.9025088486632
 30
0.0
  0
SEQEND
  5
D4
330
D1
100
AcDbEntity
  8
_U+30EC_U+30A4_U+30E4_U+30FC 1
 62
   179
420
  2234388
370
     9
  0
INSERT
  5
D6
330
1F
100
AcDbEntity
  8
_U+30EC_U+30A4_U+30E4_U+30FC 1
100
AcDbBlockReference
  2
block 5
 10
0.0
 20
0.0
 30
0.0
  0
POLYLINE
  5
DE
330
1F
100
AcDbEntity
  8
_U+30EC_U+30A4_U+30E4_U+30FC 1
 62
   179
420
  2234388
370
     9
100
AcDb2dPolyline
 66
     1
 10
0.0
 20
0.0
 30
0.0
  0
VERTEX
  5
DF
330
DE
100
AcDbEntity
  8
_U+30EC_U+30A4_U+30E4_U+30FC 1
 62
   179
420
  2234388
370
     9
100
AcDbVertex
100
AcDb2dVertex
 10
86.02436502755783
 20
-139.7015521872968
 30
0.0
  0
VERTEX
  5
E0
330
DE
100
AcDbEntity
  8
_U+30EC_U+30A4_U+30E4_U+30FC 1
 62
   179
420
  2234388
370
     9
100
AcDbVertex
100
AcDb2dVertex
 10
119.0242558523271
 20
-139.7015521872968
 30
0.0
  0
SEQEND
  5
E1
330
DE
100
AcDbEntity
  8
_U+30EC_U+30A4_U+30E4_U+30FC 1
 62
   179
420
  2234388
370
     9
  0
POLYLINE
  5
E2
330
1F
100
AcDbEntity
  8
_U+30EC_U+30A4_U+30E4_U+30FC 1
 62
   179
420
  2234388
370
     9
100
AcDb2dPolyline
 66
     1
 10
0.0
 20
0.0
 30
0.0
  0
VERTEX
  5
E3
330
E2
100
AcDbEntity
  8
_U+30EC_U+30A4_U+30E4_U+30FC 1
 62
   179
420
  2234388
370
     9
100
AcDbVertex
100
AcDb2dVertex
 10
86.02436502755783
 20
-141.1615935758208
 30
0.0
  0
VERTEX
  5
E4
330
E2
100
AcDbEntity
  8
_U+30EC_U+30A4_U+30E4_U+30FC 1
 62
   179
420
  2234388
370
     9
100
AcDbVertex
100
AcDb2dVertex
 10
86.02436502755783
 20
-138.7011096875469
 30
0.0
  0
SEQEND
  5
E5
330
E2
100
AcDbEntity
  8
_U+30EC_U+30A4_U+30E4_U+30FC 1
 62
   179
420
  2234388
370
     9
  0
POLYLINE
  5
E6
330
1F
100
AcDbEntity
  8
_U+30EC_U+30A4_U+30E4_U+30FC 1
 62
   179
420
  2234388
370
     9
100
AcDb2dPolyline
 66
     1
 10
0.0
 20
0.0
 30
0.0
  0
VERTEX
  5
E7
330
E6
100
AcDbEntity
  8
_U+30EC_U+30A4_U+30E4_U+30FC 1
 62
   179
420
  2234388
370
     9
100
AcDbVertex
100
AcDb2dVertex
 10
119.0242558523271
 20
-141.1615935758208
 30
0.0
  0
VERTEX
  5
E8
330
E6
100
AcDbEntity
  8
_U+30EC_U+30A4_U+30E4_U+30FC 1
 62
   179
420
  2234388
370
     9
100
AcDbVertex
100
AcDb2dVertex
 10
119.0242558523271
 20
-138.7011096875469
 30
0.0
  0
SEQEND
  5
E9
330
E6
100
AcDbEntity
  8
_U+30EC_U+30A4_U+30E4_U+30FC 1
 62
   179
420
  2234388
370
     9
  0
INSERT
  5
EB
330
1F
100
AcDbEntity
  8
_U+30EC_U+30A4_U+30E4_U+30FC 1
100
AcDbBlockReference
  2
block 6
 10
0.0
 20
0.0
 30
0.0
  0
POLYLINE
  5
F2
330
1F
100
AcDbEntity
  8
_U+30EC_U+30A4_U+30E4_U+30FC 1
 62
   179
420
  2234388
370
     9
100
AcDb2dPolyline
 66
     1
 10
0.0
 20
0.0
 30
0.0
  0
VERTEX
  5
F3
330
F2
100
AcDbEntity
  8
_U+30EC_U+30A4_U+30E4_U+30FC 1
 62
   179
420
  2234388
370
     9
100
AcDbVertex
100
AcDb2dVertex
 10
94.02388315680645
 20
-159.9020310711358
 30
0.0
  0
VERTEX
  5
F4
330
F2
100
AcDbEntity
  8
_U+30EC_U+30A4_U+30E4_U+30FC 1
 62
   179
420
  2234388
370
     9
100
AcDbVertex
100
AcDb2dVertex
 10
86.02436502755783
 20
-159.9020310711358
 30
0.0
  0
SEQEND
  5
F5
330
F2
100
AcDbEntity
  8
_U+30EC_U+30A4_U+30E4_U+30FC 1
 62
   179
420
  2234388
370
     9
  0
POLYLINE
  5
F6
330
1F
100
AcDbEntity
  8
_U+30EC_U+30A4_U+30E4_U+30FC 1
 62
   179
420
  2234388
370
     9
100
AcDb2dPolyline
 66
     1
 10
0.0
 20
0.0
 30
0.0
  0
VERTEX
  5
F7
330
F6
100
AcDbEntity
  8
_U+30EC_U+30A4_U+30E4_U+30FC 1
 62
   179
420
  2234388
370
     9
100
AcDbVertex
100
AcDb2dVertex
 10
86.02436502755783
 20
-147.741886907509
 30
0.0
  0
VERTEX
  5
F8
330
F6
100
AcDbEntity
  8
_U+30EC_U+30A4_U+30E4_U+30FC 1
 62
   179
420
  2234388
370
     9
100
AcDbVertex
100
AcDb2dVertex
 10
86.02436502755783
 20
-160.9025088486632
 30
0.0
  0
SEQEND
  5
F9
330
F6
100
AcDbEntity
  8
_U+30EC_U+30A4_U+30E4_U+30FC 1
 62
   179
420
  2234388
370
     9
  0
INSERT
  5
FB
330
1F
100
AcDbEntity
  8
_U+30EC_U+30A4_U+30E4_U+30FC 1
100
AcDbBlockReference
  2
block 7
 10
0.0
 20
0.0
 30
0.0
  0
ENDSEC
  0
SECTION
  2
OBJECTS
  0
DICTIONARY
  5
C
330
0
100
AcDbDictionary
281
     1
  3
ACAD_GROUP
350
D
  3
ACAD_LAYOUT
350
1A
  3
ACAD_MATERIAL
350
3B
  3
ACAD_MLEADERSTYLE
350
103
  3
ACAD_MLINESTYLE
350
17
  3
ACAD_PLOTSETTINGS
350
19
  3
ACAD_PLOTSTYLENAME
350
E
  3
ACAD_TABLESTYLE
350
102
  3
ACAD_VISUALSTYLE
350
2A
  0
SUN
  5
3F
330
29
100
AcDbSun
 90
        1
290
     0
 63
     7
421
 16777215
 40
1.0
291
     1
 91
  2455826
 92
 54000000
292
     0
 70
     2
 71
   256
280
     1
  0
DICTIONARY
  5
D
102
{ACAD_REACTORS
330
C
102
}
330
C
100
AcDbDictionary
281
     1
  0
DICTIONARY
  5
1A
102
{ACAD_REACTORS
330
C
102
}
330
C
100
AcDbDictionary
281
     1
  3
Layout1
350
1E
  3
Layout2
350
26
  3
Model
350
22
  0
DICTIONARY
  5
3B
102
{ACAD_REACTORS
330
C
102
}
330
C
100
AcDbDictionary
281
     1
  3
ByBlock
350
3D
  3
ByLayer
350
3C
  3
Global
350
3E
  0
DICTIONARY
  5
103
102
{ACAD_REACTORS
330
C
102
}
330
C
100
AcDbDictionary
281
     1
  0
DICTIONARY
  5
17
102
{ACAD_REACTORS
330
C
102
}
330
C
100
AcDbDictionary
281
     1
  3
Standard
350
18
  0
DICTIONARY
  5
19
102
{ACAD_REACTORS
330
C
102
}
330
C
100
AcDbDictionary
281
     1
  0
ACDBDICTIONARYWDFLT
  5
E
102
{ACAD_REACTORS
330
C
102
}
330
C
100
AcDbDictionary
281
     1
  3
Normal
350
F
100
AcDbDictionaryWithDefault
340
F
  0
DICTIONARY
  5
102
102
{ACAD_REACTORS
330
C
102
}
330
C
100
AcDbDictionary
281
     1
  0
DICTIONARY
  5
2A
102
{ACAD_REACTORS
330
C
102
}
330
C
100
AcDbDictionary
281
     1
  3
2dWireframe
350
2F
  3
3D Hidden
350
31
  3
3dWireframe
350
30
  3
Basic
350
32
  3
Brighten
350
36
  3
ColorChange
350
3A
  3
Conceptual
350
34
  3
Dim
350
35
  3
Facepattern
350
39
  3
Flat
350
2B
  3
FlatWithEdges
350
2C
  3
Gouraud
350
2D
  3
GouraudWithEdges
350
2E
  3
Linepattern
350
38
  3
Realistic
350
33
  3
Thicken
350
37
  0
LAYOUT
  5
1E
102
{ACAD_REACTORS
330
1A
102
}
330
1A
100
AcDbPlotSettings
  1

  2
none_device
  4

  6

 40
0.0
 41
0.0
 42
0.0
 43
0.0
 44
0.0
 45
0.0
 46
0.0
 47
0.0
 48
0.0
 49
0.0
140
0.0
141
0.0
142
1.0
143
1.0
 70
   688
 72
     0
 73
     0
 74
     5
  7

 75
    16
 76
     0
 77
     2
 78
   300
147
1.0
148
0.0
149
0.0
100
AcDbLayout
  1
Layout1
 70
     1
 71
     1
 10
0.0
 20
0.0
 11
12.0
 21
9.0
 12
0.0
 22
0.0
 32
0.0
 14
1.000000000000000E+20
 24
1.000000000000000E+20
 34
1.000000000000000E+20
 15
-1.000000000000000E+20
 25
-1.000000000000000E+20
 35
-1.000000000000000E+20
146
0.0
 13
0.0
 23
0.0
 33
0.0
 16
1.0
 26
0.0
 36
0.0
 17
0.0
 27
1.0
 37
0.0
 76
     0
330
1B
  0
LAYOUT
  5
26
102
{ACAD_REACTORS
330
1A
102
}
330
1A
100
AcDbPlotSettings
  1

  2
none_device
  4

  6

 40
0.0
 41
0.0
 42
0.0
 43
0.0
 44
0.0
 45
0.0
 46
0.0
 47
0.0
 48
0.0
 49
0.0
140
0.0
141
0.0
142
1.0
143
1.0
 70
   688
 72
     0
 73
     0
 74
     5
  7

 75
    16
 76
     0
 77
     2
 78
   300
147
1.0
148
0.0
149
0.0
100
AcDbLayout
  1
Layout2
 70
     1
 71
     2
 10
0.0
 20
0.0
 11
0.0
 21
0.0
 12
0.0
 22
0.0
 32
0.0
 14
0.0
 24
0.0
 34
0.0
 15
0.0
 25
0.0
 35
0.0
146
0.0
 13
0.0
 23
0.0
 33
0.0
 16
1.0
 26
0.0
 36
0.0
 17
0.0
 27
1.0
 37
0.0
 76
     0
330
23
  0
LAYOUT
  5
22
102
{ACAD_REACTORS
330
1A
102
}
330
1A
100
AcDbPlotSettings
  1

  2
none_device
  4

  6

 40
0.0
 41
0.0
 42
0.0
 43
0.0
 44
0.0
 45
0.0
 46
0.0
 47
0.0
 48
0.0
 49
0.0
140
0.0
141
0.0
142
1.0
143
1.0
 70
  1712
 72
     0
 73
     0
 74
     0
  7

 75
     0
 76
     0
 77
     2
 78
   300
147
1.0
148
0.0
149
0.0
100
AcDbLayout
  1
Model
 70
     1
 71
     0
 10
0.0
 20
0.0
 11
12.0
 21
9.0
 12
0.0
 22
0.0
 32
0.0
 14
1.000000000000000E+20
 24
1.000000000000000E+20
 34
1.000000000000000E+20
 15
-1.000000000000000E+20
 25
-1.000000000000000E+20
 35
-1.000000000000000E+20
146
0.0
 13
0.0
 23
0.0
 33
0.0
 16
1.0
 26
0.0
 36
0.0
 17
0.0
 27
1.0
 37
0.0
 76
     0
330
1F
331
29
  0
MATERIAL
  5
3D
102
{ACAD_REACTORS
330
3B
102
}
330
3B
100
AcDbMaterial
  1
ByBlock
 72
     1
 94
      127
  0
MATERIAL
  5
3C
102
{ACAD_REACTORS
330
3B
102
}
330
3B
100
AcDbMaterial
  1
ByLayer
 72
     1
 94
      127
  0
MATERIAL
  5
3E
102
{ACAD_REACTORS
330
3B
102
}
330
3B
100
AcDbMaterial
  1
Global
 72
     1
 94
      127
  0
MLINESTYLE
  5
18
102
{ACAD_REACTORS
330
17
102
}
330
17
100
AcDbMlineStyle
  2
Standard
 70
     0
  3

 62
   256
 51
90.0
 52
90.0
 71
     2
 49
0.5
 62
   256
  6
BYLAYER
 49
-0.5
 62
   256
  6
BYLAYER
  0
ACDBPLACEHOLDER
  5
F
102
{ACAD_REACTORS
330
E
102
}
330
E
  0
VISUALSTYLE
  5
2F
102
{ACAD_REACTORS
330
2A
102
}
330
2A
100
AcDbVisualStyle
  2
2dWireframe
 70
     4
177
     2
291
     0
 71
     0
176
     1
 72
     2
176
     1
 73
     0
176
     1
 90
        0
176
     1
 40
-0.6
176
     1
 41
-30.0
176
     1
 62
     5
 63
     7
421
 16777215
176
     1
 74
     1
176
     1
 91
        4
176
     1
 64
     7
176
     1
 65
   257
176
     1
 75
     1
176
     1
175
     1
176
     1
 42
1.0
176
     1
 92
        0
176
     1
 66
   257
176
     1
 43
1.0
176
     1
 76
     1
176
     1
 77
     6
176
     1
 78
     2
176
     1
 67
     7
176
     1
 79
     5
176
     1
170
     0
176
     1
171
     0
176
     1
290
     0
176
     1
 93
        1
176
     1
 44
0.0
176
     1
173
     0
176
     1
  0
VISUALSTYLE
  5
31
102
{ACAD_REACTORS
330
2A
102
}
330
2A
100
AcDbVisualStyle
  2
3D Hidden
 70
     6
177
     2
291
     0
 71
     1
176
     1
 72
     2
176
     1
 73
     2
176
     1
 90
        0
176
     1
 40
-0.6
176
     1
 41
-30.0
176
     1
 62
     5
 63
     7
421
 16777215
176
     1
 74
     2
176
     1
 91
        2
176
     1
 64
     7
176
     1
 65
   257
176
     1
 75
     2
176
     1
175
     1
176
     1
 42
40.0
176
     1
 92
        0
176
     1
 66
   257
176
     1
 43
1.0
176
     1
 76
     1
176
     1
 77
     6
176
     1
 78
     2
176
     1
 67
     7
176
     1
 79
     3
176
     1
170
     0
176
     1
171
     0
176
     1
290
     0
176
     1
 93
        1
176
     1
 44
0.0
176
     1
173
     0
176
     1
  0
VISUALSTYLE
  5
30
102
{ACAD_REACTORS
330
2A
102
}
330
2A
100
AcDbVisualStyle
  2
3dWireframe
 70
     5
177
     2
291
     0
 71
     0
176
     1
 72
     2
176
     1
 73
     0
176
     1
 90
        0
176
     1
 40
-0.6
176
     1
 41
-30.0
176
     1
 62
     5
 63
     7
421
 16777215
176
     1
 74
     1
176
     1
 91
        4
176
     1
 64
     7
176
     1
 65
   257
176
     1
 75
     1
176
     1
175
     1
176
     1
 42
1.0
176
     1
 92
        0
176
     1
 66
   257
176
     1
 43
1.0
176
     1
 76
     1
176
     1
 77
     6
176
     1
 78
     2
176
     1
 67
     7
176
     1
 79
     5
176
     1
170
     0
176
     1
171
     0
176
     1
290
     0
176
     1
 93
        1
176
     1
 44
0.0
176
     1
173
     0
176
     1
  0
VISUALSTYLE
  5
32
102
{ACAD_REACTORS
330
2A
102
}
330
2A
100
AcDbVisualStyle
  2
Basic
 70
     7
177
     2
291
     1
 71
     1
176
     1
 72
     0
176
     1
 73
     1
176
     1
 90
        0
176
     1
 40
-0.6
176
     1
 41
-30.0
176
     1
 62
     5
 63
     7
421
 16777215
176
     1
 74
     0
176
     1
 91
        4
176
     1
 64
     7
176
     1
 65
   257
176
     1
 75
     1
176
     1
175
     1
176
     1
 42
1.0
176
     1
 92
        8
176
     1
 66
     7
176
     1
 43
1.0
176
     1
 76
     1
176
     1
 77
     6
176
     1
 78
     2
176
     1
 67
     7
176
     1
 79
     5
176
     1
170
     0
176
     1
171
     0
176
     1
290
     0
176
     1
 93
        1
176
     1
 44
0.0
176
     1
173
     0
176
     1
  0
VISUALSTYLE
  5
36
102
{ACAD_REACTORS
330
2A
102
}
330
2A
100
AcDbVisualStyle
  2
Brighten
 70
    12
177
     2
291
     1
 71
     2
176
     1
 72
     2
176
     1
 73
     0
176
     1
 90
        0
176
     1
 40
-0.6
176
     1
 41
-30.0
176
     1
 62
     5
 63
     7
421
 16777215
176
     1
 74
     1
176
     1
 91
        4
176
     1
 64
     7
176
     1
 65
   257
176
     1
 75
     1
176
     1
175
     1
176
     1
 42
1.0
176
     1
 92
        8
176
     1
 66
     7
176
     1
 43
1.0
176
     1
 76
     1
176
     1
 77
     6
176
     1
 78
     2
176
     1
 67
     7
176
     1
 79
     5
176
     1
170
     0
176
     1
171
     0
176
     1
290
     0
176
     1
 93
        1
176
     1
 44
50.0
176
     1
173
     0
176
     1
  0
VISUALSTYLE
  5
3A
102
{ACAD_REACTORS
330
2A
102
}
330
2A
100
AcDbVisualStyle
  2
ColorChange
 70
    16
177
     2
291
     1
 71
     2
176
     1
 72
     2
176
     1
 73
     3
176
     1
 90
        0
176
     1
 40
-0.6
176
     1
 41
-30.0
176
     1
 62
     5
 63
     8
421
  8421504
176
     1
 74
     1
176
     1
 91
        4
176
     1
 64
     7
176
     1
 65
   257
176
     1
 75
     1
176
     1
175
     1
176
     1
 42
1.0
176
     1
 92
        8
176
     1
 66
     8
424
  8421504
176
     1
 43
1.0
176
     1
 76
     1
176
     1
 77
     6
176
     1
 78
     2
176
     1
 67
     7
176
     1
 79
     5
176
     1
170
     0
176
     1
171
     0
176
     1
290
     0
176
     1
 93
        1
176
     1
 44
0.0
176
     1
173
     0
176
     1
  0
VISUALSTYLE
  5
34
102
{ACAD_REACTORS
330
2A
102
}
330
2A
100
AcDbVisualStyle
  2
Conceptual
 70
     9
177
     2
291
     0
 71
     3
176
     1
 72
     2
176
     1
 73
     0
176
     1
 90
        0
176
     1
 40
-0.6
176
     1
 41
-30.0
176
     1
 62
     5
 63
     7
421
 16777215
176
     1
 74
     2
176
     1
 91
        2
176
     1
 64
     7
176
     1
 65
   257
176
     1
 75
     1
176
     1
175
     1
176
     1
 42
40.0
176
     1
 92
        8
176
     1
 66
     7
176
     1
 43
1.0
176
     1
 76
     1
176
     1
 77
     6
176
     1
 78
     2
176
     1
 67
     7
176
     1
 79
     3
176
     1
170
     0
176
     1
171
     0
176
     1
290
     0
176
     1
 93
        1
176
     1
 44
0.0
176
     1
173
     0
176
     1
  0
VISUALSTYLE
  5
35
102
{ACAD_REACTORS
330
2A
102
}
330
2A
100
AcDbVisualStyle
  2
Dim
 70
    11
177
     2
291
     1
 71
     2
176
     1
 72
     2
176
     1
 73
     0
176
     1
 90
        0
176
     1
 40
-0.6
176
     1
 41
-30.0
176
     1
 62
     5
 63
     7
421
 16777215
176
     1
 74
     1
176
     1
 91
        4
176
     1
 64
     7
176
     1
 65
   257
176
     1
 75
     1
176
     1
175
     1
176
     1
 42
1.0
176
     1
 92
        8
176
     1
 66
     7
176
     1
 43
1.0
176
     1
 76
     1
176
     1
 77
     6
176
     1
 78
     2
176
     1
 67
     7
176
     1
 79
     5
176
     1
170
     0
176
     1
171
     0
176
     1
290
     0
176
     1
 93
        1
176
     1
 44
-50.0
176
     1
173
     0
176
     1
  0
VISUALSTYLE
  5
39
102
{ACAD_REACTORS
330
2A
102
}
330
2A
100
AcDbVisualStyle
  2
Facepattern
 70
    15
177
     2
291
     1
 71
     2
176
     1
 72
     2
176
     1
 73
     0
176
     1
 90
        0
176
     1
 40
-0.6
176
     1
 41
-30.0
176
     1
 62
     5
 63
     7
421
 16777215
176
     1
 74
     1
176
     1
 91
        4
176
     1
 64
     7
176
     1
 65
   257
176
     1
 75
     1
176
     1
175
     1
176
     1
 42
1.0
176
     1
 92
        8
176
     1
 66
     7
176
     1
 43
1.0
176
     1
 76
     1
176
     1
 77
     6
176
     1
 78
     2
176
     1
 67
     7
176
     1
 79
     5
176
     1
170
     0
176
     1
171
     0
176
     1
290
     0
176
     1
 93
        1
176
     1
 44
0.0
176
     1
173
     0
176
     1
  0
VISUALSTYLE
  5
2B
102
{ACAD_REACTORS
330
2A
102
}
330
2A
100
AcDbVisualStyle
  2
Flat
 70
     0
177
     2
291
     1
 71
     2
176
     1
 72
     1
176
     1
 73
     1
176
     1
 90
        2
176
     1
 40
-0.6
176
     1
 41
30.0
176
     1
 62
     5
 63
     7
421
 16777215
176
     1
 74
     0
176
     1
 91
        4
176
     1
 64
     7
176
     1
 65
   257
176
     1
 75
     1
176
     1
175
     1
176
     1
 42
1.0
176
     1
 92
        8
176
     1
 66
     7
176
     1
 43
1.0
176
     1
 76
     1
176
     1
 77
     6
176
     1
 78
     2
176
     1
 67
     7
176
     1
 79
     5
176
     1
170
     0
176
     1
171
     0
176
     1
290
     0
176
     1
 93
       13
176
     1
 44
0.0
176
     1
173
     0
176
     1
  0
VISUALSTYLE
  5
2C
102
{ACAD_REACTORS
330
2A
102
}
330
2A
100
AcDbVisualStyle
  2
FlatWithEdges
 70
     1
177
     2
291
     1
 71
     2
176
     1
 72
     1
176
     1
 73
     1
176
     1
 90
        2
176
     1
 40
-0.6
176
     1
 41
30.0
176
     1
 62
     5
 63
     7
421
 16777215
176
     1
 74
     1
176
     1
 91
        4
176
     1
 64
     7
176
     1
 65
   257
176
     1
 75
     1
176
     1
175
     1
176
     1
 42
1.0
176
     1
 92
        0
176
     1
 66
   257
176
     1
 43
1.0
176
     1
 76
     1
176
     1
 77
     6
176
     1
 78
     2
176
     1
 67
     7
176
     1
 79
     5
176
     1
170
     0
176
     1
171
     0
176
     1
290
     0
176
     1
 93
       13
176
     1
 44
0.0
176
     1
173
     0
176
     1
  0
VISUALSTYLE
  5
2D
102
{ACAD_REACTORS
330
2A
102
}
330
2A
100
AcDbVisualStyle
  2
Gouraud
 70
     2
177
     2
291
     1
 71
     2
176
     1
 72
     2
176
     1
 73
     1
176
     1
 90
        2
176
     1
 40
-0.6
176
     1
 41
30.0
176
     1
 62
     5
 63
     7
421
 16777215
176
     1
 74
     0
176
     1
 91
        4
176
     1
 64
     7
176
     1
 65
   257
176
     1
 75
     1
176
     1
175
     1
176
     1
 42
1.0
176
     1
 92
        0
176
     1
 66
     7
176
     1
 43
1.0
176
     1
 76
     1
176
     1
 77
     6
176
     1
 78
     2
176
     1
 67
     7
176
     1
 79
     5
176
     1
170
     0
176
     1
171
     0
176
     1
290
     0
176
     1
 93
       13
176
     1
 44
0.0
176
     1
173
     0
176
     1
  0
VISUALSTYLE
  5
2E
102
{ACAD_REACTORS
330
2A
102
}
330
2A
100
AcDbVisualStyle
  2
GouraudWithEdges
 70
     3
177
     2
291
     1
 71
     2
176
     1
 72
     2
176
     1
 73
     1
176
     1
 90
        2
176
     1
 40
-0.6
176
     1
 41
30.0
176
     1
 62
     5
 63
     7
421
 16777215
176
     1
 74
     1
176
     1
 91
        4
176
     1
 64
     7
176
     1
 65
   257
176
     1
 75
     1
176
     1
175
     1
176
     1
 42
1.0
176
     1
 92
        0
176
     1
 66
   257
176
     1
 43
1.0
176
     1
 76
     1
176
     1
 77
     6
176
     1
 78
     2
176
     1
 67
     7
176
     1
 79
     5
176
     1
170
     0
176
     1
171
     0
176
     1
290
     0
176
     1
 93
       13
176
     1
 44
0.0
176
     1
173
     0
176
     1
  0
VISUALSTYLE
  5
38
102
{ACAD_REACTORS
330
2A
102
}
330
2A
100
AcDbVisualStyle
  2
Linepattern
 70
    14
177
     2
291
     1
 71
     2
176
     1
 72
     2
176
     1
 73
     0
176
     1
 90
        0
176
     1
 40
-0.6
176
     1
 41
-30.0
176
     1
 62
     5
 63
     7
421
 16777215
176
     1
 74
     1
176
     1
 91
        4
176
     1
 64
     7
176
     1
 65
   257
176
     1
 75
     7
176
     1
175
     7
176
     1
 42
1.0
176
     1
 92
        8
176
     1
 66
     7
176
     1
 43
1.0
176
     1
 76
     1
176
     1
 77
     6
176
     1
 78
     2
176
     1
 67
     7
176
     1
 79
     5
176
     1
170
     0
176
     1
171
     0
176
     1
290
     0
176
     1
 93
        1
176
     1
 44
0.0
176
     1
173
     0
176
     1
  0
VISUALSTYLE
  5
33
102
{ACAD_REACTORS
330
2A
102
}
330
2A
100
AcDbVisualStyle
  2
Realistic
 70
     8
177
     2
291
     0
 71
     2
176
     1
 72
     2
176
     1
 73
     0
176
     1
 90
        0
176
     1
 40
-0.6
176
     1
 41
-30.0
176
     1
 62
     5
 63
     7
421
 16777215
176
     1
 74
     1
176
     1
 91
        0
176
     1
 64
     7
176
     1
 65
   257
176
     1
 75
     1
176
     1
175
     1
176
     1
 42
1.0
176
     1
 92
        8
176
     1
 66
     8
424
  7895160
176
     1
 43
1.0
176
     1
 76
     1
176
     1
 77
     6
176
     1
 78
     2
176
     1
 67
     7
176
     1
 79
     5
176
     1
170
     0
176
     1
171
     0
176
     1
290
     0
176
     1
 93
       13
176
     1
 44
0.0
176
     1
173
     0
176
     1
  0
VISUALSTYLE
  5
37
102
{ACAD_REACTORS
330
2A
102
}
330
2A
100
AcDbVisualStyle
  2
Thicken
 70
    13
177
     2
291
     1
 71
     2
176
     1
 72
     2
176
     1
 73
     0
176
     1
 90
        0
176
     1
 40
-0.6
176
     1
 41
-30.0
176
     1
 62
     5
 63
     7
421
 16777215
176
     1
 74
     1
176
     1
 91
        4
176
     1
 64
     7
176
     1
 65
   257
176
     1
 75
     1
176
     1
175
     1
176
     1
 42
1.0
176
     1
 92
       12
176
     1
 66
     7
176
     1
 43
1.0
176
     1
 76
     1
176
     1
 77
     6
176
     1
 78
     2
176
     1
 67
     7
176
     1
 79
     5
176
     1
170
     0
176
     1
171
     0
176
     1
290
     0
176
     1
 93
        1
176
     1
 44
0.0
176
     1
173
     0
176
     1
  0
ENDSEC
  0
EOF
