  0
SECTION
  2
HEADER
  9
$ACADVER
  1
AC1024
  9
$ACADMAINTVER
 70
     6
  9
$DWGCODEPAGE
  3
UNDEFINED
  9
$INSBASE
 10
0.0
 20
0.0
 30
0.0
  9
$EXTMIN
 10
1.000000000000000E+20
 20
1.000000000000000E+20
 30
1.000000000000000E+20
  9
$EXTMAX
 10
-1.000000000000000E+20
 20
-1.000000000000000E+20
 30
-1.000000000000000E+20
  9
$LIMMIN
 10
0.0
 20
0.0
  9
$LIMMAX
 10
12.0
 20
9.0
  9
$ORTHOMODE
 70
     0
  9
$REGENMODE
 70
     1
  9
$FILLMODE
 70
     1
  9
$QTEXTMODE
 70
     0
  9
$MIRRTEXT
 70
     1
  9
$LTSCALE
 40
1.0
  9
$ATTMODE
 70
     1
  9
$TEXTSIZE
 40
0.2
  9
$TRACEWID
 40
0.05
  9
$TEXTSTYLE
  7
Standard
  9
$CLAYER
  8
0
  9
$CELTYPE
  6
ByLayer
  9
$CECOLOR
 62
   256
  9
$CELTSCALE
 40
1.0
  9
$DISPSILH
 70
     0
  9
$DIMSCALE
 40
1.0
  9
$DIMASZ
 40
0.18
  9
$DIMEXO
 40
0.0625
  9
$DIMDLI
 40
0.38
  9
$DIMRND
 40
0.0
  9
$DIMDLE
 40
0.0
  9
$DIMEXE
 40
0.18
  9
$DIMTP
 40
0.0
  9
$DIMTM
 40
0.0
  9
$DIMTXT
 40
0.18
  9
$DIMCEN
 40
0.09
  9
$DIMTSZ
 40
0.0
  9
$DIMTOL
 70
     0
  9
$DIMLIM
 70
     0
  9
$DIMTIH
 70
     1
  9
$DIMTOH
 70
     1
  9
$DIMSE1
 70
     0
  9
$DIMSE2
 70
     0
  9
$DIMTAD
 70
     0
  9
$DIMZIN
 70
     0
  9
$DIMBLK
  1

  9
$DIMASO
 70
     1
  9
$DIMSHO
 70
     1
  9
$DIMPOST
  1

  9
$DIMAPOST
  1

  9
$DIMALT
 70
     0
  9
$DIMALTD
 70
     2
  9
$DIMALTF
 40
25.4
  9
$DIMLFAC
 40
1.0
  9
$DIMTOFL
 70
     0
  9
$DIMTVP
 40
0.0
  9
$DIMTIX
 70
     0
  9
$DIMSOXD
 70
     0
  9
$DIMSAH
 70
     0
  9
$DIMBLK1
  1

  9
$DIMBLK2
  1

  9
$DIMSTYLE
  2
Standard
  9
$DIMCLRD
 70
     0
  9
$DIMCLRE
 70
     0
  9
$DIMCLRT
 70
     0
  9
$DIMTFAC
 40
1.0
  9
$DIMGAP
 40
0.09
  9
$DIMJUST
 70
     0
  9
$DIMSD1
 70
     0
  9
$DIMSD2
 70
     0
  9
$DIMTOLJ
 70
     1
  9
$DIMTZIN
 70
     0
  9
$DIMALTZ
 70
     0
  9
$DIMALTTZ
 70
     0
  9
$DIMUPT
 70
     0
  9
$DIMDEC
 70
     4
  9
$DIMTDEC
 70
     4
  9
$DIMALTU
 70
     2
  9
$DIMALTTD
 70
     2
  9
$DIMTXSTY
  7
Standard
  9
$DIMAUNIT
 70
     0
  9
$DIMADEC
 70
     0
  9
$DIMALTRND
 40
0.0
  9
$DIMAZIN
 70
     0
  9
$DIMDSEP
 70
    46
  9
$DIMATFIT
 70
     3
  9
$DIMFRAC
 70
     0
  9
$DIMLDRBLK
  1

  9
$DIMLUNIT
 70
     2
  9
$DIMLWD
 70
    -2
  9
$DIMLWE
 70
    -2
  9
$DIMTMOVE
 70
     0
  9
$DIMFXL
 40
1.0
  9
$DIMFXLON
 70
     0
  9
$DIMJOGANG
 40
0.7853981633974483
  9
$DIMTFILL
 70
     0
  9
$DIMTFILLCLR
 70
     0
  9
$DIMARCSYM
 70
     0
  9
$DIMLTYPE
  6

  9
$DIMLTEX1
  6

  9
$DIMLTEX2
  6

  9
$DIMTXTDIRECTION
 70
     0
  9
$LUNITS
 70
     2
  9
$LUPREC
 70
     4
  9
$SKETCHINC
 40
0.1
  9
$FILLETRAD
 40
0.5
  9
$AUNITS
 70
     0
  9
$AUPREC
 70
     0
  9
$MENU
  1
.
  9
$ELEVATION
 40
0.0
  9
$PELEVATION
 40
0.0
  9
$THICKNESS
 40
0.0
  9
$LIMCHECK
 70
     0
  9
$CHAMFERA
 40
0.5
  9
$CHAMFERB
 40
0.5
  9
$CHAMFERC
 40
1.0
  9
$CHAMFERD
 40
0.0
  9
$SKPOLY
 70
     0
  9
$TDCREATE
 40
2457917.587002303
  9
$TDUCREATE
 40
2457917.212002315
  9
$TDUPDATE
 40
2457917.587002303
  9
$TDUUPDATE
 40
2457917.212002315
  9
$TDINDWG
 40
0.0000000116
  9
$TDUSRTIMER
 40
0.0000000116
  9
$USRTIMER
 70
     1
  9
$ANGBASE
 50
0.0
  9
$ANGDIR
 70
     0
  9
$PDMODE
 70
     0
  9
$PDSIZE
 40
0.0
  9
$PLINEWID
 40
0.0
  9
$SPLFRAME
 70
     0
  9
$SPLINETYPE
 70
     6
  9
$SPLINESEGS
 70
     8
  9
$HANDSEED
  5
106
  9
$SURFTAB1
 70
     6
  9
$SURFTAB2
 70
     6
  9
$SURFTYPE
 70
     6
  9
$SURFU
 70
     6
  9
$SURFV
 70
     6
  9
$UCSBASE
  2

  9
$UCSNAME
  2

  9
$UCSORG
 10
0.0
 20
0.0
 30
0.0
  9
$UCSXDIR
 10
1.0
 20
0.0
 30
0.0
  9
$UCSYDIR
 10
0.0
 20
1.0
 30
0.0
  9
$UCSORTHOREF
  2

  9
$UCSORTHOVIEW
 70
     0
  9
$UCSORGTOP
 10
0.0
 20
0.0
 30
0.0
  9
$UCSORGBOTTOM
 10
0.0
 20
0.0
 30
0.0
  9
$UCSORGLEFT
 10
0.0
 20
0.0
 30
0.0
  9
$UCSORGRIGHT
 10
0.0
 20
0.0
 30
0.0
  9
$UCSORGFRONT
 10
0.0
 20
0.0
 30
0.0
  9
$UCSORGBACK
 10
0.0
 20
0.0
 30
0.0
  9
$PUCSBASE
  2

  9
$PUCSNAME
  2

  9
$PUCSORG
 10
0.0
 20
0.0
 30
0.0
  9
$PUCSXDIR
 10
1.0
 20
0.0
 30
0.0
  9
$PUCSYDIR
 10
0.0
 20
1.0
 30
0.0
  9
$PUCSORTHOREF
  2

  9
$PUCSORTHOVIEW
 70
     0
  9
$PUCSORGTOP
 10
0.0
 20
0.0
 30
0.0
  9
$PUCSORGBOTTOM
 10
0.0
 20
0.0
 30
0.0
  9
$PUCSORGLEFT
 10
0.0
 20
0.0
 30
0.0
  9
$PUCSORGRIGHT
 10
0.0
 20
0.0
 30
0.0
  9
$PUCSORGFRONT
 10
0.0
 20
0.0
 30
0.0
  9
$PUCSORGBACK
 10
0.0
 20
0.0
 30
0.0
  9
$USERI1
 70
     0
  9
$USERI2
 70
     0
  9
$USERI3
 70
     0
  9
$USERI4
 70
     0
  9
$USERI5
 70
     0
  9
$USERR1
 40
0.0
  9
$USERR2
 40
0.0
  9
$USERR3
 40
0.0
  9
$USERR4
 40
0.0
  9
$USERR5
 40
0.0
  9
$WORLDVIEW
 70
     1
  9
$SHADEDGE
 70
     3
  9
$SHADEDIF
 70
    70
  9
$TILEMODE
 70
     1
  9
$MAXACTVP
 70
    64
  9
$PINSBASE
 10
0.0
 20
0.0
 30
0.0
  9
$PLIMCHECK
 70
     0
  9
$PEXTMIN
 10
1.000000000000000E+20
 20
1.000000000000000E+20
 30
1.000000000000000E+20
  9
$PEXTMAX
 10
-1.000000000000000E+20
 20
-1.000000000000000E+20
 30
-1.000000000000000E+20
  9
$PLIMMIN
 10
0.0
 20
0.0
  9
$PLIMMAX
 10
12.0
 20
9.0
  9
$UNITMODE
 70
     0
  9
$VISRETAIN
 70
     1
  9
$PLINEGEN
 70
     0
  9
$PSLTSCALE
 70
     1
  9
$TREEDEPTH
 70
  3020
  9
$CMLSTYLE
  2
Standard
  9
$CMLJUST
 70
     0
  9
$CMLSCALE
 40
1.0
  9
$PROXYGRAPHICS
 70
     1
  9
$MEASUREMENT
 70
     0
  9
$CELWEIGHT
370
    -1
  9
$ENDCAPS
280
     0
  9
$JOINSTYLE
280
     0
  9
$LWDISPLAY
290
     1
  9
$INSUNITS
 70
     1
  9
$HYPERLINKBASE
  1

  9
$STYLESHEET
  1

  9
$XEDIT
290
     1
  9
$CEPSNTYPE
380
     0
  9
$PSTYLEMODE
290
     1
  9
$FINGERPRINTGUID
  2
{019536F4-2682-08FD-BD82-F5CD805AB96B}
  9
$VERSIONGUID
  2
{FAEB1C32-E019-11D5-929B-00C0DF256EC4}
  9
$EXTNAMES
290
     1
  9
$PSVPSCALE
 40
0.0
  9
$OLESTARTUP
290
     0
  9
$SORTENTS
280
   127
  9
$INDEXCTL
280
     0
  9
$HIDETEXT
280
     1
  9
$XCLIPFRAME
280
     2
  9
$HALOGAP
280
     0
  9
$OBSCOLOR
 70
   257
  9
$OBSLTYPE
280
     0
  9
$INTERSECTIONDISPLAY
280
     0
  9
$INTERSECTIONCOLOR
 70
   257
  9
$DIMASSOC
280
     2
  9
$PROJECTNAME
  1

  9
$CAMERADISPLAY
290
     0
  9
$LENSLENGTH
 40
50.0
  9
$CAMERAHEIGHT
 40
0.0
  9
$STEPSPERSEC
 40
2.0
  9
$STEPSIZE
 40
6.0
  9
$3DDWFPREC
 40
2.0
  9
$PSOLWIDTH
 40
0.25
  9
$PSOLHEIGHT
 40
4.0
  9
$LOFTANG1
 40
1.570796326794897
  9
$LOFTANG2
 40
1.570796326794897
  9
$LOFTMAG1
 40
0.0
  9
$LOFTMAG2
 40
0.0
  9
$LOFTPARAM
 70
     7
  9
$LOFTNORMALS
280
     1
  9
$LATITUDE
 40
37.795
  9
$LONGITUDE
 40
-122.394
  9
$NORTHDIRECTION
 40
0.0
  9
$TIMEZONE
 70
 -8000
  9
$LIGHTGLYPHDISPLAY
280
     1
  9
$TILEMODELIGHTSYNCH
280
     1
  9
$CMATERIAL
347
3C
  9
$SOLIDHIST
280
     1
  9
$SHOWHIST
280
     1
  9
$DWFFRAME
280
     2
  9
$DGNFRAME
280
     2
  9
$REALWORLDSCALE
290
     1
  9
$INTERFERECOLOR
 62
   256
  9
$CSHADOW
280
     0
  9
$SHADOWPLANELOCATION
 40
0.0
  0
ENDSEC
  0
SECTION
  2
CLASSES
  0
CLASS
  1
ACDBDICTIONARYWDFLT
  2
AcDbDictionaryWithDefault
  3
ObjectDBX Classes
 90
        0
 91
        4
280
     0
281
     0
  0
CLASS
  1
VISUALSTYLE
  2
AcDbVisualStyle
  3
ObjectDBX Classes
 90
     4095
 91
        4
280
     0
281
     0
  0
CLASS
  1
MATERIAL
  2
AcDbMaterial
  3
ObjectDBX Classes
 90
     1153
 91
        4
280
     0
281
     0
  0
CLASS
  1
SUN
  2
AcDbSun
  3
SCENEOE
 90
     1024
 91
        4
280
     0
281
     0
  0
ENDSEC
  0
SECTION
  2
TABLES
  0
TABLE
  2
VPORT
  5
8
330
0
100
AcDbSymbolTable
 70
     1
  0
VPORT
  5
29
330
8
100
AcDbSymbolTableRecord
100
AcDbViewportTableRecord
  2
*Active
 70
     0
 10
0.0
 20
0.0
 11
1.0
 21
1.0
 12
0.0
 22
0.0
 13
0.0
 23
0.0
 14
0.5
 24
0.5
 15
0.5
 25
0.5
 16
0.0
 26
0.0
 36
1.0
 17
105.0008280156501
 27
-148.4999710739862
 37
0.0
 40
296.9999421479724
 41
0.7070764206636528
 42
50.0
 43
0.0
 44
0.0
 50
0.0
 51
0.0
 71
     0
 72
   100
 73
     1
 74
     3
 75
     0
 76
     0
 77
     0
 78
     0
281
     0
 65
     1
110
0.0
120
0.0
130
0.0
111
1.0
121
0.0
131
0.0
112
0.0
122
1.0
132
0.0
 79
     0
146
0.0
 60
     3
 61
     5
292
     1
282
     1
141
0.0
142
0.0
 63
   250
361
3F
  0
ENDTAB
  0
TABLE
  2
LTYPE
  5
5
330
0
100
AcDbSymbolTable
 70
     1
  0
LTYPE
  5
14
330
5
100
AcDbSymbolTableRecord
100
AcDbLinetypeTableRecord
  2
ByBlock
 70
     0
  3

 72
    65
 73
     0
 40
0.0
  0
LTYPE
  5
15
330
5
100
AcDbSymbolTableRecord
100
AcDbLinetypeTableRecord
  2
ByLayer
 70
     0
  3

 72
    65
 73
     0
 40
0.0
  0
LTYPE
  5
16
330
5
100
AcDbSymbolTableRecord
100
AcDbLinetypeTableRecord
  2
Continuous
 70
     0
  3
Solid line
 72
    65
 73
     0
 40
0.0
  0
ENDTAB
  0
TABLE
  2
LAYER
  5
2
330
0
100
AcDbSymbolTable
 70
     2
  0
LAYER
  5
10
330
2
100
AcDbSymbolTableRecord
100
AcDbLayerTableRecord
  2
0
 70
     0
 62
     7
  6
Continuous
370
    -3
390
F
347
3E
  0
LAYER
  5
40
330
2
100
AcDbSymbolTableRecord
100
AcDbLayerTableRecord
  2
_U+30EC_U+30A4_U+30E4_U+30FC 1
 70
     0
 62
     7
  6
Continuous
370
    -3
390
F
347
3E
  0
ENDTAB
  0
TABLE
  2
STYLE
  5
3
330
0
100
AcDbSymbolTable
 70
     1
  0
STYLE
  5
11
330
3
100
AcDbSymbolTableRecord
100
AcDbTextStyleTableRecord
  2
Standard
 70
     0
 40
0.0
 41
1.0
 50
0.0
 71
     0
 42
0.2
  3
txt
  4

  0
ENDTAB
  0
TABLE
  2
VIEW
  5
6
330
0
100
AcDbSymbolTable
 70
     0
  0
ENDTAB
  0
TABLE
  2
UCS
  5
7
330
0
100
AcDbSymbolTable
 70
     0
  0
ENDTAB
  0
TABLE
  2
APPID
  5
9
330
0
100
AcDbSymbolTable
 70
     1
  0
APPID
  5
12
330
9
100
AcDbSymbolTableRecord
100
AcDbRegAppTableRecord
  2
ACAD
 70
     0
  0
ENDTAB
  0
TABLE
  2
DIMSTYLE
  5
A
330
0
100
AcDbSymbolTable
 70
     1
100
AcDbDimStyleTable
  0
DIMSTYLE
105
27
330
A
100
AcDbSymbolTableRecord
100
AcDbDimStyleTableRecord
  2
Standard
 70
     0
178
     0
340
11
  0
ENDTAB
  0
TABLE
  2
BLOCK_RECORD
  5
1
330
0
100
AcDbSymbolTable
 70
     7
  0
BLOCK_RECORD
  5
1F
330
1
100
AcDbSymbolTableRecord
100
AcDbBlockTableRecord
  2
*Model_Space
340
22
 70
     0
280
     1
281
     0
  0
BLOCK_RECORD
  5
1B
330
1
100
AcDbSymbolTableRecord
100
AcDbBlockTableRecord
  2
*Paper_Space
340
1E
 70
     0
280
     1
281
     0
  0
BLOCK_RECORD
  5
23
330
1
100
AcDbSymbolTableRecord
100
AcDbBlockTableRecord
  2
*Paper_Space0
340
26
 70
     0
280
     1
281
     0
  0
BLOCK_RECORD
  5
93
330
1
100
AcDbSymbolTableRecord
100
AcDbBlockTableRecord
  2
block 2
340
0
102
{BLKREFS
331
94
102
}
 70
     0
280
     1
281
     0
  0
BLOCK_RECORD
  5
A9
330
1
100
AcDbSymbolTableRecord
100
AcDbBlockTableRecord
  2
block 3
340
0
102
{BLKREFS
331
AA
102
}
 70
     0
280
     1
281
     0
  0
BLOCK_RECORD
  5
C6
330
1
100
AcDbSymbolTableRecord
100
AcDbBlockTableRecord
  2
block 4
340
0
102
{BLKREFS
331
C7
102
}
 70
     0
280
     1
281
     0
  0
BLOCK_RECORD
  5
DB
330
1
100
AcDbSymbolTableRecord
100
AcDbBlockTableRecord
  2
block 5
340
0
102
{BLKREFS
331
DC
102
}
 70
     0
280
     1
281
     0
  0
BLOCK_RECORD
  5
EB
330
1
100
AcDbSymbolTableRecord
100
AcDbBlockTableRecord
  2
block 6
340
0
102
{BLKREFS
331
EC
102
}
 70
     0
280
     1
281
     0
  0
BLOCK_RECORD
  5
FC
330
1
100
AcDbSymbolTableRecord
100
AcDbBlockTableRecord
  2
block 7
340
0
102
{BLKREFS
331
FD
102
}
 70
     0
280
     1
281
     0
  0
ENDTAB
  0
ENDSEC
  0
SECTION
  2
BLOCKS
  0
BLOCK
  5
20
330
1F
100
AcDbEntity
  8
0
100
AcDbBlockBegin
  2
*Model_Space
 70
     0
 10
0.0
 20
0.0
 30
0.0
  3
*Model_Space
  1

  0
ENDBLK
  5
21
330
1F
100
AcDbEntity
  8
0
100
AcDbBlockEnd
  0
BLOCK
  5
1C
330
1B
100
AcDbEntity
 67
     1
  8
0
100
AcDbBlockBegin
  2
*Paper_Space
 70
     0
 10
0.0
 20
0.0
 30
0.0
  3
*Paper_Space
  1

  0
ENDBLK
  5
1D
330
1B
100
AcDbEntity
 67
     1
  8
0
100
AcDbBlockEnd
  0
BLOCK
  5
24
330
23
100
AcDbEntity
  8
0
100
AcDbBlockBegin
  2
*Paper_Space0
 70
     0
 10
0.0
 20
0.0
 30
0.0
  3
*Paper_Space0
  1

  0
ENDBLK
  5
25
330
23
100
AcDbEntity
  8
0
100
AcDbBlockEnd
  0
BLOCK
  5
95
330
93
100
AcDbEntity
  8
0
100
AcDbBlockBegin
  2
block 2
 70
     0
 10
0.0
 20
0.0
 30
0.0
  3
block 2
  1

  0
SPLINE
  5
97
330
93
100
AcDbEntity
  8
_U+30EC_U+30A4_U+30E4_U+30FC 1
370
     0
100
AcDbSpline
210
0.0
220
0.0
230
1.0
 70
    11
 71
     3
 72
    26
 73
    22
 74
     0
 42
0.0000000001
 43
0.0000000001
 12
1.0
 22
0.0
 32
0.0
 13
1.0
 23
0.0
 33
0.0
 40
0.0
 40
0.0
 40
0.0
 40
0.0
 40
1.0
 40
1.0
 40
1.0
 40
2.0
 40
2.0
 40
2.0
 40
3.0
 40
3.0
 40
3.0
 40
4.0
 40
4.0
 40
4.0
 40
5.0
 40
5.0
 40
5.0
 40
6.0
 40
6.0
 40
6.0
 40
7.0
 40
7.0
 40
7.0
 40
7.0
 10
122.9950764666471
 20
-139.1255302929096
 30
0.0
 10
122.9950764666471
 20
-139.1255302929096
 30
0.0
 10
121.8909233636245
 20
-139.1255302929096
 30
0.0
 10
121.8909233636245
 20
-139.1255302929096
 30
0.0
 10
121.8909233636245
 20
-139.1255302929096
 30
0.0
 10
121.8909233636245
 20
-139.4783080705992
 30
0.0
 10
121.8909233636245
 20
-139.4783080705992
 30
0.0
 10
121.8909233636245
 20
-139.4783080705992
 30
0.0
 10
121.7427842577588
 20
-139.4783080705992
 30
0.0
 10
121.7427842577588
 20
-139.4783080705992
 30
0.0
 10
121.7279703471722
 20
-139.1232909808442
 30
0.0
 10
121.5650173307199
 20
-139.0735093510823
 30
0.0
 10
121.4506401606096
 20
-139.0419867273923
 30
0.0
 10
121.4506401606096
 20
-139.0419867273923
 30
0.0
 10
121.4506401606096
 20
-138.8859239019105
 30
0.0
 10
121.4506401606096
 20
-138.8859239019105
 30
0.0
 10
121.4506401606096
 20
-138.8859239019105
 30
0.0
 10
122.9950764666471
 20
-138.8859239019105
 30
0.0
 10
122.9950764666471
 20
-138.8859239019105
 30
0.0
 10
122.9950764666471
 20
-138.8859239019105
 30
0.0
 10
122.9950764666471
 20
-139.1255302929096
 30
0.0
 10
122.9950764666471
 20
-139.1255302929096
 30
0.0
  0
HATCH
  5
98
330
93
100
AcDbEntity
  8
_U+30EC_U+30A4_U+30E4_U+30FC 1
 62
   179
420
  2234388
100
AcDbHatch
 10
0.0
 20
0.0
 30
0.0
210
0.0
220
0.0
230
1.0
  2
SOLID
 70
     1
 71
     0
 91
        1
 92
        1
 93
        1
 72
     4
 94
        3
 73
     0
 74
     1
 95
       26
 96
       22
 40
0.0
 40
0.0
 40
0.0
 40
0.0
 40
1.0
 40
1.0
 40
1.0
 40
2.0
 40
2.0
 40
2.0
 40
3.0
 40
3.0
 40
3.0
 40
4.0
 40
4.0
 40
4.0
 40
5.0
 40
5.0
 40
5.0
 40
6.0
 40
6.0
 40
6.0
 40
7.0
 40
7.0
 40
7.0
 40
7.0
 10
122.9950764666471
 20
-139.1255302929096
 10
122.9950764666471
 20
-139.1255302929096
 10
121.8909233636245
 20
-139.1255302929096
 10
121.8909233636245
 20
-139.1255302929096
 10
121.8909233636245
 20
-139.1255302929096
 10
121.8909233636245
 20
-139.4783080705992
 10
121.8909233636245
 20
-139.4783080705992
 10
121.8909233636245
 20
-139.4783080705992
 10
121.7427842577588
 20
-139.4783080705992
 10
121.7427842577588
 20
-139.4783080705992
 10
121.7279703471722
 20
-139.1232909808442
 10
121.5650173307199
 20
-139.0735093510823
 10
121.4506401606096
 20
-139.0419867273923
 10
121.4506401606096
 20
-139.0419867273923
 10
121.4506401606096
 20
-138.8859239019105
 10
121.4506401606096
 20
-138.8859239019105
 10
121.4506401606096
 20
-138.8859239019105
 10
122.9950764666471
 20
-138.8859239019105
 10
122.9950764666471
 20
-138.8859239019105
 10
122.9950764666471
 20
-138.8859239019105
 10
122.9950764666471
 20
-139.1255302929096
 10
122.9950764666471
 20
-139.1255302929096
 97
        0
 97
        0
 75
     2
 76
     1
 98
        0
  0
ENDBLK
  5
96
330
93
100
AcDbEntity
  8
0
100
AcDbBlockEnd
  0
BLOCK
  5
AB
330
A9
100
AcDbEntity
  8
0
100
AcDbBlockBegin
  2
block 3
 70
     0
 10
0.0
 20
0.0
 30
0.0
  3
block 3
  1

  0
SPLINE
  5
AD
330
A9
100
AcDbEntity
  8
_U+30EC_U+30A4_U+30E4_U+30FC 1
370
     0
100
AcDbSpline
210
0.0
220
0.0
230
1.0
 70
    11
 71
     3
 72
    29
 73
    25
 74
     0
 42
0.0000000001
 43
0.0000000001
 12
1.0
 22
0.0
 32
0.0
 13
1.0
 23
0.0
 33
0.0
 40
0.0
 40
0.0
 40
0.0
 40
0.0
 40
1.0
 40
1.0
 40
1.0
 40
2.0
 40
2.0
 40
2.0
 40
3.0
 40
3.0
 40
3.0
 40
4.0
 40
4.0
 40
4.0
 40
5.0
 40
5.0
 40
5.0
 40
6.0
 40
6.0
 40
6.0
 40
7.0
 40
7.0
 40
7.0
 40
8.0
 40
8.0
 40
8.0
 40
8.0
 10
107.8170192872819
 20
-153.4652234859392
 30
0.0
 10
108.026481092785
 20
-153.5806341846951
 30
0.0
 10
108.0454291179539
 20
-153.7659803218016
 30
0.0
 10
108.0454291179539
 20
-153.8903482688191
 30
0.0
 10
108.0454291179539
 20
-154.0619140239845
 30
0.0
 10
107.9989203289031
 20
-154.2134982253355
 30
0.0
 10
107.8170192872819
 20
-154.3151285421504
 30
0.0
 10
107.6223713923652
 20
-154.4260606167754
 30
0.0
 10
107.3856933325286
 20
-154.4463866801384
 30
0.0
 10
107.2227403160763
 20
-154.4463866801384
 30
0.0
 10
107.0787353247928
 20
-154.4463866801384
 30
0.0
 10
106.8268988448211
 20
-154.4284721836151
 30
0.0
 10
106.6281168353221
 20
-154.3151285421504
 30
0.0
 10
106.4252007112409
 20
-154.200062352943
 30
0.0
 10
106.4017740619412
 20
-154.0281520882291
 30
0.0
 10
106.4017740619412
 20
-153.8903482688191
 30
0.0
 10
106.4017740619412
 20
-153.7205050613963
 30
0.0
 10
106.446215793701
 20
-153.5668538027541
 30
0.0
 10
106.6281168353221
 20
-153.4652234859392
 30
0.0
 10
106.8206976729476
 20
-153.358770035445
 30
0.0
 10
107.0491075036197
 20
-153.3339653479512
 30
0.0
 10
107.2227403160763
 20
-153.3339653479512
 30
0.0
 10
107.3939615616932
 20
-153.3339653479512
 30
0.0
 10
107.6244384496564
 20
-153.3567029781539
 30
0.0
 10
107.8170192872819
 20
-153.4652234859392
 30
0.0
  0
SPLINE
  5
AE
330
A9
100
AcDbEntity
  8
_U+30EC_U+30A4_U+30E4_U+30FC 1
370
     0
100
AcDbSpline
210
0.0
220
0.0
230
1.0
 70
    11
 71
     3
 72
    17
 73
    13
 74
     0
 42
0.0000000001
 43
0.0000000001
 12
1.0
 22
0.0
 32
0.0
 13
1.0
 23
0.0
 33
0.0
 40
0.0
 40
0.0
 40
0.0
 40
0.0
 40
1.0
 40
1.0
 40
1.0
 40
2.0
 40
2.0
 40
2.0
 40
3.0
 40
3.0
 40
3.0
 40
4.0
 40
4.0
 40
4.0
 40
4.0
 10
106.5943548995667
 20
-153.8903482688191
 30
0.0
 10
106.5943548995667
 20
-154.1569986593774
 30
0.0
 10
106.8778862580028
 20
-154.206608034365
 30
0.0
 10
107.2227403160763
 20
-154.206608034365
 30
0.0
 10
107.5421006675589
 20
-154.206608034365
 30
0.0
 10
107.8507812230373
 20
-154.1683674744787
 30
0.0
 10
107.8507812230373
 20
-153.8903482688191
 30
0.0
 10
107.8507812230373
 20
-153.6257649355519
 30
0.0
 10
107.5696614314409
 20
-153.5737439937246
 30
0.0
 10
107.2227403160763
 20
-153.5737439937246
 30
0.0
 10
106.9030354550451
 20
-153.5737439937246
 30
0.0
 10
106.5943548995667
 20
-153.6143961204506
 30
0.0
 10
106.5943548995667
 20
-153.8903482688191
 30
0.0
  0
HATCH
  5
AF
330
A9
100
AcDbEntity
  8
_U+30EC_U+30A4_U+30E4_U+30FC 1
 62
   179
420
  2234388
100
AcDbHatch
 10
0.0
 20
0.0
 30
0.0
210
0.0
220
0.0
230
1.0
  2
SOLID
 70
     1
 71
     0
 91
        2
 92
        1
 93
        1
 72
     4
 94
        3
 73
     0
 74
     1
 95
       29
 96
       25
 40
0.0
 40
0.0
 40
0.0
 40
0.0
 40
1.0
 40
1.0
 40
1.0
 40
2.0
 40
2.0
 40
2.0
 40
3.0
 40
3.0
 40
3.0
 40
4.0
 40
4.0
 40
4.0
 40
5.0
 40
5.0
 40
5.0
 40
6.0
 40
6.0
 40
6.0
 40
7.0
 40
7.0
 40
7.0
 40
8.0
 40
8.0
 40
8.0
 40
8.0
 10
107.8170192872819
 20
-153.4652234859392
 10
108.026481092785
 20
-153.5806341846951
 10
108.0454291179539
 20
-153.7659803218016
 10
108.0454291179539
 20
-153.8903482688191
 10
108.0454291179539
 20
-154.0619140239845
 10
107.9989203289031
 20
-154.2134982253355
 10
107.8170192872819
 20
-154.3151285421504
 10
107.6223713923652
 20
-154.4260606167754
 10
107.3856933325286
 20
-154.4463866801384
 10
107.2227403160763
 20
-154.4463866801384
 10
107.0787353247928
 20
-154.4463866801384
 10
106.8268988448211
 20
-154.4284721836151
 10
106.6281168353221
 20
-154.3151285421504
 10
106.4252007112409
 20
-154.200062352943
 10
106.4017740619412
 20
-154.0281520882291
 10
106.4017740619412
 20
-153.8903482688191
 10
106.4017740619412
 20
-153.7205050613963
 10
106.446215793701
 20
-153.5668538027541
 10
106.6281168353221
 20
-153.4652234859392
 10
106.8206976729476
 20
-153.358770035445
 10
107.0491075036197
 20
-153.3339653479512
 10
107.2227403160763
 20
-153.3339653479512
 10
107.3939615616932
 20
-153.3339653479512
 10
107.6244384496564
 20
-153.3567029781539
 10
107.8170192872819
 20
-153.4652234859392
 97
        0
 97
        0
 92
        1
 93
        1
 72
     4
 94
        3
 73
     0
 74
     1
 95
       17
 96
       13
 40
0.0
 40
0.0
 40
0.0
 40
0.0
 40
1.0
 40
1.0
 40
1.0
 40
2.0
 40
2.0
 40
2.0
 40
3.0
 40
3.0
 40
3.0
 40
4.0
 40
4.0
 40
4.0
 40
4.0
 10
106.5943548995667
 20
-153.8903482688191
 10
106.5943548995667
 20
-154.1569986593774
 10
106.8778862580028
 20
-154.206608034365
 10
107.2227403160763
 20
-154.206608034365
 10
107.5421006675589
 20
-154.206608034365
 10
107.8507812230373
 20
-154.1683674744787
 10
107.8507812230373
 20
-153.8903482688191
 10
107.8507812230373
 20
-153.6257649355519
 10
107.5696614314409
 20
-153.5737439937246
 10
107.2227403160763
 20
-153.5737439937246
 10
106.9030354550451
 20
-153.5737439937246
 10
106.5943548995667
 20
-153.6143961204506
 10
106.5943548995667
 20
-153.8903482688191
 97
        0
 97
        0
 75
     2
 76
     1
 98
        0
  0
POLYLINE
  5
B0
330
A9
100
AcDbEntity
  8
_U+30EC_U+30A4_U+30E4_U+30FC 1
370
     0
100
AcDb2dPolyline
 66
     1
 10
0.0
 20
0.0
 30
0.0
  0
VERTEX
  5
B1
330
B0
100
AcDbEntity
  8
_U+30EC_U+30A4_U+30E4_U+30FC 1
370
     0
100
AcDbVertex
100
AcDb2dVertex
 10
107.9947862143208
 20
-153.102799440891
 30
0.0
  0
VERTEX
  5
B2
330
B0
100
AcDbEntity
  8
_U+30EC_U+30A4_U+30E4_U+30FC 1
370
     0
100
AcDbVertex
100
AcDb2dVertex
 10
107.742949734349
 20
-153.102799440891
 30
0.0
  0
VERTEX
  5
B3
330
B0
100
AcDbEntity
  8
_U+30EC_U+30A4_U+30E4_U+30FC 1
370
     0
100
AcDbVertex
100
AcDb2dVertex
 10
107.742949734349
 20
-152.833737483493
 30
0.0
  0
VERTEX
  5
B4
330
B0
100
AcDbEntity
  8
_U+30EC_U+30A4_U+30E4_U+30FC 1
370
     0
100
AcDbVertex
100
AcDb2dVertex
 10
107.9947862143208
 20
-152.833737483493
 30
0.0
  0
VERTEX
  5
B5
330
B0
100
AcDbEntity
  8
_U+30EC_U+30A4_U+30E4_U+30FC 1
370
     0
100
AcDbVertex
100
AcDb2dVertex
 10
107.9947862143208
 20
-153.102799440891
 30
0.0
  0
SEQEND
  5
B6
330
B0
100
AcDbEntity
  8
_U+30EC_U+30A4_U+30E4_U+30FC 1
370
     0
  0
HATCH
  5
B7
330
A9
100
AcDbEntity
  8
_U+30EC_U+30A4_U+30E4_U+30FC 1
 62
   179
420
  2234388
100
AcDbHatch
 10
0.0
 20
0.0
 30
0.0
210
0.0
220
0.0
230
1.0
  2
SOLID
 70
     1
 71
     0
 91
        1
 92
        1
 93
        4
 72
     1
 10
107.9947862143208
 20
-153.102799440891
 11
107.742949734349
 21
-153.102799440891
 72
     1
 10
107.742949734349
 20
-153.102799440891
 11
107.742949734349
 21
-152.833737483493
 72
     1
 10
107.742949734349
 20
-152.833737483493
 11
107.9947862143208
 21
-152.833737483493
 72
     1
 10
107.9947862143208
 20
-152.833737483493
 11
107.9947862143208
 21
-153.102799440891
 97
        0
 75
     2
 76
     1
 98
        0
  0
SPLINE
  5
B8
330
A9
100
AcDbEntity
  8
_U+30EC_U+30A4_U+30E4_U+30FC 1
370
     0
100
AcDbSpline
210
0.0
220
0.0
230
1.0
 70
    11
 71
     3
 72
    53
 73
    49
 74
     0
 42
0.0000000001
 43
0.0000000001
 12
1.0
 22
0.0
 32
0.0
 13
1.0
 23
0.0
 33
0.0
 40
0.0
 40
0.0
 40
0.0
 40
0.0
 40
1.0
 40
1.0
 40
1.0
 40
2.0
 40
2.0
 40
2.0
 40
3.0
 40
3.0
 40
3.0
 40
4.0
 40
4.0
 40
4.0
 40
5.0
 40
5.0
 40
5.0
 40
6.0
 40
6.0
 40
6.0
 40
7.0
 40
7.0
 40
7.0
 40
8.0
 40
8.0
 40
8.0
 40
9.0
 40
9.0
 40
9.0
 40
10.0
 40
10.0
 40
10.0
 40
11.0
 40
11.0
 40
11.0
 40
12.0
 40
12.0
 40
12.0
 40
13.0
 40
13.0
 40
13.0
 40
14.0
 40
14.0
 40
14.0
 40
15.0
 40
15.0
 40
15.0
 40
16.0
 40
16.0
 40
16.0
 40
16.0
 10
108.0454291179539
 20
-152.0668592284763
 30
0.0
 10
108.0454291179539
 20
-152.1505750487679
 30
0.0
 10
108.0285481500762
 20
-152.2587510470048
 30
0.0
 10
107.9651583931476
 20
-152.3676160643386
 30
0.0
 10
107.8552598471681
 20
-152.5529622014451
 30
0.0
 10
107.7240017091801
 20
-152.5753553220992
 30
0.0
 10
107.6161702204918
 20
-152.5956813854622
 30
0.0
 10
107.6161702204918
 20
-152.5956813854622
 30
0.0
 10
107.6161702204918
 20
-152.3583143065285
 30
0.0
 10
107.6161702204918
 20
-152.3583143065285
 30
0.0
 10
107.8149522299907
 20
-152.2997476832792
 30
0.0
 10
107.8445800511639
 20
-152.1640109211604
 30
0.0
 10
107.8445800511639
 20
-152.0644476616367
 30
0.0
 10
107.8445800511639
 20
-151.9152750271253
 30
0.0
 10
107.7450167916401
 20
-151.752322010673
 30
0.0
 10
107.5124728463858
 20
-151.752322010673
 30
0.0
 10
107.2565022518317
 20
-151.752322010673
 30
0.0
 10
107.1865668134811
 20
-151.94455833875
 30
0.0
 10
107.1865668134811
 20
-152.0734049098983
 30
0.0
 10
107.1865668134811
 20
-152.1075113552023
 30
0.0
 10
107.1865668134811
 20
-152.2587510470048
 30
0.0
 10
107.315757894178
 20
-152.3538356823977
 30
0.0
 10
107.315757894178
 20
-152.3538356823977
 30
0.0
 10
107.2968098690091
 20
-152.5415933863438
 30
0.0
 10
107.2968098690091
 20
-152.5415933863438
 30
0.0
 10
107.2968098690091
 20
-152.5415933863438
 30
0.0
 10
106.4503499082833
 20
-152.4127468151954
 30
0.0
 10
106.4503499082833
 20
-152.4127468151954
 30
0.0
 10
106.4503499082833
 20
-152.4127468151954
 30
0.0
 10
106.4503499082833
 20
-151.5807562555076
 30
0.0
 10
106.4503499082833
 20
-151.5807562555076
 30
0.0
 10
106.4503499082833
 20
-151.5807562555076
 30
0.0
 10
106.6449978031999
 20
-151.5807562555076
 30
0.0
 10
106.6449978031999
 20
-151.5807562555076
 30
0.0
 10
106.6449978031999
 20
-151.5807562555076
 30
0.0
 10
106.6449978031999
 20
-152.2384249836418
 30
0.0
 10
106.6449978031999
 20
-152.2384249836418
 30
0.0
 10
106.6449978031999
 20
-152.2384249836418
 30
0.0
 10
107.0680555287885
 20
-152.3087049315409
 30
0.0
 10
107.0680555287885
 20
-152.3087049315409
 30
0.0
 10
107.0342935930331
 20
-152.2432481173211
 30
0.0
 10
106.9939859758557
 20
-152.1550536728987
 30
0.0
 10
106.9939859758557
 20
-152.0282741590416
 30
0.0
 10
106.9939859758557
 20
-151.7571451443524
 30
0.0
 10
107.1803656416077
 20
-151.5039306261865
 30
0.0
 10
107.4935248212169
 20
-151.5039306261865
 30
0.0
 10
107.8108181154084
 20
-151.5039306261865
 30
0.0
 10
108.0454291179539
 20
-151.7433647624114
 30
0.0
 10
108.0454291179539
 20
-152.0668592284763
 30
0.0
  0
HATCH
  5
B9
330
A9
100
AcDbEntity
  8
_U+30EC_U+30A4_U+30E4_U+30FC 1
 62
   179
420
  2234388
100
AcDbHatch
 10
0.0
 20
0.0
 30
0.0
210
0.0
220
0.0
230
1.0
  2
SOLID
 70
     1
 71
     0
 91
        1
 92
        1
 93
        1
 72
     4
 94
        3
 73
     0
 74
     1
 95
       53
 96
       49
 40
0.0
 40
0.0
 40
0.0
 40
0.0
 40
1.0
 40
1.0
 40
1.0
 40
2.0
 40
2.0
 40
2.0
 40
3.0
 40
3.0
 40
3.0
 40
4.0
 40
4.0
 40
4.0
 40
5.0
 40
5.0
 40
5.0
 40
6.0
 40
6.0
 40
6.0
 40
7.0
 40
7.0
 40
7.0
 40
8.0
 40
8.0
 40
8.0
 40
9.0
 40
9.0
 40
9.0
 40
10.0
 40
10.0
 40
10.0
 40
11.0
 40
11.0
 40
11.0
 40
12.0
 40
12.0
 40
12.0
 40
13.0
 40
13.0
 40
13.0
 40
14.0
 40
14.0
 40
14.0
 40
15.0
 40
15.0
 40
15.0
 40
16.0
 40
16.0
 40
16.0
 40
16.0
 10
108.0454291179539
 20
-152.0668592284763
 10
108.0454291179539
 20
-152.1505750487679
 10
108.0285481500762
 20
-152.2587510470048
 10
107.9651583931476
 20
-152.3676160643386
 10
107.8552598471681
 20
-152.5529622014451
 10
107.7240017091801
 20
-152.5753553220992
 10
107.6161702204918
 20
-152.5956813854622
 10
107.6161702204918
 20
-152.5956813854622
 10
107.6161702204918
 20
-152.3583143065285
 10
107.6161702204918
 20
-152.3583143065285
 10
107.8149522299907
 20
-152.2997476832792
 10
107.8445800511639
 20
-152.1640109211604
 10
107.8445800511639
 20
-152.0644476616367
 10
107.8445800511639
 20
-151.9152750271253
 10
107.7450167916401
 20
-151.752322010673
 10
107.5124728463858
 20
-151.752322010673
 10
107.2565022518317
 20
-151.752322010673
 10
107.1865668134811
 20
-151.94455833875
 10
107.1865668134811
 20
-152.0734049098983
 10
107.1865668134811
 20
-152.1075113552023
 10
107.1865668134811
 20
-152.2587510470048
 10
107.315757894178
 20
-152.3538356823977
 10
107.315757894178
 20
-152.3538356823977
 10
107.2968098690091
 20
-152.5415933863438
 10
107.2968098690091
 20
-152.5415933863438
 10
107.2968098690091
 20
-152.5415933863438
 10
106.4503499082833
 20
-152.4127468151954
 10
106.4503499082833
 20
-152.4127468151954
 10
106.4503499082833
 20
-152.4127468151954
 10
106.4503499082833
 20
-151.5807562555076
 10
106.4503499082833
 20
-151.5807562555076
 10
106.4503499082833
 20
-151.5807562555076
 10
106.6449978031999
 20
-151.5807562555076
 10
106.6449978031999
 20
-151.5807562555076
 10
106.6449978031999
 20
-151.5807562555076
 10
106.6449978031999
 20
-152.2384249836418
 10
106.6449978031999
 20
-152.2384249836418
 10
106.6449978031999
 20
-152.2384249836418
 10
107.0680555287885
 20
-152.3087049315409
 10
107.0680555287885
 20
-152.3087049315409
 10
107.0342935930331
 20
-152.2432481173211
 10
106.9939859758557
 20
-152.1550536728987
 10
106.9939859758557
 20
-152.0282741590416
 10
106.9939859758557
 20
-151.7571451443524
 10
107.1803656416077
 20
-151.5039306261865
 10
107.4935248212169
 20
-151.5039306261865
 10
107.8108181154084
 20
-151.5039306261865
 10
108.0454291179539
 20
-151.7433647624114
 10
108.0454291179539
 20
-152.0668592284763
 97
        0
 97
        0
 75
     2
 76
     1
 98
        0
  0
ENDBLK
  5
AC
330
A9
100
AcDbEntity
  8
0
100
AcDbBlockEnd
  0
BLOCK
  5
C8
330
C6
100
AcDbEntity
  8
0
100
AcDbBlockBegin
  2
block 4
 70
     0
 10
0.0
 20
0.0
 30
0.0
  3
block 4
  1

  0
SPLINE
  5
CA
330
C6
100
AcDbEntity
  8
_U+30EC_U+30A4_U+30E4_U+30FC 1
370
     0
100
AcDbSpline
210
0.0
220
0.0
230
1.0
 70
    11
 71
     3
 72
    26
 73
    22
 74
     0
 42
0.0000000001
 43
0.0000000001
 12
1.0
 22
0.0
 32
0.0
 13
1.0
 23
0.0
 33
0.0
 40
0.0
 40
0.0
 40
0.0
 40
0.0
 40
1.0
 40
1.0
 40
1.0
 40
2.0
 40
2.0
 40
2.0
 40
3.0
 40
3.0
 40
3.0
 40
4.0
 40
4.0
 40
4.0
 40
5.0
 40
5.0
 40
5.0
 40
6.0
 40
6.0
 40
6.0
 40
7.0
 40
7.0
 40
7.0
 40
7.0
 10
99.6206203635497
 20
-160.0143500033992
 30
0.0
 10
99.6206203635497
 20
-160.0143500033992
 30
0.0
 10
99.6206203635497
 20
-158.9101969003766
 30
0.0
 10
99.6206203635497
 20
-158.9101969003766
 30
0.0
 10
99.6206203635497
 20
-158.9101969003766
 30
0.0
 10
99.26818709540865
 20
-158.9101969003766
 30
0.0
 10
99.26818709540865
 20
-158.9101969003766
 30
0.0
 10
99.26818709540865
 20
-158.9101969003766
 30
0.0
 10
99.26818709540865
 20
-158.7620577945109
 30
0.0
 10
99.26818709540865
 20
-158.7620577945109
 30
0.0
 10
99.62303193038939
 20
-158.7472438839243
 30
0.0
 10
99.67264130537698
 20
-158.584290867472
 30
0.0
 10
99.70433618384128
 20
-158.4699136973617
 30
0.0
 10
99.70433618384128
 20
-158.4699136973617
 30
0.0
 10
99.8603990093231
 20
-158.4699136973617
 30
0.0
 10
99.8603990093231
 20
-158.4699136973617
 30
0.0
 10
99.8603990093231
 20
-158.4699136973617
 30
0.0
 10
99.8603990093231
 20
-160.0143500033992
 30
0.0
 10
99.8603990093231
 20
-160.0143500033992
 30
0.0
 10
99.8603990093231
 20
-160.0143500033992
 30
0.0
 10
99.6206203635497
 20
-160.0143500033992
 30
0.0
 10
99.6206203635497
 20
-160.0143500033992
 30
0.0
  0
HATCH
  5
CB
330
C6
100
AcDbEntity
  8
_U+30EC_U+30A4_U+30E4_U+30FC 1
 62
   179
420
  2234388
100
AcDbHatch
 10
0.0
 20
0.0
 30
0.0
210
0.0
220
0.0
230
1.0
  2
SOLID
 70
     1
 71
     0
 91
        1
 92
        1
 93
        1
 72
     4
 94
        3
 73
     0
 74
     1
 95
       26
 96
       22
 40
0.0
 40
0.0
 40
0.0
 40
0.0
 40
1.0
 40
1.0
 40
1.0
 40
2.0
 40
2.0
 40
2.0
 40
3.0
 40
3.0
 40
3.0
 40
4.0
 40
4.0
 40
4.0
 40
5.0
 40
5.0
 40
5.0
 40
6.0
 40
6.0
 40
6.0
 40
7.0
 40
7.0
 40
7.0
 40
7.0
 10
99.6206203635497
 20
-160.0143500033992
 10
99.6206203635497
 20
-160.0143500033992
 10
99.6206203635497
 20
-158.9101969003766
 10
99.6206203635497
 20
-158.9101969003766
 10
99.6206203635497
 20
-158.9101969003766
 10
99.26818709540865
 20
-158.9101969003766
 10
99.26818709540865
 20
-158.9101969003766
 10
99.26818709540865
 20
-158.9101969003766
 10
99.26818709540865
 20
-158.7620577945109
 10
99.26818709540865
 20
-158.7620577945109
 10
99.62303193038939
 20
-158.7472438839243
 10
99.67264130537698
 20
-158.584290867472
 10
99.70433618384128
 20
-158.4699136973617
 10
99.70433618384128
 20
-158.4699136973617
 10
99.8603990093231
 20
-158.4699136973617
 10
99.8603990093231
 20
-158.4699136973617
 10
99.8603990093231
 20
-158.4699136973617
 10
99.8603990093231
 20
-160.0143500033992
 10
99.8603990093231
 20
-160.0143500033992
 10
99.8603990093231
 20
-160.0143500033992
 10
99.6206203635497
 20
-160.0143500033992
 10
99.6206203635497
 20
-160.0143500033992
 97
        0
 97
        0
 75
     2
 76
     1
 98
        0
  0
SPLINE
  5
CC
330
C6
100
AcDbEntity
  8
_U+30EC_U+30A4_U+30E4_U+30FC 1
370
     0
100
AcDbSpline
210
0.0
220
0.0
230
1.0
 70
    11
 71
     3
 72
    29
 73
    25
 74
     0
 42
0.0000000001
 43
0.0000000001
 12
1.0
 22
0.0
 32
0.0
 13
1.0
 23
0.0
 33
0.0
 40
0.0
 40
0.0
 40
0.0
 40
0.0
 40
1.0
 40
1.0
 40
1.0
 40
2.0
 40
2.0
 40
2.0
 40
3.0
 40
3.0
 40
3.0
 40
4.0
 40
4.0
 40
4.0
 40
5.0
 40
5.0
 40
5.0
 40
6.0
 40
6.0
 40
6.0
 40
7.0
 40
7.0
 40
7.0
 40
8.0
 40
8.0
 40
8.0
 40
8.0
 10
101.3555704499215
 20
-159.8365830763603
 30
0.0
 10
101.2401597511657
 20
-160.0460448818635
 30
0.0
 10
101.0548136140592
 20
-160.0649929070324
 30
0.0
 10
100.9304456670417
 20
-160.0649929070324
 30
0.0
 10
100.7588799118763
 20
-160.0649929070324
 30
0.0
 10
100.6072957105253
 20
-160.0184841179815
 30
0.0
 10
100.5056653937104
 20
-159.8365830763603
 30
0.0
 10
100.3947333190853
 20
-159.6419351814437
 30
0.0
 10
100.3744072557224
 20
-159.405257121607
 30
0.0
 10
100.3744072557224
 20
-159.2423041051547
 30
0.0
 10
100.3744072557224
 20
-159.0982991138713
 30
0.0
 10
100.3926662617942
 20
-158.8464626338995
 30
0.0
 10
100.5056653937104
 20
-158.6476806244006
 30
0.0
 10
100.6207315829177
 20
-158.4447645003194
 30
0.0
 10
100.7926418476317
 20
-158.4213378510197
 30
0.0
 10
100.9304456670417
 20
-158.4213378510197
 30
0.0
 10
101.1002888744645
 20
-158.4213378510197
 30
0.0
 10
101.2539401331067
 20
-158.4657795827794
 30
0.0
 10
101.3555704499215
 20
-158.6476806244006
 30
0.0
 10
101.4620239004157
 20
-158.8402614620261
 30
0.0
 10
101.4868285879095
 20
-159.0686712926981
 30
0.0
 10
101.4868285879095
 20
-159.2423041051547
 30
0.0
 10
101.4868285879095
 20
-159.4135253507716
 30
0.0
 10
101.4640909577069
 20
-159.6440022387348
 30
0.0
 10
101.3555704499215
 20
-159.8365830763603
 30
0.0
  0
SPLINE
  5
CD
330
C6
100
AcDbEntity
  8
_U+30EC_U+30A4_U+30E4_U+30FC 1
370
     0
100
AcDbSpline
210
0.0
220
0.0
230
1.0
 70
    11
 71
     3
 72
    17
 73
    13
 74
     0
 42
0.0000000001
 43
0.0000000001
 12
1.0
 22
0.0
 32
0.0
 13
1.0
 23
0.0
 33
0.0
 40
0.0
 40
0.0
 40
0.0
 40
0.0
 40
1.0
 40
1.0
 40
1.0
 40
2.0
 40
2.0
 40
2.0
 40
3.0
 40
3.0
 40
3.0
 40
4.0
 40
4.0
 40
4.0
 40
4.0
 10
100.9304456670417
 20
-158.6139186886451
 30
0.0
 10
100.6637952764834
 20
-158.6139186886451
 30
0.0
 10
100.6141859014958
 20
-158.8974500470812
 30
0.0
 10
100.6141859014958
 20
-159.2423041051547
 30
0.0
 10
100.6141859014958
 20
-159.5616644566374
 30
0.0
 10
100.652426461382
 20
-159.8703450121158
 30
0.0
 10
100.9304456670417
 20
-159.8703450121158
 30
0.0
 10
101.1950290003089
 20
-159.8703450121158
 30
0.0
 10
101.2470499421362
 20
-159.5892252205194
 30
0.0
 10
101.2470499421362
 20
-159.2423041051547
 30
0.0
 10
101.2470499421362
 20
-158.9225992441235
 30
0.0
 10
101.2063978154102
 20
-158.6139186886451
 30
0.0
 10
100.9304456670417
 20
-158.6139186886451
 30
0.0
  0
HATCH
  5
CE
330
C6
100
AcDbEntity
  8
_U+30EC_U+30A4_U+30E4_U+30FC 1
 62
   179
420
  2234388
100
AcDbHatch
 10
0.0
 20
0.0
 30
0.0
210
0.0
220
0.0
230
1.0
  2
SOLID
 70
     1
 71
     0
 91
        2
 92
        1
 93
        1
 72
     4
 94
        3
 73
     0
 74
     1
 95
       29
 96
       25
 40
0.0
 40
0.0
 40
0.0
 40
0.0
 40
1.0
 40
1.0
 40
1.0
 40
2.0
 40
2.0
 40
2.0
 40
3.0
 40
3.0
 40
3.0
 40
4.0
 40
4.0
 40
4.0
 40
5.0
 40
5.0
 40
5.0
 40
6.0
 40
6.0
 40
6.0
 40
7.0
 40
7.0
 40
7.0
 40
8.0
 40
8.0
 40
8.0
 40
8.0
 10
101.3555704499215
 20
-159.8365830763603
 10
101.2401597511657
 20
-160.0460448818635
 10
101.0548136140592
 20
-160.0649929070324
 10
100.9304456670417
 20
-160.0649929070324
 10
100.7588799118763
 20
-160.0649929070324
 10
100.6072957105253
 20
-160.0184841179815
 10
100.5056653937104
 20
-159.8365830763603
 10
100.3947333190853
 20
-159.6419351814437
 10
100.3744072557224
 20
-159.405257121607
 10
100.3744072557224
 20
-159.2423041051547
 10
100.3744072557224
 20
-159.0982991138713
 10
100.3926662617942
 20
-158.8464626338995
 10
100.5056653937104
 20
-158.6476806244006
 10
100.6207315829177
 20
-158.4447645003194
 10
100.7926418476317
 20
-158.4213378510197
 10
100.9304456670417
 20
-158.4213378510197
 10
101.1002888744645
 20
-158.4213378510197
 10
101.2539401331067
 20
-158.4657795827794
 10
101.3555704499215
 20
-158.6476806244006
 10
101.4620239004157
 20
-158.8402614620261
 10
101.4868285879095
 20
-159.0686712926981
 10
101.4868285879095
 20
-159.2423041051547
 10
101.4868285879095
 20
-159.4135253507716
 10
101.4640909577069
 20
-159.6440022387348
 10
101.3555704499215
 20
-159.8365830763603
 97
        0
 97
        0
 92
        1
 93
        1
 72
     4
 94
        3
 73
     0
 74
     1
 95
       17
 96
       13
 40
0.0
 40
0.0
 40
0.0
 40
0.0
 40
1.0
 40
1.0
 40
1.0
 40
2.0
 40
2.0
 40
2.0
 40
3.0
 40
3.0
 40
3.0
 40
4.0
 40
4.0
 40
4.0
 40
4.0
 10
100.9304456670417
 20
-158.6139186886451
 10
100.6637952764834
 20
-158.6139186886451
 10
100.6141859014958
 20
-158.8974500470812
 10
100.6141859014958
 20
-159.2423041051547
 10
100.6141859014958
 20
-159.5616644566374
 10
100.652426461382
 20
-159.8703450121158
 10
100.9304456670417
 20
-159.8703450121158
 10
101.1950290003089
 20
-159.8703450121158
 10
101.2470499421362
 20
-159.5892252205194
 10
101.2470499421362
 20
-159.2423041051547
 10
101.2470499421362
 20
-158.9225992441235
 10
101.2063978154102
 20
-158.6139186886451
 10
100.9304456670417
 20
-158.6139186886451
 97
        0
 97
        0
 75
     2
 76
     1
 98
        0
  0
ENDBLK
  5
C9
330
C6
100
AcDbEntity
  8
0
100
AcDbBlockEnd
  0
BLOCK
  5
DD
330
DB
100
AcDbEntity
  8
0
100
AcDbBlockBegin
  2
block 5
 70
     0
 10
0.0
 20
0.0
 30
0.0
  3
block 5
  1

  0
SPLINE
  5
DF
330
DB
100
AcDbEntity
  8
_U+30EC_U+30A4_U+30E4_U+30FC 1
370
     0
100
AcDbSpline
210
0.0
220
0.0
230
1.0
 70
    11
 71
     3
 72
    62
 73
    58
 74
     0
 42
0.0000000001
 43
0.0000000001
 12
1.0
 22
0.0
 32
0.0
 13
1.0
 23
0.0
 33
0.0
 40
0.0
 40
0.0
 40
0.0
 40
0.0
 40
1.0
 40
1.0
 40
1.0
 40
2.0
 40
2.0
 40
2.0
 40
3.0
 40
3.0
 40
3.0
 40
4.0
 40
4.0
 40
4.0
 40
5.0
 40
5.0
 40
5.0
 40
6.0
 40
6.0
 40
6.0
 40
7.0
 40
7.0
 40
7.0
 40
8.0
 40
8.0
 40
8.0
 40
9.0
 40
9.0
 40
9.0
 40
10.0
 40
10.0
 40
10.0
 40
11.0
 40
11.0
 40
11.0
 40
12.0
 40
12.0
 40
12.0
 40
13.0
 40
13.0
 40
13.0
 40
14.0
 40
14.0
 40
14.0
 40
15.0
 40
15.0
 40
15.0
 40
16.0
 40
16.0
 40
16.0
 40
17.0
 40
17.0
 40
17.0
 40
18.0
 40
18.0
 40
18.0
 40
19.0
 40
19.0
 40
19.0
 40
19.0
 10
102.1637898507611
 20
-136.8645141259401
 30
0.0
 10
102.0621595339463
 20
-136.8645141259401
 30
0.0
 10
101.8292710791434
 20
-136.8433267887058
 30
0.0
 10
101.6959458838642
 20
-136.6571193777281
 30
0.0
 10
101.6167086877035
 20
-136.5449815196832
 30
0.0
 10
101.6122300635726
 20
-136.4455905149337
 30
0.0
 10
101.6077514394418
 20
-136.3610134207709
 30
0.0
 10
101.6077514394418
 20
-136.3610134207709
 30
0.0
 10
101.8427069515359
 20
-136.3610134207709
 30
0.0
 10
101.8427069515359
 20
-136.3610134207709
 30
0.0
 10
101.8451185183755
 20
-136.4350829737037
 30
0.0
 10
101.8564873334768
 20
-136.6698662310235
 30
0.0
 10
102.1593112266303
 20
-136.6698662310235
 30
0.0
 10
102.3064168038505
 20
-136.6698662310235
 30
0.0
 10
102.4690253107543
 20
-136.6001030474472
 30
0.0
 10
102.4690253107543
 20
-136.3715209620009
 30
0.0
 10
102.4690253107543
 20
-136.2552489893737
 30
0.0
 10
102.4283731840283
 20
-136.2065008882574
 30
0.0
 10
102.3942667387244
 20
-136.1748060097931
 30
0.0
 10
102.3153740521121
 20
-136.1007364568602
 30
0.0
 10
102.1910061050946
 20
-136.0881618583391
 30
0.0
 10
102.1320949722968
 20
-136.0881618583391
 30
0.0
 10
102.1117689089339
 20
-136.0881618583391
 30
0.0
 10
102.0735283490476
 20
-136.0902289156302
 30
0.0
 10
102.0439005278744
 20
-136.0943630302125
 30
0.0
 10
102.0439005278744
 20
-136.0943630302125
 30
0.0
 10
102.0439005278744
 20
-135.8997151352959
 30
0.0
 10
102.0439005278744
 20
-135.8997151352959
 30
0.0
 10
102.0845526546004
 20
-135.9060885619436
 30
0.0
 10
102.1300279150057
 20
-135.908327874009
 30
0.0
 10
102.1365735964277
 20
-135.908327874009
 30
0.0
 10
102.2068535443268
 20
-135.908327874009
 30
0.0
 10
102.4194159357667
 20
-135.8871405367748
 30
0.0
 10
102.4194159357667
 20
-135.6501179673895
 30
0.0
 10
102.4194159357667
 20
-135.4725232951249
 30
0.0
 10
102.279200549517
 20
-135.4174017673609
 30
0.0
 10
102.16172279347
 20
-135.4174017673609
 30
0.0
 10
101.878880454131
 20
-135.4174017673609
 30
0.0
 10
101.8699232058693
 20
-135.6501179673895
 30
0.0
 10
101.8654445817385
 20
-135.7221204630313
 30
0.0
 10
101.8654445817385
 20
-135.7221204630313
 30
0.0
 10
101.6484035661678
 20
-135.7221204630313
 30
0.0
 10
101.6484035661678
 20
-135.7221204630313
 30
0.0
 10
101.6573608144294
 20
-135.597235751691
 30
0.0
 10
101.686644126054
 20
-135.2206868151532
 30
0.0
 10
102.1751586658625
 20
-135.2206868151532
 30
0.0
 10
102.4149373116359
 20
-135.2206868151532
 30
0.0
 10
102.6726304539325
 20
-135.3476385837846
 30
0.0
 10
102.6726304539325
 20
-135.6437445407418
 30
0.0
 10
102.6726304539325
 20
-135.8299519517196
 30
0.0
 10
102.5706556275692
 20
-135.9124619885913
 30
0.0
 10
102.4645466866235
 20
-135.9737846882288
 30
0.0
 10
102.5300035008432
 20
-136.0013454521108
 30
0.0
 10
102.7246513957598
 20
-136.0817884316914
 30
0.0
 10
102.7246513957598
 20
-136.3589463634797
 30
0.0
 10
102.7246513957598
 20
-136.6974269949055
 30
0.0
 10
102.4600680624926
 20
-136.8645141259401
 30
0.0
 10
102.1637898507611
 20
-136.8645141259401
 30
0.0
  0
HATCH
  5
E0
330
DB
100
AcDbEntity
  8
_U+30EC_U+30A4_U+30E4_U+30FC 1
 62
   179
420
  2234388
100
AcDbHatch
 10
0.0
 20
0.0
 30
0.0
210
0.0
220
0.0
230
1.0
  2
SOLID
 70
     1
 71
     0
 91
        1
 92
        1
 93
        1
 72
     4
 94
        3
 73
     0
 74
     1
 95
       62
 96
       58
 40
0.0
 40
0.0
 40
0.0
 40
0.0
 40
1.0
 40
1.0
 40
1.0
 40
2.0
 40
2.0
 40
2.0
 40
3.0
 40
3.0
 40
3.0
 40
4.0
 40
4.0
 40
4.0
 40
5.0
 40
5.0
 40
5.0
 40
6.0
 40
6.0
 40
6.0
 40
7.0
 40
7.0
 40
7.0
 40
8.0
 40
8.0
 40
8.0
 40
9.0
 40
9.0
 40
9.0
 40
10.0
 40
10.0
 40
10.0
 40
11.0
 40
11.0
 40
11.0
 40
12.0
 40
12.0
 40
12.0
 40
13.0
 40
13.0
 40
13.0
 40
14.0
 40
14.0
 40
14.0
 40
15.0
 40
15.0
 40
15.0
 40
16.0
 40
16.0
 40
16.0
 40
17.0
 40
17.0
 40
17.0
 40
18.0
 40
18.0
 40
18.0
 40
19.0
 40
19.0
 40
19.0
 40
19.0
 10
102.1637898507611
 20
-136.8645141259401
 10
102.0621595339463
 20
-136.8645141259401
 10
101.8292710791434
 20
-136.8433267887058
 10
101.6959458838642
 20
-136.6571193777281
 10
101.6167086877035
 20
-136.5449815196832
 10
101.6122300635726
 20
-136.4455905149337
 10
101.6077514394418
 20
-136.3610134207709
 10
101.6077514394418
 20
-136.3610134207709
 10
101.8427069515359
 20
-136.3610134207709
 10
101.8427069515359
 20
-136.3610134207709
 10
101.8451185183755
 20
-136.4350829737037
 10
101.8564873334768
 20
-136.6698662310235
 10
102.1593112266303
 20
-136.6698662310235
 10
102.3064168038505
 20
-136.6698662310235
 10
102.4690253107543
 20
-136.6001030474472
 10
102.4690253107543
 20
-136.3715209620009
 10
102.4690253107543
 20
-136.2552489893737
 10
102.4283731840283
 20
-136.2065008882574
 10
102.3942667387244
 20
-136.1748060097931
 10
102.3153740521121
 20
-136.1007364568602
 10
102.1910061050946
 20
-136.0881618583391
 10
102.1320949722968
 20
-136.0881618583391
 10
102.1117689089339
 20
-136.0881618583391
 10
102.0735283490476
 20
-136.0902289156302
 10
102.0439005278744
 20
-136.0943630302125
 10
102.0439005278744
 20
-136.0943630302125
 10
102.0439005278744
 20
-135.8997151352959
 10
102.0439005278744
 20
-135.8997151352959
 10
102.0845526546004
 20
-135.9060885619436
 10
102.1300279150057
 20
-135.908327874009
 10
102.1365735964277
 20
-135.908327874009
 10
102.2068535443268
 20
-135.908327874009
 10
102.4194159357667
 20
-135.8871405367748
 10
102.4194159357667
 20
-135.6501179673895
 10
102.4194159357667
 20
-135.4725232951249
 10
102.279200549517
 20
-135.4174017673609
 10
102.16172279347
 20
-135.4174017673609
 10
101.878880454131
 20
-135.4174017673609
 10
101.8699232058693
 20
-135.6501179673895
 10
101.8654445817385
 20
-135.7221204630313
 10
101.8654445817385
 20
-135.7221204630313
 10
101.6484035661678
 20
-135.7221204630313
 10
101.6484035661678
 20
-135.7221204630313
 10
101.6573608144294
 20
-135.597235751691
 10
101.686644126054
 20
-135.2206868151532
 10
102.1751586658625
 20
-135.2206868151532
 10
102.4149373116359
 20
-135.2206868151532
 10
102.6726304539325
 20
-135.3476385837846
 10
102.6726304539325
 20
-135.6437445407418
 10
102.6726304539325
 20
-135.8299519517196
 10
102.5706556275692
 20
-135.9124619885913
 10
102.4645466866235
 20
-135.9737846882288
 10
102.5300035008432
 20
-136.0013454521108
 10
102.7246513957598
 20
-136.0817884316914
 10
102.7246513957598
 20
-136.3589463634797
 10
102.7246513957598
 20
-136.6974269949055
 10
102.4600680624926
 20
-136.8645141259401
 10
102.1637898507611
 20
-136.8645141259401
 97
        0
 97
        0
 75
     2
 76
     1
 98
        0
  0
SPLINE
  5
E1
330
DB
100
AcDbEntity
  8
_U+30EC_U+30A4_U+30E4_U+30FC 1
370
     0
100
AcDbSpline
210
0.0
220
0.0
230
1.0
 70
    11
 71
     3
 72
    53
 73
    49
 74
     0
 42
0.0000000001
 43
0.0000000001
 12
1.0
 22
0.0
 32
0.0
 13
1.0
 23
0.0
 33
0.0
 40
0.0
 40
0.0
 40
0.0
 40
0.0
 40
1.0
 40
1.0
 40
1.0
 40
2.0
 40
2.0
 40
2.0
 40
3.0
 40
3.0
 40
3.0
 40
4.0
 40
4.0
 40
4.0
 40
5.0
 40
5.0
 40
5.0
 40
6.0
 40
6.0
 40
6.0
 40
7.0
 40
7.0
 40
7.0
 40
8.0
 40
8.0
 40
8.0
 40
9.0
 40
9.0
 40
9.0
 40
10.0
 40
10.0
 40
10.0
 40
11.0
 40
11.0
 40
11.0
 40
12.0
 40
12.0
 40
12.0
 40
13.0
 40
13.0
 40
13.0
 40
14.0
 40
14.0
 40
14.0
 40
15.0
 40
15.0
 40
15.0
 40
16.0
 40
16.0
 40
16.0
 40
16.0
 10
103.4102253973245
 20
-136.8645141259401
 30
0.0
 10
103.326509577033
 20
-136.8645141259401
 30
0.0
 10
103.2183335787961
 20
-136.8474609032882
 30
0.0
 10
103.1094685614622
 20
-136.7840711463595
 30
0.0
 10
102.9241224243558
 20
-136.6740003456058
 30
0.0
 10
102.9017293037017
 20
-136.542914462392
 30
0.0
 10
102.8814032403387
 20
-136.4350829737037
 30
0.0
 10
102.8814032403387
 20
-136.4350829737037
 30
0.0
 10
103.1187703192724
 20
-136.4350829737037
 30
0.0
 10
103.1187703192724
 20
-136.4350829737037
 30
0.0
 10
103.1773369425216
 20
-136.6338649832026
 30
0.0
 10
103.3130737046405
 20
-136.6634928043758
 30
0.0
 10
103.4126369641642
 20
-136.6634928043758
 30
0.0
 10
103.5618095986755
 20
-136.6634928043758
 30
0.0
 10
103.7247626151278
 20
-136.5641017996263
 30
0.0
 10
103.7247626151278
 20
-136.3313855995977
 30
0.0
 10
103.7247626151278
 20
-136.0754150050437
 30
0.0
 10
103.5325262870509
 20
-136.0056518214674
 30
0.0
 10
103.4036797159026
 20
-136.0056518214674
 30
0.0
 10
103.3695732705986
 20
-136.0056518214674
 30
0.0
 10
103.2183335787961
 20
-136.0056518214674
 30
0.0
 10
103.1232489434032
 20
-136.13467064739
 30
0.0
 10
103.1232489434032
 20
-136.13467064739
 30
0.0
 10
102.9354912394571
 20
-136.1155503674468
 30
0.0
 10
102.9354912394571
 20
-136.1155503674468
 30
0.0
 10
102.9354912394571
 20
-136.1155503674468
 30
0.0
 10
103.0643378106055
 20
-135.2694349162695
 30
0.0
 10
103.0643378106055
 20
-135.2694349162695
 30
0.0
 10
103.0643378106055
 20
-135.2694349162695
 30
0.0
 10
103.8963283702933
 20
-135.2694349162695
 30
0.0
 10
103.8963283702933
 20
-135.2694349162695
 30
0.0
 10
103.8963283702933
 20
-135.2694349162695
 30
0.0
 10
103.8963283702933
 20
-135.4640828111861
 30
0.0
 10
103.8963283702933
 20
-135.4640828111861
 30
0.0
 10
103.8963283702933
 20
-135.4640828111861
 30
0.0
 10
103.2386596421591
 20
-135.4640828111861
 30
0.0
 10
103.2386596421591
 20
-135.4640828111861
 30
0.0
 10
103.2386596421591
 20
-135.4640828111861
 30
0.0
 10
103.16837969426
 20
-135.8871405367748
 30
0.0
 10
103.16837969426
 20
-135.8871405367748
 30
0.0
 10
103.2338365084797
 20
-135.853206346245
 30
0.0
 10
103.3220309529021
 20
-135.8130709838419
 30
0.0
 10
103.4488104667593
 20
-135.8130709838419
 30
0.0
 10
103.7199394814485
 20
-135.8130709838419
 30
0.0
 10
103.9731539996144
 20
-135.9992783948196
 30
0.0
 10
103.9731539996144
 20
-136.3122653196546
 30
0.0
 10
103.9731539996144
 20
-136.6297308686204
 30
0.0
 10
103.7337198633895
 20
-136.8645141259401
 30
0.0
 10
103.4102253973245
 20
-136.8645141259401
 30
0.0
  0
HATCH
  5
E2
330
DB
100
AcDbEntity
  8
_U+30EC_U+30A4_U+30E4_U+30FC 1
 62
   179
420
  2234388
100
AcDbHatch
 10
0.0
 20
0.0
 30
0.0
210
0.0
220
0.0
230
1.0
  2
SOLID
 70
     1
 71
     0
 91
        1
 92
        1
 93
        1
 72
     4
 94
        3
 73
     0
 74
     1
 95
       53
 96
       49
 40
0.0
 40
0.0
 40
0.0
 40
0.0
 40
1.0
 40
1.0
 40
1.0
 40
2.0
 40
2.0
 40
2.0
 40
3.0
 40
3.0
 40
3.0
 40
4.0
 40
4.0
 40
4.0
 40
5.0
 40
5.0
 40
5.0
 40
6.0
 40
6.0
 40
6.0
 40
7.0
 40
7.0
 40
7.0
 40
8.0
 40
8.0
 40
8.0
 40
9.0
 40
9.0
 40
9.0
 40
10.0
 40
10.0
 40
10.0
 40
11.0
 40
11.0
 40
11.0
 40
12.0
 40
12.0
 40
12.0
 40
13.0
 40
13.0
 40
13.0
 40
14.0
 40
14.0
 40
14.0
 40
15.0
 40
15.0
 40
15.0
 40
16.0
 40
16.0
 40
16.0
 40
16.0
 10
103.4102253973245
 20
-136.8645141259401
 10
103.326509577033
 20
-136.8645141259401
 10
103.2183335787961
 20
-136.8474609032882
 10
103.1094685614622
 20
-136.7840711463595
 10
102.9241224243558
 20
-136.6740003456058
 10
102.9017293037017
 20
-136.542914462392
 10
102.8814032403387
 20
-136.4350829737037
 10
102.8814032403387
 20
-136.4350829737037
 10
103.1187703192724
 20
-136.4350829737037
 10
103.1187703192724
 20
-136.4350829737037
 10
103.1773369425216
 20
-136.6338649832026
 10
103.3130737046405
 20
-136.6634928043758
 10
103.4126369641642
 20
-136.6634928043758
 10
103.5618095986755
 20
-136.6634928043758
 10
103.7247626151278
 20
-136.5641017996263
 10
103.7247626151278
 20
-136.3313855995977
 10
103.7247626151278
 20
-136.0754150050437
 10
103.5325262870509
 20
-136.0056518214674
 10
103.4036797159026
 20
-136.0056518214674
 10
103.3695732705986
 20
-136.0056518214674
 10
103.2183335787961
 20
-136.0056518214674
 10
103.1232489434032
 20
-136.13467064739
 10
103.1232489434032
 20
-136.13467064739
 10
102.9354912394571
 20
-136.1155503674468
 10
102.9354912394571
 20
-136.1155503674468
 10
102.9354912394571
 20
-136.1155503674468
 10
103.0643378106055
 20
-135.2694349162695
 10
103.0643378106055
 20
-135.2694349162695
 10
103.0643378106055
 20
-135.2694349162695
 10
103.8963283702933
 20
-135.2694349162695
 10
103.8963283702933
 20
-135.2694349162695
 10
103.8963283702933
 20
-135.2694349162695
 10
103.8963283702933
 20
-135.4640828111861
 10
103.8963283702933
 20
-135.4640828111861
 10
103.8963283702933
 20
-135.4640828111861
 10
103.2386596421591
 20
-135.4640828111861
 10
103.2386596421591
 20
-135.4640828111861
 10
103.2386596421591
 20
-135.4640828111861
 10
103.16837969426
 20
-135.8871405367748
 10
103.16837969426
 20
-135.8871405367748
 10
103.2338365084797
 20
-135.853206346245
 10
103.3220309529021
 20
-135.8130709838419
 10
103.4488104667593
 20
-135.8130709838419
 10
103.7199394814485
 20
-135.8130709838419
 10
103.9731539996144
 20
-135.9992783948196
 10
103.9731539996144
 20
-136.3122653196546
 10
103.9731539996144
 20
-136.6297308686204
 10
103.7337198633895
 20
-136.8645141259401
 10
103.4102253973245
 20
-136.8645141259401
 97
        0
 97
        0
 75
     2
 76
     1
 98
        0
  0
ENDBLK
  5
DE
330
DB
100
AcDbEntity
  8
0
100
AcDbBlockEnd
  0
BLOCK
  5
ED
330
EB
100
AcDbEntity
  8
0
100
AcDbBlockBegin
  2
block 6
 70
     0
 10
0.0
 20
0.0
 30
0.0
  3
block 6
  1

  0
SPLINE
  5
EF
330
EB
100
AcDbEntity
  8
_U+30EC_U+30A4_U+30E4_U+30FC 1
370
     0
100
AcDbSpline
210
0.0
220
0.0
230
1.0
 70
    11
 71
     3
 72
    26
 73
    22
 74
     0
 42
0.0000000001
 43
0.0000000001
 12
1.0
 22
0.0
 32
0.0
 13
1.0
 23
0.0
 33
0.0
 40
0.0
 40
0.0
 40
0.0
 40
0.0
 40
1.0
 40
1.0
 40
1.0
 40
2.0
 40
2.0
 40
2.0
 40
3.0
 40
3.0
 40
3.0
 40
4.0
 40
4.0
 40
4.0
 40
5.0
 40
5.0
 40
5.0
 40
6.0
 40
6.0
 40
6.0
 40
7.0
 40
7.0
 40
7.0
 40
7.0
 10
89.62088620806354
 20
-160.0143500033992
 30
0.0
 10
89.62088620806354
 20
-160.0143500033992
 30
0.0
 10
89.62088620806354
 20
-158.9101969003766
 30
0.0
 10
89.62088620806354
 20
-158.9101969003766
 30
0.0
 10
89.62088620806354
 20
-158.9101969003766
 30
0.0
 10
89.26810843037394
 20
-158.9101969003766
 30
0.0
 10
89.26810843037394
 20
-158.9101969003766
 30
0.0
 10
89.26810843037394
 20
-158.9101969003766
 30
0.0
 10
89.26810843037394
 20
-158.7620577945109
 30
0.0
 10
89.26810843037394
 20
-158.7620577945109
 30
0.0
 10
89.62312552012895
 20
-158.7472438839243
 30
0.0
 10
89.6729071498908
 20
-158.584290867472
 30
0.0
 10
89.7046020283551
 20
-158.4699136973617
 30
0.0
 10
89.7046020283551
 20
-158.4699136973617
 30
0.0
 10
89.86049259906265
 20
-158.4699136973617
 30
0.0
 10
89.86049259906265
 20
-158.4699136973617
 30
0.0
 10
89.86049259906265
 20
-158.4699136973617
 30
0.0
 10
89.86049259906265
 20
-160.0143500033992
 30
0.0
 10
89.86049259906265
 20
-160.0143500033992
 30
0.0
 10
89.86049259906265
 20
-160.0143500033992
 30
0.0
 10
89.62088620806354
 20
-160.0143500033992
 30
0.0
 10
89.62088620806354
 20
-160.0143500033992
 30
0.0
  0
HATCH
  5
F0
330
EB
100
AcDbEntity
  8
_U+30EC_U+30A4_U+30E4_U+30FC 1
 62
   179
420
  2234388
100
AcDbHatch
 10
0.0
 20
0.0
 30
0.0
210
0.0
220
0.0
230
1.0
  2
SOLID
 70
     1
 71
     0
 91
        1
 92
        1
 93
        1
 72
     4
 94
        3
 73
     0
 74
     1
 95
       26
 96
       22
 40
0.0
 40
0.0
 40
0.0
 40
0.0
 40
1.0
 40
1.0
 40
1.0
 40
2.0
 40
2.0
 40
2.0
 40
3.0
 40
3.0
 40
3.0
 40
4.0
 40
4.0
 40
4.0
 40
5.0
 40
5.0
 40
5.0
 40
6.0
 40
6.0
 40
6.0
 40
7.0
 40
7.0
 40
7.0
 40
7.0
 10
89.62088620806354
 20
-160.0143500033992
 10
89.62088620806354
 20
-160.0143500033992
 10
89.62088620806354
 20
-158.9101969003766
 10
89.62088620806354
 20
-158.9101969003766
 10
89.62088620806354
 20
-158.9101969003766
 10
89.26810843037394
 20
-158.9101969003766
 10
89.26810843037394
 20
-158.9101969003766
 10
89.26810843037394
 20
-158.9101969003766
 10
89.26810843037394
 20
-158.7620577945109
 10
89.26810843037394
 20
-158.7620577945109
 10
89.62312552012895
 20
-158.7472438839243
 10
89.6729071498908
 20
-158.584290867472
 10
89.7046020283551
 20
-158.4699136973617
 10
89.7046020283551
 20
-158.4699136973617
 10
89.86049259906265
 20
-158.4699136973617
 10
89.86049259906265
 20
-158.4699136973617
 10
89.86049259906265
 20
-158.4699136973617
 10
89.86049259906265
 20
-160.0143500033992
 10
89.86049259906265
 20
-160.0143500033992
 10
89.86049259906265
 20
-160.0143500033992
 10
89.62088620806354
 20
-160.0143500033992
 10
89.62088620806354
 20
-160.0143500033992
 97
        0
 97
        0
 75
     2
 76
     1
 98
        0
  0
SPLINE
  5
F1
330
EB
100
AcDbEntity
  8
_U+30EC_U+30A4_U+30E4_U+30FC 1
370
     0
100
AcDbSpline
210
0.0
220
0.0
230
1.0
 70
    11
 71
     3
 72
    29
 73
    25
 74
     0
 42
0.0000000001
 43
0.0000000001
 12
1.0
 22
0.0
 32
0.0
 13
1.0
 23
0.0
 33
0.0
 40
0.0
 40
0.0
 40
0.0
 40
0.0
 40
1.0
 40
1.0
 40
1.0
 40
2.0
 40
2.0
 40
2.0
 40
3.0
 40
3.0
 40
3.0
 40
4.0
 40
4.0
 40
4.0
 40
5.0
 40
5.0
 40
5.0
 40
6.0
 40
6.0
 40
6.0
 40
7.0
 40
7.0
 40
7.0
 40
8.0
 40
8.0
 40
8.0
 40
8.0
 10
91.3556640396611
 20
-159.8365830763603
 30
0.0
 10
91.24042559567948
 20
-160.0460448818635
 30
0.0
 10
91.05507945857303
 20
-160.0649929070324
 30
0.0
 10
90.93071151155551
 20
-160.0649929070324
 30
0.0
 10
90.75880124684156
 20
-160.0649929070324
 30
0.0
 10
90.60738930026483
 20
-160.0184841179815
 30
0.0
 10
90.5055867286757
 20
-159.8365830763603
 30
0.0
 10
90.39482690882491
 20
-159.6419351814437
 30
0.0
 10
90.37450084546194
 20
-159.405257121607
 30
0.0
 10
90.37450084546194
 20
-159.2423041051547
 30
0.0
 10
90.37450084546194
 20
-159.0982991138713
 30
0.0
 10
90.3925875967595
 20
-158.8464626338995
 30
0.0
 10
90.5055867286757
 20
-158.6476806244006
 30
0.0
 10
90.62099742743156
 20
-158.4447645003194
 30
0.0
 10
90.79273543737126
 20
-158.4213378510197
 30
0.0
 10
90.93071151155551
 20
-158.4213378510197
 30
0.0
 10
91.10021020942982
 20
-158.4213378510197
 30
0.0
 10
91.25403372284622
 20
-158.4657795827794
 30
0.0
 10
91.3556640396611
 20
-158.6476806244006
 30
0.0
 10
91.46194523538105
 20
-158.8402614620261
 30
0.0
 10
91.48674992287485
 20
-159.0686712926981
 30
0.0
 10
91.48674992287485
 20
-159.2423041051547
 30
0.0
 10
91.48674992287485
 20
-159.4135253507716
 30
0.0
 10
91.46418454744646
 20
-159.6440022387348
 30
0.0
 10
91.3556640396611
 20
-159.8365830763603
 30
0.0
  0
SPLINE
  5
F2
330
EB
100
AcDbEntity
  8
_U+30EC_U+30A4_U+30E4_U+30FC 1
370
     0
100
AcDbSpline
210
0.0
220
0.0
230
1.0
 70
    11
 71
     3
 72
    17
 73
    13
 74
     0
 42
0.0000000001
 43
0.0000000001
 12
1.0
 22
0.0
 32
0.0
 13
1.0
 23
0.0
 33
0.0
 40
0.0
 40
0.0
 40
0.0
 40
0.0
 40
1.0
 40
1.0
 40
1.0
 40
2.0
 40
2.0
 40
2.0
 40
3.0
 40
3.0
 40
3.0
 40
4.0
 40
4.0
 40
4.0
 40
4.0
 10
90.93071151155551
 20
-158.6139186886451
 30
0.0
 10
90.66388886622292
 20
-158.6139186886451
 30
0.0
 10
90.61410723646107
 20
-158.8974500470812
 30
0.0
 10
90.61410723646107
 20
-159.2423041051547
 30
0.0
 10
90.61410723646107
 20
-159.5616644566374
 30
0.0
 10
90.6525200511216
 20
-159.8703450121158
 30
0.0
 10
90.93071151155551
 20
-159.8703450121158
 30
0.0
 10
91.19512259004844
 20
-159.8703450121158
 30
0.0
 10
91.24714353187572
 20
-159.5892252205194
 30
0.0
 10
91.24714353187572
 20
-159.2423041051547
 30
0.0
 10
91.24714353187572
 20
-158.9225992441235
 30
0.0
 10
91.20649140514978
 20
-158.6139186886451
 30
0.0
 10
90.93071151155551
 20
-158.6139186886451
 30
0.0
  0
HATCH
  5
F3
330
EB
100
AcDbEntity
  8
_U+30EC_U+30A4_U+30E4_U+30FC 1
 62
   179
420
  2234388
100
AcDbHatch
 10
0.0
 20
0.0
 30
0.0
210
0.0
220
0.0
230
1.0
  2
SOLID
 70
     1
 71
     0
 91
        2
 92
        1
 93
        1
 72
     4
 94
        3
 73
     0
 74
     1
 95
       29
 96
       25
 40
0.0
 40
0.0
 40
0.0
 40
0.0
 40
1.0
 40
1.0
 40
1.0
 40
2.0
 40
2.0
 40
2.0
 40
3.0
 40
3.0
 40
3.0
 40
4.0
 40
4.0
 40
4.0
 40
5.0
 40
5.0
 40
5.0
 40
6.0
 40
6.0
 40
6.0
 40
7.0
 40
7.0
 40
7.0
 40
8.0
 40
8.0
 40
8.0
 40
8.0
 10
91.3556640396611
 20
-159.8365830763603
 10
91.24042559567948
 20
-160.0460448818635
 10
91.05507945857303
 20
-160.0649929070324
 10
90.93071151155551
 20
-160.0649929070324
 10
90.75880124684156
 20
-160.0649929070324
 10
90.60738930026483
 20
-160.0184841179815
 10
90.5055867286757
 20
-159.8365830763603
 10
90.39482690882491
 20
-159.6419351814437
 10
90.37450084546194
 20
-159.405257121607
 10
90.37450084546194
 20
-159.2423041051547
 10
90.37450084546194
 20
-159.0982991138713
 10
90.3925875967595
 20
-158.8464626338995
 10
90.5055867286757
 20
-158.6476806244006
 10
90.62099742743156
 20
-158.4447645003194
 10
90.79273543737126
 20
-158.4213378510197
 10
90.93071151155551
 20
-158.4213378510197
 10
91.10021020942982
 20
-158.4213378510197
 10
91.25403372284622
 20
-158.4657795827794
 10
91.3556640396611
 20
-158.6476806244006
 10
91.46194523538105
 20
-158.8402614620261
 10
91.48674992287485
 20
-159.0686712926981
 10
91.48674992287485
 20
-159.2423041051547
 10
91.48674992287485
 20
-159.4135253507716
 10
91.46418454744646
 20
-159.6440022387348
 10
91.3556640396611
 20
-159.8365830763603
 97
        0
 97
        0
 92
        1
 93
        1
 72
     4
 94
        3
 73
     0
 74
     1
 95
       17
 96
       13
 40
0.0
 40
0.0
 40
0.0
 40
0.0
 40
1.0
 40
1.0
 40
1.0
 40
2.0
 40
2.0
 40
2.0
 40
3.0
 40
3.0
 40
3.0
 40
4.0
 40
4.0
 40
4.0
 40
4.0
 10
90.93071151155551
 20
-158.6139186886451
 10
90.66388886622292
 20
-158.6139186886451
 10
90.61410723646107
 20
-158.8974500470812
 10
90.61410723646107
 20
-159.2423041051547
 10
90.61410723646107
 20
-159.5616644566374
 10
90.6525200511216
 20
-159.8703450121158
 10
90.93071151155551
 20
-159.8703450121158
 10
91.19512259004844
 20
-159.8703450121158
 10
91.24714353187572
 20
-159.5892252205194
 10
91.24714353187572
 20
-159.2423041051547
 10
91.24714353187572
 20
-158.9225992441235
 10
91.20649140514978
 20
-158.6139186886451
 10
90.93071151155551
 20
-158.6139186886451
 97
        0
 97
        0
 75
     2
 76
     1
 98
        0
  0
ENDBLK
  5
EE
330
EB
100
AcDbEntity
  8
0
100
AcDbBlockEnd
  0
BLOCK
  5
FE
330
FC
100
AcDbEntity
  8
0
100
AcDbBlockBegin
  2
block 7
 70
     0
 10
0.0
 20
0.0
 30
0.0
  3
block 7
  1

  0
SPLINE
  5
100
330
FC
100
AcDbEntity
  8
_U+30EC_U+30A4_U+30E4_U+30FC 1
370
     0
100
AcDbSpline
210
0.0
220
0.0
230
1.0
 70
    11
 71
     3
 72
    26
 73
    22
 74
     0
 42
0.0000000001
 43
0.0000000001
 12
1.0
 22
0.0
 32
0.0
 13
1.0
 23
0.0
 33
0.0
 40
0.0
 40
0.0
 40
0.0
 40
0.0
 40
1.0
 40
1.0
 40
1.0
 40
2.0
 40
2.0
 40
2.0
 40
3.0
 40
3.0
 40
3.0
 40
4.0
 40
4.0
 40
4.0
 40
5.0
 40
5.0
 40
5.0
 40
6.0
 40
6.0
 40
6.0
 40
7.0
 40
7.0
 40
7.0
 40
7.0
 10
122.9950764666471
 20
-150.2919460344756
 30
0.0
 10
122.9950764666471
 20
-150.2919460344756
 30
0.0
 10
121.8909233636245
 20
-150.2919460344756
 30
0.0
 10
121.8909233636245
 20
-150.2919460344756
 30
0.0
 10
121.8909233636245
 20
-150.2919460344756
 30
0.0
 10
121.8909233636245
 20
-150.6443793026167
 30
0.0
 10
121.8909233636245
 20
-150.6443793026167
 30
0.0
 10
121.8909233636245
 20
-150.6443793026167
 30
0.0
 10
121.7427842577588
 20
-150.6443793026167
 30
0.0
 10
121.7427842577588
 20
-150.6443793026167
 30
0.0
 10
121.7279703471722
 20
-150.2895344676359
 30
0.0
 10
121.5650173307199
 20
-150.2399250926483
 30
0.0
 10
121.4506401606096
 20
-150.2082302141841
 30
0.0
 10
121.4506401606096
 20
-150.2082302141841
 30
0.0
 10
121.4506401606096
 20
-150.0521673887022
 30
0.0
 10
121.4506401606096
 20
-150.0521673887022
 30
0.0
 10
121.4506401606096
 20
-150.0521673887022
 30
0.0
 10
122.9950764666471
 20
-150.0521673887022
 30
0.0
 10
122.9950764666471
 20
-150.0521673887022
 30
0.0
 10
122.9950764666471
 20
-150.0521673887022
 30
0.0
 10
122.9950764666471
 20
-150.2919460344756
 30
0.0
 10
122.9950764666471
 20
-150.2919460344756
 30
0.0
  0
HATCH
  5
101
330
FC
100
AcDbEntity
  8
_U+30EC_U+30A4_U+30E4_U+30FC 1
 62
   179
420
  2234388
100
AcDbHatch
 10
0.0
 20
0.0
 30
0.0
210
0.0
220
0.0
230
1.0
  2
SOLID
 70
     1
 71
     0
 91
        1
 92
        1
 93
        1
 72
     4
 94
        3
 73
     0
 74
     1
 95
       26
 96
       22
 40
0.0
 40
0.0
 40
0.0
 40
0.0
 40
1.0
 40
1.0
 40
1.0
 40
2.0
 40
2.0
 40
2.0
 40
3.0
 40
3.0
 40
3.0
 40
4.0
 40
4.0
 40
4.0
 40
5.0
 40
5.0
 40
5.0
 40
6.0
 40
6.0
 40
6.0
 40
7.0
 40
7.0
 40
7.0
 40
7.0
 10
122.9950764666471
 20
-150.2919460344756
 10
122.9950764666471
 20
-150.2919460344756
 10
121.8909233636245
 20
-150.2919460344756
 10
121.8909233636245
 20
-150.2919460344756
 10
121.8909233636245
 20
-150.2919460344756
 10
121.8909233636245
 20
-150.6443793026167
 10
121.8909233636245
 20
-150.6443793026167
 10
121.8909233636245
 20
-150.6443793026167
 10
121.7427842577588
 20
-150.6443793026167
 10
121.7427842577588
 20
-150.6443793026167
 10
121.7279703471722
 20
-150.2895344676359
 10
121.5650173307199
 20
-150.2399250926483
 10
121.4506401606096
 20
-150.2082302141841
 10
121.4506401606096
 20
-150.2082302141841
 10
121.4506401606096
 20
-150.0521673887022
 10
121.4506401606096
 20
-150.0521673887022
 10
121.4506401606096
 20
-150.0521673887022
 10
122.9950764666471
 20
-150.0521673887022
 10
122.9950764666471
 20
-150.0521673887022
 10
122.9950764666471
 20
-150.0521673887022
 10
122.9950764666471
 20
-150.2919460344756
 10
122.9950764666471
 20
-150.2919460344756
 97
        0
 97
        0
 75
     2
 76
     1
 98
        0
  0
SPLINE
  5
102
330
FC
100
AcDbEntity
  8
_U+30EC_U+30A4_U+30E4_U+30FC 1
370
     0
100
AcDbSpline
210
0.0
220
0.0
230
1.0
 70
    11
 71
     3
 72
    62
 73
    58
 74
     0
 42
0.0000000001
 43
0.0000000001
 12
1.0
 22
0.0
 32
0.0
 13
1.0
 23
0.0
 33
0.0
 40
0.0
 40
0.0
 40
0.0
 40
0.0
 40
1.0
 40
1.0
 40
1.0
 40
2.0
 40
2.0
 40
2.0
 40
3.0
 40
3.0
 40
3.0
 40
4.0
 40
4.0
 40
4.0
 40
5.0
 40
5.0
 40
5.0
 40
6.0
 40
6.0
 40
6.0
 40
7.0
 40
7.0
 40
7.0
 40
8.0
 40
8.0
 40
8.0
 40
9.0
 40
9.0
 40
9.0
 40
10.0
 40
10.0
 40
10.0
 40
11.0
 40
11.0
 40
11.0
 40
12.0
 40
12.0
 40
12.0
 40
13.0
 40
13.0
 40
13.0
 40
14.0
 40
14.0
 40
14.0
 40
15.0
 40
15.0
 40
15.0
 40
16.0
 40
16.0
 40
16.0
 40
17.0
 40
17.0
 40
17.0
 40
18.0
 40
18.0
 40
18.0
 40
19.0
 40
19.0
 40
19.0
 40
19.0
 10
123.0457193702802
 20
-148.9910779792453
 30
0.0
 10
123.0457193702802
 20
-149.0927082960602
 30
0.0
 10
123.0247042878202
 20
-149.325596750863
 30
0.0
 10
122.8386691316167
 20
-149.4589219461422
 30
0.0
 10
122.7263590187976
 20
-149.538159142303
 30
0.0
 10
122.6271402688224
 20
-149.5426377664338
 30
0.0
 10
122.5423909198852
 20
-149.5471163905646
 30
0.0
 10
122.5423909198852
 20
-149.5471163905646
 30
0.0
 10
122.5423909198852
 20
-149.3121608784706
 30
0.0
 10
122.5423909198852
 20
-149.3121608784706
 30
0.0
 10
122.6164604728181
 20
-149.3097493116309
 30
0.0
 10
122.8510714753636
 20
-149.2983804965296
 30
0.0
 10
122.8510714753636
 20
-148.9955566033761
 30
0.0
 10
122.8510714753636
 20
-148.8484510261559
 30
0.0
 10
122.7814805465616
 20
-148.6858425192522
 30
0.0
 10
122.5530707158895
 20
-148.6858425192522
 30
0.0
 10
122.4366264884881
 20
-148.6858425192522
 30
0.0
 10
122.3880506421461
 20
-148.7264946459781
 30
0.0
 10
122.3563557636817
 20
-148.7606010912821
 30
0.0
 10
122.2822862107489
 20
-148.8394937778943
 30
0.0
 10
122.2695393574535
 20
-148.9638617249118
 30
0.0
 10
122.2695393574535
 20
-149.0227728577096
 30
0.0
 10
122.2695393574535
 20
-149.0430989210726
 30
0.0
 10
122.2716064147446
 20
-149.0813394809588
 30
0.0
 10
122.2757405293269
 20
-149.110967302132
 30
0.0
 10
122.2757405293269
 20
-149.110967302132
 30
0.0
 10
122.0810926344103
 20
-149.110967302132
 30
0.0
 10
122.0810926344103
 20
-149.110967302132
 30
0.0
 10
122.0876383158323
 20
-149.0703151754061
 30
0.0
 10
122.0897053731234
 20
-149.0248399150007
 30
0.0
 10
122.0897053731234
 20
-149.0182942335788
 30
0.0
 10
122.0897053731234
 20
-148.9480142856797
 30
0.0
 10
122.0683457811149
 20
-148.7354518942398
 30
0.0
 10
121.8316677212782
 20
-148.7354518942398
 30
0.0
 10
121.6539007942393
 20
-148.7354518942398
 30
0.0
 10
121.5987792664753
 20
-148.8756672804894
 30
0.0
 10
121.5987792664753
 20
-148.9931450365364
 30
0.0
 10
121.5987792664753
 20
-149.2759873758754
 30
0.0
 10
121.8316677212782
 20
-149.2849446241371
 30
0.0
 10
121.9033257073714
 20
-149.2894232482679
 30
0.0
 10
121.9033257073714
 20
-149.2894232482679
 30
0.0
 10
121.9033257073714
 20
-149.5064642638387
 30
0.0
 10
121.9033257073714
 20
-149.5064642638387
 30
0.0
 10
121.7786132508053
 20
-149.497507015577
 30
0.0
 10
121.4020643142675
 20
-149.4682237039524
 30
0.0
 10
121.4020643142675
 20
-148.979709164144
 30
0.0
 10
121.4020643142675
 20
-148.7399305183706
 30
0.0
 10
121.5291883376733
 20
-148.4822373760739
 30
0.0
 10
121.8251220398562
 20
-148.4822373760739
 30
0.0
 10
122.0115017056082
 20
-148.4822373760739
 30
0.0
 10
122.0938394877057
 20
-148.5842122024373
 30
0.0
 10
122.1551621873432
 20
-148.690321143383
 30
0.0
 10
122.1827229512252
 20
-148.6248643291632
 30
0.0
 10
122.2629936760315
 20
-148.4302164342466
 30
0.0
 10
122.5403238625941
 20
-148.4302164342466
 30
0.0
 10
122.8786322392456
 20
-148.4302164342466
 30
0.0
 10
123.0457193702802
 20
-148.6947997675138
 30
0.0
 10
123.0457193702802
 20
-148.9910779792453
 30
0.0
  0
HATCH
  5
103
330
FC
100
AcDbEntity
  8
_U+30EC_U+30A4_U+30E4_U+30FC 1
 62
   179
420
  2234388
100
AcDbHatch
 10
0.0
 20
0.0
 30
0.0
210
0.0
220
0.0
230
1.0
  2
SOLID
 70
     1
 71
     0
 91
        1
 92
        1
 93
        1
 72
     4
 94
        3
 73
     0
 74
     1
 95
       62
 96
       58
 40
0.0
 40
0.0
 40
0.0
 40
0.0
 40
1.0
 40
1.0
 40
1.0
 40
2.0
 40
2.0
 40
2.0
 40
3.0
 40
3.0
 40
3.0
 40
4.0
 40
4.0
 40
4.0
 40
5.0
 40
5.0
 40
5.0
 40
6.0
 40
6.0
 40
6.0
 40
7.0
 40
7.0
 40
7.0
 40
8.0
 40
8.0
 40
8.0
 40
9.0
 40
9.0
 40
9.0
 40
10.0
 40
10.0
 40
10.0
 40
11.0
 40
11.0
 40
11.0
 40
12.0
 40
12.0
 40
12.0
 40
13.0
 40
13.0
 40
13.0
 40
14.0
 40
14.0
 40
14.0
 40
15.0
 40
15.0
 40
15.0
 40
16.0
 40
16.0
 40
16.0
 40
17.0
 40
17.0
 40
17.0
 40
18.0
 40
18.0
 40
18.0
 40
19.0
 40
19.0
 40
19.0
 40
19.0
 10
123.0457193702802
 20
-148.9910779792453
 10
123.0457193702802
 20
-149.0927082960602
 10
123.0247042878202
 20
-149.325596750863
 10
122.8386691316167
 20
-149.4589219461422
 10
122.7263590187976
 20
-149.538159142303
 10
122.6271402688224
 20
-149.5426377664338
 10
122.5423909198852
 20
-149.5471163905646
 10
122.5423909198852
 20
-149.5471163905646
 10
122.5423909198852
 20
-149.3121608784706
 10
122.5423909198852
 20
-149.3121608784706
 10
122.6164604728181
 20
-149.3097493116309
 10
122.8510714753636
 20
-149.2983804965296
 10
122.8510714753636
 20
-148.9955566033761
 10
122.8510714753636
 20
-148.8484510261559
 10
122.7814805465616
 20
-148.6858425192522
 10
122.5530707158895
 20
-148.6858425192522
 10
122.4366264884881
 20
-148.6858425192522
 10
122.3880506421461
 20
-148.7264946459781
 10
122.3563557636817
 20
-148.7606010912821
 10
122.2822862107489
 20
-148.8394937778943
 10
122.2695393574535
 20
-148.9638617249118
 10
122.2695393574535
 20
-149.0227728577096
 10
122.2695393574535
 20
-149.0430989210726
 10
122.2716064147446
 20
-149.0813394809588
 10
122.2757405293269
 20
-149.110967302132
 10
122.2757405293269
 20
-149.110967302132
 10
122.0810926344103
 20
-149.110967302132
 10
122.0810926344103
 20
-149.110967302132
 10
122.0876383158323
 20
-149.0703151754061
 10
122.0897053731234
 20
-149.0248399150007
 10
122.0897053731234
 20
-149.0182942335788
 10
122.0897053731234
 20
-148.9480142856797
 10
122.0683457811149
 20
-148.7354518942398
 10
121.8316677212782
 20
-148.7354518942398
 10
121.6539007942393
 20
-148.7354518942398
 10
121.5987792664753
 20
-148.8756672804894
 10
121.5987792664753
 20
-148.9931450365364
 10
121.5987792664753
 20
-149.2759873758754
 10
121.8316677212782
 20
-149.2849446241371
 10
121.9033257073714
 20
-149.2894232482679
 10
121.9033257073714
 20
-149.2894232482679
 10
121.9033257073714
 20
-149.5064642638387
 10
121.9033257073714
 20
-149.5064642638387
 10
121.7786132508053
 20
-149.497507015577
 10
121.4020643142675
 20
-149.4682237039524
 10
121.4020643142675
 20
-148.979709164144
 10
121.4020643142675
 20
-148.7399305183706
 10
121.5291883376733
 20
-148.4822373760739
 10
121.8251220398562
 20
-148.4822373760739
 10
122.0115017056082
 20
-148.4822373760739
 10
122.0938394877057
 20
-148.5842122024373
 10
122.1551621873432
 20
-148.690321143383
 10
122.1827229512252
 20
-148.6248643291632
 10
122.2629936760315
 20
-148.4302164342466
 10
122.5403238625941
 20
-148.4302164342466
 10
122.8786322392456
 20
-148.4302164342466
 10
123.0457193702802
 20
-148.6947997675138
 10
123.0457193702802
 20
-148.9910779792453
 97
        0
 97
        0
 75
     2
 76
     1
 98
        0
  0
ENDBLK
  5
FF
330
FC
100
AcDbEntity
  8
0
100
AcDbBlockEnd
  0
ENDSEC
  0
SECTION
  2
ENTITIES
  0
POLYLINE
  5
41
330
1F
100
AcDbEntity
  8
_U+30EC_U+30A4_U+30E4_U+30FC 1
 62
   179
420
  2234388
370
    25
100
AcDb2dPolyline
 66
     1
 10
0.0
 20
0.0
 30
0.0
  0
VERTEX
  5
42
330
41
100
AcDbEntity
  8
_U+30EC_U+30A4_U+30E4_U+30FC 1
 62
   179
420
  2234388
370
    25
100
AcDbVertex
100
AcDb2dVertex
 10
85.29693726833828
 20
-142.1165630200263
 30
0.0
  0
VERTEX
  5
43
330
41
100
AcDbEntity
  8
_U+30EC_U+30A4_U+30E4_U+30FC 1
 62
   179
420
  2234388
370
    25
100
AcDbVertex
100
AcDb2dVertex
 10
96.29714782103287
 20
-142.1165630200263
 30
0.0
  0
SEQEND
  5
44
330
41
100
AcDbEntity
  8
_U+30EC_U+30A4_U+30E4_U+30FC 1
 62
   179
420
  2234388
370
    25
  0
POLYLINE
  5
45
330
1F
100
AcDbEntity
  8
_U+30EC_U+30A4_U+30E4_U+30FC 1
 62
   179
420
  2234388
370
    25
100
AcDb2dPolyline
 66
     1
 10
0.0
 20
0.0
 30
0.0
  0
VERTEX
  5
46
330
45
100
AcDbEntity
  8
_U+30EC_U+30A4_U+30E4_U+30FC 1
 62
   179
420
  2234388
370
    25
100
AcDbVertex
100
AcDb2dVertex
 10
120.2968694143702
 20
-142.1165630200263
 30
0.0
  0
VERTEX
  5
47
330
45
100
AcDbEntity
  8
_U+30EC_U+30A4_U+30E4_U+30FC 1
 62
   179
420
  2234388
370
    25
100
AcDbVertex
100
AcDb2dVertex
 10
120.2968694143702
 20
-143.1163352419989
 30
0.0
  0
SEQEND
  5
48
330
45
100
AcDbEntity
  8
_U+30EC_U+30A4_U+30E4_U+30FC 1
 62
   179
420
  2234388
370
    25
  0
POLYLINE
  5
49
330
1F
100
AcDbEntity
  8
_U+30EC_U+30A4_U+30E4_U+30FC 1
 62
   179
420
  2234388
370
    25
100
AcDb2dPolyline
 66
     1
 10
0.0
 20
0.0
 30
0.0
  0
VERTEX
  5
4A
330
49
100
AcDbEntity
  8
_U+30EC_U+30A4_U+30E4_U+30FC 1
 62
   179
420
  2234388
370
    25
100
AcDbVertex
100
AcDb2dVertex
 10
98.29700971445658
 20
-143.1163352419989
 30
0.0
  0
VERTEX
  5
4B
330
49
100
AcDbEntity
  8
_U+30EC_U+30A4_U+30E4_U+30FC 1
 62
   179
420
  2234388
370
    25
100
AcDbVertex
100
AcDb2dVertex
 10
120.2968694143702
 20
-143.1163352419989
 30
0.0
  0
SEQEND
  5
4C
330
49
100
AcDbEntity
  8
_U+30EC_U+30A4_U+30E4_U+30FC 1
 62
   179
420
  2234388
370
    25
  0
POLYLINE
  5
4D
330
1F
100
AcDbEntity
  8
_U+30EC_U+30A4_U+30E4_U+30FC 1
 62
   179
420
  2234388
370
    25
100
AcDb2dPolyline
 66
     1
 10
0.0
 20
0.0
 30
0.0
  0
VERTEX
  5
4E
330
4D
100
AcDbEntity
  8
_U+30EC_U+30A4_U+30E4_U+30FC 1
 62
   179
420
  2234388
370
    25
100
AcDbVertex
100
AcDb2dVertex
 10
95.29702284654817
 20
-143.1163352419989
 30
0.0
  0
VERTEX
  5
4F
330
4D
100
AcDbEntity
  8
_U+30EC_U+30A4_U+30E4_U+30FC 1
 62
   179
420
  2234388
370
    25
100
AcDbVertex
100
AcDb2dVertex
 10
95.29702284654817
 20
-157.3161346828931
 30
0.0
  0
SEQEND
  5
50
330
4D
100
AcDbEntity
  8
_U+30EC_U+30A4_U+30E4_U+30FC 1
 62
   179
420
  2234388
370
    25
  0
POLYLINE
  5
51
330
1F
100
AcDbEntity
  8
_U+30EC_U+30A4_U+30E4_U+30FC 1
 62
   179
420
  2234388
370
    25
100
AcDb2dPolyline
 66
     1
 10
0.0
 20
0.0
 30
0.0
  0
VERTEX
  5
52
330
51
100
AcDbEntity
  8
_U+30EC_U+30A4_U+30E4_U+30FC 1
 62
   179
420
  2234388
370
    25
100
AcDbVertex
100
AcDb2dVertex
 10
105.2971110847867
 20
-156.1165844054154
 30
0.0
  0
VERTEX
  5
53
330
51
100
AcDbEntity
  8
_U+30EC_U+30A4_U+30E4_U+30FC 1
 62
   179
420
  2234388
370
    25
100
AcDbVertex
100
AcDb2dVertex
 10
105.2971110847867
 20
-156.6161177386236
 30
0.0
  0
SEQEND
  5
54
330
51
100
AcDbEntity
  8
_U+30EC_U+30A4_U+30E4_U+30FC 1
 62
   179
420
  2234388
370
    25
  0
POLYLINE
  5
55
330
1F
100
AcDbEntity
  8
_U+30EC_U+30A4_U+30E4_U+30FC 1
 62
   179
420
  2234388
370
    25
100
AcDb2dPolyline
 66
     1
 10
0.0
 20
0.0
 30
0.0
  0
VERTEX
  5
56
330
55
100
AcDbEntity
  8
_U+30EC_U+30A4_U+30E4_U+30FC 1
 62
   179
420
  2234388
370
    25
100
AcDbVertex
100
AcDb2dVertex
 10
98.29700971445658
 20
-156.1165844054154
 30
0.0
  0
VERTEX
  5
57
330
55
100
AcDbEntity
  8
_U+30EC_U+30A4_U+30E4_U+30FC 1
 62
   179
420
  2234388
370
    25
100
AcDbVertex
100
AcDb2dVertex
 10
105.2971110847867
 20
-156.1165844054154
 30
0.0
  0
SEQEND
  5
58
330
55
100
AcDbEntity
  8
_U+30EC_U+30A4_U+30E4_U+30FC 1
 62
   179
420
  2234388
370
    25
  0
POLYLINE
  5
59
330
1F
100
AcDbEntity
  8
_U+30EC_U+30A4_U+30E4_U+30FC 1
 62
   179
420
  2234388
370
    25
100
AcDb2dPolyline
 66
     1
 10
0.0
 20
0.0
 30
0.0
  0
VERTEX
  5
5A
330
59
100
AcDbEntity
  8
_U+30EC_U+30A4_U+30E4_U+30FC 1
 62
   179
420
  2234388
370
    25
100
AcDbVertex
100
AcDb2dVertex
 10
97.2968847399719
 20
-142.1165630200263
 30
0.0
  0
VERTEX
  5
5B
330
59
100
AcDbEntity
  8
_U+30EC_U+30A4_U+30E4_U+30FC 1
 62
   179
420
  2234388
370
    25
100
AcDbVertex
100
AcDb2dVertex
 10
120.2968694143702
 20
-142.1165630200263
 30
0.0
  0
SEQEND
  5
5C
330
59
100
AcDbEntity
  8
_U+30EC_U+30A4_U+30E4_U+30FC 1
 62
   179
420
  2234388
370
    25
  0
POLYLINE
  5
5D
330
1F
100
AcDbEntity
  8
_U+30EC_U+30A4_U+30E4_U+30FC 1
 62
   179
420
  2234388
370
    25
100
AcDb2dPolyline
 66
     1
 10
0.0
 20
0.0
 30
0.0
  0
VERTEX
  5
5E
330
5D
100
AcDbEntity
  8
_U+30EC_U+30A4_U+30E4_U+30FC 1
 62
   179
420
  2234388
370
    25
100
AcDbVertex
100
AcDb2dVertex
 10
96.29714782103287
 20
-142.1165630200263
 30
0.0
  0
VERTEX
  5
5F
330
5D
100
AcDbEntity
  8
_U+30EC_U+30A4_U+30E4_U+30FC 1
 62
   179
420
  2234388
370
    25
100
AcDbVertex
100
AcDb2dVertex
 10
96.29714782103287
 20
-156.1165844054154
 30
0.0
  0
SEQEND
  5
60
330
5D
100
AcDbEntity
  8
_U+30EC_U+30A4_U+30E4_U+30FC 1
 62
   179
420
  2234388
370
    25
  0
POLYLINE
  5
61
330
1F
100
AcDbEntity
  8
_U+30EC_U+30A4_U+30E4_U+30FC 1
 62
   179
420
  2234388
370
    25
100
AcDb2dPolyline
 66
     1
 10
0.0
 20
0.0
 30
0.0
  0
VERTEX
  5
62
330
61
100
AcDbEntity
  8
_U+30EC_U+30A4_U+30E4_U+30FC 1
 62
   179
420
  2234388
370
    25
100
AcDbVertex
100
AcDb2dVertex
 10
97.2968847399719
 20
-142.1165630200263
 30
0.0
  0
VERTEX
  5
63
330
61
100
AcDbEntity
  8
_U+30EC_U+30A4_U+30E4_U+30FC 1
 62
   179
420
  2234388
370
    25
100
AcDbVertex
100
AcDb2dVertex
 10
97.2968847399719
 20
-156.1165844054154
 30
0.0
  0
SEQEND
  5
64
330
61
100
AcDbEntity
  8
_U+30EC_U+30A4_U+30E4_U+30FC 1
 62
   179
420
  2234388
370
    25
  0
POLYLINE
  5
65
330
1F
100
AcDbEntity
  8
_U+30EC_U+30A4_U+30E4_U+30FC 1
 62
   179
420
  2234388
370
    25
100
AcDb2dPolyline
 66
     1
 10
0.0
 20
0.0
 30
0.0
  0
VERTEX
  5
66
330
65
100
AcDbEntity
  8
_U+30EC_U+30A4_U+30E4_U+30FC 1
 62
   179
420
  2234388
370
    25
100
AcDbVertex
100
AcDb2dVertex
 10
98.29700971445658
 20
-143.1163352419989
 30
0.0
  0
VERTEX
  5
67
330
65
100
AcDbEntity
  8
_U+30EC_U+30A4_U+30E4_U+30FC 1
 62
   179
420
  2234388
370
    25
100
AcDbVertex
100
AcDb2dVertex
 10
98.29700971445658
 20
-156.1165844054154
 30
0.0
  0
SEQEND
  5
68
330
65
100
AcDbEntity
  8
_U+30EC_U+30A4_U+30E4_U+30FC 1
 62
   179
420
  2234388
370
    25
  0
POLYLINE
  5
69
330
1F
100
AcDbEntity
  8
_U+30EC_U+30A4_U+30E4_U+30FC 1
 62
   179
420
  2234388
370
    25
100
AcDb2dPolyline
 66
     1
 10
0.0
 20
0.0
 30
0.0
  0
VERTEX
  5
6A
330
69
100
AcDbEntity
  8
_U+30EC_U+30A4_U+30E4_U+30FC 1
 62
   179
420
  2234388
370
    25
100
AcDbVertex
100
AcDb2dVertex
 10
96.29714782103287
 20
-156.1165844054154
 30
0.0
  0
VERTEX
  5
6B
330
69
100
AcDbEntity
  8
_U+30EC_U+30A4_U+30E4_U+30FC 1
 62
   179
420
  2234388
370
    25
100
AcDbVertex
100
AcDb2dVertex
 10
97.2968847399719
 20
-156.1165844054154
 30
0.0
  0
SEQEND
  5
6C
330
69
100
AcDbEntity
  8
_U+30EC_U+30A4_U+30E4_U+30FC 1
 62
   179
420
  2234388
370
    25
  0
POLYLINE
  5
6D
330
1F
100
AcDbEntity
  8
_U+30EC_U+30A4_U+30E4_U+30FC 1
 62
   179
420
  2234388
370
    25
100
AcDb2dPolyline
 66
     1
 10
0.0
 20
0.0
 30
0.0
  0
VERTEX
  5
6E
330
6D
100
AcDbEntity
  8
_U+30EC_U+30A4_U+30E4_U+30FC 1
 62
   179
420
  2234388
370
    25
100
AcDbVertex
100
AcDb2dVertex
 10
95.29702284654817
 20
-157.3161346828931
 30
0.0
  0
VERTEX
  5
6F
330
6D
100
AcDbEntity
  8
_U+30EC_U+30A4_U+30E4_U+30FC 1
 62
   179
420
  2234388
370
    25
100
AcDbVertex
100
AcDb2dVertex
 10
105.2971110847867
 20
-156.6161177386236
 30
0.0
  0
SEQEND
  5
70
330
6D
100
AcDbEntity
  8
_U+30EC_U+30A4_U+30E4_U+30FC 1
 62
   179
420
  2234388
370
    25
  0
POLYLINE
  5
71
330
1F
100
AcDbEntity
  8
_U+30EC_U+30A4_U+30E4_U+30FC 1
 62
   179
420
  2234388
370
    25
100
AcDb2dPolyline
 66
     1
 10
0.0
 20
0.0
 30
0.0
  0
VERTEX
  5
72
330
71
100
AcDbEntity
  8
_U+30EC_U+30A4_U+30E4_U+30FC 1
 62
   179
420
  2234388
370
    25
100
AcDbVertex
100
AcDb2dVertex
 10
85.29693726833828
 20
-142.1165630200263
 30
0.0
  0
VERTEX
  5
73
330
71
100
AcDbEntity
  8
_U+30EC_U+30A4_U+30E4_U+30FC 1
 62
   179
420
  2234388
370
    25
100
AcDbVertex
100
AcDb2dVertex
 10
85.29693726833828
 20
-143.1163352419989
 30
0.0
  0
SEQEND
  5
74
330
71
100
AcDbEntity
  8
_U+30EC_U+30A4_U+30E4_U+30FC 1
 62
   179
420
  2234388
370
    25
  0
POLYLINE
  5
75
330
1F
100
AcDbEntity
  8
_U+30EC_U+30A4_U+30E4_U+30FC 1
 62
   179
420
  2234388
370
    25
100
AcDb2dPolyline
 66
     1
 10
0.0
 20
0.0
 30
0.0
  0
VERTEX
  5
76
330
75
100
AcDbEntity
  8
_U+30EC_U+30A4_U+30E4_U+30FC 1
 62
   179
420
  2234388
370
    25
100
AcDbVertex
100
AcDb2dVertex
 10
85.29693726833828
 20
-143.1163352419989
 30
0.0
  0
VERTEX
  5
77
330
75
100
AcDbEntity
  8
_U+30EC_U+30A4_U+30E4_U+30FC 1
 62
   179
420
  2234388
370
    25
100
AcDbVertex
100
AcDb2dVertex
 10
95.29702284654817
 20
-143.1163352419989
 30
0.0
  0
SEQEND
  5
78
330
75
100
AcDbEntity
  8
_U+30EC_U+30A4_U+30E4_U+30FC 1
 62
   179
420
  2234388
370
    25
  0
SPLINE
  5
79
330
1F
100
AcDbEntity
  8
_U+30EC_U+30A4_U+30E4_U+30FC 1
 62
   179
420
  2234388
370
     9
100
AcDbSpline
210
0.0
220
0.0
230
1.0
 70
    11
 71
     3
 72
    17
 73
    13
 74
     0
 42
0.0000000001
 43
0.0000000001
 12
1.0
 22
0.0
 32
0.0
 13
1.0
 23
0.0
 33
0.0
 40
0.0
 40
0.0
 40
0.0
 40
0.0
 40
1.0
 40
1.0
 40
1.0
 40
2.0
 40
2.0
 40
2.0
 40
3.0
 40
3.0
 40
3.0
 40
4.0
 40
4.0
 40
4.0
 40
4.0
 10
120.3967730395335
 20
-138.1168038543597
 30
0.0
 10
120.3967730395335
 20
-138.0609944099293
 30
0.0
 10
120.3520055406756
 20
-138.0162269099404
 30
0.0
 10
120.2968694143702
 20
-138.0162269099404
 30
0.0
 10
120.2417624879326
 20
-138.0162269099404
 30
0.0
 10
120.1969597112979
 20
-138.0609944099293
 30
0.0
 10
120.1969597112979
 20
-138.1168038543597
 30
0.0
 10
120.1969597112979
 20
-138.1719430210125
 30
0.0
 10
120.2417624879326
 20
-138.2167105210014
 30
0.0
 10
120.2968694143702
 20
-138.2167105210014
 30
0.0
 10
120.3520055406756
 20
-138.2167105210014
 30
0.0
 10
120.3967730395335
 20
-138.1719430210125
 30
0.0
 10
120.3967730395335
 20
-138.1168038543597
 30
0.0
  0
SPLINE
  5
7A
330
1F
100
AcDbEntity
  8
_U+30EC_U+30A4_U+30E4_U+30FC 1
 62
   179
420
  2234388
370
     9
100
AcDbSpline
210
0.0
220
0.0
230
1.0
 70
    11
 71
     3
 72
    17
 73
    13
 74
     0
 42
0.0000000001
 43
0.0000000001
 12
1.0
 22
0.0
 32
0.0
 13
1.0
 23
0.0
 33
0.0
 40
0.0
 40
0.0
 40
0.0
 40
0.0
 40
1.0
 40
1.0
 40
1.0
 40
2.0
 40
2.0
 40
2.0
 40
3.0
 40
3.0
 40
3.0
 40
4.0
 40
4.0
 40
4.0
 40
4.0
 10
124.3972376596954
 20
-142.1165630200263
 30
0.0
 10
124.3972376596954
 20
-142.0614238533736
 30
0.0
 10
124.3524348830606
 20
-142.0166563533847
 30
0.0
 10
124.2973309955776
 20
-142.0166563533847
 30
0.0
 10
124.2415215525569
 20
-142.0166563533847
 30
0.0
 10
124.1967187759222
 20
-142.0614238533736
 30
0.0
 10
124.1967187759222
 20
-142.1165630200263
 30
0.0
 10
124.1967187759222
 20
-142.1716669089015
 30
0.0
 10
124.2415215525569
 20
-142.2164696866683
 30
0.0
 10
124.2973309955776
 20
-142.2164696866683
 30
0.0
 10
124.3524348830606
 20
-142.2164696866683
 30
0.0
 10
124.3972376596954
 20
-142.1716669089015
 30
0.0
 10
124.3972376596954
 20
-142.1165630200263
 30
0.0
  0
SPLINE
  5
7B
330
1F
100
AcDbEntity
  8
_U+30EC_U+30A4_U+30E4_U+30FC 1
 62
   179
420
  2234388
370
     9
100
AcDbSpline
210
0.0
220
0.0
230
1.0
 70
    11
 71
     3
 72
    17
 73
    13
 74
     0
 42
0.0000000001
 43
0.0000000001
 12
1.0
 22
0.0
 32
0.0
 13
1.0
 23
0.0
 33
0.0
 40
0.0
 40
0.0
 40
0.0
 40
0.0
 40
1.0
 40
1.0
 40
1.0
 40
2.0
 40
2.0
 40
2.0
 40
3.0
 40
3.0
 40
3.0
 40
4.0
 40
4.0
 40
4.0
 40
4.0
 10
124.3972376596954
 20
-143.1163352419989
 30
0.0
 10
124.3972376596954
 20
-143.0611960753458
 30
0.0
 10
124.3524348830606
 20
-143.0164285753569
 30
0.0
 10
124.2973309955776
 20
-143.0164285753569
 30
0.0
 10
124.2415215525569
 20
-143.0164285753569
 30
0.0
 10
124.1967187759222
 20
-143.0611960753458
 30
0.0
 10
124.1967187759222
 20
-143.1163352419989
 30
0.0
 10
124.1967187759222
 20
-143.1714391308738
 30
0.0
 10
124.2415215525569
 20
-143.2162419086405
 30
0.0
 10
124.2973309955776
 20
-143.2162419086405
 30
0.0
 10
124.3524348830606
 20
-143.2162419086405
 30
0.0
 10
124.3972376596954
 20
-143.1714391308738
 30
0.0
 10
124.3972376596954
 20
-143.1163352419989
 30
0.0
  0
SPLINE
  5
7C
330
1F
100
AcDbEntity
  8
_U+30EC_U+30A4_U+30E4_U+30FC 1
 62
   179
420
  2234388
370
     9
100
AcDbSpline
210
0.0
220
0.0
230
1.0
 70
    11
 71
     3
 72
    17
 73
    13
 74
     0
 42
0.0000000001
 43
0.0000000001
 12
1.0
 22
0.0
 32
0.0
 13
1.0
 23
0.0
 33
0.0
 40
0.0
 40
0.0
 40
0.0
 40
0.0
 40
1.0
 40
1.0
 40
1.0
 40
2.0
 40
2.0
 40
2.0
 40
3.0
 40
3.0
 40
3.0
 40
4.0
 40
4.0
 40
4.0
 40
4.0
 10
105.3970150888759
 20
-161.3158938485599
 30
0.0
 10
105.3970150888759
 20
-161.260789959685
 30
0.0
 10
105.3522123122412
 20
-161.2159871819183
 30
0.0
 10
105.2971110847867
 20
-161.2159871819183
 30
0.0
 10
105.2419692594981
 20
-161.2159871819183
 30
0.0
 10
105.1972017606402
 20
-161.260789959685
 30
0.0
 10
105.1972017606402
 20
-161.3158938485599
 30
0.0
 10
105.1972017606402
 20
-161.371033015213
 30
0.0
 10
105.2419692594981
 20
-161.4158005152016
 30
0.0
 10
105.2971110847867
 20
-161.4158005152016
 30
0.0
 10
105.3522123122412
 20
-161.4158005152016
 30
0.0
 10
105.3970150888759
 20
-161.371033015213
 30
0.0
 10
105.3970150888759
 20
-161.3158938485599
 30
0.0
  0
SPLINE
  5
7D
330
1F
100
AcDbEntity
  8
_U+30EC_U+30A4_U+30E4_U+30FC 1
 62
   179
420
  2234388
370
     9
100
AcDbSpline
210
0.0
220
0.0
230
1.0
 70
    11
 71
     3
 72
    17
 73
    13
 74
     0
 42
0.0000000001
 43
0.0000000001
 12
1.0
 22
0.0
 32
0.0
 13
1.0
 23
0.0
 33
0.0
 40
0.0
 40
0.0
 40
0.0
 40
0.0
 40
1.0
 40
1.0
 40
1.0
 40
2.0
 40
2.0
 40
2.0
 40
3.0
 40
3.0
 40
3.0
 40
4.0
 40
4.0
 40
4.0
 40
4.0
 10
95.39692951066601
 20
-161.3158938485599
 30
0.0
 10
95.39692951066601
 20
-161.260789959685
 30
0.0
 10
95.35216201180813
 20
-161.2159871819183
 30
0.0
 10
95.29702284654817
 20
-161.2159871819183
 30
0.0
 10
95.24156618129634
 20
-161.2159871819183
 30
0.0
 10
95.19676340466157
 20
-161.260789959685
 30
0.0
 10
95.19676340466157
 20
-161.3158938485599
 30
0.0
 10
95.19676340466157
 20
-161.371033015213
 30
0.0
 10
95.24156618129634
 20
-161.4158005152016
 30
0.0
 10
95.29702284654817
 20
-161.4158005152016
 30
0.0
 10
95.35216201180813
 20
-161.4158005152016
 30
0.0
 10
95.39692951066601
 20
-161.371033015213
 30
0.0
 10
95.39692951066601
 20
-161.3158938485599
 30
0.0
  0
SPLINE
  5
7E
330
1F
100
AcDbEntity
  8
_U+30EC_U+30A4_U+30E4_U+30FC 1
 62
   179
420
  2234388
370
     9
100
AcDbSpline
210
0.0
220
0.0
230
1.0
 70
    11
 71
     3
 72
    17
 73
    13
 74
     0
 42
0.0000000001
 43
0.0000000001
 12
1.0
 22
0.0
 32
0.0
 13
1.0
 23
0.0
 33
0.0
 40
0.0
 40
0.0
 40
0.0
 40
0.0
 40
1.0
 40
1.0
 40
1.0
 40
2.0
 40
2.0
 40
2.0
 40
3.0
 40
3.0
 40
3.0
 40
4.0
 40
4.0
 40
4.0
 40
4.0
 10
109.3965977646158
 20
-156.1165844054154
 30
0.0
 10
109.3965977646158
 20
-156.060774960985
 30
0.0
 10
109.3517949879811
 20
-156.0159721832182
 30
0.0
 10
109.296691100498
 20
-156.0159721832182
 30
0.0
 10
109.241551935238
 20
-156.0159721832182
 30
0.0
 10
109.1967844363802
 20
-156.060774960985
 30
0.0
 10
109.1967844363802
 20
-156.1165844054154
 30
0.0
 10
109.1967844363802
 20
-156.1716882942903
 30
0.0
 10
109.241551935238
 20
-156.216491072057
 30
0.0
 10
109.296691100498
 20
-156.216491072057
 30
0.0
 10
109.3517949879811
 20
-156.216491072057
 30
0.0
 10
109.3965977646158
 20
-156.1716882942903
 30
0.0
 10
109.3965977646158
 20
-156.1165844054154
 30
0.0
  0
SPLINE
  5
7F
330
1F
100
AcDbEntity
  8
_U+30EC_U+30A4_U+30E4_U+30FC 1
 62
   179
420
  2234388
370
     9
100
AcDbSpline
210
0.0
220
0.0
230
1.0
 70
    11
 71
     3
 72
    17
 73
    13
 74
     0
 42
0.0000000001
 43
0.0000000001
 12
1.0
 22
0.0
 32
0.0
 13
1.0
 23
0.0
 33
0.0
 40
0.0
 40
0.0
 40
0.0
 40
0.0
 40
1.0
 40
1.0
 40
1.0
 40
2.0
 40
2.0
 40
2.0
 40
3.0
 40
3.0
 40
3.0
 40
4.0
 40
4.0
 40
4.0
 40
4.0
 10
109.3965977646158
 20
-156.6161177386236
 30
0.0
 10
109.3965977646158
 20
-156.5609785719712
 30
0.0
 10
109.3517949879811
 20
-156.516211071982
 30
0.0
 10
109.296691100498
 20
-156.516211071982
 30
0.0
 10
109.241551935238
 20
-156.516211071982
 30
0.0
 10
109.1967844363802
 20
-156.5609785719712
 30
0.0
 10
109.1967844363802
 20
-156.6161177386236
 30
0.0
 10
109.1967844363802
 20
-156.6712216274991
 30
0.0
 10
109.241551935238
 20
-156.7160244052652
 30
0.0
 10
109.296691100498
 20
-156.7160244052652
 30
0.0
 10
109.3517949879811
 20
-156.7160244052652
 30
0.0
 10
109.3965977646158
 20
-156.6712216274991
 30
0.0
 10
109.3965977646158
 20
-156.6161177386236
 30
0.0
  0
SPLINE
  5
80
330
1F
100
AcDbEntity
  8
_U+30EC_U+30A4_U+30E4_U+30FC 1
 62
   179
420
  2234388
370
     9
100
AcDbSpline
210
0.0
220
0.0
230
1.0
 70
    11
 71
     3
 72
    17
 73
    13
 74
     0
 42
0.0000000001
 43
0.0000000001
 12
1.0
 22
0.0
 32
0.0
 13
1.0
 23
0.0
 33
0.0
 40
0.0
 40
0.0
 40
0.0
 40
0.0
 40
1.0
 40
1.0
 40
1.0
 40
2.0
 40
2.0
 40
2.0
 40
3.0
 40
3.0
 40
3.0
 40
4.0
 40
4.0
 40
4.0
 40
4.0
 10
124.3972376596954
 20
-156.1165844054154
 30
0.0
 10
124.3972376596954
 20
-156.060774960985
 30
0.0
 10
124.3524348830606
 20
-156.0159721832182
 30
0.0
 10
124.2973309955776
 20
-156.0159721832182
 30
0.0
 10
124.2415215525569
 20
-156.0159721832182
 30
0.0
 10
124.1967187759222
 20
-156.060774960985
 30
0.0
 10
124.1967187759222
 20
-156.1165844054154
 30
0.0
 10
124.1967187759222
 20
-156.1716882942903
 30
0.0
 10
124.2415215525569
 20
-156.216491072057
 30
0.0
 10
124.2973309955776
 20
-156.216491072057
 30
0.0
 10
124.3524348830606
 20
-156.216491072057
 30
0.0
 10
124.3972376596954
 20
-156.1716882942903
 30
0.0
 10
124.3972376596954
 20
-156.1165844054154
 30
0.0
  0
SPLINE
  5
81
330
1F
100
AcDbEntity
  8
_U+30EC_U+30A4_U+30E4_U+30FC 1
 62
   179
420
  2234388
370
     9
100
AcDbSpline
210
0.0
220
0.0
230
1.0
 70
    11
 71
     3
 72
    17
 73
    13
 74
     0
 42
0.0000000001
 43
0.0000000001
 12
1.0
 22
0.0
 32
0.0
 13
1.0
 23
0.0
 33
0.0
 40
0.0
 40
0.0
 40
0.0
 40
0.0
 40
1.0
 40
1.0
 40
1.0
 40
2.0
 40
2.0
 40
2.0
 40
3.0
 40
3.0
 40
3.0
 40
4.0
 40
4.0
 40
4.0
 40
4.0
 10
85.39684393245612
 20
-138.1168038543597
 30
0.0
 10
85.39684393245612
 20
-138.0609944099293
 30
0.0
 10
85.35207643359823
 20
-138.0162269099404
 30
0.0
 10
85.29693726833828
 20
-138.0162269099404
 30
0.0
 10
85.24183338085521
 20
-138.0162269099404
 30
0.0
 10
85.19703060422044
 20
-138.0609944099293
 30
0.0
 10
85.19703060422044
 20
-138.1168038543597
 30
0.0
 10
85.19703060422044
 20
-138.1719430210125
 30
0.0
 10
85.24183338085521
 20
-138.2167105210014
 30
0.0
 10
85.29693726833828
 20
-138.2167105210014
 30
0.0
 10
85.35207643359823
 20
-138.2167105210014
 30
0.0
 10
85.39684393245612
 20
-138.1719430210125
 30
0.0
 10
85.39684393245612
 20
-138.1168038543597
 30
0.0
  0
SPLINE
  5
82
330
1F
100
AcDbEntity
  8
_U+30EC_U+30A4_U+30E4_U+30FC 1
 62
   179
420
  2234388
370
     9
100
AcDbSpline
210
0.0
220
0.0
230
1.0
 70
    11
 71
     3
 72
    17
 73
    13
 74
     0
 42
0.0000000001
 43
0.0000000001
 12
1.0
 22
0.0
 32
0.0
 13
1.0
 23
0.0
 33
0.0
 40
0.0
 40
0.0
 40
0.0
 40
0.0
 40
1.0
 40
1.0
 40
1.0
 40
2.0
 40
2.0
 40
2.0
 40
3.0
 40
3.0
 40
3.0
 40
4.0
 40
4.0
 40
4.0
 40
4.0
 10
85.39684393245612
 20
-161.3158938485599
 30
0.0
 10
85.39684393245612
 20
-161.260789959685
 30
0.0
 10
85.35207643359823
 20
-161.2159871819183
 30
0.0
 10
85.29693726833828
 20
-161.2159871819183
 30
0.0
 10
85.24183338085521
 20
-161.2159871819183
 30
0.0
 10
85.19703060422044
 20
-161.260789959685
 30
0.0
 10
85.19703060422044
 20
-161.3158938485599
 30
0.0
 10
85.19703060422044
 20
-161.371033015213
 30
0.0
 10
85.24183338085521
 20
-161.4158005152016
 30
0.0
 10
85.29693726833828
 20
-161.4158005152016
 30
0.0
 10
85.35207643359823
 20
-161.4158005152016
 30
0.0
 10
85.39684393245612
 20
-161.371033015213
 30
0.0
 10
85.39684393245612
 20
-161.3158938485599
 30
0.0
  0
POLYLINE
  5
83
330
1F
100
AcDbEntity
  8
_U+30EC_U+30A4_U+30E4_U+30FC 1
 62
   179
420
  2234388
370
     9
100
AcDb2dPolyline
 66
     1
 10
0.0
 20
0.0
 30
0.0
  0
VERTEX
  5
84
330
83
100
AcDbEntity
  8
_U+30EC_U+30A4_U+30E4_U+30FC 1
 62
   179
420
  2234388
370
     9
100
AcDbVertex
100
AcDb2dVertex
 10
124.2973309955776
 20
-142.1165630200263
 30
0.0
  0
VERTEX
  5
85
330
83
100
AcDbEntity
  8
_U+30EC_U+30A4_U+30E4_U+30FC 1
 62
   179
420
  2234388
370
     9
100
AcDbVertex
100
AcDb2dVertex
 10
124.2973309955776
 20
-138.3462505209689
 30
0.0
  0
SEQEND
  5
86
330
83
100
AcDbEntity
  8
_U+30EC_U+30A4_U+30E4_U+30FC 1
 62
   179
420
  2234388
370
     9
  0
POLYLINE
  5
87
330
1F
100
AcDbEntity
  8
_U+30EC_U+30A4_U+30E4_U+30FC 1
 62
   179
420
  2234388
370
     9
100
AcDb2dPolyline
 66
     1
 10
0.0
 20
0.0
 30
0.0
  0
VERTEX
  5
88
330
87
100
AcDbEntity
  8
_U+30EC_U+30A4_U+30E4_U+30FC 1
 62
   179
420
  2234388
370
     9
100
AcDbVertex
100
AcDb2dVertex
 10
124.2973309955776
 20
-142.1165630200263
 30
0.0
  0
VERTEX
  5
89
330
87
100
AcDbEntity
  8
_U+30EC_U+30A4_U+30E4_U+30FC 1
 62
   179
420
  2234388
370
     9
100
AcDbVertex
100
AcDb2dVertex
 10
124.2973309955776
 20
-143.1163352419989
 30
0.0
  0
SEQEND
  5
8A
330
87
100
AcDbEntity
  8
_U+30EC_U+30A4_U+30E4_U+30FC 1
 62
   179
420
  2234388
370
     9
  0
POLYLINE
  5
8B
330
1F
100
AcDbEntity
  8
_U+30EC_U+30A4_U+30E4_U+30FC 1
 62
   179
420
  2234388
370
     9
100
AcDb2dPolyline
 66
     1
 10
0.0
 20
0.0
 30
0.0
  0
VERTEX
  5
8C
330
8B
100
AcDbEntity
  8
_U+30EC_U+30A4_U+30E4_U+30FC 1
 62
   179
420
  2234388
370
     9
100
AcDbVertex
100
AcDb2dVertex
 10
122.8372896439374
 20
-142.1165630200263
 30
0.0
  0
VERTEX
  5
8D
330
8B
100
AcDbEntity
  8
_U+30EC_U+30A4_U+30E4_U+30FC 1
 62
   179
420
  2234388
370
     9
100
AcDbVertex
100
AcDb2dVertex
 10
125.2971031922935
 20
-142.1165630200263
 30
0.0
  0
SEQEND
  5
8E
330
8B
100
AcDbEntity
  8
_U+30EC_U+30A4_U+30E4_U+30FC 1
 62
   179
420
  2234388
370
     9
  0
POLYLINE
  5
8F
330
1F
100
AcDbEntity
  8
_U+30EC_U+30A4_U+30E4_U+30FC 1
 62
   179
420
  2234388
370
     9
100
AcDb2dPolyline
 66
     1
 10
0.0
 20
0.0
 30
0.0
  0
VERTEX
  5
90
330
8F
100
AcDbEntity
  8
_U+30EC_U+30A4_U+30E4_U+30FC 1
 62
   179
420
  2234388
370
     9
100
AcDbVertex
100
AcDb2dVertex
 10
122.8372896439374
 20
-143.1163352419989
 30
0.0
  0
VERTEX
  5
91
330
8F
100
AcDbEntity
  8
_U+30EC_U+30A4_U+30E4_U+30FC 1
 62
   179
420
  2234388
370
     9
100
AcDbVertex
100
AcDb2dVertex
 10
125.2971031922935
 20
-143.1163352419989
 30
0.0
  0
SEQEND
  5
92
330
8F
100
AcDbEntity
  8
_U+30EC_U+30A4_U+30E4_U+30FC 1
 62
   179
420
  2234388
370
     9
  0
INSERT
  5
94
330
1F
100
AcDbEntity
  8
_U+30EC_U+30A4_U+30E4_U+30FC 1
100
AcDbBlockReference
  2
block 2
 10
0.0
 20
0.0
 30
0.0
  0
POLYLINE
  5
99
330
1F
100
AcDbEntity
  8
_U+30EC_U+30A4_U+30E4_U+30FC 1
 62
   179
420
  2234388
370
     9
100
AcDb2dPolyline
 66
     1
 10
0.0
 20
0.0
 30
0.0
  0
VERTEX
  5
9A
330
99
100
AcDbEntity
  8
_U+30EC_U+30A4_U+30E4_U+30FC 1
 62
   179
420
  2234388
370
     9
100
AcDbVertex
100
AcDb2dVertex
 10
109.296691100498
 20
-156.1165844054154
 30
0.0
  0
VERTEX
  5
9B
330
99
100
AcDbEntity
  8
_U+30EC_U+30A4_U+30E4_U+30FC 1
 62
   179
420
  2234388
370
     9
100
AcDbVertex
100
AcDb2dVertex
 10
109.296691100498
 20
-150.8586785733965
 30
0.0
  0
SEQEND
  5
9C
330
99
100
AcDbEntity
  8
_U+30EC_U+30A4_U+30E4_U+30FC 1
 62
   179
420
  2234388
370
     9
  0
POLYLINE
  5
9D
330
1F
100
AcDbEntity
  8
_U+30EC_U+30A4_U+30E4_U+30FC 1
 62
   179
420
  2234388
370
     9
100
AcDb2dPolyline
 66
     1
 10
0.0
 20
0.0
 30
0.0
  0
VERTEX
  5
9E
330
9D
100
AcDbEntity
  8
_U+30EC_U+30A4_U+30E4_U+30FC 1
 62
   179
420
  2234388
370
     9
100
AcDbVertex
100
AcDb2dVertex
 10
109.296691100498
 20
-156.1165844054154
 30
0.0
  0
VERTEX
  5
9F
330
9D
100
AcDbEntity
  8
_U+30EC_U+30A4_U+30E4_U+30FC 1
 62
   179
420
  2234388
370
     9
100
AcDbVertex
100
AcDb2dVertex
 10
109.296691100498
 20
-157.6158899605961
 30
0.0
  0
SEQEND
  5
A0
330
9D
100
AcDbEntity
  8
_U+30EC_U+30A4_U+30E4_U+30FC 1
 62
   179
420
  2234388
370
     9
  0
POLYLINE
  5
A1
330
1F
100
AcDbEntity
  8
_U+30EC_U+30A4_U+30E4_U+30FC 1
 62
   179
420
  2234388
370
     9
100
AcDb2dPolyline
 66
     1
 10
0.0
 20
0.0
 30
0.0
  0
VERTEX
  5
A2
330
A1
100
AcDbEntity
  8
_U+30EC_U+30A4_U+30E4_U+30FC 1
 62
   179
420
  2234388
370
     9
100
AcDbVertex
100
AcDb2dVertex
 10
107.8370025266266
 20
-156.1165844054154
 30
0.0
  0
VERTEX
  5
A3
330
A1
100
AcDbEntity
  8
_U+30EC_U+30A4_U+30E4_U+30FC 1
 62
   179
420
  2234388
370
     9
100
AcDbVertex
100
AcDb2dVertex
 10
110.2971335749746
 20
-156.1165844054154
 30
0.0
  0
SEQEND
  5
A4
330
A1
100
AcDbEntity
  8
_U+30EC_U+30A4_U+30E4_U+30FC 1
 62
   179
420
  2234388
370
     9
  0
POLYLINE
  5
A5
330
1F
100
AcDbEntity
  8
_U+30EC_U+30A4_U+30E4_U+30FC 1
 62
   179
420
  2234388
370
     9
100
AcDb2dPolyline
 66
     1
 10
0.0
 20
0.0
 30
0.0
  0
VERTEX
  5
A6
330
A5
100
AcDbEntity
  8
_U+30EC_U+30A4_U+30E4_U+30FC 1
 62
   179
420
  2234388
370
     9
100
AcDbVertex
100
AcDb2dVertex
 10
107.8370025266266
 20
-156.6161177386236
 30
0.0
  0
VERTEX
  5
A7
330
A5
100
AcDbEntity
  8
_U+30EC_U+30A4_U+30E4_U+30FC 1
 62
   179
420
  2234388
370
     9
100
AcDbVertex
100
AcDb2dVertex
 10
110.2971335749746
 20
-156.6161177386236
 30
0.0
  0
SEQEND
  5
A8
330
A5
100
AcDbEntity
  8
_U+30EC_U+30A4_U+30E4_U+30FC 1
 62
   179
420
  2234388
370
     9
  0
INSERT
  5
AA
330
1F
100
AcDbEntity
  8
_U+30EC_U+30A4_U+30E4_U+30FC 1
100
AcDbBlockReference
  2
block 3
 10
0.0
 20
0.0
 30
0.0
  0
POLYLINE
  5
BA
330
1F
100
AcDbEntity
  8
_U+30EC_U+30A4_U+30E4_U+30FC 1
 62
   179
420
  2234388
370
     9
100
AcDb2dPolyline
 66
     1
 10
0.0
 20
0.0
 30
0.0
  0
VERTEX
  5
BB
330
BA
100
AcDbEntity
  8
_U+30EC_U+30A4_U+30E4_U+30FC 1
 62
   179
420
  2234388
370
     9
100
AcDbVertex
100
AcDb2dVertex
 10
95.29702284654817
 20
-161.3158938485599
 30
0.0
  0
VERTEX
  5
BC
330
BA
100
AcDbEntity
  8
_U+30EC_U+30A4_U+30E4_U+30FC 1
 62
   179
420
  2234388
370
     9
100
AcDbVertex
100
AcDb2dVertex
 10
105.2971110847867
 20
-161.3158938485599
 30
0.0
  0
SEQEND
  5
BD
330
BA
100
AcDbEntity
  8
_U+30EC_U+30A4_U+30E4_U+30FC 1
 62
   179
420
  2234388
370
     9
  0
POLYLINE
  5
BE
330
1F
100
AcDbEntity
  8
_U+30EC_U+30A4_U+30E4_U+30FC 1
 62
   179
420
  2234388
370
     9
100
AcDb2dPolyline
 66
     1
 10
0.0
 20
0.0
 30
0.0
  0
VERTEX
  5
BF
330
BE
100
AcDbEntity
  8
_U+30EC_U+30A4_U+30E4_U+30FC 1
 62
   179
420
  2234388
370
     9
100
AcDbVertex
100
AcDb2dVertex
 10
95.29702284654817
 20
-159.8558877378138
 30
0.0
  0
VERTEX
  5
C0
330
BE
100
AcDbEntity
  8
_U+30EC_U+30A4_U+30E4_U+30FC 1
 62
   179
420
  2234388
370
     9
100
AcDbVertex
100
AcDb2dVertex
 10
95.29702284654817
 20
-162.3163716260873
 30
0.0
  0
SEQEND
  5
C1
330
BE
100
AcDbEntity
  8
_U+30EC_U+30A4_U+30E4_U+30FC 1
 62
   179
420
  2234388
370
     9
  0
POLYLINE
  5
C2
330
1F
100
AcDbEntity
  8
_U+30EC_U+30A4_U+30E4_U+30FC 1
 62
   179
420
  2234388
370
     9
100
AcDb2dPolyline
 66
     1
 10
0.0
 20
0.0
 30
0.0
  0
VERTEX
  5
C3
330
C2
100
AcDbEntity
  8
_U+30EC_U+30A4_U+30E4_U+30FC 1
 62
   179
420
  2234388
370
     9
100
AcDbVertex
100
AcDb2dVertex
 10
105.2971110847867
 20
-159.1558355157668
 30
0.0
  0
VERTEX
  5
C4
330
C2
100
AcDbEntity
  8
_U+30EC_U+30A4_U+30E4_U+30FC 1
 62
   179
420
  2234388
370
     9
100
AcDbVertex
100
AcDb2dVertex
 10
105.2971110847867
 20
-162.3163716260873
 30
0.0
  0
SEQEND
  5
C5
330
C2
100
AcDbEntity
  8
_U+30EC_U+30A4_U+30E4_U+30FC 1
 62
   179
420
  2234388
370
     9
  0
INSERT
  5
C7
330
1F
100
AcDbEntity
  8
_U+30EC_U+30A4_U+30E4_U+30FC 1
100
AcDbBlockReference
  2
block 4
 10
0.0
 20
0.0
 30
0.0
  0
POLYLINE
  5
CF
330
1F
100
AcDbEntity
  8
_U+30EC_U+30A4_U+30E4_U+30FC 1
 62
   179
420
  2234388
370
     9
100
AcDb2dPolyline
 66
     1
 10
0.0
 20
0.0
 30
0.0
  0
VERTEX
  5
D0
330
CF
100
AcDbEntity
  8
_U+30EC_U+30A4_U+30E4_U+30FC 1
 62
   179
420
  2234388
370
     9
100
AcDbVertex
100
AcDb2dVertex
 10
85.29693726833828
 20
-138.1168038543597
 30
0.0
  0
VERTEX
  5
D1
330
CF
100
AcDbEntity
  8
_U+30EC_U+30A4_U+30E4_U+30FC 1
 62
   179
420
  2234388
370
     9
100
AcDbVertex
100
AcDb2dVertex
 10
120.2968694143702
 20
-138.1168038543597
 30
0.0
  0
SEQEND
  5
D2
330
CF
100
AcDbEntity
  8
_U+30EC_U+30A4_U+30E4_U+30FC 1
 62
   179
420
  2234388
370
     9
  0
POLYLINE
  5
D3
330
1F
100
AcDbEntity
  8
_U+30EC_U+30A4_U+30E4_U+30FC 1
 62
   179
420
  2234388
370
     9
100
AcDb2dPolyline
 66
     1
 10
0.0
 20
0.0
 30
0.0
  0
VERTEX
  5
D4
330
D3
100
AcDbEntity
  8
_U+30EC_U+30A4_U+30E4_U+30FC 1
 62
   179
420
  2234388
370
     9
100
AcDbVertex
100
AcDb2dVertex
 10
85.29693726833828
 20
-139.5761396873282
 30
0.0
  0
VERTEX
  5
D5
330
D3
100
AcDbEntity
  8
_U+30EC_U+30A4_U+30E4_U+30FC 1
 62
   179
420
  2234388
370
     9
100
AcDbVertex
100
AcDb2dVertex
 10
85.29693726833828
 20
-137.1163613546098
 30
0.0
  0
SEQEND
  5
D6
330
D3
100
AcDbEntity
  8
_U+30EC_U+30A4_U+30E4_U+30FC 1
 62
   179
420
  2234388
370
     9
  0
POLYLINE
  5
D7
330
1F
100
AcDbEntity
  8
_U+30EC_U+30A4_U+30E4_U+30FC 1
 62
   179
420
  2234388
370
     9
100
AcDb2dPolyline
 66
     1
 10
0.0
 20
0.0
 30
0.0
  0
VERTEX
  5
D8
330
D7
100
AcDbEntity
  8
_U+30EC_U+30A4_U+30E4_U+30FC 1
 62
   179
420
  2234388
370
     9
100
AcDbVertex
100
AcDb2dVertex
 10
120.2968694143702
 20
-139.5761396873282
 30
0.0
  0
VERTEX
  5
D9
330
D7
100
AcDbEntity
  8
_U+30EC_U+30A4_U+30E4_U+30FC 1
 62
   179
420
  2234388
370
     9
100
AcDbVertex
100
AcDb2dVertex
 10
120.2968694143702
 20
-137.1163613546098
 30
0.0
  0
SEQEND
  5
DA
330
D7
100
AcDbEntity
  8
_U+30EC_U+30A4_U+30E4_U+30FC 1
 62
   179
420
  2234388
370
     9
  0
INSERT
  5
DC
330
1F
100
AcDbEntity
  8
_U+30EC_U+30A4_U+30E4_U+30FC 1
100
AcDbBlockReference
  2
block 5
 10
0.0
 20
0.0
 30
0.0
  0
POLYLINE
  5
E3
330
1F
100
AcDbEntity
  8
_U+30EC_U+30A4_U+30E4_U+30FC 1
 62
   179
420
  2234388
370
     9
100
AcDb2dPolyline
 66
     1
 10
0.0
 20
0.0
 30
0.0
  0
VERTEX
  5
E4
330
E3
100
AcDbEntity
  8
_U+30EC_U+30A4_U+30E4_U+30FC 1
 62
   179
420
  2234388
370
     9
100
AcDbVertex
100
AcDb2dVertex
 10
85.29693726833828
 20
-161.3158938485599
 30
0.0
  0
VERTEX
  5
E5
330
E3
100
AcDbEntity
  8
_U+30EC_U+30A4_U+30E4_U+30FC 1
 62
   179
420
  2234388
370
     9
100
AcDbVertex
100
AcDb2dVertex
 10
95.29702284654817
 20
-161.3158938485599
 30
0.0
  0
SEQEND
  5
E6
330
E3
100
AcDbEntity
  8
_U+30EC_U+30A4_U+30E4_U+30FC 1
 62
   179
420
  2234388
370
     9
  0
POLYLINE
  5
E7
330
1F
100
AcDbEntity
  8
_U+30EC_U+30A4_U+30E4_U+30FC 1
 62
   179
420
  2234388
370
     9
100
AcDb2dPolyline
 66
     1
 10
0.0
 20
0.0
 30
0.0
  0
VERTEX
  5
E8
330
E7
100
AcDbEntity
  8
_U+30EC_U+30A4_U+30E4_U+30FC 1
 62
   179
420
  2234388
370
     9
100
AcDbVertex
100
AcDb2dVertex
 10
85.29693726833828
 20
-145.6567585746969
 30
0.0
  0
VERTEX
  5
E9
330
E7
100
AcDbEntity
  8
_U+30EC_U+30A4_U+30E4_U+30FC 1
 62
   179
420
  2234388
370
     9
100
AcDbVertex
100
AcDb2dVertex
 10
85.29693726833828
 20
-162.3163716260873
 30
0.0
  0
SEQEND
  5
EA
330
E7
100
AcDbEntity
  8
_U+30EC_U+30A4_U+30E4_U+30FC 1
 62
   179
420
  2234388
370
     9
  0
INSERT
  5
EC
330
1F
100
AcDbEntity
  8
_U+30EC_U+30A4_U+30E4_U+30FC 1
100
AcDbBlockReference
  2
block 6
 10
0.0
 20
0.0
 30
0.0
  0
POLYLINE
  5
F4
330
1F
100
AcDbEntity
  8
_U+30EC_U+30A4_U+30E4_U+30FC 1
 62
   179
420
  2234388
370
     9
100
AcDb2dPolyline
 66
     1
 10
0.0
 20
0.0
 30
0.0
  0
VERTEX
  5
F5
330
F4
100
AcDbEntity
  8
_U+30EC_U+30A4_U+30E4_U+30FC 1
 62
   179
420
  2234388
370
     9
100
AcDbVertex
100
AcDb2dVertex
 10
124.2973309955776
 20
-156.1165844054154
 30
0.0
  0
VERTEX
  5
F6
330
F4
100
AcDbEntity
  8
_U+30EC_U+30A4_U+30E4_U+30FC 1
 62
   179
420
  2234388
370
     9
100
AcDbVertex
100
AcDb2dVertex
 10
124.2973309955776
 20
-143.1163352419989
 30
0.0
  0
SEQEND
  5
F7
330
F4
100
AcDbEntity
  8
_U+30EC_U+30A4_U+30E4_U+30FC 1
 62
   179
420
  2234388
370
     9
  0
POLYLINE
  5
F8
330
1F
100
AcDbEntity
  8
_U+30EC_U+30A4_U+30E4_U+30FC 1
 62
   179
420
  2234388
370
     9
100
AcDb2dPolyline
 66
     1
 10
0.0
 20
0.0
 30
0.0
  0
VERTEX
  5
F9
330
F8
100
AcDbEntity
  8
_U+30EC_U+30A4_U+30E4_U+30FC 1
 62
   179
420
  2234388
370
     9
100
AcDbVertex
100
AcDb2dVertex
 10
107.8370025266266
 20
-156.1165844054154
 30
0.0
  0
VERTEX
  5
FA
330
F8
100
AcDbEntity
  8
_U+30EC_U+30A4_U+30E4_U+30FC 1
 62
   179
420
  2234388
370
     9
100
AcDbVertex
100
AcDb2dVertex
 10
125.2971031922935
 20
-156.1165844054154
 30
0.0
  0
SEQEND
  5
FB
330
F8
100
AcDbEntity
  8
_U+30EC_U+30A4_U+30E4_U+30FC 1
 62
   179
420
  2234388
370
     9
  0
INSERT
  5
FD
330
1F
100
AcDbEntity
  8
_U+30EC_U+30A4_U+30E4_U+30FC 1
100
AcDbBlockReference
  2
block 7
 10
0.0
 20
0.0
 30
0.0
  0
ENDSEC
  0
SECTION
  2
OBJECTS
  0
DICTIONARY
  5
C
330
0
100
AcDbDictionary
281
     1
  3
ACAD_GROUP
350
D
  3
ACAD_LAYOUT
350
1A
  3
ACAD_MATERIAL
350
3B
  3
ACAD_MLEADERSTYLE
350
105
  3
ACAD_MLINESTYLE
350
17
  3
ACAD_PLOTSETTINGS
350
19
  3
ACAD_PLOTSTYLENAME
350
E
  3
ACAD_TABLESTYLE
350
104
  3
ACAD_VISUALSTYLE
350
2A
  0
SUN
  5
3F
330
29
100
AcDbSun
 90
        1
290
     0
 63
     7
421
 16777215
 40
1.0
291
     1
 91
  2455826
 92
 54000000
292
     0
 70
     2
 71
   256
280
     1
  0
DICTIONARY
  5
D
102
{ACAD_REACTORS
330
C
102
}
330
C
100
AcDbDictionary
281
     1
  0
DICTIONARY
  5
1A
102
{ACAD_REACTORS
330
C
102
}
330
C
100
AcDbDictionary
281
     1
  3
Layout1
350
1E
  3
Layout2
350
26
  3
Model
350
22
  0
DICTIONARY
  5
3B
102
{ACAD_REACTORS
330
C
102
}
330
C
100
AcDbDictionary
281
     1
  3
ByBlock
350
3D
  3
ByLayer
350
3C
  3
Global
350
3E
  0
DICTIONARY
  5
105
102
{ACAD_REACTORS
330
C
102
}
330
C
100
AcDbDictionary
281
     1
  0
DICTIONARY
  5
17
102
{ACAD_REACTORS
330
C
102
}
330
C
100
AcDbDictionary
281
     1
  3
Standard
350
18
  0
DICTIONARY
  5
19
102
{ACAD_REACTORS
330
C
102
}
330
C
100
AcDbDictionary
281
     1
  0
ACDBDICTIONARYWDFLT
  5
E
102
{ACAD_REACTORS
330
C
102
}
330
C
100
AcDbDictionary
281
     1
  3
Normal
350
F
100
AcDbDictionaryWithDefault
340
F
  0
DICTIONARY
  5
104
102
{ACAD_REACTORS
330
C
102
}
330
C
100
AcDbDictionary
281
     1
  0
DICTIONARY
  5
2A
102
{ACAD_REACTORS
330
C
102
}
330
C
100
AcDbDictionary
281
     1
  3
2dWireframe
350
2F
  3
3D Hidden
350
31
  3
3dWireframe
350
30
  3
Basic
350
32
  3
Brighten
350
36
  3
ColorChange
350
3A
  3
Conceptual
350
34
  3
Dim
350
35
  3
Facepattern
350
39
  3
Flat
350
2B
  3
FlatWithEdges
350
2C
  3
Gouraud
350
2D
  3
GouraudWithEdges
350
2E
  3
Linepattern
350
38
  3
Realistic
350
33
  3
Thicken
350
37
  0
LAYOUT
  5
1E
102
{ACAD_REACTORS
330
1A
102
}
330
1A
100
AcDbPlotSettings
  1

  2
none_device
  4

  6

 40
0.0
 41
0.0
 42
0.0
 43
0.0
 44
0.0
 45
0.0
 46
0.0
 47
0.0
 48
0.0
 49
0.0
140
0.0
141
0.0
142
1.0
143
1.0
 70
   688
 72
     0
 73
     0
 74
     5
  7

 75
    16
 76
     0
 77
     2
 78
   300
147
1.0
148
0.0
149
0.0
100
AcDbLayout
  1
Layout1
 70
     1
 71
     1
 10
0.0
 20
0.0
 11
12.0
 21
9.0
 12
0.0
 22
0.0
 32
0.0
 14
1.000000000000000E+20
 24
1.000000000000000E+20
 34
1.000000000000000E+20
 15
-1.000000000000000E+20
 25
-1.000000000000000E+20
 35
-1.000000000000000E+20
146
0.0
 13
0.0
 23
0.0
 33
0.0
 16
1.0
 26
0.0
 36
0.0
 17
0.0
 27
1.0
 37
0.0
 76
     0
330
1B
  0
LAYOUT
  5
26
102
{ACAD_REACTORS
330
1A
102
}
330
1A
100
AcDbPlotSettings
  1

  2
none_device
  4

  6

 40
0.0
 41
0.0
 42
0.0
 43
0.0
 44
0.0
 45
0.0
 46
0.0
 47
0.0
 48
0.0
 49
0.0
140
0.0
141
0.0
142
1.0
143
1.0
 70
   688
 72
     0
 73
     0
 74
     5
  7

 75
    16
 76
     0
 77
     2
 78
   300
147
1.0
148
0.0
149
0.0
100
AcDbLayout
  1
Layout2
 70
     1
 71
     2
 10
0.0
 20
0.0
 11
0.0
 21
0.0
 12
0.0
 22
0.0
 32
0.0
 14
0.0
 24
0.0
 34
0.0
 15
0.0
 25
0.0
 35
0.0
146
0.0
 13
0.0
 23
0.0
 33
0.0
 16
1.0
 26
0.0
 36
0.0
 17
0.0
 27
1.0
 37
0.0
 76
     0
330
23
  0
LAYOUT
  5
22
102
{ACAD_REACTORS
330
1A
102
}
330
1A
100
AcDbPlotSettings
  1

  2
none_device
  4

  6

 40
0.0
 41
0.0
 42
0.0
 43
0.0
 44
0.0
 45
0.0
 46
0.0
 47
0.0
 48
0.0
 49
0.0
140
0.0
141
0.0
142
1.0
143
1.0
 70
  1712
 72
     0
 73
     0
 74
     0
  7

 75
     0
 76
     0
 77
     2
 78
   300
147
1.0
148
0.0
149
0.0
100
AcDbLayout
  1
Model
 70
     1
 71
     0
 10
0.0
 20
0.0
 11
12.0
 21
9.0
 12
0.0
 22
0.0
 32
0.0
 14
1.000000000000000E+20
 24
1.000000000000000E+20
 34
1.000000000000000E+20
 15
-1.000000000000000E+20
 25
-1.000000000000000E+20
 35
-1.000000000000000E+20
146
0.0
 13
0.0
 23
0.0
 33
0.0
 16
1.0
 26
0.0
 36
0.0
 17
0.0
 27
1.0
 37
0.0
 76
     0
330
1F
331
29
  0
MATERIAL
  5
3D
102
{ACAD_REACTORS
330
3B
102
}
330
3B
100
AcDbMaterial
  1
ByBlock
 72
     1
 94
      127
  0
MATERIAL
  5
3C
102
{ACAD_REACTORS
330
3B
102
}
330
3B
100
AcDbMaterial
  1
ByLayer
 72
     1
 94
      127
  0
MATERIAL
  5
3E
102
{ACAD_REACTORS
330
3B
102
}
330
3B
100
AcDbMaterial
  1
Global
 72
     1
 94
      127
  0
MLINESTYLE
  5
18
102
{ACAD_REACTORS
330
17
102
}
330
17
100
AcDbMlineStyle
  2
Standard
 70
     0
  3

 62
   256
 51
90.0
 52
90.0
 71
     2
 49
0.5
 62
   256
  6
BYLAYER
 49
-0.5
 62
   256
  6
BYLAYER
  0
ACDBPLACEHOLDER
  5
F
102
{ACAD_REACTORS
330
E
102
}
330
E
  0
VISUALSTYLE
  5
2F
102
{ACAD_REACTORS
330
2A
102
}
330
2A
100
AcDbVisualStyle
  2
2dWireframe
 70
     4
177
     2
291
     0
 71
     0
176
     1
 72
     2
176
     1
 73
     0
176
     1
 90
        0
176
     1
 40
-0.6
176
     1
 41
-30.0
176
     1
 62
     5
 63
     7
421
 16777215
176
     1
 74
     1
176
     1
 91
        4
176
     1
 64
     7
176
     1
 65
   257
176
     1
 75
     1
176
     1
175
     1
176
     1
 42
1.0
176
     1
 92
        0
176
     1
 66
   257
176
     1
 43
1.0
176
     1
 76
     1
176
     1
 77
     6
176
     1
 78
     2
176
     1
 67
     7
176
     1
 79
     5
176
     1
170
     0
176
     1
171
     0
176
     1
290
     0
176
     1
 93
        1
176
     1
 44
0.0
176
     1
173
     0
176
     1
  0
VISUALSTYLE
  5
31
102
{ACAD_REACTORS
330
2A
102
}
330
2A
100
AcDbVisualStyle
  2
3D Hidden
 70
     6
177
     2
291
     0
 71
     1
176
     1
 72
     2
176
     1
 73
     2
176
     1
 90
        0
176
     1
 40
-0.6
176
     1
 41
-30.0
176
     1
 62
     5
 63
     7
421
 16777215
176
     1
 74
     2
176
     1
 91
        2
176
     1
 64
     7
176
     1
 65
   257
176
     1
 75
     2
176
     1
175
     1
176
     1
 42
40.0
176
     1
 92
        0
176
     1
 66
   257
176
     1
 43
1.0
176
     1
 76
     1
176
     1
 77
     6
176
     1
 78
     2
176
     1
 67
     7
176
     1
 79
     3
176
     1
170
     0
176
     1
171
     0
176
     1
290
     0
176
     1
 93
        1
176
     1
 44
0.0
176
     1
173
     0
176
     1
  0
VISUALSTYLE
  5
30
102
{ACAD_REACTORS
330
2A
102
}
330
2A
100
AcDbVisualStyle
  2
3dWireframe
 70
     5
177
     2
291
     0
 71
     0
176
     1
 72
     2
176
     1
 73
     0
176
     1
 90
        0
176
     1
 40
-0.6
176
     1
 41
-30.0
176
     1
 62
     5
 63
     7
421
 16777215
176
     1
 74
     1
176
     1
 91
        4
176
     1
 64
     7
176
     1
 65
   257
176
     1
 75
     1
176
     1
175
     1
176
     1
 42
1.0
176
     1
 92
        0
176
     1
 66
   257
176
     1
 43
1.0
176
     1
 76
     1
176
     1
 77
     6
176
     1
 78
     2
176
     1
 67
     7
176
     1
 79
     5
176
     1
170
     0
176
     1
171
     0
176
     1
290
     0
176
     1
 93
        1
176
     1
 44
0.0
176
     1
173
     0
176
     1
  0
VISUALSTYLE
  5
32
102
{ACAD_REACTORS
330
2A
102
}
330
2A
100
AcDbVisualStyle
  2
Basic
 70
     7
177
     2
291
     1
 71
     1
176
     1
 72
     0
176
     1
 73
     1
176
     1
 90
        0
176
     1
 40
-0.6
176
     1
 41
-30.0
176
     1
 62
     5
 63
     7
421
 16777215
176
     1
 74
     0
176
     1
 91
        4
176
     1
 64
     7
176
     1
 65
   257
176
     1
 75
     1
176
     1
175
     1
176
     1
 42
1.0
176
     1
 92
        8
176
     1
 66
     7
176
     1
 43
1.0
176
     1
 76
     1
176
     1
 77
     6
176
     1
 78
     2
176
     1
 67
     7
176
     1
 79
     5
176
     1
170
     0
176
     1
171
     0
176
     1
290
     0
176
     1
 93
        1
176
     1
 44
0.0
176
     1
173
     0
176
     1
  0
VISUALSTYLE
  5
36
102
{ACAD_REACTORS
330
2A
102
}
330
2A
100
AcDbVisualStyle
  2
Brighten
 70
    12
177
     2
291
     1
 71
     2
176
     1
 72
     2
176
     1
 73
     0
176
     1
 90
        0
176
     1
 40
-0.6
176
     1
 41
-30.0
176
     1
 62
     5
 63
     7
421
 16777215
176
     1
 74
     1
176
     1
 91
        4
176
     1
 64
     7
176
     1
 65
   257
176
     1
 75
     1
176
     1
175
     1
176
     1
 42
1.0
176
     1
 92
        8
176
     1
 66
     7
176
     1
 43
1.0
176
     1
 76
     1
176
     1
 77
     6
176
     1
 78
     2
176
     1
 67
     7
176
     1
 79
     5
176
     1
170
     0
176
     1
171
     0
176
     1
290
     0
176
     1
 93
        1
176
     1
 44
50.0
176
     1
173
     0
176
     1
  0
VISUALSTYLE
  5
3A
102
{ACAD_REACTORS
330
2A
102
}
330
2A
100
AcDbVisualStyle
  2
ColorChange
 70
    16
177
     2
291
     1
 71
     2
176
     1
 72
     2
176
     1
 73
     3
176
     1
 90
        0
176
     1
 40
-0.6
176
     1
 41
-30.0
176
     1
 62
     5
 63
     8
421
  8421504
176
     1
 74
     1
176
     1
 91
        4
176
     1
 64
     7
176
     1
 65
   257
176
     1
 75
     1
176
     1
175
     1
176
     1
 42
1.0
176
     1
 92
        8
176
     1
 66
     8
424
  8421504
176
     1
 43
1.0
176
     1
 76
     1
176
     1
 77
     6
176
     1
 78
     2
176
     1
 67
     7
176
     1
 79
     5
176
     1
170
     0
176
     1
171
     0
176
     1
290
     0
176
     1
 93
        1
176
     1
 44
0.0
176
     1
173
     0
176
     1
  0
VISUALSTYLE
  5
34
102
{ACAD_REACTORS
330
2A
102
}
330
2A
100
AcDbVisualStyle
  2
Conceptual
 70
     9
177
     2
291
     0
 71
     3
176
     1
 72
     2
176
     1
 73
     0
176
     1
 90
        0
176
     1
 40
-0.6
176
     1
 41
-30.0
176
     1
 62
     5
 63
     7
421
 16777215
176
     1
 74
     2
176
     1
 91
        2
176
     1
 64
     7
176
     1
 65
   257
176
     1
 75
     1
176
     1
175
     1
176
     1
 42
40.0
176
     1
 92
        8
176
     1
 66
     7
176
     1
 43
1.0
176
     1
 76
     1
176
     1
 77
     6
176
     1
 78
     2
176
     1
 67
     7
176
     1
 79
     3
176
     1
170
     0
176
     1
171
     0
176
     1
290
     0
176
     1
 93
        1
176
     1
 44
0.0
176
     1
173
     0
176
     1
  0
VISUALSTYLE
  5
35
102
{ACAD_REACTORS
330
2A
102
}
330
2A
100
AcDbVisualStyle
  2
Dim
 70
    11
177
     2
291
     1
 71
     2
176
     1
 72
     2
176
     1
 73
     0
176
     1
 90
        0
176
     1
 40
-0.6
176
     1
 41
-30.0
176
     1
 62
     5
 63
     7
421
 16777215
176
     1
 74
     1
176
     1
 91
        4
176
     1
 64
     7
176
     1
 65
   257
176
     1
 75
     1
176
     1
175
     1
176
     1
 42
1.0
176
     1
 92
        8
176
     1
 66
     7
176
     1
 43
1.0
176
     1
 76
     1
176
     1
 77
     6
176
     1
 78
     2
176
     1
 67
     7
176
     1
 79
     5
176
     1
170
     0
176
     1
171
     0
176
     1
290
     0
176
     1
 93
        1
176
     1
 44
-50.0
176
     1
173
     0
176
     1
  0
VISUALSTYLE
  5
39
102
{ACAD_REACTORS
330
2A
102
}
330
2A
100
AcDbVisualStyle
  2
Facepattern
 70
    15
177
     2
291
     1
 71
     2
176
     1
 72
     2
176
     1
 73
     0
176
     1
 90
        0
176
     1
 40
-0.6
176
     1
 41
-30.0
176
     1
 62
     5
 63
     7
421
 16777215
176
     1
 74
     1
176
     1
 91
        4
176
     1
 64
     7
176
     1
 65
   257
176
     1
 75
     1
176
     1
175
     1
176
     1
 42
1.0
176
     1
 92
        8
176
     1
 66
     7
176
     1
 43
1.0
176
     1
 76
     1
176
     1
 77
     6
176
     1
 78
     2
176
     1
 67
     7
176
     1
 79
     5
176
     1
170
     0
176
     1
171
     0
176
     1
290
     0
176
     1
 93
        1
176
     1
 44
0.0
176
     1
173
     0
176
     1
  0
VISUALSTYLE
  5
2B
102
{ACAD_REACTORS
330
2A
102
}
330
2A
100
AcDbVisualStyle
  2
Flat
 70
     0
177
     2
291
     1
 71
     2
176
     1
 72
     1
176
     1
 73
     1
176
     1
 90
        2
176
     1
 40
-0.6
176
     1
 41
30.0
176
     1
 62
     5
 63
     7
421
 16777215
176
     1
 74
     0
176
     1
 91
        4
176
     1
 64
     7
176
     1
 65
   257
176
     1
 75
     1
176
     1
175
     1
176
     1
 42
1.0
176
     1
 92
        8
176
     1
 66
     7
176
     1
 43
1.0
176
     1
 76
     1
176
     1
 77
     6
176
     1
 78
     2
176
     1
 67
     7
176
     1
 79
     5
176
     1
170
     0
176
     1
171
     0
176
     1
290
     0
176
     1
 93
       13
176
     1
 44
0.0
176
     1
173
     0
176
     1
  0
VISUALSTYLE
  5
2C
102
{ACAD_REACTORS
330
2A
102
}
330
2A
100
AcDbVisualStyle
  2
FlatWithEdges
 70
     1
177
     2
291
     1
 71
     2
176
     1
 72
     1
176
     1
 73
     1
176
     1
 90
        2
176
     1
 40
-0.6
176
     1
 41
30.0
176
     1
 62
     5
 63
     7
421
 16777215
176
     1
 74
     1
176
     1
 91
        4
176
     1
 64
     7
176
     1
 65
   257
176
     1
 75
     1
176
     1
175
     1
176
     1
 42
1.0
176
     1
 92
        0
176
     1
 66
   257
176
     1
 43
1.0
176
     1
 76
     1
176
     1
 77
     6
176
     1
 78
     2
176
     1
 67
     7
176
     1
 79
     5
176
     1
170
     0
176
     1
171
     0
176
     1
290
     0
176
     1
 93
       13
176
     1
 44
0.0
176
     1
173
     0
176
     1
  0
VISUALSTYLE
  5
2D
102
{ACAD_REACTORS
330
2A
102
}
330
2A
100
AcDbVisualStyle
  2
Gouraud
 70
     2
177
     2
291
     1
 71
     2
176
     1
 72
     2
176
     1
 73
     1
176
     1
 90
        2
176
     1
 40
-0.6
176
     1
 41
30.0
176
     1
 62
     5
 63
     7
421
 16777215
176
     1
 74
     0
176
     1
 91
        4
176
     1
 64
     7
176
     1
 65
   257
176
     1
 75
     1
176
     1
175
     1
176
     1
 42
1.0
176
     1
 92
        0
176
     1
 66
     7
176
     1
 43
1.0
176
     1
 76
     1
176
     1
 77
     6
176
     1
 78
     2
176
     1
 67
     7
176
     1
 79
     5
176
     1
170
     0
176
     1
171
     0
176
     1
290
     0
176
     1
 93
       13
176
     1
 44
0.0
176
     1
173
     0
176
     1
  0
VISUALSTYLE
  5
2E
102
{ACAD_REACTORS
330
2A
102
}
330
2A
100
AcDbVisualStyle
  2
GouraudWithEdges
 70
     3
177
     2
291
     1
 71
     2
176
     1
 72
     2
176
     1
 73
     1
176
     1
 90
        2
176
     1
 40
-0.6
176
     1
 41
30.0
176
     1
 62
     5
 63
     7
421
 16777215
176
     1
 74
     1
176
     1
 91
        4
176
     1
 64
     7
176
     1
 65
   257
176
     1
 75
     1
176
     1
175
     1
176
     1
 42
1.0
176
     1
 92
        0
176
     1
 66
   257
176
     1
 43
1.0
176
     1
 76
     1
176
     1
 77
     6
176
     1
 78
     2
176
     1
 67
     7
176
     1
 79
     5
176
     1
170
     0
176
     1
171
     0
176
     1
290
     0
176
     1
 93
       13
176
     1
 44
0.0
176
     1
173
     0
176
     1
  0
VISUALSTYLE
  5
38
102
{ACAD_REACTORS
330
2A
102
}
330
2A
100
AcDbVisualStyle
  2
Linepattern
 70
    14
177
     2
291
     1
 71
     2
176
     1
 72
     2
176
     1
 73
     0
176
     1
 90
        0
176
     1
 40
-0.6
176
     1
 41
-30.0
176
     1
 62
     5
 63
     7
421
 16777215
176
     1
 74
     1
176
     1
 91
        4
176
     1
 64
     7
176
     1
 65
   257
176
     1
 75
     7
176
     1
175
     7
176
     1
 42
1.0
176
     1
 92
        8
176
     1
 66
     7
176
     1
 43
1.0
176
     1
 76
     1
176
     1
 77
     6
176
     1
 78
     2
176
     1
 67
     7
176
     1
 79
     5
176
     1
170
     0
176
     1
171
     0
176
     1
290
     0
176
     1
 93
        1
176
     1
 44
0.0
176
     1
173
     0
176
     1
  0
VISUALSTYLE
  5
33
102
{ACAD_REACTORS
330
2A
102
}
330
2A
100
AcDbVisualStyle
  2
Realistic
 70
     8
177
     2
291
     0
 71
     2
176
     1
 72
     2
176
     1
 73
     0
176
     1
 90
        0
176
     1
 40
-0.6
176
     1
 41
-30.0
176
     1
 62
     5
 63
     7
421
 16777215
176
     1
 74
     1
176
     1
 91
        0
176
     1
 64
     7
176
     1
 65
   257
176
     1
 75
     1
176
     1
175
     1
176
     1
 42
1.0
176
     1
 92
        8
176
     1
 66
     8
424
  7895160
176
     1
 43
1.0
176
     1
 76
     1
176
     1
 77
     6
176
     1
 78
     2
176
     1
 67
     7
176
     1
 79
     5
176
     1
170
     0
176
     1
171
     0
176
     1
290
     0
176
     1
 93
       13
176
     1
 44
0.0
176
     1
173
     0
176
     1
  0
VISUALSTYLE
  5
37
102
{ACAD_REACTORS
330
2A
102
}
330
2A
100
AcDbVisualStyle
  2
Thicken
 70
    13
177
     2
291
     1
 71
     2
176
     1
 72
     2
176
     1
 73
     0
176
     1
 90
        0
176
     1
 40
-0.6
176
     1
 41
-30.0
176
     1
 62
     5
 63
     7
421
 16777215
176
     1
 74
     1
176
     1
 91
        4
176
     1
 64
     7
176
     1
 65
   257
176
     1
 75
     1
176
     1
175
     1
176
     1
 42
1.0
176
     1
 92
       12
176
     1
 66
     7
176
     1
 43
1.0
176
     1
 76
     1
176
     1
 77
     6
176
     1
 78
     2
176
     1
 67
     7
176
     1
 79
     5
176
     1
170
     0
176
     1
171
     0
176
     1
290
     0
176
     1
 93
        1
176
     1
 44
0.0
176
     1
173
     0
176
     1
  0
ENDSEC
  0
EOF
