  0
SECTION
  2
HEADER
  9
$ACADVER
  1
AC1024
  9
$ACADMAINTVER
 70
     6
  9
$DWGCODEPAGE
  3
UNDEFINED
  9
$INSBASE
 10
0.0
 20
0.0
 30
0.0
  9
$EXTMIN
 10
1.000000000000000E+20
 20
1.000000000000000E+20
 30
1.000000000000000E+20
  9
$EXTMAX
 10
-1.000000000000000E+20
 20
-1.000000000000000E+20
 30
-1.000000000000000E+20
  9
$LIMMIN
 10
0.0
 20
0.0
  9
$LIMMAX
 10
12.0
 20
9.0
  9
$ORTHOMODE
 70
     0
  9
$REGENMODE
 70
     1
  9
$FILLMODE
 70
     1
  9
$QTEXTMODE
 70
     0
  9
$MIRRTEXT
 70
     1
  9
$LTSCALE
 40
1.0
  9
$ATTMODE
 70
     1
  9
$TEXTSIZE
 40
0.2
  9
$TRACEWID
 40
0.05
  9
$TEXTSTYLE
  7
Standard
  9
$CLAYER
  8
0
  9
$CELTYPE
  6
ByLayer
  9
$CECOLOR
 62
   256
  9
$CELTSCALE
 40
1.0
  9
$DISPSILH
 70
     0
  9
$DIMSCALE
 40
1.0
  9
$DIMASZ
 40
0.18
  9
$DIMEXO
 40
0.0625
  9
$DIMDLI
 40
0.38
  9
$DIMRND
 40
0.0
  9
$DIMDLE
 40
0.0
  9
$DIMEXE
 40
0.18
  9
$DIMTP
 40
0.0
  9
$DIMTM
 40
0.0
  9
$DIMTXT
 40
0.18
  9
$DIMCEN
 40
0.09
  9
$DIMTSZ
 40
0.0
  9
$DIMTOL
 70
     0
  9
$DIMLIM
 70
     0
  9
$DIMTIH
 70
     1
  9
$DIMTOH
 70
     1
  9
$DIMSE1
 70
     0
  9
$DIMSE2
 70
     0
  9
$DIMTAD
 70
     0
  9
$DIMZIN
 70
     0
  9
$DIMBLK
  1

  9
$DIMASO
 70
     1
  9
$DIMSHO
 70
     1
  9
$DIMPOST
  1

  9
$DIMAPOST
  1

  9
$DIMALT
 70
     0
  9
$DIMALTD
 70
     2
  9
$DIMALTF
 40
25.4
  9
$DIMLFAC
 40
1.0
  9
$DIMTOFL
 70
     0
  9
$DIMTVP
 40
0.0
  9
$DIMTIX
 70
     0
  9
$DIMSOXD
 70
     0
  9
$DIMSAH
 70
     0
  9
$DIMBLK1
  1

  9
$DIMBLK2
  1

  9
$DIMSTYLE
  2
Standard
  9
$DIMCLRD
 70
     0
  9
$DIMCLRE
 70
     0
  9
$DIMCLRT
 70
     0
  9
$DIMTFAC
 40
1.0
  9
$DIMGAP
 40
0.09
  9
$DIMJUST
 70
     0
  9
$DIMSD1
 70
     0
  9
$DIMSD2
 70
     0
  9
$DIMTOLJ
 70
     1
  9
$DIMTZIN
 70
     0
  9
$DIMALTZ
 70
     0
  9
$DIMALTTZ
 70
     0
  9
$DIMUPT
 70
     0
  9
$DIMDEC
 70
     4
  9
$DIMTDEC
 70
     4
  9
$DIMALTU
 70
     2
  9
$DIMALTTD
 70
     2
  9
$DIMTXSTY
  7
Standard
  9
$DIMAUNIT
 70
     0
  9
$DIMADEC
 70
     0
  9
$DIMALTRND
 40
0.0
  9
$DIMAZIN
 70
     0
  9
$DIMDSEP
 70
    46
  9
$DIMATFIT
 70
     3
  9
$DIMFRAC
 70
     0
  9
$DIMLDRBLK
  1

  9
$DIMLUNIT
 70
     2
  9
$DIMLWD
 70
    -2
  9
$DIMLWE
 70
    -2
  9
$DIMTMOVE
 70
     0
  9
$DIMFXL
 40
1.0
  9
$DIMFXLON
 70
     0
  9
$DIMJOGANG
 40
0.7853981633974483
  9
$DIMTFILL
 70
     0
  9
$DIMTFILLCLR
 70
     0
  9
$DIMARCSYM
 70
     0
  9
$DIMLTYPE
  6

  9
$DIMLTEX1
  6

  9
$DIMLTEX2
  6

  9
$DIMTXTDIRECTION
 70
     0
  9
$LUNITS
 70
     2
  9
$LUPREC
 70
     4
  9
$SKETCHINC
 40
0.1
  9
$FILLETRAD
 40
0.5
  9
$AUNITS
 70
     0
  9
$AUPREC
 70
     0
  9
$MENU
  1
.
  9
$ELEVATION
 40
0.0
  9
$PELEVATION
 40
0.0
  9
$THICKNESS
 40
0.0
  9
$LIMCHECK
 70
     0
  9
$CHAMFERA
 40
0.5
  9
$CHAMFERB
 40
0.5
  9
$CHAMFERC
 40
1.0
  9
$CHAMFERD
 40
0.0
  9
$SKPOLY
 70
     0
  9
$TDCREATE
 40
2457917.586851852
  9
$TDUCREATE
 40
2457917.211851852
  9
$TDUPDATE
 40
2457917.586851852
  9
$TDUUPDATE
 40
2457917.211851852
  9
$TDINDWG
 40
0.0000000116
  9
$TDUSRTIMER
 40
0.0000000116
  9
$USRTIMER
 70
     1
  9
$ANGBASE
 50
0.0
  9
$ANGDIR
 70
     0
  9
$PDMODE
 70
     0
  9
$PDSIZE
 40
0.0
  9
$PLINEWID
 40
0.0
  9
$SPLFRAME
 70
     0
  9
$SPLINETYPE
 70
     6
  9
$SPLINESEGS
 70
     8
  9
$HANDSEED
  5
EC
  9
$SURFTAB1
 70
     6
  9
$SURFTAB2
 70
     6
  9
$SURFTYPE
 70
     6
  9
$SURFU
 70
     6
  9
$SURFV
 70
     6
  9
$UCSBASE
  2

  9
$UCSNAME
  2

  9
$UCSORG
 10
0.0
 20
0.0
 30
0.0
  9
$UCSXDIR
 10
1.0
 20
0.0
 30
0.0
  9
$UCSYDIR
 10
0.0
 20
1.0
 30
0.0
  9
$UCSORTHOREF
  2

  9
$UCSORTHOVIEW
 70
     0
  9
$UCSORGTOP
 10
0.0
 20
0.0
 30
0.0
  9
$UCSORGBOTTOM
 10
0.0
 20
0.0
 30
0.0
  9
$UCSORGLEFT
 10
0.0
 20
0.0
 30
0.0
  9
$UCSORGRIGHT
 10
0.0
 20
0.0
 30
0.0
  9
$UCSORGFRONT
 10
0.0
 20
0.0
 30
0.0
  9
$UCSORGBACK
 10
0.0
 20
0.0
 30
0.0
  9
$PUCSBASE
  2

  9
$PUCSNAME
  2

  9
$PUCSORG
 10
0.0
 20
0.0
 30
0.0
  9
$PUCSXDIR
 10
1.0
 20
0.0
 30
0.0
  9
$PUCSYDIR
 10
0.0
 20
1.0
 30
0.0
  9
$PUCSORTHOREF
  2

  9
$PUCSORTHOVIEW
 70
     0
  9
$PUCSORGTOP
 10
0.0
 20
0.0
 30
0.0
  9
$PUCSORGBOTTOM
 10
0.0
 20
0.0
 30
0.0
  9
$PUCSORGLEFT
 10
0.0
 20
0.0
 30
0.0
  9
$PUCSORGRIGHT
 10
0.0
 20
0.0
 30
0.0
  9
$PUCSORGFRONT
 10
0.0
 20
0.0
 30
0.0
  9
$PUCSORGBACK
 10
0.0
 20
0.0
 30
0.0
  9
$USERI1
 70
     0
  9
$USERI2
 70
     0
  9
$USERI3
 70
     0
  9
$USERI4
 70
     0
  9
$USERI5
 70
     0
  9
$USERR1
 40
0.0
  9
$USERR2
 40
0.0
  9
$USERR3
 40
0.0
  9
$USERR4
 40
0.0
  9
$USERR5
 40
0.0
  9
$WORLDVIEW
 70
     1
  9
$SHADEDGE
 70
     3
  9
$SHADEDIF
 70
    70
  9
$TILEMODE
 70
     1
  9
$MAXACTVP
 70
    64
  9
$PINSBASE
 10
0.0
 20
0.0
 30
0.0
  9
$PLIMCHECK
 70
     0
  9
$PEXTMIN
 10
1.000000000000000E+20
 20
1.000000000000000E+20
 30
1.000000000000000E+20
  9
$PEXTMAX
 10
-1.000000000000000E+20
 20
-1.000000000000000E+20
 30
-1.000000000000000E+20
  9
$PLIMMIN
 10
0.0
 20
0.0
  9
$PLIMMAX
 10
12.0
 20
9.0
  9
$UNITMODE
 70
     0
  9
$VISRETAIN
 70
     1
  9
$PLINEGEN
 70
     0
  9
$PSLTSCALE
 70
     1
  9
$TREEDEPTH
 70
  3020
  9
$CMLSTYLE
  2
Standard
  9
$CMLJUST
 70
     0
  9
$CMLSCALE
 40
1.0
  9
$PROXYGRAPHICS
 70
     1
  9
$MEASUREMENT
 70
     0
  9
$CELWEIGHT
370
    -1
  9
$ENDCAPS
280
     0
  9
$JOINSTYLE
280
     0
  9
$LWDISPLAY
290
     1
  9
$INSUNITS
 70
     1
  9
$HYPERLINKBASE
  1

  9
$STYLESHEET
  1

  9
$XEDIT
290
     1
  9
$CEPSNTYPE
380
     0
  9
$PSTYLEMODE
290
     1
  9
$FINGERPRINTGUID
  2
{4C8D98BB-DC97-C2B3-EB52-156A21196621}
  9
$VERSIONGUID
  2
{FAEB1C32-E019-11D5-929B-00C0DF256EC4}
  9
$EXTNAMES
290
     1
  9
$PSVPSCALE
 40
0.0
  9
$OLESTARTUP
290
     0
  9
$SORTENTS
280
   127
  9
$INDEXCTL
280
     0
  9
$HIDETEXT
280
     1
  9
$XCLIPFRAME
280
     2
  9
$HALOGAP
280
     0
  9
$OBSCOLOR
 70
   257
  9
$OBSLTYPE
280
     0
  9
$INTERSECTIONDISPLAY
280
     0
  9
$INTERSECTIONCOLOR
 70
   257
  9
$DIMASSOC
280
     2
  9
$PROJECTNAME
  1

  9
$CAMERADISPLAY
290
     0
  9
$LENSLENGTH
 40
50.0
  9
$CAMERAHEIGHT
 40
0.0
  9
$STEPSPERSEC
 40
2.0
  9
$STEPSIZE
 40
6.0
  9
$3DDWFPREC
 40
2.0
  9
$PSOLWIDTH
 40
0.25
  9
$PSOLHEIGHT
 40
4.0
  9
$LOFTANG1
 40
1.570796326794897
  9
$LOFTANG2
 40
1.570796326794897
  9
$LOFTMAG1
 40
0.0
  9
$LOFTMAG2
 40
0.0
  9
$LOFTPARAM
 70
     7
  9
$LOFTNORMALS
280
     1
  9
$LATITUDE
 40
37.795
  9
$LONGITUDE
 40
-122.394
  9
$NORTHDIRECTION
 40
0.0
  9
$TIMEZONE
 70
 -8000
  9
$LIGHTGLYPHDISPLAY
280
     1
  9
$TILEMODELIGHTSYNCH
280
     1
  9
$CMATERIAL
347
3C
  9
$SOLIDHIST
280
     1
  9
$SHOWHIST
280
     1
  9
$DWFFRAME
280
     2
  9
$DGNFRAME
280
     2
  9
$REALWORLDSCALE
290
     1
  9
$INTERFERECOLOR
 62
   256
  9
$CSHADOW
280
     0
  9
$SHADOWPLANELOCATION
 40
0.0
  0
ENDSEC
  0
SECTION
  2
CLASSES
  0
CLASS
  1
ACDBDICTIONARYWDFLT
  2
AcDbDictionaryWithDefault
  3
ObjectDBX Classes
 90
        0
 91
        4
280
     0
281
     0
  0
CLASS
  1
VISUALSTYLE
  2
AcDbVisualStyle
  3
ObjectDBX Classes
 90
     4095
 91
        4
280
     0
281
     0
  0
CLASS
  1
MATERIAL
  2
AcDbMaterial
  3
ObjectDBX Classes
 90
     1153
 91
        4
280
     0
281
     0
  0
CLASS
  1
SUN
  2
AcDbSun
  3
SCENEOE
 90
     1024
 91
        4
280
     0
281
     0
  0
ENDSEC
  0
SECTION
  2
TABLES
  0
TABLE
  2
VPORT
  5
8
330
0
100
AcDbSymbolTable
 70
     1
  0
VPORT
  5
29
330
8
100
AcDbSymbolTableRecord
100
AcDbViewportTableRecord
  2
*Active
 70
     0
 10
0.0
 20
0.0
 11
1.0
 21
1.0
 12
0.0
 22
0.0
 13
0.0
 23
0.0
 14
0.5
 24
0.5
 15
0.5
 25
0.5
 16
0.0
 26
0.0
 36
1.0
 17
63.499999984125
 27
-89.00059456108309
 37
0.0
 40
178.0011891221662
 41
0.7134783795241226
 42
50.0
 43
0.0
 44
0.0
 50
0.0
 51
0.0
 71
     0
 72
   100
 73
     1
 74
     3
 75
     0
 76
     0
 77
     0
 78
     0
281
     0
 65
     1
110
0.0
120
0.0
130
0.0
111
1.0
121
0.0
131
0.0
112
0.0
122
1.0
132
0.0
 79
     0
146
0.0
 60
     3
 61
     5
292
     1
282
     1
141
0.0
142
0.0
 63
   250
361
3F
  0
ENDTAB
  0
TABLE
  2
LTYPE
  5
5
330
0
100
AcDbSymbolTable
 70
     1
  0
LTYPE
  5
14
330
5
100
AcDbSymbolTableRecord
100
AcDbLinetypeTableRecord
  2
ByBlock
 70
     0
  3

 72
    65
 73
     0
 40
0.0
  0
LTYPE
  5
15
330
5
100
AcDbSymbolTableRecord
100
AcDbLinetypeTableRecord
  2
ByLayer
 70
     0
  3

 72
    65
 73
     0
 40
0.0
  0
LTYPE
  5
16
330
5
100
AcDbSymbolTableRecord
100
AcDbLinetypeTableRecord
  2
Continuous
 70
     0
  3
Solid line
 72
    65
 73
     0
 40
0.0
  0
ENDTAB
  0
TABLE
  2
LAYER
  5
2
330
0
100
AcDbSymbolTable
 70
     2
  0
LAYER
  5
10
330
2
100
AcDbSymbolTableRecord
100
AcDbLayerTableRecord
  2
0
 70
     0
 62
     7
  6
Continuous
370
    -3
390
F
347
3E
  0
LAYER
  5
40
330
2
100
AcDbSymbolTableRecord
100
AcDbLayerTableRecord
  2
_U+30EC_U+30A4_U+30E4_U+30FC 1
 70
     0
 62
     7
  6
Continuous
370
    -3
390
F
347
3E
  0
ENDTAB
  0
TABLE
  2
STYLE
  5
3
330
0
100
AcDbSymbolTable
 70
     1
  0
STYLE
  5
11
330
3
100
AcDbSymbolTableRecord
100
AcDbTextStyleTableRecord
  2
Standard
 70
     0
 40
0.0
 41
1.0
 50
0.0
 71
     0
 42
0.2
  3
txt
  4

  0
ENDTAB
  0
TABLE
  2
VIEW
  5
6
330
0
100
AcDbSymbolTable
 70
     0
  0
ENDTAB
  0
TABLE
  2
UCS
  5
7
330
0
100
AcDbSymbolTable
 70
     0
  0
ENDTAB
  0
TABLE
  2
APPID
  5
9
330
0
100
AcDbSymbolTable
 70
     1
  0
APPID
  5
12
330
9
100
AcDbSymbolTableRecord
100
AcDbRegAppTableRecord
  2
ACAD
 70
     0
  0
ENDTAB
  0
TABLE
  2
DIMSTYLE
  5
A
330
0
100
AcDbSymbolTable
 70
     1
100
AcDbDimStyleTable
  0
DIMSTYLE
105
27
330
A
100
AcDbSymbolTableRecord
100
AcDbDimStyleTableRecord
  2
Standard
 70
     0
178
     0
340
11
  0
ENDTAB
  0
TABLE
  2
BLOCK_RECORD
  5
1
330
0
100
AcDbSymbolTable
 70
     6
  0
BLOCK_RECORD
  5
1F
330
1
100
AcDbSymbolTableRecord
100
AcDbBlockTableRecord
  2
*Model_Space
340
22
 70
     0
280
     1
281
     0
  0
BLOCK_RECORD
  5
1B
330
1
100
AcDbSymbolTableRecord
100
AcDbBlockTableRecord
  2
*Paper_Space
340
1E
 70
     0
280
     1
281
     0
  0
BLOCK_RECORD
  5
23
330
1
100
AcDbSymbolTableRecord
100
AcDbBlockTableRecord
  2
*Paper_Space0
340
26
 70
     0
280
     1
281
     0
  0
BLOCK_RECORD
  5
81
330
1
100
AcDbSymbolTableRecord
100
AcDbBlockTableRecord
  2
block 2
340
0
102
{BLKREFS
331
82
102
}
 70
     0
280
     1
281
     0
  0
BLOCK_RECORD
  5
93
330
1
100
AcDbSymbolTableRecord
100
AcDbBlockTableRecord
  2
block 3
340
0
102
{BLKREFS
331
94
102
}
 70
     0
280
     1
281
     0
  0
BLOCK_RECORD
  5
A8
330
1
100
AcDbSymbolTableRecord
100
AcDbBlockTableRecord
  2
block 4
340
0
102
{BLKREFS
331
A9
102
}
 70
     0
280
     1
281
     0
  0
BLOCK_RECORD
  5
B8
330
1
100
AcDbSymbolTableRecord
100
AcDbBlockTableRecord
  2
block 5
340
0
102
{BLKREFS
331
B9
102
}
 70
     0
280
     1
281
     0
  0
BLOCK_RECORD
  5
D9
330
1
100
AcDbSymbolTableRecord
100
AcDbBlockTableRecord
  2
block 6
340
0
102
{BLKREFS
331
DA
102
}
 70
     0
280
     1
281
     0
  0
ENDTAB
  0
ENDSEC
  0
SECTION
  2
BLOCKS
  0
BLOCK
  5
20
330
1F
100
AcDbEntity
  8
0
100
AcDbBlockBegin
  2
*Model_Space
 70
     0
 10
0.0
 20
0.0
 30
0.0
  3
*Model_Space
  1

  0
ENDBLK
  5
21
330
1F
100
AcDbEntity
  8
0
100
AcDbBlockEnd
  0
BLOCK
  5
1C
330
1B
100
AcDbEntity
 67
     1
  8
0
100
AcDbBlockBegin
  2
*Paper_Space
 70
     0
 10
0.0
 20
0.0
 30
0.0
  3
*Paper_Space
  1

  0
ENDBLK
  5
1D
330
1B
100
AcDbEntity
 67
     1
  8
0
100
AcDbBlockEnd
  0
BLOCK
  5
24
330
23
100
AcDbEntity
  8
0
100
AcDbBlockBegin
  2
*Paper_Space0
 70
     0
 10
0.0
 20
0.0
 30
0.0
  3
*Paper_Space0
  1

  0
ENDBLK
  5
25
330
23
100
AcDbEntity
  8
0
100
AcDbBlockEnd
  0
BLOCK
  5
83
330
81
100
AcDbEntity
  8
0
100
AcDbBlockBegin
  2
block 2
 70
     0
 10
0.0
 20
0.0
 30
0.0
  3
block 2
  1

  0
SPLINE
  5
85
330
81
100
AcDbEntity
  8
_U+30EC_U+30A4_U+30E4_U+30FC 1
370
     0
100
AcDbSpline
210
0.0
220
0.0
230
1.0
 70
    11
 71
     3
 72
    26
 73
    22
 74
     0
 42
0.0000000001
 43
0.0000000001
 12
1.0
 22
0.0
 32
0.0
 13
1.0
 23
0.0
 33
0.0
 40
0.0
 40
0.0
 40
0.0
 40
0.0
 40
1.0
 40
1.0
 40
1.0
 40
2.0
 40
2.0
 40
2.0
 40
3.0
 40
3.0
 40
3.0
 40
4.0
 40
4.0
 40
4.0
 40
5.0
 40
5.0
 40
5.0
 40
6.0
 40
6.0
 40
6.0
 40
7.0
 40
7.0
 40
7.0
 40
7.0
 10
79.5934190339211
 20
-81.15955944151567
 30
0.0
 10
79.5934190339211
 20
-81.15955944151567
 30
0.0
 10
78.48926593089853
 20
-81.15955944151567
 30
0.0
 10
78.48926593089853
 20
-81.15955944151567
 30
0.0
 10
78.48926593089853
 20
-81.15955944151567
 30
0.0
 10
78.48926593089853
 20
-81.44498560246862
 30
0.0
 10
78.48926593089853
 20
-81.44498560246862
 30
0.0
 10
78.48926593089853
 20
-81.44498560246862
 30
0.0
 10
78.34112682503277
 20
-81.44498560246862
 30
0.0
 10
78.34112682503277
 20
-81.44498560246862
 30
0.0
 10
78.3263129144462
 20
-81.15766463899878
 30
0.0
 10
78.16335989799389
 20
-81.11735702182136
 30
0.0
 10
78.0489827278836
 20
-81.09169106045624
 30
0.0
 10
78.0489827278836
 20
-81.09169106045624
 30
0.0
 10
78.0489827278836
 20
-80.96542831092184
 30
0.0
 10
78.0489827278836
 20
-80.96542831092184
 30
0.0
 10
78.0489827278836
 20
-80.96542831092184
 30
0.0
 10
79.5934190339211
 20
-80.96542831092184
 30
0.0
 10
79.5934190339211
 20
-80.96542831092184
 30
0.0
 10
79.5934190339211
 20
-80.96542831092184
 30
0.0
 10
79.5934190339211
 20
-81.15955944151567
 30
0.0
 10
79.5934190339211
 20
-81.15955944151567
 30
0.0
  0
HATCH
  5
86
330
81
100
AcDbEntity
  8
_U+30EC_U+30A4_U+30E4_U+30FC 1
 62
   179
420
  2234388
100
AcDbHatch
 10
0.0
 20
0.0
 30
0.0
210
0.0
220
0.0
230
1.0
  2
SOLID
 70
     1
 71
     0
 91
        1
 92
        1
 93
        1
 72
     4
 94
        3
 73
     0
 74
     1
 95
       26
 96
       22
 40
0.0
 40
0.0
 40
0.0
 40
0.0
 40
1.0
 40
1.0
 40
1.0
 40
2.0
 40
2.0
 40
2.0
 40
3.0
 40
3.0
 40
3.0
 40
4.0
 40
4.0
 40
4.0
 40
5.0
 40
5.0
 40
5.0
 40
6.0
 40
6.0
 40
6.0
 40
7.0
 40
7.0
 40
7.0
 40
7.0
 10
79.5934190339211
 20
-81.15955944151567
 10
79.5934190339211
 20
-81.15955944151567
 10
78.48926593089853
 20
-81.15955944151567
 10
78.48926593089853
 20
-81.15955944151567
 10
78.48926593089853
 20
-81.15955944151567
 10
78.48926593089853
 20
-81.44498560246862
 10
78.48926593089853
 20
-81.44498560246862
 10
78.48926593089853
 20
-81.44498560246862
 10
78.34112682503277
 20
-81.44498560246862
 10
78.34112682503277
 20
-81.44498560246862
 10
78.3263129144462
 20
-81.15766463899878
 10
78.16335989799389
 20
-81.11735702182136
 10
78.0489827278836
 20
-81.09169106045624
 10
78.0489827278836
 20
-81.09169106045624
 10
78.0489827278836
 20
-80.96542831092184
 10
78.0489827278836
 20
-80.96542831092184
 10
78.0489827278836
 20
-80.96542831092184
 10
79.5934190339211
 20
-80.96542831092184
 10
79.5934190339211
 20
-80.96542831092184
 10
79.5934190339211
 20
-80.96542831092184
 10
79.5934190339211
 20
-81.15955944151567
 10
79.5934190339211
 20
-81.15955944151567
 97
        0
 97
        0
 75
     2
 76
     1
 98
        0
  0
ENDBLK
  5
84
330
81
100
AcDbEntity
  8
0
100
AcDbBlockEnd
  0
BLOCK
  5
95
330
93
100
AcDbEntity
  8
0
100
AcDbBlockBegin
  2
block 3
 70
     0
 10
0.0
 20
0.0
 30
0.0
  3
block 3
  1

  0
SPLINE
  5
97
330
93
100
AcDbEntity
  8
_U+30EC_U+30A4_U+30E4_U+30FC 1
370
     0
100
AcDbSpline
210
0.0
220
0.0
230
1.0
 70
    11
 71
     3
 72
    62
 73
    58
 74
     0
 42
0.0000000001
 43
0.0000000001
 12
1.0
 22
0.0
 32
0.0
 13
1.0
 23
0.0
 33
0.0
 40
0.0
 40
0.0
 40
0.0
 40
0.0
 40
1.0
 40
1.0
 40
1.0
 40
2.0
 40
2.0
 40
2.0
 40
3.0
 40
3.0
 40
3.0
 40
4.0
 40
4.0
 40
4.0
 40
5.0
 40
5.0
 40
5.0
 40
6.0
 40
6.0
 40
6.0
 40
7.0
 40
7.0
 40
7.0
 40
8.0
 40
8.0
 40
8.0
 40
9.0
 40
9.0
 40
9.0
 40
10.0
 40
10.0
 40
10.0
 40
11.0
 40
11.0
 40
11.0
 40
12.0
 40
12.0
 40
12.0
 40
13.0
 40
13.0
 40
13.0
 40
14.0
 40
14.0
 40
14.0
 40
15.0
 40
15.0
 40
15.0
 40
16.0
 40
16.0
 40
16.0
 40
17.0
 40
17.0
 40
17.0
 40
18.0
 40
18.0
 40
18.0
 40
19.0
 40
19.0
 40
19.0
 40
19.0
 10
60.438688135932
 20
-79.49488930304295
 30
0.0
 10
60.35635035383453
 20
-79.49488930304295
 30
0.0
 10
60.16755912124284
 20
-79.47387422058293
 30
0.0
 10
60.05972763255451
 20
-79.28783906437943
 30
0.0
 10
59.99564885652887
 20
-79.17552895156028
 30
0.0
 10
59.99185925149509
 20
-79.07631020158509
 30
0.0
 10
59.98841415600985
 20
-78.99156085264795
 30
0.0
 10
59.98841415600985
 20
-78.99156085264795
 30
0.0
 10
60.17858342679563
 20
-78.99156085264795
 30
0.0
 10
60.17858342679563
 20
-78.99156085264795
 30
0.0
 10
60.18065048408678
 20
-79.06563040558082
 30
0.0
 10
60.18960773234843
 20
-79.30024140812633
 30
0.0
 10
60.43489853089822
 20
-79.30024140812633
 30
0.0
 10
60.55375432513934
 20
-79.30024140812633
 30
0.0
 10
60.68570148222441
 20
-79.23065047932428
 30
0.0
 10
60.68570148222441
 20
-79.00224064865222
 30
0.0
 10
60.68570148222441
 20
-78.88579642125077
 30
0.0
 10
60.65262856556601
 20
-78.83722057490876
 30
0.0
 10
60.62506780168401
 20
-78.80552569644446
 30
0.0
 10
60.56133353520689
 20
-78.73145614351158
 30
0.0
 10
60.46039223748907
 20
-78.71870929021615
 30
0.0
 10
60.41284991979262
 20
-78.71870929021615
 30
0.0
 10
60.39631346146342
 20
-78.71870929021615
 30
0.0
 10
60.36530760209617
 20
-78.72077634750731
 30
0.0
 10
60.34153644324795
 20
-78.72491046208961
 30
0.0
 10
60.34153644324795
 20
-78.72491046208961
 30
0.0
 10
60.34153644324795
 20
-78.530262567173
 30
0.0
 10
60.34153644324795
 20
-78.530262567173
 30
0.0
 10
60.37460935990635
 20
-78.53663599382071
 30
0.0
 10
60.41112737205
 20
-78.53887530588612
 30
0.0
 10
60.4166395248264
 20
-78.53887530588612
 30
0.0
 10
60.47348360033302
 20
-78.53887530588612
 30
0.0
 10
60.64539386504699
 20
-78.51768796865183
 30
0.0
 10
60.64539386504699
 20
-78.28066539926664
 30
0.0
 10
60.64539386504699
 20
-78.10307072700202
 30
0.0
 10
60.53205022358227
 20
-78.04794919923802
 30
0.0
 10
60.43662107864085
 20
-78.04794919923802
 30
0.0
 10
60.20786673842026
 20
-78.04794919923802
 30
0.0
 10
60.20063203790124
 20
-78.28066539926664
 30
0.0
 10
60.19684243286746
 20
-78.35266789490836
 30
0.0
 10
60.19684243286746
 20
-78.35266789490836
 30
0.0
 10
60.02114256311972
 20
-78.35266789490836
 30
0.0
 10
60.02114256311972
 20
-78.35266789490836
 30
0.0
 10
60.02872177318726
 20
-78.22778318356806
 30
0.0
 10
60.05249293203549
 20
-77.85123424703025
 30
0.0
 10
60.44764538419365
 20
-77.85123424703025
 30
0.0
 10
60.64160426001321
 20
-77.85123424703025
 30
0.0
 10
60.85037704641935
 20
-77.9781860156617
 30
0.0
 10
60.85037704641935
 20
-78.27429197261893
 30
0.0
 10
60.85037704641935
 20
-78.46049938359668
 30
0.0
 10
60.76803926432189
 20
-78.54300942046842
 30
0.0
 10
60.68191187719064
 20
-78.60433212010587
 30
0.0
 10
60.73496634766348
 20
-78.63189288398786
 30
0.0
 10
60.8924072113394
 20
-78.71216360879419
 30
0.0
 10
60.8924072113394
 20
-78.9894937953568
 30
0.0
 10
60.8924072113394
 20
-79.32780217200833
 30
0.0
 10
60.67846678170539
 20
-79.49488930304295
 30
0.0
 10
60.438688135932
 20
-79.49488930304295
 30
0.0
  0
HATCH
  5
98
330
93
100
AcDbEntity
  8
_U+30EC_U+30A4_U+30E4_U+30FC 1
 62
   179
420
  2234388
100
AcDbHatch
 10
0.0
 20
0.0
 30
0.0
210
0.0
220
0.0
230
1.0
  2
SOLID
 70
     1
 71
     0
 91
        1
 92
        1
 93
        1
 72
     4
 94
        3
 73
     0
 74
     1
 95
       62
 96
       58
 40
0.0
 40
0.0
 40
0.0
 40
0.0
 40
1.0
 40
1.0
 40
1.0
 40
2.0
 40
2.0
 40
2.0
 40
3.0
 40
3.0
 40
3.0
 40
4.0
 40
4.0
 40
4.0
 40
5.0
 40
5.0
 40
5.0
 40
6.0
 40
6.0
 40
6.0
 40
7.0
 40
7.0
 40
7.0
 40
8.0
 40
8.0
 40
8.0
 40
9.0
 40
9.0
 40
9.0
 40
10.0
 40
10.0
 40
10.0
 40
11.0
 40
11.0
 40
11.0
 40
12.0
 40
12.0
 40
12.0
 40
13.0
 40
13.0
 40
13.0
 40
14.0
 40
14.0
 40
14.0
 40
15.0
 40
15.0
 40
15.0
 40
16.0
 40
16.0
 40
16.0
 40
17.0
 40
17.0
 40
17.0
 40
18.0
 40
18.0
 40
18.0
 40
19.0
 40
19.0
 40
19.0
 40
19.0
 10
60.438688135932
 20
-79.49488930304295
 10
60.35635035383453
 20
-79.49488930304295
 10
60.16755912124284
 20
-79.47387422058293
 10
60.05972763255451
 20
-79.28783906437943
 10
59.99564885652887
 20
-79.17552895156028
 10
59.99185925149509
 20
-79.07631020158509
 10
59.98841415600985
 20
-78.99156085264795
 10
59.98841415600985
 20
-78.99156085264795
 10
60.17858342679563
 20
-78.99156085264795
 10
60.17858342679563
 20
-78.99156085264795
 10
60.18065048408678
 20
-79.06563040558082
 10
60.18960773234843
 20
-79.30024140812633
 10
60.43489853089822
 20
-79.30024140812633
 10
60.55375432513934
 20
-79.30024140812633
 10
60.68570148222441
 20
-79.23065047932428
 10
60.68570148222441
 20
-79.00224064865222
 10
60.68570148222441
 20
-78.88579642125077
 10
60.65262856556601
 20
-78.83722057490876
 10
60.62506780168401
 20
-78.80552569644446
 10
60.56133353520689
 20
-78.73145614351158
 10
60.46039223748907
 20
-78.71870929021615
 10
60.41284991979262
 20
-78.71870929021615
 10
60.39631346146342
 20
-78.71870929021615
 10
60.36530760209617
 20
-78.72077634750731
 10
60.34153644324795
 20
-78.72491046208961
 10
60.34153644324795
 20
-78.72491046208961
 10
60.34153644324795
 20
-78.530262567173
 10
60.34153644324795
 20
-78.530262567173
 10
60.37460935990635
 20
-78.53663599382071
 10
60.41112737205
 20
-78.53887530588612
 10
60.4166395248264
 20
-78.53887530588612
 10
60.47348360033302
 20
-78.53887530588612
 10
60.64539386504699
 20
-78.51768796865183
 10
60.64539386504699
 20
-78.28066539926664
 10
60.64539386504699
 20
-78.10307072700202
 10
60.53205022358227
 20
-78.04794919923802
 10
60.43662107864085
 20
-78.04794919923802
 10
60.20786673842026
 20
-78.04794919923802
 10
60.20063203790124
 20
-78.28066539926664
 10
60.19684243286746
 20
-78.35266789490836
 10
60.19684243286746
 20
-78.35266789490836
 10
60.02114256311972
 20
-78.35266789490836
 10
60.02114256311972
 20
-78.35266789490836
 10
60.02872177318726
 20
-78.22778318356806
 10
60.05249293203549
 20
-77.85123424703025
 10
60.44764538419365
 20
-77.85123424703025
 10
60.64160426001321
 20
-77.85123424703025
 10
60.85037704641935
 20
-77.9781860156617
 10
60.85037704641935
 20
-78.27429197261893
 10
60.85037704641935
 20
-78.46049938359668
 10
60.76803926432189
 20
-78.54300942046842
 10
60.68191187719064
 20
-78.60433212010587
 10
60.73496634766348
 20
-78.63189288398786
 10
60.8924072113394
 20
-78.71216360879419
 10
60.8924072113394
 20
-78.9894937953568
 10
60.8924072113394
 20
-79.32780217200833
 10
60.67846678170539
 20
-79.49488930304295
 10
60.438688135932
 20
-79.49488930304295
 97
        0
 97
        0
 75
     2
 76
     1
 98
        0
  0
SPLINE
  5
99
330
93
100
AcDbEntity
  8
_U+30EC_U+30A4_U+30E4_U+30FC 1
370
     0
100
AcDbSpline
210
0.0
220
0.0
230
1.0
 70
    11
 71
     3
 72
    29
 73
    25
 74
     0
 42
0.0000000001
 43
0.0000000001
 12
1.0
 22
0.0
 32
0.0
 13
1.0
 23
0.0
 33
0.0
 40
0.0
 40
0.0
 40
0.0
 40
0.0
 40
1.0
 40
1.0
 40
1.0
 40
2.0
 40
2.0
 40
2.0
 40
3.0
 40
3.0
 40
3.0
 40
4.0
 40
4.0
 40
4.0
 40
5.0
 40
5.0
 40
5.0
 40
6.0
 40
6.0
 40
6.0
 40
7.0
 40
7.0
 40
7.0
 40
8.0
 40
8.0
 40
8.0
 40
8.0
 10
61.80742457222176
 20
-79.26647947237089
 30
0.0
 10
61.71406248457149
 20
-79.47594127787407
 30
0.0
 10
61.5638563214146
 20
-79.49488930304295
 30
0.0
 10
61.4632595332453
 20
-79.49488930304295
 30
0.0
 10
61.32407767564121
 20
-79.49488930304295
 30
0.0
 10
61.20143227636631
 20
-79.44838051399208
 30
0.0
 10
61.11909449426884
 20
-79.26647947237089
 30
0.0
 10
61.02952201165235
 20
-79.07183157745426
 30
0.0
 10
61.01298555332315
 20
-78.8351535176176
 30
0.0
 10
61.01298555332315
 20
-78.67220050116529
 30
0.0
 10
61.01298555332315
 20
-78.52819550988184
 30
0.0
 10
61.0274549543612
 20
-78.27653128468434
 30
0.0
 10
61.11909449426884
 20
-78.07757702041117
 30
0.0
 10
61.21245658191911
 20
-77.87448864155569
 30
0.0
 10
61.35163843952321
 20
-77.85123424703025
 30
0.0
 10
61.4632595332453
 20
-77.85123424703025
 30
0.0
 10
61.60037433355824
 20
-77.85123424703025
 30
0.0
 10
61.72508679012429
 20
-77.89567597878997
 30
0.0
 10
61.80742457222176
 20
-78.07757702041117
 30
0.0
 10
61.89320744980448
 20
-78.27015785803663
 30
0.0
 10
61.91353351316745
 20
-78.49856768870869
 30
0.0
 10
61.91353351316745
 20
-78.67220050116529
 30
0.0
 10
61.91353351316745
 20
-78.8434217467822
 30
0.0
 10
61.89527450709563
 20
-79.07389863474542
 30
0.0
 10
61.80742457222176
 20
-79.26647947237089
 30
0.0
  0
SPLINE
  5
9A
330
93
100
AcDbEntity
  8
_U+30EC_U+30A4_U+30E4_U+30FC 1
370
     0
100
AcDbSpline
210
0.0
220
0.0
230
1.0
 70
    11
 71
     3
 72
    17
 73
    13
 74
     0
 42
0.0000000001
 43
0.0000000001
 12
1.0
 22
0.0
 32
0.0
 13
1.0
 23
0.0
 33
0.0
 40
0.0
 40
0.0
 40
0.0
 40
0.0
 40
1.0
 40
1.0
 40
1.0
 40
2.0
 40
2.0
 40
2.0
 40
3.0
 40
3.0
 40
3.0
 40
4.0
 40
4.0
 40
4.0
 40
4.0
 10
61.4632595332453
 20
-78.04381508465572
 30
0.0
 10
61.24725204632013
 20
-78.04381508465572
 30
0.0
 10
61.20694442914271
 20
-78.32734644309178
 30
0.0
 10
61.20694442914271
 20
-78.67220050116529
 30
0.0
 10
61.20694442914271
 20
-78.99156085264795
 30
0.0
 10
61.23795028850996
 20
-79.30024140812633
 30
0.0
 10
61.4632595332453
 20
-79.30024140812633
 30
0.0
 10
61.67719996287931
 20
-79.30024140812633
 30
0.0
 10
61.71957463734789
 20
-79.01912161652994
 30
0.0
 10
61.71957463734789
 20
-78.67220050116529
 30
0.0
 10
61.71957463734789
 20
-78.35266789490836
 30
0.0
 10
61.68650172068949
 20
-78.04381508465572
 30
0.0
 10
61.4632595332453
 20
-78.04381508465572
 30
0.0
  0
HATCH
  5
9B
330
93
100
AcDbEntity
  8
_U+30EC_U+30A4_U+30E4_U+30FC 1
 62
   179
420
  2234388
100
AcDbHatch
 10
0.0
 20
0.0
 30
0.0
210
0.0
220
0.0
230
1.0
  2
SOLID
 70
     1
 71
     0
 91
        2
 92
        1
 93
        1
 72
     4
 94
        3
 73
     0
 74
     1
 95
       29
 96
       25
 40
0.0
 40
0.0
 40
0.0
 40
0.0
 40
1.0
 40
1.0
 40
1.0
 40
2.0
 40
2.0
 40
2.0
 40
3.0
 40
3.0
 40
3.0
 40
4.0
 40
4.0
 40
4.0
 40
5.0
 40
5.0
 40
5.0
 40
6.0
 40
6.0
 40
6.0
 40
7.0
 40
7.0
 40
7.0
 40
8.0
 40
8.0
 40
8.0
 40
8.0
 10
61.80742457222176
 20
-79.26647947237089
 10
61.71406248457149
 20
-79.47594127787407
 10
61.5638563214146
 20
-79.49488930304295
 10
61.4632595332453
 20
-79.49488930304295
 10
61.32407767564121
 20
-79.49488930304295
 10
61.20143227636631
 20
-79.44838051399208
 10
61.11909449426884
 20
-79.26647947237089
 10
61.02952201165235
 20
-79.07183157745426
 10
61.01298555332315
 20
-78.8351535176176
 10
61.01298555332315
 20
-78.67220050116529
 10
61.01298555332315
 20
-78.52819550988184
 10
61.0274549543612
 20
-78.27653128468434
 10
61.11909449426884
 20
-78.07757702041117
 10
61.21245658191911
 20
-77.87448864155569
 10
61.35163843952321
 20
-77.85123424703025
 10
61.4632595332453
 20
-77.85123424703025
 10
61.60037433355824
 20
-77.85123424703025
 10
61.72508679012429
 20
-77.89567597878997
 10
61.80742457222176
 20
-78.07757702041117
 10
61.89320744980448
 20
-78.27015785803663
 10
61.91353351316745
 20
-78.49856768870869
 10
61.91353351316745
 20
-78.67220050116529
 10
61.91353351316745
 20
-78.8434217467822
 10
61.89527450709563
 20
-79.07389863474542
 10
61.80742457222176
 20
-79.26647947237089
 97
        0
 97
        0
 92
        1
 93
        1
 72
     4
 94
        3
 73
     0
 74
     1
 95
       17
 96
       13
 40
0.0
 40
0.0
 40
0.0
 40
0.0
 40
1.0
 40
1.0
 40
1.0
 40
2.0
 40
2.0
 40
2.0
 40
3.0
 40
3.0
 40
3.0
 40
4.0
 40
4.0
 40
4.0
 40
4.0
 10
61.4632595332453
 20
-78.04381508465572
 10
61.24725204632013
 20
-78.04381508465572
 10
61.20694442914271
 20
-78.32734644309178
 10
61.20694442914271
 20
-78.67220050116529
 10
61.20694442914271
 20
-78.99156085264795
 10
61.23795028850996
 20
-79.30024140812633
 10
61.4632595332453
 20
-79.30024140812633
 10
61.67719996287931
 20
-79.30024140812633
 10
61.71957463734789
 20
-79.01912161652994
 10
61.71957463734789
 20
-78.67220050116529
 10
61.71957463734789
 20
-78.35266789490836
 10
61.68650172068949
 20
-78.04381508465572
 10
61.4632595332453
 20
-78.04381508465572
 97
        0
 97
        0
 75
     2
 76
     1
 98
        0
  0
ENDBLK
  5
96
330
93
100
AcDbEntity
  8
0
100
AcDbBlockEnd
  0
BLOCK
  5
AA
330
A8
100
AcDbEntity
  8
0
100
AcDbBlockBegin
  2
block 4
 70
     0
 10
0.0
 20
0.0
 30
0.0
  3
block 4
  1

  0
SPLINE
  5
AC
330
A8
100
AcDbEntity
  8
_U+30EC_U+30A4_U+30E4_U+30FC 1
370
     0
100
AcDbSpline
210
0.0
220
0.0
230
1.0
 70
    11
 71
     3
 72
    26
 73
    22
 74
     0
 42
0.0000000001
 43
0.0000000001
 12
1.0
 22
0.0
 32
0.0
 13
1.0
 23
0.0
 33
0.0
 40
0.0
 40
0.0
 40
0.0
 40
0.0
 40
1.0
 40
1.0
 40
1.0
 40
2.0
 40
2.0
 40
2.0
 40
3.0
 40
3.0
 40
3.0
 40
4.0
 40
4.0
 40
4.0
 40
5.0
 40
5.0
 40
5.0
 40
6.0
 40
6.0
 40
6.0
 40
7.0
 40
7.0
 40
7.0
 40
7.0
 10
52.90374754536781
 20
-99.14433591271393
 30
0.0
 10
52.90374754536781
 20
-99.14433591271393
 30
0.0
 10
52.90374754536781
 20
-98.04018280969134
 30
0.0
 10
52.90374754536781
 20
-98.04018280969134
 30
0.0
 10
52.90374754536781
 20
-98.04018280969134
 30
0.0
 10
52.61832138441487
 20
-98.04018280969134
 30
0.0
 10
52.61832138441487
 20
-98.04018280969134
 30
0.0
 10
52.61832138441487
 20
-98.04018280969134
 30
0.0
 10
52.61832138441487
 20
-97.8920437038256
 30
0.0
 10
52.61832138441487
 20
-97.8920437038256
 30
0.0
 10
52.9056423478847
 20
-97.87722979323902
 30
0.0
 10
52.94594996506213
 20
-97.71427677678672
 30
0.0
 10
52.97144367165298
 20
-97.59989960667642
 30
0.0
 10
52.97144367165298
 20
-97.59989960667642
 30
0.0
 10
53.09787867596165
 20
-97.59989960667642
 30
0.0
 10
53.09787867596165
 20
-97.59989960667642
 30
0.0
 10
53.09787867596165
 20
-97.59989960667642
 30
0.0
 10
53.09787867596165
 20
-99.14433591271393
 30
0.0
 10
53.09787867596165
 20
-99.14433591271393
 30
0.0
 10
53.09787867596165
 20
-99.14433591271393
 30
0.0
 10
52.90374754536781
 20
-99.14433591271393
 30
0.0
 10
52.90374754536781
 20
-99.14433591271393
 30
0.0
  0
HATCH
  5
AD
330
A8
100
AcDbEntity
  8
_U+30EC_U+30A4_U+30E4_U+30FC 1
 62
   179
420
  2234388
100
AcDbHatch
 10
0.0
 20
0.0
 30
0.0
210
0.0
220
0.0
230
1.0
  2
SOLID
 70
     1
 71
     0
 91
        1
 92
        1
 93
        1
 72
     4
 94
        3
 73
     0
 74
     1
 95
       26
 96
       22
 40
0.0
 40
0.0
 40
0.0
 40
0.0
 40
1.0
 40
1.0
 40
1.0
 40
2.0
 40
2.0
 40
2.0
 40
3.0
 40
3.0
 40
3.0
 40
4.0
 40
4.0
 40
4.0
 40
5.0
 40
5.0
 40
5.0
 40
6.0
 40
6.0
 40
6.0
 40
7.0
 40
7.0
 40
7.0
 40
7.0
 10
52.90374754536781
 20
-99.14433591271393
 10
52.90374754536781
 20
-99.14433591271393
 10
52.90374754536781
 20
-98.04018280969134
 10
52.90374754536781
 20
-98.04018280969134
 10
52.90374754536781
 20
-98.04018280969134
 10
52.61832138441487
 20
-98.04018280969134
 10
52.61832138441487
 20
-98.04018280969134
 10
52.61832138441487
 20
-98.04018280969134
 10
52.61832138441487
 20
-97.8920437038256
 10
52.61832138441487
 20
-97.8920437038256
 10
52.9056423478847
 20
-97.87722979323902
 10
52.94594996506213
 20
-97.71427677678672
 10
52.97144367165298
 20
-97.59989960667642
 10
52.97144367165298
 20
-97.59989960667642
 10
53.09787867596165
 20
-97.59989960667642
 10
53.09787867596165
 20
-97.59989960667642
 10
53.09787867596165
 20
-97.59989960667642
 10
53.09787867596165
 20
-99.14433591271393
 10
53.09787867596165
 20
-99.14433591271393
 10
53.09787867596165
 20
-99.14433591271393
 10
52.90374754536781
 20
-99.14433591271393
 10
52.90374754536781
 20
-99.14433591271393
 97
        0
 97
        0
 75
     2
 76
     1
 98
        0
  0
SPLINE
  5
AE
330
A8
100
AcDbEntity
  8
_U+30EC_U+30A4_U+30E4_U+30FC 1
370
     0
100
AcDbSpline
210
0.0
220
0.0
230
1.0
 70
    11
 71
     3
 72
    53
 73
    49
 74
     0
 42
0.0000000001
 43
0.0000000001
 12
1.0
 22
0.0
 32
0.0
 13
1.0
 23
0.0
 33
0.0
 40
0.0
 40
0.0
 40
0.0
 40
0.0
 40
1.0
 40
1.0
 40
1.0
 40
2.0
 40
2.0
 40
2.0
 40
3.0
 40
3.0
 40
3.0
 40
4.0
 40
4.0
 40
4.0
 40
5.0
 40
5.0
 40
5.0
 40
6.0
 40
6.0
 40
6.0
 40
7.0
 40
7.0
 40
7.0
 40
8.0
 40
8.0
 40
8.0
 40
9.0
 40
9.0
 40
9.0
 40
10.0
 40
10.0
 40
10.0
 40
11.0
 40
11.0
 40
11.0
 40
12.0
 40
12.0
 40
12.0
 40
13.0
 40
13.0
 40
13.0
 40
14.0
 40
14.0
 40
14.0
 40
15.0
 40
15.0
 40
15.0
 40
16.0
 40
16.0
 40
16.0
 40
16.0
 10
53.9467502035272
 20
-99.19497881634709
 30
0.0
 10
53.87905407724205
 20
-99.19497881634709
 30
0.0
 10
53.79120414236817
 20
-99.17809784846936
 30
0.0
 10
53.7033542074943
 20
-99.11470809154078
 30
0.0
 10
53.55332029911168
 20
-99.0048095455613
 30
0.0
 10
53.53506129303985
 20
-98.87355140757329
 30
0.0
 10
53.51852483471065
 20
-98.76571991888497
 30
0.0
 10
53.51852483471065
 20
-98.76571991888497
 30
0.0
 10
53.71076116278759
 20
-98.76571991888497
 30
0.0
 10
53.71076116278759
 20
-98.76571991888497
 30
0.0
 10
53.75830348048404
 20
-98.96450192838388
 30
0.0
 10
53.86802977168924
 20
-98.99412974955703
 30
0.0
 10
53.94847275126983
 20
-98.99412974955703
 30
0.0
 10
54.0693956028021
 20
-98.99412974955703
 30
0.0
 10
54.20134275988717
 20
-98.89456649003331
 30
0.0
 10
54.20134275988717
 20
-98.66202254477895
 30
0.0
 10
54.20134275988717
 20
-98.40605195022488
 30
0.0
 10
54.04562444395388
 20
-98.33611651187431
 30
0.0
 10
53.9412380507508
 20
-98.33611651187431
 30
0.0
 10
53.9136772868688
 20
-98.33611651187431
 30
0.0
 10
53.79120414236817
 20
-98.33611651187431
 30
0.0
 10
53.7143785130471
 20
-98.46530759257118
 30
0.0
 10
53.7143785130471
 20
-98.46530759257118
 30
0.0
 10
53.56244980214758
 20
-98.4463595674023
 30
0.0
 10
53.56244980214758
 20
-98.4463595674023
 30
0.0
 10
53.56244980214758
 20
-98.4463595674023
 30
0.0
 10
53.66666394057639
 20
-97.59989960667642
 30
0.0
 10
53.66666394057639
 20
-97.59989960667642
 30
0.0
 10
53.66666394057639
 20
-97.59989960667642
 30
0.0
 10
54.34018010794274
 20
-97.59989960667642
 30
0.0
 10
54.34018010794274
 20
-97.59989960667642
 30
0.0
 10
54.34018010794274
 20
-97.59989960667642
 30
0.0
 10
54.34018010794274
 20
-97.79454750159303
 30
0.0
 10
54.34018010794274
 20
-97.79454750159303
 30
0.0
 10
54.34018010794274
 20
-97.79454750159303
 30
0.0
 10
53.80774060069737
 20
-97.79454750159303
 30
0.0
 10
53.80774060069737
 20
-97.79454750159303
 30
0.0
 10
53.80774060069737
 20
-97.79454750159303
 30
0.0
 10
53.75089652519075
 20
-98.21760522718172
 30
0.0
 10
53.75089652519075
 20
-98.21760522718172
 30
0.0
 10
53.8039509956636
 20
-98.18384329142627
 30
0.0
 10
53.87543672698254
 20
-98.14353567424884
 30
0.0
 10
53.97775606289445
 20
-98.14353567424884
 30
0.0
 10
54.1975531548534
 20
-98.14353567424884
 30
0.0
 10
54.40253633622576
 20
-98.32991534000085
 30
0.0
 10
54.40253633622576
 20
-98.64307451961007
 30
0.0
 10
54.40253633622576
 20
-98.96036781380158
 30
0.0
 10
54.20857746040619
 20
-99.19497881634709
 30
0.0
 10
53.9467502035272
 20
-99.19497881634709
 30
0.0
  0
HATCH
  5
AF
330
A8
100
AcDbEntity
  8
_U+30EC_U+30A4_U+30E4_U+30FC 1
 62
   179
420
  2234388
100
AcDbHatch
 10
0.0
 20
0.0
 30
0.0
210
0.0
220
0.0
230
1.0
  2
SOLID
 70
     1
 71
     0
 91
        1
 92
        1
 93
        1
 72
     4
 94
        3
 73
     0
 74
     1
 95
       53
 96
       49
 40
0.0
 40
0.0
 40
0.0
 40
0.0
 40
1.0
 40
1.0
 40
1.0
 40
2.0
 40
2.0
 40
2.0
 40
3.0
 40
3.0
 40
3.0
 40
4.0
 40
4.0
 40
4.0
 40
5.0
 40
5.0
 40
5.0
 40
6.0
 40
6.0
 40
6.0
 40
7.0
 40
7.0
 40
7.0
 40
8.0
 40
8.0
 40
8.0
 40
9.0
 40
9.0
 40
9.0
 40
10.0
 40
10.0
 40
10.0
 40
11.0
 40
11.0
 40
11.0
 40
12.0
 40
12.0
 40
12.0
 40
13.0
 40
13.0
 40
13.0
 40
14.0
 40
14.0
 40
14.0
 40
15.0
 40
15.0
 40
15.0
 40
16.0
 40
16.0
 40
16.0
 40
16.0
 10
53.9467502035272
 20
-99.19497881634709
 10
53.87905407724205
 20
-99.19497881634709
 10
53.79120414236817
 20
-99.17809784846936
 10
53.7033542074943
 20
-99.11470809154078
 10
53.55332029911168
 20
-99.0048095455613
 10
53.53506129303985
 20
-98.87355140757329
 10
53.51852483471065
 20
-98.76571991888497
 10
53.51852483471065
 20
-98.76571991888497
 10
53.71076116278759
 20
-98.76571991888497
 10
53.71076116278759
 20
-98.76571991888497
 10
53.75830348048404
 20
-98.96450192838388
 10
53.86802977168924
 20
-98.99412974955703
 10
53.94847275126983
 20
-98.99412974955703
 10
54.0693956028021
 20
-98.99412974955703
 10
54.20134275988717
 20
-98.89456649003331
 10
54.20134275988717
 20
-98.66202254477895
 10
54.20134275988717
 20
-98.40605195022488
 10
54.04562444395388
 20
-98.33611651187431
 10
53.9412380507508
 20
-98.33611651187431
 10
53.9136772868688
 20
-98.33611651187431
 10
53.79120414236817
 20
-98.33611651187431
 10
53.7143785130471
 20
-98.46530759257118
 10
53.7143785130471
 20
-98.46530759257118
 10
53.56244980214758
 20
-98.4463595674023
 10
53.56244980214758
 20
-98.4463595674023
 10
53.56244980214758
 20
-98.4463595674023
 10
53.66666394057639
 20
-97.59989960667642
 10
53.66666394057639
 20
-97.59989960667642
 10
53.66666394057639
 20
-97.59989960667642
 10
54.34018010794274
 20
-97.59989960667642
 10
54.34018010794274
 20
-97.59989960667642
 10
54.34018010794274
 20
-97.59989960667642
 10
54.34018010794274
 20
-97.79454750159303
 10
54.34018010794274
 20
-97.79454750159303
 10
54.34018010794274
 20
-97.79454750159303
 10
53.80774060069737
 20
-97.79454750159303
 10
53.80774060069737
 20
-97.79454750159303
 10
53.80774060069737
 20
-97.79454750159303
 10
53.75089652519075
 20
-98.21760522718172
 10
53.75089652519075
 20
-98.21760522718172
 10
53.8039509956636
 20
-98.18384329142627
 10
53.87543672698254
 20
-98.14353567424884
 10
53.97775606289445
 20
-98.14353567424884
 10
54.1975531548534
 20
-98.14353567424884
 10
54.40253633622576
 20
-98.32991534000085
 10
54.40253633622576
 20
-98.64307451961007
 10
54.40253633622576
 20
-98.96036781380158
 10
54.20857746040619
 20
-99.19497881634709
 10
53.9467502035272
 20
-99.19497881634709
 97
        0
 97
        0
 75
     2
 76
     1
 98
        0
  0
ENDBLK
  5
AB
330
A8
100
AcDbEntity
  8
0
100
AcDbBlockEnd
  0
BLOCK
  5
BA
330
B8
100
AcDbEntity
  8
0
100
AcDbBlockBegin
  2
block 5
 70
     0
 10
0.0
 20
0.0
 30
0.0
  3
block 5
  1

  0
POLYLINE
  5
BC
330
B8
100
AcDbEntity
  8
_U+30EC_U+30A4_U+30E4_U+30FC 1
370
     0
100
AcDb2dPolyline
 66
     1
 10
0.0
 20
0.0
 30
0.0
  0
VERTEX
  5
BD
330
BC
100
AcDbEntity
  8
_U+30EC_U+30A4_U+30E4_U+30FC 1
370
     0
100
AcDbVertex
100
AcDb2dVertex
 10
63.39974770550423
 20
-98.79741479734926
 30
0.0
  0
VERTEX
  5
BE
330
BC
100
AcDbEntity
  8
_U+30EC_U+30A4_U+30E4_U+30FC 1
370
     0
100
AcDbVertex
100
AcDb2dVertex
 10
63.39974770550423
 20
-99.14433591271393
 30
0.0
  0
VERTEX
  5
BF
330
BC
100
AcDbEntity
  8
_U+30EC_U+30A4_U+30E4_U+30FC 1
370
     0
100
AcDbVertex
100
AcDb2dVertex
 10
63.21130098246107
 20
-99.14433591271393
 30
0.0
  0
VERTEX
  5
C0
330
BC
100
AcDbEntity
  8
_U+30EC_U+30A4_U+30E4_U+30FC 1
370
     0
100
AcDbVertex
100
AcDb2dVertex
 10
63.21130098246107
 20
-98.79741479734926
 30
0.0
  0
VERTEX
  5
C1
330
BC
100
AcDbEntity
  8
_U+30EC_U+30A4_U+30E4_U+30FC 1
370
     0
100
AcDbVertex
100
AcDb2dVertex
 10
62.64389375604042
 20
-98.79741479734926
 30
0.0
  0
VERTEX
  5
C2
330
BC
100
AcDbEntity
  8
_U+30EC_U+30A4_U+30E4_U+30FC 1
370
     0
100
AcDbVertex
100
AcDb2dVertex
 10
62.64389375604042
 20
-98.5731390812595
 30
0.0
  0
VERTEX
  5
C3
330
BC
100
AcDbEntity
  8
_U+30EC_U+30A4_U+30E4_U+30FC 1
370
     0
100
AcDbVertex
100
AcDb2dVertex
 10
63.23128253627551
 20
-97.59989960667642
 30
0.0
  0
VERTEX
  5
C4
330
BC
100
AcDbEntity
  8
_U+30EC_U+30A4_U+30E4_U+30FC 1
370
     0
100
AcDbVertex
100
AcDb2dVertex
 10
63.39974770550423
 20
-97.59989960667642
 30
0.0
  0
VERTEX
  5
C5
330
BC
100
AcDbEntity
  8
_U+30EC_U+30A4_U+30E4_U+30FC 1
370
     0
100
AcDbVertex
100
AcDb2dVertex
 10
63.39974770550423
 20
-98.59863278785035
 30
0.0
  0
VERTEX
  5
C6
330
BC
100
AcDbEntity
  8
_U+30EC_U+30A4_U+30E4_U+30FC 1
370
     0
100
AcDbVertex
100
AcDb2dVertex
 10
63.57906492551149
 20
-98.59863278785035
 30
0.0
  0
VERTEX
  5
C7
330
BC
100
AcDbEntity
  8
_U+30EC_U+30A4_U+30E4_U+30FC 1
370
     0
100
AcDbVertex
100
AcDb2dVertex
 10
63.57906492551149
 20
-98.79741479734926
 30
0.0
  0
VERTEX
  5
C8
330
BC
100
AcDbEntity
  8
_U+30EC_U+30A4_U+30E4_U+30FC 1
370
     0
100
AcDbVertex
100
AcDb2dVertex
 10
63.39974770550423
 20
-98.79741479734926
 30
0.0
  0
SEQEND
  5
C9
330
BC
100
AcDbEntity
  8
_U+30EC_U+30A4_U+30E4_U+30FC 1
370
     0
  0
POLYLINE
  5
CA
330
B8
100
AcDbEntity
  8
_U+30EC_U+30A4_U+30E4_U+30FC 1
370
     0
100
AcDb2dPolyline
 66
     1
 10
0.0
 20
0.0
 30
0.0
  0
VERTEX
  5
CB
330
CA
100
AcDbEntity
  8
_U+30EC_U+30A4_U+30E4_U+30FC 1
370
     0
100
AcDbVertex
100
AcDb2dVertex
 10
63.21130098246107
 20
-97.94268660745878
 30
0.0
  0
VERTEX
  5
CC
330
CA
100
AcDbEntity
  8
_U+30EC_U+30A4_U+30E4_U+30FC 1
370
     0
100
AcDbVertex
100
AcDb2dVertex
 10
62.81580402075438
 20
-98.59863278785035
 30
0.0
  0
VERTEX
  5
CD
330
CA
100
AcDbEntity
  8
_U+30EC_U+30A4_U+30E4_U+30FC 1
370
     0
100
AcDbVertex
100
AcDb2dVertex
 10
63.21130098246107
 20
-98.59863278785035
 30
0.0
  0
VERTEX
  5
CE
330
CA
100
AcDbEntity
  8
_U+30EC_U+30A4_U+30E4_U+30FC 1
370
     0
100
AcDbVertex
100
AcDb2dVertex
 10
63.21130098246107
 20
-97.94268660745878
 30
0.0
  0
SEQEND
  5
CF
330
CA
100
AcDbEntity
  8
_U+30EC_U+30A4_U+30E4_U+30FC 1
370
     0
  0
HATCH
  5
D0
330
B8
100
AcDbEntity
  8
_U+30EC_U+30A4_U+30E4_U+30FC 1
 62
   179
420
  2234388
100
AcDbHatch
 10
0.0
 20
0.0
 30
0.0
210
0.0
220
0.0
230
1.0
  2
SOLID
 70
     1
 71
     0
 91
        2
 92
        1
 93
       11
 72
     1
 10
63.39974770550423
 20
-98.79741479734926
 11
63.39974770550423
 21
-99.14433591271393
 72
     1
 10
63.39974770550423
 20
-99.14433591271393
 11
63.21130098246107
 21
-99.14433591271393
 72
     1
 10
63.21130098246107
 20
-99.14433591271393
 11
63.21130098246107
 21
-98.79741479734926
 72
     1
 10
63.21130098246107
 20
-98.79741479734926
 11
62.64389375604042
 21
-98.79741479734926
 72
     1
 10
62.64389375604042
 20
-98.79741479734926
 11
62.64389375604042
 21
-98.5731390812595
 72
     1
 10
62.64389375604042
 20
-98.5731390812595
 11
63.23128253627551
 21
-97.59989960667642
 72
     1
 10
63.23128253627551
 20
-97.59989960667642
 11
63.39974770550423
 21
-97.59989960667642
 72
     1
 10
63.39974770550423
 20
-97.59989960667642
 11
63.39974770550423
 21
-98.59863278785035
 72
     1
 10
63.39974770550423
 20
-98.59863278785035
 11
63.57906492551149
 21
-98.59863278785035
 72
     1
 10
63.57906492551149
 20
-98.59863278785035
 11
63.57906492551149
 21
-98.79741479734926
 72
     1
 10
63.57906492551149
 20
-98.79741479734926
 11
63.39974770550423
 21
-98.79741479734926
 97
        0
 92
        1
 93
        3
 72
     1
 10
63.21130098246107
 20
-97.94268660745878
 11
62.81580402075438
 21
-98.59863278785035
 72
     1
 10
62.81580402075438
 20
-98.59863278785035
 11
63.21130098246107
 21
-98.59863278785035
 72
     1
 10
63.21130098246107
 20
-98.59863278785035
 11
63.21130098246107
 21
-97.94268660745878
 97
        0
 75
     2
 76
     1
 98
        0
  0
ENDBLK
  5
BB
330
B8
100
AcDbEntity
  8
0
100
AcDbBlockEnd
  0
BLOCK
  5
DB
330
D9
100
AcDbEntity
  8
0
100
AcDbBlockBegin
  2
block 6
 70
     0
 10
0.0
 20
0.0
 30
0.0
  3
block 6
  1

  0
SPLINE
  5
DD
330
D9
100
AcDbEntity
  8
_U+30EC_U+30A4_U+30E4_U+30FC 1
370
     0
100
AcDbSpline
210
0.0
220
0.0
230
1.0
 70
    11
 71
     3
 72
    32
 73
    28
 74
     0
 42
0.0000000001
 43
0.0000000001
 12
1.0
 22
0.0
 32
0.0
 13
1.0
 23
0.0
 33
0.0
 40
0.0
 40
0.0
 40
0.0
 40
0.0
 40
1.0
 40
1.0
 40
1.0
 40
2.0
 40
2.0
 40
2.0
 40
3.0
 40
3.0
 40
3.0
 40
4.0
 40
4.0
 40
4.0
 40
5.0
 40
5.0
 40
5.0
 40
6.0
 40
6.0
 40
6.0
 40
7.0
 40
7.0
 40
7.0
 40
8.0
 40
8.0
 40
8.0
 40
9.0
 40
9.0
 40
9.0
 40
9.0
 10
79.64406193755427
 20
-90.82132972989884
 30
0.0
 10
79.64406193755427
 20
-90.97153589305573
 30
0.0
 10
79.57447100875221
 20
-91.18375377494712
 30
0.0
 10
79.24236380397413
 20
-91.21682669160552
 30
0.0
 10
79.24236380397413
 20
-91.21682669160552
 30
0.0
 10
79.24236380397413
 20
-91.03182506404761
 30
0.0
 10
79.24236380397413
 20
-91.03182506404761
 30
0.0
 10
79.30161944632043
 20
-91.02286781578596
 30
0.0
 10
79.44941404263766
 20
-90.99530705190395
 30
0.0
 10
79.44941404263766
 20
-90.81960718215622
 30
0.0
 10
79.44941404263766
 20
-90.5670816830874
 30
0.0
 10
79.11971840469924
 20
-90.534008766429
 30
0.0
 10
78.91439071377835
 20
-90.5229844608762
 30
0.0
 10
78.99466143858467
 20
-90.60187714748842
 30
0.0
 10
79.05185002363982
 20
-90.66044377073767
 30
0.0
 10
79.05185002363982
 20
-90.81788463441359
 30
0.0
 10
79.05185002363982
 20
-90.97325844079836
 30
0.0
 10
78.94608559224265
 20
-91.23508569767735
 30
0.0
 10
78.53990883453169
 20
-91.23508569767735
 30
0.0
 10
78.22054848304903
 20
-91.23508569767735
 30
0.0
 10
78.00040688154156
 20
-91.06317543296338
 30
0.0
 10
78.00040688154156
 20
-90.78860132278896
 30
0.0
 10
78.00040688154156
 20
-90.34383949564321
 30
0.0
 10
78.55472274511827
 20
-90.33453773783303
 30
0.0
 10
78.76831866520375
 20
-90.33453773783303
 30
0.0
 10
78.99879555316697
 20
-90.33453773783303
 30
0.0
 10
79.64406193755427
 20
-90.35107419616223
 30
0.0
 10
79.64406193755427
 20
-90.82132972989884
 30
0.0
  0
SPLINE
  5
DE
330
D9
100
AcDbEntity
  8
_U+30EC_U+30A4_U+30E4_U+30FC 1
370
     0
100
AcDbSpline
210
0.0
220
0.0
230
1.0
 70
    11
 71
     3
 72
    17
 73
    13
 74
     0
 42
0.0000000001
 43
0.0000000001
 12
1.0
 22
0.0
 32
0.0
 13
1.0
 23
0.0
 33
0.0
 40
0.0
 40
0.0
 40
0.0
 40
0.0
 40
1.0
 40
1.0
 40
1.0
 40
2.0
 40
2.0
 40
2.0
 40
3.0
 40
3.0
 40
3.0
 40
4.0
 40
4.0
 40
4.0
 40
4.0
 10
78.19298771916704
 20
-90.78653426549782
 30
0.0
 10
78.19298771916704
 20
-90.88919811095826
 30
0.0
 10
78.25017630422218
 20
-91.04112682185777
 30
0.0
 10
78.53577471994939
 20
-91.04112682185777
 30
0.0
 10
78.76211749333031
 20
-91.04112682185777
 30
0.0
 10
78.8572021287232
 20
-90.9202039703255
 30
0.0
 10
78.8572021287232
 20
-90.80307072382702
 30
0.0
 10
78.8572021287232
 20
-90.57603893134905
 30
0.0
 10
78.64774032322
 20
-90.54331052423917
 30
0.0
 10
78.53129609581858
 20
-90.54331052423917
 30
0.0
 10
78.35594073561936
 20
-90.54331052423917
 30
0.0
 10
78.19298771916704
 20
-90.62564830633664
 30
0.0
 10
78.19298771916704
 20
-90.78653426549782
 30
0.0
  0
HATCH
  5
DF
330
D9
100
AcDbEntity
  8
_U+30EC_U+30A4_U+30E4_U+30FC 1
 62
   179
420
  2234388
100
AcDbHatch
 10
0.0
 20
0.0
 30
0.0
210
0.0
220
0.0
230
1.0
  2
SOLID
 70
     1
 71
     0
 91
        2
 92
        1
 93
        1
 72
     4
 94
        3
 73
     0
 74
     1
 95
       32
 96
       28
 40
0.0
 40
0.0
 40
0.0
 40
0.0
 40
1.0
 40
1.0
 40
1.0
 40
2.0
 40
2.0
 40
2.0
 40
3.0
 40
3.0
 40
3.0
 40
4.0
 40
4.0
 40
4.0
 40
5.0
 40
5.0
 40
5.0
 40
6.0
 40
6.0
 40
6.0
 40
7.0
 40
7.0
 40
7.0
 40
8.0
 40
8.0
 40
8.0
 40
9.0
 40
9.0
 40
9.0
 40
9.0
 10
79.64406193755427
 20
-90.82132972989884
 10
79.64406193755427
 20
-90.97153589305573
 10
79.57447100875221
 20
-91.18375377494712
 10
79.24236380397413
 20
-91.21682669160552
 10
79.24236380397413
 20
-91.21682669160552
 10
79.24236380397413
 20
-91.03182506404761
 10
79.24236380397413
 20
-91.03182506404761
 10
79.30161944632043
 20
-91.02286781578596
 10
79.44941404263766
 20
-90.99530705190395
 10
79.44941404263766
 20
-90.81960718215622
 10
79.44941404263766
 20
-90.5670816830874
 10
79.11971840469924
 20
-90.534008766429
 10
78.91439071377835
 20
-90.5229844608762
 10
78.99466143858467
 20
-90.60187714748842
 10
79.05185002363982
 20
-90.66044377073767
 10
79.05185002363982
 20
-90.81788463441359
 10
79.05185002363982
 20
-90.97325844079836
 10
78.94608559224265
 20
-91.23508569767735
 10
78.53990883453169
 20
-91.23508569767735
 10
78.22054848304903
 20
-91.23508569767735
 10
78.00040688154156
 20
-91.06317543296338
 10
78.00040688154156
 20
-90.78860132278896
 10
78.00040688154156
 20
-90.34383949564321
 10
78.55472274511827
 20
-90.33453773783303
 10
78.76831866520375
 20
-90.33453773783303
 10
78.99879555316697
 20
-90.33453773783303
 10
79.64406193755427
 20
-90.35107419616223
 10
79.64406193755427
 20
-90.82132972989884
 97
        0
 97
        0
 92
        1
 93
        1
 72
     4
 94
        3
 73
     0
 74
     1
 95
       17
 96
       13
 40
0.0
 40
0.0
 40
0.0
 40
0.0
 40
1.0
 40
1.0
 40
1.0
 40
2.0
 40
2.0
 40
2.0
 40
3.0
 40
3.0
 40
3.0
 40
4.0
 40
4.0
 40
4.0
 40
4.0
 10
78.19298771916704
 20
-90.78653426549782
 10
78.19298771916704
 20
-90.88919811095826
 10
78.25017630422218
 20
-91.04112682185777
 10
78.53577471994939
 20
-91.04112682185777
 10
78.76211749333031
 20
-91.04112682185777
 10
78.8572021287232
 20
-90.9202039703255
 10
78.8572021287232
 20
-90.80307072382702
 10
78.8572021287232
 20
-90.57603893134905
 10
78.64774032322
 20
-90.54331052423917
 10
78.53129609581858
 20
-90.54331052423917
 10
78.35594073561936
 20
-90.54331052423917
 10
78.19298771916704
 20
-90.62564830633664
 10
78.19298771916704
 20
-90.78653426549782
 97
        0
 97
        0
 75
     2
 76
     1
 98
        0
  0
POLYLINE
  5
E0
330
D9
100
AcDbEntity
  8
_U+30EC_U+30A4_U+30E4_U+30FC 1
370
     0
100
AcDb2dPolyline
 66
     1
 10
0.0
 20
0.0
 30
0.0
  0
VERTEX
  5
E1
330
E0
100
AcDbEntity
  8
_U+30EC_U+30A4_U+30E4_U+30FC 1
370
     0
100
AcDbVertex
100
AcDb2dVertex
 10
79.5934190339211
 20
-90.14815807208102
 30
0.0
  0
VERTEX
  5
E2
330
E0
100
AcDbEntity
  8
_U+30EC_U+30A4_U+30E4_U+30FC 1
370
     0
100
AcDbVertex
100
AcDb2dVertex
 10
79.34158255394934
 20
-90.14815807208102
 30
0.0
  0
VERTEX
  5
E3
330
E0
100
AcDbEntity
  8
_U+30EC_U+30A4_U+30E4_U+30FC 1
370
     0
100
AcDbVertex
100
AcDb2dVertex
 10
79.34158255394934
 20
-89.93042803741324
 30
0.0
  0
VERTEX
  5
E4
330
E0
100
AcDbEntity
  8
_U+30EC_U+30A4_U+30E4_U+30FC 1
370
     0
100
AcDbVertex
100
AcDb2dVertex
 10
79.5934190339211
 20
-89.93042803741324
 30
0.0
  0
VERTEX
  5
E5
330
E0
100
AcDbEntity
  8
_U+30EC_U+30A4_U+30E4_U+30FC 1
370
     0
100
AcDbVertex
100
AcDb2dVertex
 10
79.5934190339211
 20
-90.14815807208102
 30
0.0
  0
SEQEND
  5
E6
330
E0
100
AcDbEntity
  8
_U+30EC_U+30A4_U+30E4_U+30FC 1
370
     0
  0
HATCH
  5
E7
330
D9
100
AcDbEntity
  8
_U+30EC_U+30A4_U+30E4_U+30FC 1
 62
   179
420
  2234388
100
AcDbHatch
 10
0.0
 20
0.0
 30
0.0
210
0.0
220
0.0
230
1.0
  2
SOLID
 70
     1
 71
     0
 91
        1
 92
        1
 93
        4
 72
     1
 10
79.5934190339211
 20
-90.14815807208102
 11
79.34158255394934
 21
-90.14815807208102
 72
     1
 10
79.34158255394934
 20
-90.14815807208102
 11
79.34158255394934
 21
-89.93042803741324
 72
     1
 10
79.34158255394934
 20
-89.93042803741324
 11
79.5934190339211
 21
-89.93042803741324
 72
     1
 10
79.5934190339211
 20
-89.93042803741324
 11
79.5934190339211
 21
-90.14815807208102
 97
        0
 75
     2
 76
     1
 98
        0
  0
SPLINE
  5
E8
330
D9
100
AcDbEntity
  8
_U+30EC_U+30A4_U+30E4_U+30FC 1
370
     0
100
AcDbSpline
210
0.0
220
0.0
230
1.0
 70
    11
 71
     3
 72
    26
 73
    22
 74
     0
 42
0.0000000001
 43
0.0000000001
 12
1.0
 22
0.0
 32
0.0
 13
1.0
 23
0.0
 33
0.0
 40
0.0
 40
0.0
 40
0.0
 40
0.0
 40
1.0
 40
1.0
 40
1.0
 40
2.0
 40
2.0
 40
2.0
 40
3.0
 40
3.0
 40
3.0
 40
4.0
 40
4.0
 40
4.0
 40
5.0
 40
5.0
 40
5.0
 40
6.0
 40
6.0
 40
6.0
 40
7.0
 40
7.0
 40
7.0
 40
7.0
 10
79.5934190339211
 20
-89.37060002106013
 30
0.0
 10
79.5934190339211
 20
-89.37060002106013
 30
0.0
 10
79.5934190339211
 20
-89.5755832024325
 30
0.0
 10
79.5934190339211
 20
-89.5755832024325
 30
0.0
 10
79.28439396889418
 20
-89.5535345913269
 30
0.0
 10
78.76625160791261
 20
-89.38713647938933
 30
0.0
 10
78.26051159067794
 20
-89.03573673989385
 30
0.0
 10
78.26051159067794
 20
-89.03573673989385
 30
0.0
 10
78.26051159067794
 20
-89.7605848299904
 30
0.0
 10
78.26051159067794
 20
-89.7605848299904
 30
0.0
 10
78.26051159067794
 20
-89.7605848299904
 30
0.0
 10
78.0489827278836
 20
-89.7605848299904
 30
0.0
 10
78.0489827278836
 20
-89.7605848299904
 30
0.0
 10
78.0489827278836
 20
-89.7605848299904
 30
0.0
 10
78.0489827278836
 20
-88.83075355852148
 30
0.0
 10
78.0489827278836
 20
-88.83075355852148
 30
0.0
 10
78.0489827278836
 20
-88.83075355852148
 30
0.0
 10
78.26051159067794
 20
-88.83075355852148
 30
0.0
 10
78.26051159067794
 20
-88.83075355852148
 30
0.0
 10
78.55058863053597
 20
-89.1108398214723
 30
0.0
 10
79.14280054445041
 20
-89.3413167094355
 30
0.0
 10
79.5934190339211
 20
-89.37060002106013
 30
0.0
  0
HATCH
  5
E9
330
D9
100
AcDbEntity
  8
_U+30EC_U+30A4_U+30E4_U+30FC 1
 62
   179
420
  2234388
100
AcDbHatch
 10
0.0
 20
0.0
 30
0.0
210
0.0
220
0.0
230
1.0
  2
SOLID
 70
     1
 71
     0
 91
        1
 92
        1
 93
        1
 72
     4
 94
        3
 73
     0
 74
     1
 95
       26
 96
       22
 40
0.0
 40
0.0
 40
0.0
 40
0.0
 40
1.0
 40
1.0
 40
1.0
 40
2.0
 40
2.0
 40
2.0
 40
3.0
 40
3.0
 40
3.0
 40
4.0
 40
4.0
 40
4.0
 40
5.0
 40
5.0
 40
5.0
 40
6.0
 40
6.0
 40
6.0
 40
7.0
 40
7.0
 40
7.0
 40
7.0
 10
79.5934190339211
 20
-89.37060002106013
 10
79.5934190339211
 20
-89.37060002106013
 10
79.5934190339211
 20
-89.5755832024325
 10
79.5934190339211
 20
-89.5755832024325
 10
79.28439396889418
 20
-89.5535345913269
 10
78.76625160791261
 20
-89.38713647938933
 10
78.26051159067794
 20
-89.03573673989385
 10
78.26051159067794
 20
-89.03573673989385
 10
78.26051159067794
 20
-89.7605848299904
 10
78.26051159067794
 20
-89.7605848299904
 10
78.26051159067794
 20
-89.7605848299904
 10
78.0489827278836
 20
-89.7605848299904
 10
78.0489827278836
 20
-89.7605848299904
 10
78.0489827278836
 20
-89.7605848299904
 10
78.0489827278836
 20
-88.83075355852148
 10
78.0489827278836
 20
-88.83075355852148
 10
78.0489827278836
 20
-88.83075355852148
 10
78.26051159067794
 20
-88.83075355852148
 10
78.26051159067794
 20
-88.83075355852148
 10
78.55058863053597
 20
-89.1108398214723
 10
79.14280054445041
 20
-89.3413167094355
 10
79.5934190339211
 20
-89.37060002106013
 97
        0
 97
        0
 75
     2
 76
     1
 98
        0
  0
ENDBLK
  5
DC
330
D9
100
AcDbEntity
  8
0
100
AcDbBlockEnd
  0
ENDSEC
  0
SECTION
  2
ENTITIES
  0
POLYLINE
  5
41
330
1F
100
AcDbEntity
  8
_U+30EC_U+30A4_U+30E4_U+30FC 1
 62
   179
420
  2234388
370
    25
100
AcDb2dPolyline
 66
     1
 10
0.0
 20
0.0
 30
0.0
  0
VERTEX
  5
42
330
41
100
AcDbEntity
  8
_U+30EC_U+30A4_U+30E4_U+30FC 1
 62
   179
420
  2234388
370
    25
100
AcDbVertex
100
AcDb2dVertex
 10
46.18975771049
 20
-84.04052136787864
 30
0.0
  0
VERTEX
  5
43
330
41
100
AcDbEntity
  8
_U+30EC_U+30A4_U+30E4_U+30FC 1
 62
   179
420
  2234388
370
    25
100
AcDbVertex
100
AcDb2dVertex
 10
76.1896616673509
 20
-84.04052136787864
 30
0.0
  0
SEQEND
  5
44
330
41
100
AcDbEntity
  8
_U+30EC_U+30A4_U+30E4_U+30FC 1
 62
   179
420
  2234388
370
    25
  0
POLYLINE
  5
45
330
1F
100
AcDbEntity
  8
_U+30EC_U+30A4_U+30E4_U+30FC 1
 62
   179
420
  2234388
370
    25
100
AcDb2dPolyline
 66
     1
 10
0.0
 20
0.0
 30
0.0
  0
VERTEX
  5
46
330
45
100
AcDbEntity
  8
_U+30EC_U+30A4_U+30E4_U+30FC 1
 62
   179
420
  2234388
370
    25
100
AcDbVertex
100
AcDb2dVertex
 10
46.18975771049
 20
-85.04029358985119
 30
0.0
  0
VERTEX
  5
47
330
45
100
AcDbEntity
  8
_U+30EC_U+30A4_U+30E4_U+30FC 1
 62
   179
420
  2234388
370
    25
100
AcDbVertex
100
AcDb2dVertex
 10
61.18972732780889
 20
-85.04029358985119
 30
0.0
  0
SEQEND
  5
48
330
45
100
AcDbEntity
  8
_U+30EC_U+30A4_U+30E4_U+30FC 1
 62
   179
420
  2234388
370
    25
  0
POLYLINE
  5
49
330
1F
100
AcDbEntity
  8
_U+30EC_U+30A4_U+30E4_U+30FC 1
 62
   179
420
  2234388
370
    25
100
AcDb2dPolyline
 66
     1
 10
0.0
 20
0.0
 30
0.0
  0
VERTEX
  5
4A
330
49
100
AcDbEntity
  8
_U+30EC_U+30A4_U+30E4_U+30FC 1
 62
   179
420
  2234388
370
    25
100
AcDbVertex
100
AcDb2dVertex
 10
62.1898170245167
 20
-85.04029358985119
 30
0.0
  0
VERTEX
  5
4B
330
49
100
AcDbEntity
  8
_U+30EC_U+30A4_U+30E4_U+30FC 1
 62
   179
420
  2234388
370
    25
100
AcDbVertex
100
AcDb2dVertex
 10
76.1896616673509
 20
-85.04029358985119
 30
0.0
  0
SEQEND
  5
4C
330
49
100
AcDbEntity
  8
_U+30EC_U+30A4_U+30E4_U+30FC 1
 62
   179
420
  2234388
370
    25
  0
POLYLINE
  5
4D
330
1F
100
AcDbEntity
  8
_U+30EC_U+30A4_U+30E4_U+30FC 1
 62
   179
420
  2234388
370
    25
100
AcDb2dPolyline
 66
     1
 10
0.0
 20
0.0
 30
0.0
  0
VERTEX
  5
4E
330
4D
100
AcDbEntity
  8
_U+30EC_U+30A4_U+30E4_U+30FC 1
 62
   179
420
  2234388
370
    25
100
AcDbVertex
100
AcDb2dVertex
 10
46.18975771049
 20
-84.04052136787864
 30
0.0
  0
VERTEX
  5
4F
330
4D
100
AcDbEntity
  8
_U+30EC_U+30A4_U+30E4_U+30FC 1
 62
   179
420
  2234388
370
    25
100
AcDbVertex
100
AcDb2dVertex
 10
46.18975771049
 20
-85.04029358985119
 30
0.0
  0
SEQEND
  5
50
330
4D
100
AcDbEntity
  8
_U+30EC_U+30A4_U+30E4_U+30FC 1
 62
   179
420
  2234388
370
    25
  0
POLYLINE
  5
51
330
1F
100
AcDbEntity
  8
_U+30EC_U+30A4_U+30E4_U+30FC 1
 62
   179
420
  2234388
370
    25
100
AcDb2dPolyline
 66
     1
 10
0.0
 20
0.0
 30
0.0
  0
VERTEX
  5
52
330
51
100
AcDbEntity
  8
_U+30EC_U+30A4_U+30E4_U+30FC 1
 62
   179
420
  2234388
370
    25
100
AcDbVertex
100
AcDb2dVertex
 10
76.1896616673509
 20
-84.04052136787864
 30
0.0
  0
VERTEX
  5
53
330
51
100
AcDbEntity
  8
_U+30EC_U+30A4_U+30E4_U+30FC 1
 62
   179
420
  2234388
370
    25
100
AcDbVertex
100
AcDb2dVertex
 10
76.1896616673509
 20
-85.04029358985119
 30
0.0
  0
SEQEND
  5
54
330
51
100
AcDbEntity
  8
_U+30EC_U+30A4_U+30E4_U+30FC 1
 62
   179
420
  2234388
370
    25
  0
POLYLINE
  5
55
330
1F
100
AcDbEntity
  8
_U+30EC_U+30A4_U+30E4_U+30FC 1
 62
   179
420
  2234388
370
    25
100
AcDb2dPolyline
 66
     1
 10
0.0
 20
0.0
 30
0.0
  0
VERTEX
  5
56
330
55
100
AcDbEntity
  8
_U+30EC_U+30A4_U+30E4_U+30FC 1
 62
   179
420
  2234388
370
    25
100
AcDbVertex
100
AcDb2dVertex
 10
62.1898170245167
 20
-94.74048303187072
 30
0.0
  0
VERTEX
  5
57
330
55
100
AcDbEntity
  8
_U+30EC_U+30A4_U+30E4_U+30FC 1
 62
   179
420
  2234388
370
    25
100
AcDbVertex
100
AcDb2dVertex
 10
65.18980553925842
 20
-94.74048303187072
 30
0.0
  0
SEQEND
  5
58
330
55
100
AcDbEntity
  8
_U+30EC_U+30A4_U+30E4_U+30FC 1
 62
   179
420
  2234388
370
    25
  0
POLYLINE
  5
59
330
1F
100
AcDbEntity
  8
_U+30EC_U+30A4_U+30E4_U+30FC 1
 62
   179
420
  2234388
370
    25
100
AcDb2dPolyline
 66
     1
 10
0.0
 20
0.0
 30
0.0
  0
VERTEX
  5
5A
330
59
100
AcDbEntity
  8
_U+30EC_U+30A4_U+30E4_U+30FC 1
 62
   179
420
  2234388
370
    25
100
AcDbVertex
100
AcDb2dVertex
 10
61.18972732780889
 20
-85.04029358985119
 30
0.0
  0
VERTEX
  5
5B
330
59
100
AcDbEntity
  8
_U+30EC_U+30A4_U+30E4_U+30FC 1
 62
   179
420
  2234388
370
    25
100
AcDbVertex
100
AcDb2dVertex
 10
61.18972732780889
 20
-95.74057275384286
 30
0.0
  0
SEQEND
  5
5C
330
59
100
AcDbEntity
  8
_U+30EC_U+30A4_U+30E4_U+30FC 1
 62
   179
420
  2234388
370
    25
  0
POLYLINE
  5
5D
330
1F
100
AcDbEntity
  8
_U+30EC_U+30A4_U+30E4_U+30FC 1
 62
   179
420
  2234388
370
    25
100
AcDb2dPolyline
 66
     1
 10
0.0
 20
0.0
 30
0.0
  0
VERTEX
  5
5E
330
5D
100
AcDbEntity
  8
_U+30EC_U+30A4_U+30E4_U+30FC 1
 62
   179
420
  2234388
370
    25
100
AcDbVertex
100
AcDb2dVertex
 10
62.1898170245167
 20
-85.04029358985119
 30
0.0
  0
VERTEX
  5
5F
330
5D
100
AcDbEntity
  8
_U+30EC_U+30A4_U+30E4_U+30FC 1
 62
   179
420
  2234388
370
    25
100
AcDbVertex
100
AcDb2dVertex
 10
62.1898170245167
 20
-94.74048303187072
 30
0.0
  0
SEQEND
  5
60
330
5D
100
AcDbEntity
  8
_U+30EC_U+30A4_U+30E4_U+30FC 1
 62
   179
420
  2234388
370
    25
  0
POLYLINE
  5
61
330
1F
100
AcDbEntity
  8
_U+30EC_U+30A4_U+30E4_U+30FC 1
 62
   179
420
  2234388
370
    25
100
AcDb2dPolyline
 66
     1
 10
0.0
 20
0.0
 30
0.0
  0
VERTEX
  5
62
330
61
100
AcDbEntity
  8
_U+30EC_U+30A4_U+30E4_U+30FC 1
 62
   179
420
  2234388
370
    25
100
AcDbVertex
100
AcDb2dVertex
 10
65.18980553925842
 20
-94.74048303187072
 30
0.0
  0
VERTEX
  5
63
330
61
100
AcDbEntity
  8
_U+30EC_U+30A4_U+30E4_U+30FC 1
 62
   179
420
  2234388
370
    25
100
AcDbVertex
100
AcDb2dVertex
 10
65.18980553925842
 20
-95.74057275384286
 30
0.0
  0
SEQEND
  5
64
330
61
100
AcDbEntity
  8
_U+30EC_U+30A4_U+30E4_U+30FC 1
 62
   179
420
  2234388
370
    25
  0
POLYLINE
  5
65
330
1F
100
AcDbEntity
  8
_U+30EC_U+30A4_U+30E4_U+30FC 1
 62
   179
420
  2234388
370
    25
100
AcDb2dPolyline
 66
     1
 10
0.0
 20
0.0
 30
0.0
  0
VERTEX
  5
66
330
65
100
AcDbEntity
  8
_U+30EC_U+30A4_U+30E4_U+30FC 1
 62
   179
420
  2234388
370
    25
100
AcDbVertex
100
AcDb2dVertex
 10
61.18972732780889
 20
-95.74057275384286
 30
0.0
  0
VERTEX
  5
67
330
65
100
AcDbEntity
  8
_U+30EC_U+30A4_U+30E4_U+30FC 1
 62
   179
420
  2234388
370
    25
100
AcDbVertex
100
AcDb2dVertex
 10
65.18980553925842
 20
-95.74057275384286
 30
0.0
  0
SEQEND
  5
68
330
65
100
AcDbEntity
  8
_U+30EC_U+30A4_U+30E4_U+30FC 1
 62
   179
420
  2234388
370
    25
  0
SPLINE
  5
69
330
1F
100
AcDbEntity
  8
_U+30EC_U+30A4_U+30E4_U+30FC 1
 62
   179
420
  2234388
370
     9
100
AcDbSpline
210
0.0
220
0.0
230
1.0
 70
    11
 71
     3
 72
    17
 73
    13
 74
     0
 42
0.0000000001
 43
0.0000000001
 12
1.0
 22
0.0
 32
0.0
 13
1.0
 23
0.0
 33
0.0
 40
0.0
 40
0.0
 40
0.0
 40
0.0
 40
1.0
 40
1.0
 40
1.0
 40
2.0
 40
2.0
 40
2.0
 40
3.0
 40
3.0
 40
3.0
 40
4.0
 40
4.0
 40
4.0
 40
4.0
 10
80.28968017386183
 20
-84.04052136787864
 30
0.0
 10
80.28968017386183
 20
-83.98506470122597
 30
0.0
 10
80.24487739722707
 20
-83.94026192345925
 30
0.0
 10
80.189773509744
 20
-83.94026192345925
 30
0.0
 10
80.13463434448404
 20
-83.94026192345925
 30
0.0
 10
80.08986684562616
 20
-83.98506470122597
 30
0.0
 10
80.08986684562616
 20
-84.04052136787864
 30
0.0
 10
80.08986684562616
 20
-84.09562525675388
 30
0.0
 10
80.13463434448404
 20
-84.1404280345206
 30
0.0
 10
80.189773509744
 20
-84.1404280345206
 30
0.0
 10
80.24487739722707
 20
-84.1404280345206
 30
0.0
 10
80.28968017386183
 20
-84.09562525675388
 30
0.0
 10
80.28968017386183
 20
-84.04052136787864
 30
0.0
  0
SPLINE
  5
6A
330
1F
100
AcDbEntity
  8
_U+30EC_U+30A4_U+30E4_U+30FC 1
 62
   179
420
  2234388
370
     9
100
AcDbSpline
210
0.0
220
0.0
230
1.0
 70
    11
 71
     3
 72
    17
 73
    13
 74
     0
 42
0.0000000001
 43
0.0000000001
 12
1.0
 22
0.0
 32
0.0
 13
1.0
 23
0.0
 33
0.0
 40
0.0
 40
0.0
 40
0.0
 40
0.0
 40
1.0
 40
1.0
 40
1.0
 40
2.0
 40
2.0
 40
2.0
 40
3.0
 40
3.0
 40
3.0
 40
4.0
 40
4.0
 40
4.0
 40
4.0
 10
80.28968017386183
 20
-85.04029358985119
 30
0.0
 10
80.28968017386183
 20
-84.98515442319811
 30
0.0
 10
80.24487739722707
 20
-84.94038692320922
 30
0.0
 10
80.189773509744
 20
-84.94038692320922
 30
0.0
 10
80.13463434448404
 20
-84.94038692320922
 30
0.0
 10
80.08986684562616
 20
-84.98515442319811
 30
0.0
 10
80.08986684562616
 20
-85.04029358985119
 30
0.0
 10
80.08986684562616
 20
-85.0953974787261
 30
0.0
 10
80.13463434448404
 20
-85.14020025649282
 30
0.0
 10
80.189773509744
 20
-85.14020025649282
 30
0.0
 10
80.24487739722707
 20
-85.14020025649282
 30
0.0
 10
80.28968017386183
 20
-85.0953974787261
 30
0.0
 10
80.28968017386183
 20
-85.04029358985119
 30
0.0
  0
SPLINE
  5
6B
330
1F
100
AcDbEntity
  8
_U+30EC_U+30A4_U+30E4_U+30FC 1
 62
   179
420
  2234388
370
     9
100
AcDbSpline
210
0.0
220
0.0
230
1.0
 70
    11
 71
     3
 72
    17
 73
    13
 74
     0
 42
0.0000000001
 43
0.0000000001
 12
1.0
 22
0.0
 32
0.0
 13
1.0
 23
0.0
 33
0.0
 40
0.0
 40
0.0
 40
0.0
 40
0.0
 40
1.0
 40
1.0
 40
1.0
 40
2.0
 40
2.0
 40
2.0
 40
3.0
 40
3.0
 40
3.0
 40
4.0
 40
4.0
 40
4.0
 40
4.0
 10
46.28966437460783
 20
-80.04009192443439
 30
0.0
 10
46.28966437460783
 20
-79.98495275778164
 30
0.0
 10
46.24489687574994
 20
-79.94018525779276
 30
0.0
 10
46.18975771049
 20
-79.94018525779276
 30
0.0
 10
46.13465382300692
 20
-79.94018525779276
 30
0.0
 10
46.08985104637216
 20
-79.98495275778164
 30
0.0
 10
46.08985104637216
 20
-80.04009192443439
 30
0.0
 10
46.08985104637216
 20
-80.09554859108708
 30
0.0
 10
46.13465382300692
 20
-80.14031609107596
 30
0.0
 10
46.18975771049
 20
-80.14031609107596
 30
0.0
 10
46.24489687574994
 20
-80.14031609107596
 30
0.0
 10
46.28966437460783
 20
-80.09554859108708
 30
0.0
 10
46.28966437460783
 20
-80.04009192443439
 30
0.0
  0
SPLINE
  5
6C
330
1F
100
AcDbEntity
  8
_U+30EC_U+30A4_U+30E4_U+30FC 1
 62
   179
420
  2234388
370
     9
100
AcDbSpline
210
0.0
220
0.0
230
1.0
 70
    11
 71
     3
 72
    17
 73
    13
 74
     0
 42
0.0000000001
 43
0.0000000001
 12
1.0
 22
0.0
 32
0.0
 13
1.0
 23
0.0
 33
0.0
 40
0.0
 40
0.0
 40
0.0
 40
0.0
 40
1.0
 40
1.0
 40
1.0
 40
2.0
 40
2.0
 40
2.0
 40
3.0
 40
3.0
 40
3.0
 40
4.0
 40
4.0
 40
4.0
 40
4.0
 10
76.28992110923753
 20
-80.04009192443439
 30
0.0
 10
76.28992110923753
 20
-79.98495275778164
 30
0.0
 10
76.24511833260276
 20
-79.94018525779276
 30
0.0
 10
76.1896616673509
 20
-79.94018525779276
 30
0.0
 10
76.13455777986783
 20
-79.94018525779276
 30
0.0
 10
76.08975500323307
 20
-79.98495275778164
 30
0.0
 10
76.08975500323307
 20
-80.04009192443439
 30
0.0
 10
76.08975500323307
 20
-80.09554859108708
 30
0.0
 10
76.13455777986783
 20
-80.14031609107596
 30
0.0
 10
76.1896616673509
 20
-80.14031609107596
 30
0.0
 10
76.24511833260276
 20
-80.14031609107596
 30
0.0
 10
76.28992110923753
 20
-80.09554859108708
 30
0.0
 10
76.28992110923753
 20
-80.04009192443439
 30
0.0
  0
SPLINE
  5
6D
330
1F
100
AcDbEntity
  8
_U+30EC_U+30A4_U+30E4_U+30FC 1
 62
   179
420
  2234388
370
     9
100
AcDbSpline
210
0.0
220
0.0
230
1.0
 70
    11
 71
     3
 72
    17
 73
    13
 74
     0
 42
0.0000000001
 43
0.0000000001
 12
1.0
 22
0.0
 32
0.0
 13
1.0
 23
0.0
 33
0.0
 40
0.0
 40
0.0
 40
0.0
 40
0.0
 40
1.0
 40
1.0
 40
1.0
 40
2.0
 40
2.0
 40
2.0
 40
3.0
 40
3.0
 40
3.0
 40
4.0
 40
4.0
 40
4.0
 40
4.0
 10
80.28968017386183
 20
-94.74048303187072
 30
0.0
 10
80.28968017386183
 20
-94.68534386521765
 30
0.0
 10
80.24487739722707
 20
-94.64057636522844
 30
0.0
 10
80.189773509744
 20
-94.64057636522844
 30
0.0
 10
80.13463434448404
 20
-94.64057636522844
 30
0.0
 10
80.08986684562616
 20
-94.68534386521765
 30
0.0
 10
80.08986684562616
 20
-94.74048303187072
 30
0.0
 10
80.08986684562616
 20
-94.79558692074563
 30
0.0
 10
80.13463434448404
 20
-94.84038969851235
 30
0.0
 10
80.189773509744
 20
-94.84038969851235
 30
0.0
 10
80.24487739722707
 20
-94.84038969851235
 30
0.0
 10
80.28968017386183
 20
-94.79558692074563
 30
0.0
 10
80.28968017386183
 20
-94.74048303187072
 30
0.0
  0
SPLINE
  5
6E
330
1F
100
AcDbEntity
  8
_U+30EC_U+30A4_U+30E4_U+30FC 1
 62
   179
420
  2234388
370
     9
100
AcDbSpline
210
0.0
220
0.0
230
1.0
 70
    11
 71
     3
 72
    17
 73
    13
 74
     0
 42
0.0000000001
 43
0.0000000001
 12
1.0
 22
0.0
 32
0.0
 13
1.0
 23
0.0
 33
0.0
 40
0.0
 40
0.0
 40
0.0
 40
0.0
 40
1.0
 40
1.0
 40
1.0
 40
2.0
 40
2.0
 40
2.0
 40
3.0
 40
3.0
 40
3.0
 40
4.0
 40
4.0
 40
4.0
 40
4.0
 10
65.28971055654294
 20
-99.7403319195091
 30
0.0
 10
65.28971055654294
 20
-99.68522803063419
 30
0.0
 10
65.24494305768505
 20
-99.64042525286747
 30
0.0
 10
65.18980553925842
 20
-99.64042525286747
 30
0.0
 10
65.13470000494203
 20
-99.64042525286747
 30
0.0
 10
65.08989722830727
 20
-99.68522803063419
 30
0.0
 10
65.08989722830727
 20
-99.7403319195091
 30
0.0
 10
65.08989722830727
 20
-99.79578858616243
 30
0.0
 10
65.13470000494203
 20
-99.84059136392851
 30
0.0
 10
65.18980553925842
 20
-99.84059136392851
 30
0.0
 10
65.24494305768505
 20
-99.84059136392851
 30
0.0
 10
65.28971055654294
 20
-99.79578858616243
 30
0.0
 10
65.28971055654294
 20
-99.7403319195091
 30
0.0
  0
SPLINE
  5
6F
330
1F
100
AcDbEntity
  8
_U+30EC_U+30A4_U+30E4_U+30FC 1
 62
   179
420
  2234388
370
     9
100
AcDbSpline
210
0.0
220
0.0
230
1.0
 70
    11
 71
     3
 72
    17
 73
    13
 74
     0
 42
0.0000000001
 43
0.0000000001
 12
1.0
 22
0.0
 32
0.0
 13
1.0
 23
0.0
 33
0.0
 40
0.0
 40
0.0
 40
0.0
 40
0.0
 40
1.0
 40
1.0
 40
1.0
 40
2.0
 40
2.0
 40
2.0
 40
3.0
 40
3.0
 40
3.0
 40
4.0
 40
4.0
 40
4.0
 40
4.0
 10
61.2899867696955
 20
-99.7403319195091
 30
0.0
 10
61.2899867696955
 20
-99.68522803063419
 30
0.0
 10
61.24518399306074
 20
-99.64042525286747
 30
0.0
 10
61.18972732780889
 20
-99.64042525286747
 30
0.0
 10
61.13458816254894
 20
-99.64042525286747
 30
0.0
 10
61.08982220694965
 20
-99.68522803063419
 30
0.0
 10
61.08982220694965
 20
-99.7403319195091
 30
0.0
 10
61.08982220694965
 20
-99.79578858616243
 30
0.0
 10
61.13458816254894
 20
-99.84059136392851
 30
0.0
 10
61.18972732780889
 20
-99.84059136392851
 30
0.0
 10
61.24518399306074
 20
-99.84059136392851
 30
0.0
 10
61.2899867696955
 20
-99.79578858616243
 30
0.0
 10
61.2899867696955
 20
-99.7403319195091
 30
0.0
  0
SPLINE
  5
70
330
1F
100
AcDbEntity
  8
_U+30EC_U+30A4_U+30E4_U+30FC 1
 62
   179
420
  2234388
370
     9
100
AcDbSpline
210
0.0
220
0.0
230
1.0
 70
    11
 71
     3
 72
    17
 73
    13
 74
     0
 42
0.0000000001
 43
0.0000000001
 12
1.0
 22
0.0
 32
0.0
 13
1.0
 23
0.0
 33
0.0
 40
0.0
 40
0.0
 40
0.0
 40
0.0
 40
1.0
 40
1.0
 40
1.0
 40
2.0
 40
2.0
 40
2.0
 40
3.0
 40
3.0
 40
3.0
 40
4.0
 40
4.0
 40
4.0
 40
4.0
 10
46.28966437460783
 20
-99.7403319195091
 30
0.0
 10
46.28966437460783
 20
-99.68522803063419
 30
0.0
 10
46.24489687574994
 20
-99.64042525286747
 30
0.0
 10
46.18975771049
 20
-99.64042525286747
 30
0.0
 10
46.13465382300692
 20
-99.64042525286747
 30
0.0
 10
46.08985104637216
 20
-99.68522803063419
 30
0.0
 10
46.08985104637216
 20
-99.7403319195091
 30
0.0
 10
46.08985104637216
 20
-99.79578858616243
 30
0.0
 10
46.13465382300692
 20
-99.84059136392851
 30
0.0
 10
46.18975771049
 20
-99.84059136392851
 30
0.0
 10
46.24489687574994
 20
-99.84059136392851
 30
0.0
 10
46.28966437460783
 20
-99.79578858616243
 30
0.0
 10
46.28966437460783
 20
-99.7403319195091
 30
0.0
  0
POLYLINE
  5
71
330
1F
100
AcDbEntity
  8
_U+30EC_U+30A4_U+30E4_U+30FC 1
 62
   179
420
  2234388
370
     9
100
AcDb2dPolyline
 66
     1
 10
0.0
 20
0.0
 30
0.0
  0
VERTEX
  5
72
330
71
100
AcDbEntity
  8
_U+30EC_U+30A4_U+30E4_U+30FC 1
 62
   179
420
  2234388
370
     9
100
AcDbVertex
100
AcDb2dVertex
 10
80.189773509744
 20
-84.04052136787864
 30
0.0
  0
VERTEX
  5
73
330
71
100
AcDbEntity
  8
_U+30EC_U+30A4_U+30E4_U+30FC 1
 62
   179
420
  2234388
370
     9
100
AcDbVertex
100
AcDb2dVertex
 10
80.189773509744
 20
-80.27020886882121
 30
0.0
  0
SEQEND
  5
74
330
71
100
AcDbEntity
  8
_U+30EC_U+30A4_U+30E4_U+30FC 1
 62
   179
420
  2234388
370
     9
  0
POLYLINE
  5
75
330
1F
100
AcDbEntity
  8
_U+30EC_U+30A4_U+30E4_U+30FC 1
 62
   179
420
  2234388
370
     9
100
AcDb2dPolyline
 66
     1
 10
0.0
 20
0.0
 30
0.0
  0
VERTEX
  5
76
330
75
100
AcDbEntity
  8
_U+30EC_U+30A4_U+30E4_U+30FC 1
 62
   179
420
  2234388
370
     9
100
AcDbVertex
100
AcDb2dVertex
 10
80.189773509744
 20
-84.04052136787864
 30
0.0
  0
VERTEX
  5
77
330
75
100
AcDbEntity
  8
_U+30EC_U+30A4_U+30E4_U+30FC 1
 62
   179
420
  2234388
370
     9
100
AcDbVertex
100
AcDb2dVertex
 10
80.189773509744
 20
-85.04029358985119
 30
0.0
  0
SEQEND
  5
78
330
75
100
AcDbEntity
  8
_U+30EC_U+30A4_U+30E4_U+30FC 1
 62
   179
420
  2234388
370
     9
  0
POLYLINE
  5
79
330
1F
100
AcDbEntity
  8
_U+30EC_U+30A4_U+30E4_U+30FC 1
 62
   179
420
  2234388
370
     9
100
AcDb2dPolyline
 66
     1
 10
0.0
 20
0.0
 30
0.0
  0
VERTEX
  5
7A
330
79
100
AcDbEntity
  8
_U+30EC_U+30A4_U+30E4_U+30FC 1
 62
   179
420
  2234388
370
     9
100
AcDbVertex
100
AcDb2dVertex
 10
78.72973215810386
 20
-84.04052136787864
 30
0.0
  0
VERTEX
  5
7B
330
79
100
AcDbEntity
  8
_U+30EC_U+30A4_U+30E4_U+30FC 1
 62
   179
420
  2234388
370
     9
100
AcDbVertex
100
AcDb2dVertex
 10
81.1898632064518
 20
-84.04052136787864
 30
0.0
  0
SEQEND
  5
7C
330
79
100
AcDbEntity
  8
_U+30EC_U+30A4_U+30E4_U+30FC 1
 62
   179
420
  2234388
370
     9
  0
POLYLINE
  5
7D
330
1F
100
AcDbEntity
  8
_U+30EC_U+30A4_U+30E4_U+30FC 1
 62
   179
420
  2234388
370
     9
100
AcDb2dPolyline
 66
     1
 10
0.0
 20
0.0
 30
0.0
  0
VERTEX
  5
7E
330
7D
100
AcDbEntity
  8
_U+30EC_U+30A4_U+30E4_U+30FC 1
 62
   179
420
  2234388
370
     9
100
AcDbVertex
100
AcDb2dVertex
 10
78.72973215810386
 20
-85.04029358985119
 30
0.0
  0
VERTEX
  5
7F
330
7D
100
AcDbEntity
  8
_U+30EC_U+30A4_U+30E4_U+30FC 1
 62
   179
420
  2234388
370
     9
100
AcDbVertex
100
AcDb2dVertex
 10
81.1898632064518
 20
-85.04029358985119
 30
0.0
  0
SEQEND
  5
80
330
7D
100
AcDbEntity
  8
_U+30EC_U+30A4_U+30E4_U+30FC 1
 62
   179
420
  2234388
370
     9
  0
INSERT
  5
82
330
1F
100
AcDbEntity
  8
_U+30EC_U+30A4_U+30E4_U+30FC 1
100
AcDbBlockReference
  2
block 2
 10
0.0
 20
0.0
 30
0.0
  0
POLYLINE
  5
87
330
1F
100
AcDbEntity
  8
_U+30EC_U+30A4_U+30E4_U+30FC 1
 62
   179
420
  2234388
370
     9
100
AcDb2dPolyline
 66
     1
 10
0.0
 20
0.0
 30
0.0
  0
VERTEX
  5
88
330
87
100
AcDbEntity
  8
_U+30EC_U+30A4_U+30E4_U+30FC 1
 62
   179
420
  2234388
370
     9
100
AcDbVertex
100
AcDb2dVertex
 10
46.18975771049
 20
-80.04009192443439
 30
0.0
  0
VERTEX
  5
89
330
87
100
AcDbEntity
  8
_U+30EC_U+30A4_U+30E4_U+30FC 1
 62
   179
420
  2234388
370
     9
100
AcDbVertex
100
AcDb2dVertex
 10
76.1896616673509
 20
-80.04009192443439
 30
0.0
  0
SEQEND
  5
8A
330
87
100
AcDbEntity
  8
_U+30EC_U+30A4_U+30E4_U+30FC 1
 62
   179
420
  2234388
370
     9
  0
POLYLINE
  5
8B
330
1F
100
AcDbEntity
  8
_U+30EC_U+30A4_U+30E4_U+30FC 1
 62
   179
420
  2234388
370
     9
100
AcDb2dPolyline
 66
     1
 10
0.0
 20
0.0
 30
0.0
  0
VERTEX
  5
8C
330
8B
100
AcDbEntity
  8
_U+30EC_U+30A4_U+30E4_U+30FC 1
 62
   179
420
  2234388
370
     9
100
AcDbVertex
100
AcDb2dVertex
 10
46.18975771049
 20
-81.50009803518059
 30
0.0
  0
VERTEX
  5
8D
330
8B
100
AcDbEntity
  8
_U+30EC_U+30A4_U+30E4_U+30FC 1
 62
   179
420
  2234388
370
     9
100
AcDbVertex
100
AcDb2dVertex
 10
46.18975771049
 20
-79.04031970246217
 30
0.0
  0
SEQEND
  5
8E
330
8B
100
AcDbEntity
  8
_U+30EC_U+30A4_U+30E4_U+30FC 1
 62
   179
420
  2234388
370
     9
  0
POLYLINE
  5
8F
330
1F
100
AcDbEntity
  8
_U+30EC_U+30A4_U+30E4_U+30FC 1
 62
   179
420
  2234388
370
     9
100
AcDb2dPolyline
 66
     1
 10
0.0
 20
0.0
 30
0.0
  0
VERTEX
  5
90
330
8F
100
AcDbEntity
  8
_U+30EC_U+30A4_U+30E4_U+30FC 1
 62
   179
420
  2234388
370
     9
100
AcDbVertex
100
AcDb2dVertex
 10
76.1896616673509
 20
-81.50009803518059
 30
0.0
  0
VERTEX
  5
91
330
8F
100
AcDbEntity
  8
_U+30EC_U+30A4_U+30E4_U+30FC 1
 62
   179
420
  2234388
370
     9
100
AcDbVertex
100
AcDb2dVertex
 10
76.1896616673509
 20
-79.04031970246217
 30
0.0
  0
SEQEND
  5
92
330
8F
100
AcDbEntity
  8
_U+30EC_U+30A4_U+30E4_U+30FC 1
 62
   179
420
  2234388
370
     9
  0
INSERT
  5
94
330
1F
100
AcDbEntity
  8
_U+30EC_U+30A4_U+30E4_U+30FC 1
100
AcDbBlockReference
  2
block 3
 10
0.0
 20
0.0
 30
0.0
  0
POLYLINE
  5
9C
330
1F
100
AcDbEntity
  8
_U+30EC_U+30A4_U+30E4_U+30FC 1
 62
   179
420
  2234388
370
     9
100
AcDb2dPolyline
 66
     1
 10
0.0
 20
0.0
 30
0.0
  0
VERTEX
  5
9D
330
9C
100
AcDbEntity
  8
_U+30EC_U+30A4_U+30E4_U+30FC 1
 62
   179
420
  2234388
370
     9
100
AcDbVertex
100
AcDb2dVertex
 10
46.18975771049
 20
-99.7403319195091
 30
0.0
  0
VERTEX
  5
9E
330
9C
100
AcDbEntity
  8
_U+30EC_U+30A4_U+30E4_U+30FC 1
 62
   179
420
  2234388
370
     9
100
AcDbVertex
100
AcDb2dVertex
 10
61.18972732780889
 20
-99.7403319195091
 30
0.0
  0
SEQEND
  5
9F
330
9C
100
AcDbEntity
  8
_U+30EC_U+30A4_U+30E4_U+30FC 1
 62
   179
420
  2234388
370
     9
  0
POLYLINE
  5
A0
330
1F
100
AcDbEntity
  8
_U+30EC_U+30A4_U+30E4_U+30FC 1
 62
   179
420
  2234388
370
     9
100
AcDb2dPolyline
 66
     1
 10
0.0
 20
0.0
 30
0.0
  0
VERTEX
  5
A1
330
A0
100
AcDbEntity
  8
_U+30EC_U+30A4_U+30E4_U+30FC 1
 62
   179
420
  2234388
370
     9
100
AcDbVertex
100
AcDb2dVertex
 10
46.18975771049
 20
-87.58036414477148
 30
0.0
  0
VERTEX
  5
A2
330
A0
100
AcDbEntity
  8
_U+30EC_U+30A4_U+30E4_U+30FC 1
 62
   179
420
  2234388
370
     9
100
AcDbVertex
100
AcDb2dVertex
 10
46.18975771049
 20
-100.7404569192594
 30
0.0
  0
SEQEND
  5
A3
330
A0
100
AcDbEntity
  8
_U+30EC_U+30A4_U+30E4_U+30FC 1
 62
   179
420
  2234388
370
     9
  0
POLYLINE
  5
A4
330
1F
100
AcDbEntity
  8
_U+30EC_U+30A4_U+30E4_U+30FC 1
 62
   179
420
  2234388
370
     9
100
AcDb2dPolyline
 66
     1
 10
0.0
 20
0.0
 30
0.0
  0
VERTEX
  5
A5
330
A4
100
AcDbEntity
  8
_U+30EC_U+30A4_U+30E4_U+30FC 1
 62
   179
420
  2234388
370
     9
100
AcDbVertex
100
AcDb2dVertex
 10
61.18972732780889
 20
-98.28064330876316
 30
0.0
  0
VERTEX
  5
A6
330
A4
100
AcDbEntity
  8
_U+30EC_U+30A4_U+30E4_U+30FC 1
 62
   179
420
  2234388
370
     9
100
AcDbVertex
100
AcDb2dVertex
 10
61.18972732780889
 20
-100.7404569192594
 30
0.0
  0
SEQEND
  5
A7
330
A4
100
AcDbEntity
  8
_U+30EC_U+30A4_U+30E4_U+30FC 1
 62
   179
420
  2234388
370
     9
  0
INSERT
  5
A9
330
1F
100
AcDbEntity
  8
_U+30EC_U+30A4_U+30E4_U+30FC 1
100
AcDbBlockReference
  2
block 4
 10
0.0
 20
0.0
 30
0.0
  0
POLYLINE
  5
B0
330
1F
100
AcDbEntity
  8
_U+30EC_U+30A4_U+30E4_U+30FC 1
 62
   179
420
  2234388
370
     9
100
AcDb2dPolyline
 66
     1
 10
0.0
 20
0.0
 30
0.0
  0
VERTEX
  5
B1
330
B0
100
AcDbEntity
  8
_U+30EC_U+30A4_U+30E4_U+30FC 1
 62
   179
420
  2234388
370
     9
100
AcDbVertex
100
AcDb2dVertex
 10
61.18972732780889
 20
-99.7403319195091
 30
0.0
  0
VERTEX
  5
B2
330
B0
100
AcDbEntity
  8
_U+30EC_U+30A4_U+30E4_U+30FC 1
 62
   179
420
  2234388
370
     9
100
AcDbVertex
100
AcDb2dVertex
 10
65.18980553925842
 20
-99.7403319195091
 30
0.0
  0
SEQEND
  5
B3
330
B0
100
AcDbEntity
  8
_U+30EC_U+30A4_U+30E4_U+30FC 1
 62
   179
420
  2234388
370
     9
  0
POLYLINE
  5
B4
330
1F
100
AcDbEntity
  8
_U+30EC_U+30A4_U+30E4_U+30FC 1
 62
   179
420
  2234388
370
     9
100
AcDb2dPolyline
 66
     1
 10
0.0
 20
0.0
 30
0.0
  0
VERTEX
  5
B5
330
B4
100
AcDbEntity
  8
_U+30EC_U+30A4_U+30E4_U+30FC 1
 62
   179
420
  2234388
370
     9
100
AcDbVertex
100
AcDb2dVertex
 10
65.18980553925842
 20
-98.28064330876316
 30
0.0
  0
VERTEX
  5
B6
330
B4
100
AcDbEntity
  8
_U+30EC_U+30A4_U+30E4_U+30FC 1
 62
   179
420
  2234388
370
     9
100
AcDbVertex
100
AcDb2dVertex
 10
65.18980553925842
 20
-100.7404569192594
 30
0.0
  0
SEQEND
  5
B7
330
B4
100
AcDbEntity
  8
_U+30EC_U+30A4_U+30E4_U+30FC 1
 62
   179
420
  2234388
370
     9
  0
INSERT
  5
B9
330
1F
100
AcDbEntity
  8
_U+30EC_U+30A4_U+30E4_U+30FC 1
100
AcDbBlockReference
  2
block 5
 10
0.0
 20
0.0
 30
0.0
  0
POLYLINE
  5
D1
330
1F
100
AcDbEntity
  8
_U+30EC_U+30A4_U+30E4_U+30FC 1
 62
   179
420
  2234388
370
     9
100
AcDb2dPolyline
 66
     1
 10
0.0
 20
0.0
 30
0.0
  0
VERTEX
  5
D2
330
D1
100
AcDbEntity
  8
_U+30EC_U+30A4_U+30E4_U+30FC 1
 62
   179
420
  2234388
370
     9
100
AcDbVertex
100
AcDb2dVertex
 10
80.189773509744
 20
-85.04029358985119
 30
0.0
  0
VERTEX
  5
D3
330
D1
100
AcDbEntity
  8
_U+30EC_U+30A4_U+30E4_U+30FC 1
 62
   179
420
  2234388
370
     9
100
AcDbVertex
100
AcDb2dVertex
 10
80.189773509744
 20
-94.74048303187072
 30
0.0
  0
SEQEND
  5
D4
330
D1
100
AcDbEntity
  8
_U+30EC_U+30A4_U+30E4_U+30FC 1
 62
   179
420
  2234388
370
     9
  0
POLYLINE
  5
D5
330
1F
100
AcDbEntity
  8
_U+30EC_U+30A4_U+30E4_U+30FC 1
 62
   179
420
  2234388
370
     9
100
AcDb2dPolyline
 66
     1
 10
0.0
 20
0.0
 30
0.0
  0
VERTEX
  5
D6
330
D5
100
AcDbEntity
  8
_U+30EC_U+30A4_U+30E4_U+30FC 1
 62
   179
420
  2234388
370
     9
100
AcDbVertex
100
AcDb2dVertex
 10
67.72987438317806
 20
-94.74048303187072
 30
0.0
  0
VERTEX
  5
D7
330
D5
100
AcDbEntity
  8
_U+30EC_U+30A4_U+30E4_U+30FC 1
 62
   179
420
  2234388
370
     9
100
AcDbVertex
100
AcDb2dVertex
 10
81.1898632064518
 20
-94.74048303187072
 30
0.0
  0
SEQEND
  5
D8
330
D5
100
AcDbEntity
  8
_U+30EC_U+30A4_U+30E4_U+30FC 1
 62
   179
420
  2234388
370
     9
  0
INSERT
  5
DA
330
1F
100
AcDbEntity
  8
_U+30EC_U+30A4_U+30E4_U+30FC 1
100
AcDbBlockReference
  2
block 6
 10
0.0
 20
0.0
 30
0.0
  0
ENDSEC
  0
SECTION
  2
OBJECTS
  0
DICTIONARY
  5
C
330
0
100
AcDbDictionary
281
     1
  3
ACAD_GROUP
350
D
  3
ACAD_LAYOUT
350
1A
  3
ACAD_MATERIAL
350
3B
  3
ACAD_MLEADERSTYLE
350
EB
  3
ACAD_MLINESTYLE
350
17
  3
ACAD_PLOTSETTINGS
350
19
  3
ACAD_PLOTSTYLENAME
350
E
  3
ACAD_TABLESTYLE
350
EA
  3
ACAD_VISUALSTYLE
350
2A
  0
SUN
  5
3F
330
29
100
AcDbSun
 90
        1
290
     0
 63
     7
421
 16777215
 40
1.0
291
     1
 91
  2455826
 92
 54000000
292
     0
 70
     2
 71
   256
280
     1
  0
DICTIONARY
  5
D
102
{ACAD_REACTORS
330
C
102
}
330
C
100
AcDbDictionary
281
     1
  0
DICTIONARY
  5
1A
102
{ACAD_REACTORS
330
C
102
}
330
C
100
AcDbDictionary
281
     1
  3
Layout1
350
1E
  3
Layout2
350
26
  3
Model
350
22
  0
DICTIONARY
  5
3B
102
{ACAD_REACTORS
330
C
102
}
330
C
100
AcDbDictionary
281
     1
  3
ByBlock
350
3D
  3
ByLayer
350
3C
  3
Global
350
3E
  0
DICTIONARY
  5
EB
102
{ACAD_REACTORS
330
C
102
}
330
C
100
AcDbDictionary
281
     1
  0
DICTIONARY
  5
17
102
{ACAD_REACTORS
330
C
102
}
330
C
100
AcDbDictionary
281
     1
  3
Standard
350
18
  0
DICTIONARY
  5
19
102
{ACAD_REACTORS
330
C
102
}
330
C
100
AcDbDictionary
281
     1
  0
ACDBDICTIONARYWDFLT
  5
E
102
{ACAD_REACTORS
330
C
102
}
330
C
100
AcDbDictionary
281
     1
  3
Normal
350
F
100
AcDbDictionaryWithDefault
340
F
  0
DICTIONARY
  5
EA
102
{ACAD_REACTORS
330
C
102
}
330
C
100
AcDbDictionary
281
     1
  0
DICTIONARY
  5
2A
102
{ACAD_REACTORS
330
C
102
}
330
C
100
AcDbDictionary
281
     1
  3
2dWireframe
350
2F
  3
3D Hidden
350
31
  3
3dWireframe
350
30
  3
Basic
350
32
  3
Brighten
350
36
  3
ColorChange
350
3A
  3
Conceptual
350
34
  3
Dim
350
35
  3
Facepattern
350
39
  3
Flat
350
2B
  3
FlatWithEdges
350
2C
  3
Gouraud
350
2D
  3
GouraudWithEdges
350
2E
  3
Linepattern
350
38
  3
Realistic
350
33
  3
Thicken
350
37
  0
LAYOUT
  5
1E
102
{ACAD_REACTORS
330
1A
102
}
330
1A
100
AcDbPlotSettings
  1

  2
none_device
  4

  6

 40
0.0
 41
0.0
 42
0.0
 43
0.0
 44
0.0
 45
0.0
 46
0.0
 47
0.0
 48
0.0
 49
0.0
140
0.0
141
0.0
142
1.0
143
1.0
 70
   688
 72
     0
 73
     0
 74
     5
  7

 75
    16
 76
     0
 77
     2
 78
   300
147
1.0
148
0.0
149
0.0
100
AcDbLayout
  1
Layout1
 70
     1
 71
     1
 10
0.0
 20
0.0
 11
12.0
 21
9.0
 12
0.0
 22
0.0
 32
0.0
 14
1.000000000000000E+20
 24
1.000000000000000E+20
 34
1.000000000000000E+20
 15
-1.000000000000000E+20
 25
-1.000000000000000E+20
 35
-1.000000000000000E+20
146
0.0
 13
0.0
 23
0.0
 33
0.0
 16
1.0
 26
0.0
 36
0.0
 17
0.0
 27
1.0
 37
0.0
 76
     0
330
1B
  0
LAYOUT
  5
26
102
{ACAD_REACTORS
330
1A
102
}
330
1A
100
AcDbPlotSettings
  1

  2
none_device
  4

  6

 40
0.0
 41
0.0
 42
0.0
 43
0.0
 44
0.0
 45
0.0
 46
0.0
 47
0.0
 48
0.0
 49
0.0
140
0.0
141
0.0
142
1.0
143
1.0
 70
   688
 72
     0
 73
     0
 74
     5
  7

 75
    16
 76
     0
 77
     2
 78
   300
147
1.0
148
0.0
149
0.0
100
AcDbLayout
  1
Layout2
 70
     1
 71
     2
 10
0.0
 20
0.0
 11
0.0
 21
0.0
 12
0.0
 22
0.0
 32
0.0
 14
0.0
 24
0.0
 34
0.0
 15
0.0
 25
0.0
 35
0.0
146
0.0
 13
0.0
 23
0.0
 33
0.0
 16
1.0
 26
0.0
 36
0.0
 17
0.0
 27
1.0
 37
0.0
 76
     0
330
23
  0
LAYOUT
  5
22
102
{ACAD_REACTORS
330
1A
102
}
330
1A
100
AcDbPlotSettings
  1

  2
none_device
  4

  6

 40
0.0
 41
0.0
 42
0.0
 43
0.0
 44
0.0
 45
0.0
 46
0.0
 47
0.0
 48
0.0
 49
0.0
140
0.0
141
0.0
142
1.0
143
1.0
 70
  1712
 72
     0
 73
     0
 74
     0
  7

 75
     0
 76
     0
 77
     2
 78
   300
147
1.0
148
0.0
149
0.0
100
AcDbLayout
  1
Model
 70
     1
 71
     0
 10
0.0
 20
0.0
 11
12.0
 21
9.0
 12
0.0
 22
0.0
 32
0.0
 14
1.000000000000000E+20
 24
1.000000000000000E+20
 34
1.000000000000000E+20
 15
-1.000000000000000E+20
 25
-1.000000000000000E+20
 35
-1.000000000000000E+20
146
0.0
 13
0.0
 23
0.0
 33
0.0
 16
1.0
 26
0.0
 36
0.0
 17
0.0
 27
1.0
 37
0.0
 76
     0
330
1F
331
29
  0
MATERIAL
  5
3D
102
{ACAD_REACTORS
330
3B
102
}
330
3B
100
AcDbMaterial
  1
ByBlock
 72
     1
 94
      127
  0
MATERIAL
  5
3C
102
{ACAD_REACTORS
330
3B
102
}
330
3B
100
AcDbMaterial
  1
ByLayer
 72
     1
 94
      127
  0
MATERIAL
  5
3E
102
{ACAD_REACTORS
330
3B
102
}
330
3B
100
AcDbMaterial
  1
Global
 72
     1
 94
      127
  0
MLINESTYLE
  5
18
102
{ACAD_REACTORS
330
17
102
}
330
17
100
AcDbMlineStyle
  2
Standard
 70
     0
  3

 62
   256
 51
90.0
 52
90.0
 71
     2
 49
0.5
 62
   256
  6
BYLAYER
 49
-0.5
 62
   256
  6
BYLAYER
  0
ACDBPLACEHOLDER
  5
F
102
{ACAD_REACTORS
330
E
102
}
330
E
  0
VISUALSTYLE
  5
2F
102
{ACAD_REACTORS
330
2A
102
}
330
2A
100
AcDbVisualStyle
  2
2dWireframe
 70
     4
177
     2
291
     0
 71
     0
176
     1
 72
     2
176
     1
 73
     0
176
     1
 90
        0
176
     1
 40
-0.6
176
     1
 41
-30.0
176
     1
 62
     5
 63
     7
421
 16777215
176
     1
 74
     1
176
     1
 91
        4
176
     1
 64
     7
176
     1
 65
   257
176
     1
 75
     1
176
     1
175
     1
176
     1
 42
1.0
176
     1
 92
        0
176
     1
 66
   257
176
     1
 43
1.0
176
     1
 76
     1
176
     1
 77
     6
176
     1
 78
     2
176
     1
 67
     7
176
     1
 79
     5
176
     1
170
     0
176
     1
171
     0
176
     1
290
     0
176
     1
 93
        1
176
     1
 44
0.0
176
     1
173
     0
176
     1
  0
VISUALSTYLE
  5
31
102
{ACAD_REACTORS
330
2A
102
}
330
2A
100
AcDbVisualStyle
  2
3D Hidden
 70
     6
177
     2
291
     0
 71
     1
176
     1
 72
     2
176
     1
 73
     2
176
     1
 90
        0
176
     1
 40
-0.6
176
     1
 41
-30.0
176
     1
 62
     5
 63
     7
421
 16777215
176
     1
 74
     2
176
     1
 91
        2
176
     1
 64
     7
176
     1
 65
   257
176
     1
 75
     2
176
     1
175
     1
176
     1
 42
40.0
176
     1
 92
        0
176
     1
 66
   257
176
     1
 43
1.0
176
     1
 76
     1
176
     1
 77
     6
176
     1
 78
     2
176
     1
 67
     7
176
     1
 79
     3
176
     1
170
     0
176
     1
171
     0
176
     1
290
     0
176
     1
 93
        1
176
     1
 44
0.0
176
     1
173
     0
176
     1
  0
VISUALSTYLE
  5
30
102
{ACAD_REACTORS
330
2A
102
}
330
2A
100
AcDbVisualStyle
  2
3dWireframe
 70
     5
177
     2
291
     0
 71
     0
176
     1
 72
     2
176
     1
 73
     0
176
     1
 90
        0
176
     1
 40
-0.6
176
     1
 41
-30.0
176
     1
 62
     5
 63
     7
421
 16777215
176
     1
 74
     1
176
     1
 91
        4
176
     1
 64
     7
176
     1
 65
   257
176
     1
 75
     1
176
     1
175
     1
176
     1
 42
1.0
176
     1
 92
        0
176
     1
 66
   257
176
     1
 43
1.0
176
     1
 76
     1
176
     1
 77
     6
176
     1
 78
     2
176
     1
 67
     7
176
     1
 79
     5
176
     1
170
     0
176
     1
171
     0
176
     1
290
     0
176
     1
 93
        1
176
     1
 44
0.0
176
     1
173
     0
176
     1
  0
VISUALSTYLE
  5
32
102
{ACAD_REACTORS
330
2A
102
}
330
2A
100
AcDbVisualStyle
  2
Basic
 70
     7
177
     2
291
     1
 71
     1
176
     1
 72
     0
176
     1
 73
     1
176
     1
 90
        0
176
     1
 40
-0.6
176
     1
 41
-30.0
176
     1
 62
     5
 63
     7
421
 16777215
176
     1
 74
     0
176
     1
 91
        4
176
     1
 64
     7
176
     1
 65
   257
176
     1
 75
     1
176
     1
175
     1
176
     1
 42
1.0
176
     1
 92
        8
176
     1
 66
     7
176
     1
 43
1.0
176
     1
 76
     1
176
     1
 77
     6
176
     1
 78
     2
176
     1
 67
     7
176
     1
 79
     5
176
     1
170
     0
176
     1
171
     0
176
     1
290
     0
176
     1
 93
        1
176
     1
 44
0.0
176
     1
173
     0
176
     1
  0
VISUALSTYLE
  5
36
102
{ACAD_REACTORS
330
2A
102
}
330
2A
100
AcDbVisualStyle
  2
Brighten
 70
    12
177
     2
291
     1
 71
     2
176
     1
 72
     2
176
     1
 73
     0
176
     1
 90
        0
176
     1
 40
-0.6
176
     1
 41
-30.0
176
     1
 62
     5
 63
     7
421
 16777215
176
     1
 74
     1
176
     1
 91
        4
176
     1
 64
     7
176
     1
 65
   257
176
     1
 75
     1
176
     1
175
     1
176
     1
 42
1.0
176
     1
 92
        8
176
     1
 66
     7
176
     1
 43
1.0
176
     1
 76
     1
176
     1
 77
     6
176
     1
 78
     2
176
     1
 67
     7
176
     1
 79
     5
176
     1
170
     0
176
     1
171
     0
176
     1
290
     0
176
     1
 93
        1
176
     1
 44
50.0
176
     1
173
     0
176
     1
  0
VISUALSTYLE
  5
3A
102
{ACAD_REACTORS
330
2A
102
}
330
2A
100
AcDbVisualStyle
  2
ColorChange
 70
    16
177
     2
291
     1
 71
     2
176
     1
 72
     2
176
     1
 73
     3
176
     1
 90
        0
176
     1
 40
-0.6
176
     1
 41
-30.0
176
     1
 62
     5
 63
     8
421
  8421504
176
     1
 74
     1
176
     1
 91
        4
176
     1
 64
     7
176
     1
 65
   257
176
     1
 75
     1
176
     1
175
     1
176
     1
 42
1.0
176
     1
 92
        8
176
     1
 66
     8
424
  8421504
176
     1
 43
1.0
176
     1
 76
     1
176
     1
 77
     6
176
     1
 78
     2
176
     1
 67
     7
176
     1
 79
     5
176
     1
170
     0
176
     1
171
     0
176
     1
290
     0
176
     1
 93
        1
176
     1
 44
0.0
176
     1
173
     0
176
     1
  0
VISUALSTYLE
  5
34
102
{ACAD_REACTORS
330
2A
102
}
330
2A
100
AcDbVisualStyle
  2
Conceptual
 70
     9
177
     2
291
     0
 71
     3
176
     1
 72
     2
176
     1
 73
     0
176
     1
 90
        0
176
     1
 40
-0.6
176
     1
 41
-30.0
176
     1
 62
     5
 63
     7
421
 16777215
176
     1
 74
     2
176
     1
 91
        2
176
     1
 64
     7
176
     1
 65
   257
176
     1
 75
     1
176
     1
175
     1
176
     1
 42
40.0
176
     1
 92
        8
176
     1
 66
     7
176
     1
 43
1.0
176
     1
 76
     1
176
     1
 77
     6
176
     1
 78
     2
176
     1
 67
     7
176
     1
 79
     3
176
     1
170
     0
176
     1
171
     0
176
     1
290
     0
176
     1
 93
        1
176
     1
 44
0.0
176
     1
173
     0
176
     1
  0
VISUALSTYLE
  5
35
102
{ACAD_REACTORS
330
2A
102
}
330
2A
100
AcDbVisualStyle
  2
Dim
 70
    11
177
     2
291
     1
 71
     2
176
     1
 72
     2
176
     1
 73
     0
176
     1
 90
        0
176
     1
 40
-0.6
176
     1
 41
-30.0
176
     1
 62
     5
 63
     7
421
 16777215
176
     1
 74
     1
176
     1
 91
        4
176
     1
 64
     7
176
     1
 65
   257
176
     1
 75
     1
176
     1
175
     1
176
     1
 42
1.0
176
     1
 92
        8
176
     1
 66
     7
176
     1
 43
1.0
176
     1
 76
     1
176
     1
 77
     6
176
     1
 78
     2
176
     1
 67
     7
176
     1
 79
     5
176
     1
170
     0
176
     1
171
     0
176
     1
290
     0
176
     1
 93
        1
176
     1
 44
-50.0
176
     1
173
     0
176
     1
  0
VISUALSTYLE
  5
39
102
{ACAD_REACTORS
330
2A
102
}
330
2A
100
AcDbVisualStyle
  2
Facepattern
 70
    15
177
     2
291
     1
 71
     2
176
     1
 72
     2
176
     1
 73
     0
176
     1
 90
        0
176
     1
 40
-0.6
176
     1
 41
-30.0
176
     1
 62
     5
 63
     7
421
 16777215
176
     1
 74
     1
176
     1
 91
        4
176
     1
 64
     7
176
     1
 65
   257
176
     1
 75
     1
176
     1
175
     1
176
     1
 42
1.0
176
     1
 92
        8
176
     1
 66
     7
176
     1
 43
1.0
176
     1
 76
     1
176
     1
 77
     6
176
     1
 78
     2
176
     1
 67
     7
176
     1
 79
     5
176
     1
170
     0
176
     1
171
     0
176
     1
290
     0
176
     1
 93
        1
176
     1
 44
0.0
176
     1
173
     0
176
     1
  0
VISUALSTYLE
  5
2B
102
{ACAD_REACTORS
330
2A
102
}
330
2A
100
AcDbVisualStyle
  2
Flat
 70
     0
177
     2
291
     1
 71
     2
176
     1
 72
     1
176
     1
 73
     1
176
     1
 90
        2
176
     1
 40
-0.6
176
     1
 41
30.0
176
     1
 62
     5
 63
     7
421
 16777215
176
     1
 74
     0
176
     1
 91
        4
176
     1
 64
     7
176
     1
 65
   257
176
     1
 75
     1
176
     1
175
     1
176
     1
 42
1.0
176
     1
 92
        8
176
     1
 66
     7
176
     1
 43
1.0
176
     1
 76
     1
176
     1
 77
     6
176
     1
 78
     2
176
     1
 67
     7
176
     1
 79
     5
176
     1
170
     0
176
     1
171
     0
176
     1
290
     0
176
     1
 93
       13
176
     1
 44
0.0
176
     1
173
     0
176
     1
  0
VISUALSTYLE
  5
2C
102
{ACAD_REACTORS
330
2A
102
}
330
2A
100
AcDbVisualStyle
  2
FlatWithEdges
 70
     1
177
     2
291
     1
 71
     2
176
     1
 72
     1
176
     1
 73
     1
176
     1
 90
        2
176
     1
 40
-0.6
176
     1
 41
30.0
176
     1
 62
     5
 63
     7
421
 16777215
176
     1
 74
     1
176
     1
 91
        4
176
     1
 64
     7
176
     1
 65
   257
176
     1
 75
     1
176
     1
175
     1
176
     1
 42
1.0
176
     1
 92
        0
176
     1
 66
   257
176
     1
 43
1.0
176
     1
 76
     1
176
     1
 77
     6
176
     1
 78
     2
176
     1
 67
     7
176
     1
 79
     5
176
     1
170
     0
176
     1
171
     0
176
     1
290
     0
176
     1
 93
       13
176
     1
 44
0.0
176
     1
173
     0
176
     1
  0
VISUALSTYLE
  5
2D
102
{ACAD_REACTORS
330
2A
102
}
330
2A
100
AcDbVisualStyle
  2
Gouraud
 70
     2
177
     2
291
     1
 71
     2
176
     1
 72
     2
176
     1
 73
     1
176
     1
 90
        2
176
     1
 40
-0.6
176
     1
 41
30.0
176
     1
 62
     5
 63
     7
421
 16777215
176
     1
 74
     0
176
     1
 91
        4
176
     1
 64
     7
176
     1
 65
   257
176
     1
 75
     1
176
     1
175
     1
176
     1
 42
1.0
176
     1
 92
        0
176
     1
 66
     7
176
     1
 43
1.0
176
     1
 76
     1
176
     1
 77
     6
176
     1
 78
     2
176
     1
 67
     7
176
     1
 79
     5
176
     1
170
     0
176
     1
171
     0
176
     1
290
     0
176
     1
 93
       13
176
     1
 44
0.0
176
     1
173
     0
176
     1
  0
VISUALSTYLE
  5
2E
102
{ACAD_REACTORS
330
2A
102
}
330
2A
100
AcDbVisualStyle
  2
GouraudWithEdges
 70
     3
177
     2
291
     1
 71
     2
176
     1
 72
     2
176
     1
 73
     1
176
     1
 90
        2
176
     1
 40
-0.6
176
     1
 41
30.0
176
     1
 62
     5
 63
     7
421
 16777215
176
     1
 74
     1
176
     1
 91
        4
176
     1
 64
     7
176
     1
 65
   257
176
     1
 75
     1
176
     1
175
     1
176
     1
 42
1.0
176
     1
 92
        0
176
     1
 66
   257
176
     1
 43
1.0
176
     1
 76
     1
176
     1
 77
     6
176
     1
 78
     2
176
     1
 67
     7
176
     1
 79
     5
176
     1
170
     0
176
     1
171
     0
176
     1
290
     0
176
     1
 93
       13
176
     1
 44
0.0
176
     1
173
     0
176
     1
  0
VISUALSTYLE
  5
38
102
{ACAD_REACTORS
330
2A
102
}
330
2A
100
AcDbVisualStyle
  2
Linepattern
 70
    14
177
     2
291
     1
 71
     2
176
     1
 72
     2
176
     1
 73
     0
176
     1
 90
        0
176
     1
 40
-0.6
176
     1
 41
-30.0
176
     1
 62
     5
 63
     7
421
 16777215
176
     1
 74
     1
176
     1
 91
        4
176
     1
 64
     7
176
     1
 65
   257
176
     1
 75
     7
176
     1
175
     7
176
     1
 42
1.0
176
     1
 92
        8
176
     1
 66
     7
176
     1
 43
1.0
176
     1
 76
     1
176
     1
 77
     6
176
     1
 78
     2
176
     1
 67
     7
176
     1
 79
     5
176
     1
170
     0
176
     1
171
     0
176
     1
290
     0
176
     1
 93
        1
176
     1
 44
0.0
176
     1
173
     0
176
     1
  0
VISUALSTYLE
  5
33
102
{ACAD_REACTORS
330
2A
102
}
330
2A
100
AcDbVisualStyle
  2
Realistic
 70
     8
177
     2
291
     0
 71
     2
176
     1
 72
     2
176
     1
 73
     0
176
     1
 90
        0
176
     1
 40
-0.6
176
     1
 41
-30.0
176
     1
 62
     5
 63
     7
421
 16777215
176
     1
 74
     1
176
     1
 91
        0
176
     1
 64
     7
176
     1
 65
   257
176
     1
 75
     1
176
     1
175
     1
176
     1
 42
1.0
176
     1
 92
        8
176
     1
 66
     8
424
  7895160
176
     1
 43
1.0
176
     1
 76
     1
176
     1
 77
     6
176
     1
 78
     2
176
     1
 67
     7
176
     1
 79
     5
176
     1
170
     0
176
     1
171
     0
176
     1
290
     0
176
     1
 93
       13
176
     1
 44
0.0
176
     1
173
     0
176
     1
  0
VISUALSTYLE
  5
37
102
{ACAD_REACTORS
330
2A
102
}
330
2A
100
AcDbVisualStyle
  2
Thicken
 70
    13
177
     2
291
     1
 71
     2
176
     1
 72
     2
176
     1
 73
     0
176
     1
 90
        0
176
     1
 40
-0.6
176
     1
 41
-30.0
176
     1
 62
     5
 63
     7
421
 16777215
176
     1
 74
     1
176
     1
 91
        4
176
     1
 64
     7
176
     1
 65
   257
176
     1
 75
     1
176
     1
175
     1
176
     1
 42
1.0
176
     1
 92
       12
176
     1
 66
     7
176
     1
 43
1.0
176
     1
 76
     1
176
     1
 77
     6
176
     1
 78
     2
176
     1
 67
     7
176
     1
 79
     5
176
     1
170
     0
176
     1
171
     0
176
     1
290
     0
176
     1
 93
        1
176
     1
 44
0.0
176
     1
173
     0
176
     1
  0
ENDSEC
  0
EOF
