  0
SECTION
  2
HEADER
  9
$ACADVER
  1
AC1024
  9
$ACADMAINTVER
 70
     6
  9
$DWGCODEPAGE
  3
UNDEFINED
  9
$INSBASE
 10
0.0
 20
0.0
 30
0.0
  9
$EXTMIN
 10
1.000000000000000E+20
 20
1.000000000000000E+20
 30
1.000000000000000E+20
  9
$EXTMAX
 10
-1.000000000000000E+20
 20
-1.000000000000000E+20
 30
-1.000000000000000E+20
  9
$LIMMIN
 10
0.0
 20
0.0
  9
$LIMMAX
 10
12.0
 20
9.0
  9
$ORTHOMODE
 70
     0
  9
$REGENMODE
 70
     1
  9
$FILLMODE
 70
     1
  9
$QTEXTMODE
 70
     0
  9
$MIRRTEXT
 70
     1
  9
$LTSCALE
 40
1.0
  9
$ATTMODE
 70
     1
  9
$TEXTSIZE
 40
0.2
  9
$TRACEWID
 40
0.05
  9
$TEXTSTYLE
  7
Standard
  9
$CLAYER
  8
0
  9
$CELTYPE
  6
ByLayer
  9
$CECOLOR
 62
   256
  9
$CELTSCALE
 40
1.0
  9
$DISPSILH
 70
     0
  9
$DIMSCALE
 40
1.0
  9
$DIMASZ
 40
0.18
  9
$DIMEXO
 40
0.0625
  9
$DIMDLI
 40
0.38
  9
$DIMRND
 40
0.0
  9
$DIMDLE
 40
0.0
  9
$DIMEXE
 40
0.18
  9
$DIMTP
 40
0.0
  9
$DIMTM
 40
0.0
  9
$DIMTXT
 40
0.18
  9
$DIMCEN
 40
0.09
  9
$DIMTSZ
 40
0.0
  9
$DIMTOL
 70
     0
  9
$DIMLIM
 70
     0
  9
$DIMTIH
 70
     1
  9
$DIMTOH
 70
     1
  9
$DIMSE1
 70
     0
  9
$DIMSE2
 70
     0
  9
$DIMTAD
 70
     0
  9
$DIMZIN
 70
     0
  9
$DIMBLK
  1

  9
$DIMASO
 70
     1
  9
$DIMSHO
 70
     1
  9
$DIMPOST
  1

  9
$DIMAPOST
  1

  9
$DIMALT
 70
     0
  9
$DIMALTD
 70
     2
  9
$DIMALTF
 40
25.4
  9
$DIMLFAC
 40
1.0
  9
$DIMTOFL
 70
     0
  9
$DIMTVP
 40
0.0
  9
$DIMTIX
 70
     0
  9
$DIMSOXD
 70
     0
  9
$DIMSAH
 70
     0
  9
$DIMBLK1
  1

  9
$DIMBLK2
  1

  9
$DIMSTYLE
  2
Standard
  9
$DIMCLRD
 70
     0
  9
$DIMCLRE
 70
     0
  9
$DIMCLRT
 70
     0
  9
$DIMTFAC
 40
1.0
  9
$DIMGAP
 40
0.09
  9
$DIMJUST
 70
     0
  9
$DIMSD1
 70
     0
  9
$DIMSD2
 70
     0
  9
$DIMTOLJ
 70
     1
  9
$DIMTZIN
 70
     0
  9
$DIMALTZ
 70
     0
  9
$DIMALTTZ
 70
     0
  9
$DIMUPT
 70
     0
  9
$DIMDEC
 70
     4
  9
$DIMTDEC
 70
     4
  9
$DIMALTU
 70
     2
  9
$DIMALTTD
 70
     2
  9
$DIMTXSTY
  7
Standard
  9
$DIMAUNIT
 70
     0
  9
$DIMADEC
 70
     0
  9
$DIMALTRND
 40
0.0
  9
$DIMAZIN
 70
     0
  9
$DIMDSEP
 70
    46
  9
$DIMATFIT
 70
     3
  9
$DIMFRAC
 70
     0
  9
$DIMLDRBLK
  1

  9
$DIMLUNIT
 70
     2
  9
$DIMLWD
 70
    -2
  9
$DIMLWE
 70
    -2
  9
$DIMTMOVE
 70
     0
  9
$DIMFXL
 40
1.0
  9
$DIMFXLON
 70
     0
  9
$DIMJOGANG
 40
0.7853981633974483
  9
$DIMTFILL
 70
     0
  9
$DIMTFILLCLR
 70
     0
  9
$DIMARCSYM
 70
     0
  9
$DIMLTYPE
  6

  9
$DIMLTEX1
  6

  9
$DIMLTEX2
  6

  9
$DIMTXTDIRECTION
 70
     0
  9
$LUNITS
 70
     2
  9
$LUPREC
 70
     4
  9
$SKETCHINC
 40
0.1
  9
$FILLETRAD
 40
0.5
  9
$AUNITS
 70
     0
  9
$AUPREC
 70
     0
  9
$MENU
  1
.
  9
$ELEVATION
 40
0.0
  9
$PELEVATION
 40
0.0
  9
$THICKNESS
 40
0.0
  9
$LIMCHECK
 70
     0
  9
$CHAMFERA
 40
0.5
  9
$CHAMFERB
 40
0.5
  9
$CHAMFERC
 40
1.0
  9
$CHAMFERD
 40
0.0
  9
$SKPOLY
 70
     0
  9
$TDCREATE
 40
2457917.586782407
  9
$TDUCREATE
 40
2457917.211782407
  9
$TDUPDATE
 40
2457917.586782407
  9
$TDUUPDATE
 40
2457917.211782407
  9
$TDINDWG
 40
0.0000000116
  9
$TDUSRTIMER
 40
0.0000000116
  9
$USRTIMER
 70
     1
  9
$ANGBASE
 50
0.0
  9
$ANGDIR
 70
     0
  9
$PDMODE
 70
     0
  9
$PDSIZE
 40
0.0
  9
$PLINEWID
 40
0.0
  9
$SPLFRAME
 70
     0
  9
$SPLINETYPE
 70
     6
  9
$SPLINESEGS
 70
     8
  9
$HANDSEED
  5
D6
  9
$SURFTAB1
 70
     6
  9
$SURFTAB2
 70
     6
  9
$SURFTYPE
 70
     6
  9
$SURFU
 70
     6
  9
$SURFV
 70
     6
  9
$UCSBASE
  2

  9
$UCSNAME
  2

  9
$UCSORG
 10
0.0
 20
0.0
 30
0.0
  9
$UCSXDIR
 10
1.0
 20
0.0
 30
0.0
  9
$UCSYDIR
 10
0.0
 20
1.0
 30
0.0
  9
$UCSORTHOREF
  2

  9
$UCSORTHOVIEW
 70
     0
  9
$UCSORGTOP
 10
0.0
 20
0.0
 30
0.0
  9
$UCSORGBOTTOM
 10
0.0
 20
0.0
 30
0.0
  9
$UCSORGLEFT
 10
0.0
 20
0.0
 30
0.0
  9
$UCSORGRIGHT
 10
0.0
 20
0.0
 30
0.0
  9
$UCSORGFRONT
 10
0.0
 20
0.0
 30
0.0
  9
$UCSORGBACK
 10
0.0
 20
0.0
 30
0.0
  9
$PUCSBASE
  2

  9
$PUCSNAME
  2

  9
$PUCSORG
 10
0.0
 20
0.0
 30
0.0
  9
$PUCSXDIR
 10
1.0
 20
0.0
 30
0.0
  9
$PUCSYDIR
 10
0.0
 20
1.0
 30
0.0
  9
$PUCSORTHOREF
  2

  9
$PUCSORTHOVIEW
 70
     0
  9
$PUCSORGTOP
 10
0.0
 20
0.0
 30
0.0
  9
$PUCSORGBOTTOM
 10
0.0
 20
0.0
 30
0.0
  9
$PUCSORGLEFT
 10
0.0
 20
0.0
 30
0.0
  9
$PUCSORGRIGHT
 10
0.0
 20
0.0
 30
0.0
  9
$PUCSORGFRONT
 10
0.0
 20
0.0
 30
0.0
  9
$PUCSORGBACK
 10
0.0
 20
0.0
 30
0.0
  9
$USERI1
 70
     0
  9
$USERI2
 70
     0
  9
$USERI3
 70
     0
  9
$USERI4
 70
     0
  9
$USERI5
 70
     0
  9
$USERR1
 40
0.0
  9
$USERR2
 40
0.0
  9
$USERR3
 40
0.0
  9
$USERR4
 40
0.0
  9
$USERR5
 40
0.0
  9
$WORLDVIEW
 70
     1
  9
$SHADEDGE
 70
     3
  9
$SHADEDIF
 70
    70
  9
$TILEMODE
 70
     1
  9
$MAXACTVP
 70
    64
  9
$PINSBASE
 10
0.0
 20
0.0
 30
0.0
  9
$PLIMCHECK
 70
     0
  9
$PEXTMIN
 10
1.000000000000000E+20
 20
1.000000000000000E+20
 30
1.000000000000000E+20
  9
$PEXTMAX
 10
-1.000000000000000E+20
 20
-1.000000000000000E+20
 30
-1.000000000000000E+20
  9
$PLIMMIN
 10
0.0
 20
0.0
  9
$PLIMMAX
 10
12.0
 20
9.0
  9
$UNITMODE
 70
     0
  9
$VISRETAIN
 70
     1
  9
$PLINEGEN
 70
     0
  9
$PSLTSCALE
 70
     1
  9
$TREEDEPTH
 70
  3020
  9
$CMLSTYLE
  2
Standard
  9
$CMLJUST
 70
     0
  9
$CMLSCALE
 40
1.0
  9
$PROXYGRAPHICS
 70
     1
  9
$MEASUREMENT
 70
     0
  9
$CELWEIGHT
370
    -1
  9
$ENDCAPS
280
     0
  9
$JOINSTYLE
280
     0
  9
$LWDISPLAY
290
     1
  9
$INSUNITS
 70
     1
  9
$HYPERLINKBASE
  1

  9
$STYLESHEET
  1

  9
$XEDIT
290
     1
  9
$CEPSNTYPE
380
     0
  9
$PSTYLEMODE
290
     1
  9
$FINGERPRINTGUID
  2
{B1F48239-2717-73DA-B79F-A21EF8318E5E}
  9
$VERSIONGUID
  2
{FAEB1C32-E019-11D5-929B-00C0DF256EC4}
  9
$EXTNAMES
290
     1
  9
$PSVPSCALE
 40
0.0
  9
$OLESTARTUP
290
     0
  9
$SORTENTS
280
   127
  9
$INDEXCTL
280
     0
  9
$HIDETEXT
280
     1
  9
$XCLIPFRAME
280
     2
  9
$HALOGAP
280
     0
  9
$OBSCOLOR
 70
   257
  9
$OBSLTYPE
280
     0
  9
$INTERSECTIONDISPLAY
280
     0
  9
$INTERSECTIONCOLOR
 70
   257
  9
$DIMASSOC
280
     2
  9
$PROJECTNAME
  1

  9
$CAMERADISPLAY
290
     0
  9
$LENSLENGTH
 40
50.0
  9
$CAMERAHEIGHT
 40
0.0
  9
$STEPSPERSEC
 40
2.0
  9
$STEPSIZE
 40
6.0
  9
$3DDWFPREC
 40
2.0
  9
$PSOLWIDTH
 40
0.25
  9
$PSOLHEIGHT
 40
4.0
  9
$LOFTANG1
 40
1.570796326794897
  9
$LOFTANG2
 40
1.570796326794897
  9
$LOFTMAG1
 40
0.0
  9
$LOFTMAG2
 40
0.0
  9
$LOFTPARAM
 70
     7
  9
$LOFTNORMALS
280
     1
  9
$LATITUDE
 40
37.795
  9
$LONGITUDE
 40
-122.394
  9
$NORTHDIRECTION
 40
0.0
  9
$TIMEZONE
 70
 -8000
  9
$LIGHTGLYPHDISPLAY
280
     1
  9
$TILEMODELIGHTSYNCH
280
     1
  9
$CMATERIAL
347
3C
  9
$SOLIDHIST
280
     1
  9
$SHOWHIST
280
     1
  9
$DWFFRAME
280
     2
  9
$DGNFRAME
280
     2
  9
$REALWORLDSCALE
290
     1
  9
$INTERFERECOLOR
 62
   256
  9
$CSHADOW
280
     0
  9
$SHADOWPLANELOCATION
 40
0.0
  0
ENDSEC
  0
SECTION
  2
CLASSES
  0
CLASS
  1
ACDBDICTIONARYWDFLT
  2
AcDbDictionaryWithDefault
  3
ObjectDBX Classes
 90
        0
 91
        4
280
     0
281
     0
  0
CLASS
  1
VISUALSTYLE
  2
AcDbVisualStyle
  3
ObjectDBX Classes
 90
     4095
 91
        4
280
     0
281
     0
  0
CLASS
  1
MATERIAL
  2
AcDbMaterial
  3
ObjectDBX Classes
 90
     1153
 91
        4
280
     0
281
     0
  0
CLASS
  1
SUN
  2
AcDbSun
  3
SCENEOE
 90
     1024
 91
        4
280
     0
281
     0
  0
ENDSEC
  0
SECTION
  2
TABLES
  0
TABLE
  2
VPORT
  5
8
330
0
100
AcDbSymbolTable
 70
     1
  0
VPORT
  5
29
330
8
100
AcDbSymbolTableRecord
100
AcDbViewportTableRecord
  2
*Active
 70
     0
 10
0.0
 20
0.0
 11
1.0
 21
1.0
 12
0.0
 22
0.0
 13
0.0
 23
0.0
 14
0.5
 24
0.5
 15
0.5
 25
0.5
 16
0.0
 26
0.0
 36
1.0
 17
63.499999984125
 27
-89.00059456108309
 37
0.0
 40
178.0011891221662
 41
0.7134783795241226
 42
50.0
 43
0.0
 44
0.0
 50
0.0
 51
0.0
 71
     0
 72
   100
 73
     1
 74
     3
 75
     0
 76
     0
 77
     0
 78
     0
281
     0
 65
     1
110
0.0
120
0.0
130
0.0
111
1.0
121
0.0
131
0.0
112
0.0
122
1.0
132
0.0
 79
     0
146
0.0
 60
     3
 61
     5
292
     1
282
     1
141
0.0
142
0.0
 63
   250
361
3F
  0
ENDTAB
  0
TABLE
  2
LTYPE
  5
5
330
0
100
AcDbSymbolTable
 70
     1
  0
LTYPE
  5
14
330
5
100
AcDbSymbolTableRecord
100
AcDbLinetypeTableRecord
  2
ByBlock
 70
     0
  3

 72
    65
 73
     0
 40
0.0
  0
LTYPE
  5
15
330
5
100
AcDbSymbolTableRecord
100
AcDbLinetypeTableRecord
  2
ByLayer
 70
     0
  3

 72
    65
 73
     0
 40
0.0
  0
LTYPE
  5
16
330
5
100
AcDbSymbolTableRecord
100
AcDbLinetypeTableRecord
  2
Continuous
 70
     0
  3
Solid line
 72
    65
 73
     0
 40
0.0
  0
ENDTAB
  0
TABLE
  2
LAYER
  5
2
330
0
100
AcDbSymbolTable
 70
     2
  0
LAYER
  5
10
330
2
100
AcDbSymbolTableRecord
100
AcDbLayerTableRecord
  2
0
 70
     0
 62
     7
  6
Continuous
370
    -3
390
F
347
3E
  0
LAYER
  5
40
330
2
100
AcDbSymbolTableRecord
100
AcDbLayerTableRecord
  2
_U+30EC_U+30A4_U+30E4_U+30FC 1
 70
     0
 62
     7
  6
Continuous
370
    -3
390
F
347
3E
  0
ENDTAB
  0
TABLE
  2
STYLE
  5
3
330
0
100
AcDbSymbolTable
 70
     1
  0
STYLE
  5
11
330
3
100
AcDbSymbolTableRecord
100
AcDbTextStyleTableRecord
  2
Standard
 70
     0
 40
0.0
 41
1.0
 50
0.0
 71
     0
 42
0.2
  3
txt
  4

  0
ENDTAB
  0
TABLE
  2
VIEW
  5
6
330
0
100
AcDbSymbolTable
 70
     0
  0
ENDTAB
  0
TABLE
  2
UCS
  5
7
330
0
100
AcDbSymbolTable
 70
     0
  0
ENDTAB
  0
TABLE
  2
APPID
  5
9
330
0
100
AcDbSymbolTable
 70
     1
  0
APPID
  5
12
330
9
100
AcDbSymbolTableRecord
100
AcDbRegAppTableRecord
  2
ACAD
 70
     0
  0
ENDTAB
  0
TABLE
  2
DIMSTYLE
  5
A
330
0
100
AcDbSymbolTable
 70
     1
100
AcDbDimStyleTable
  0
DIMSTYLE
105
27
330
A
100
AcDbSymbolTableRecord
100
AcDbDimStyleTableRecord
  2
Standard
 70
     0
178
     0
340
11
  0
ENDTAB
  0
TABLE
  2
BLOCK_RECORD
  5
1
330
0
100
AcDbSymbolTable
 70
     6
  0
BLOCK_RECORD
  5
1F
330
1
100
AcDbSymbolTableRecord
100
AcDbBlockTableRecord
  2
*Model_Space
340
22
 70
     0
280
     1
281
     0
  0
BLOCK_RECORD
  5
1B
330
1
100
AcDbSymbolTableRecord
100
AcDbBlockTableRecord
  2
*Paper_Space
340
1E
 70
     0
280
     1
281
     0
  0
BLOCK_RECORD
  5
23
330
1
100
AcDbSymbolTableRecord
100
AcDbBlockTableRecord
  2
*Paper_Space0
340
26
 70
     0
280
     1
281
     0
  0
BLOCK_RECORD
  5
5A
330
1
100
AcDbSymbolTableRecord
100
AcDbBlockTableRecord
  2
block 2
340
0
102
{BLKREFS
331
5B
102
}
 70
     0
280
     1
281
     0
  0
BLOCK_RECORD
  5
86
330
1
100
AcDbSymbolTableRecord
100
AcDbBlockTableRecord
  2
block 3
340
0
102
{BLKREFS
331
87
102
}
 70
     0
280
     1
281
     0
  0
BLOCK_RECORD
  5
8C
330
1
100
AcDbSymbolTableRecord
100
AcDbBlockTableRecord
  2
block 4
340
0
102
{BLKREFS
331
8D
102
}
 70
     0
280
     1
281
     0
  0
BLOCK_RECORD
  5
AC
330
1
100
AcDbSymbolTableRecord
100
AcDbBlockTableRecord
  2
block 5
340
0
102
{BLKREFS
331
AD
102
}
 70
     0
280
     1
281
     0
  0
BLOCK_RECORD
  5
BC
330
1
100
AcDbSymbolTableRecord
100
AcDbBlockTableRecord
  2
block 6
340
0
102
{BLKREFS
331
BD
102
}
 70
     0
280
     1
281
     0
  0
ENDTAB
  0
ENDSEC
  0
SECTION
  2
BLOCKS
  0
BLOCK
  5
20
330
1F
100
AcDbEntity
  8
0
100
AcDbBlockBegin
  2
*Model_Space
 70
     0
 10
0.0
 20
0.0
 30
0.0
  3
*Model_Space
  1

  0
ENDBLK
  5
21
330
1F
100
AcDbEntity
  8
0
100
AcDbBlockEnd
  0
BLOCK
  5
1C
330
1B
100
AcDbEntity
 67
     1
  8
0
100
AcDbBlockBegin
  2
*Paper_Space
 70
     0
 10
0.0
 20
0.0
 30
0.0
  3
*Paper_Space
  1

  0
ENDBLK
  5
1D
330
1B
100
AcDbEntity
 67
     1
  8
0
100
AcDbBlockEnd
  0
BLOCK
  5
24
330
23
100
AcDbEntity
  8
0
100
AcDbBlockBegin
  2
*Paper_Space0
 70
     0
 10
0.0
 20
0.0
 30
0.0
  3
*Paper_Space0
  1

  0
ENDBLK
  5
25
330
23
100
AcDbEntity
  8
0
100
AcDbBlockEnd
  0
BLOCK
  5
5C
330
5A
100
AcDbEntity
  8
0
100
AcDbBlockBegin
  2
block 2
 70
     0
 10
0.0
 20
0.0
 30
0.0
  3
block 2
  1

  0
POLYLINE
  5
5E
330
5A
100
AcDbEntity
  8
_U+30EC_U+30A4_U+30E4_U+30FC 1
370
     0
100
AcDb2dPolyline
 66
     1
 10
0.0
 20
0.0
 30
0.0
  0
VERTEX
  5
5F
330
5E
100
AcDbEntity
  8
_U+30EC_U+30A4_U+30E4_U+30FC 1
370
     0
100
AcDbVertex
100
AcDb2dVertex
 10
55.2891316593548
 20
-101.3529866283076
 30
0.0
  0
VERTEX
  5
60
330
5E
100
AcDbEntity
  8
_U+30EC_U+30A4_U+30E4_U+30FC 1
370
     0
100
AcDbVertex
100
AcDb2dVertex
 10
55.2891316593548
 20
-101.6999077436723
 30
0.0
  0
VERTEX
  5
61
330
5E
100
AcDbEntity
  8
_U+30EC_U+30A4_U+30E4_U+30FC 1
370
     0
100
AcDbVertex
100
AcDb2dVertex
 10
55.07140162468701
 20
-101.6999077436723
 30
0.0
  0
VERTEX
  5
62
330
5E
100
AcDbEntity
  8
_U+30EC_U+30A4_U+30E4_U+30FC 1
370
     0
100
AcDbVertex
100
AcDb2dVertex
 10
55.07140162468701
 20
-101.3529866283076
 30
0.0
  0
VERTEX
  5
63
330
5E
100
AcDbEntity
  8
_U+30EC_U+30A4_U+30E4_U+30FC 1
370
     0
100
AcDbVertex
100
AcDb2dVertex
 10
54.41545544429545
 20
-101.3529866283076
 30
0.0
  0
VERTEX
  5
64
330
5E
100
AcDbEntity
  8
_U+30EC_U+30A4_U+30E4_U+30FC 1
370
     0
100
AcDbVertex
100
AcDb2dVertex
 10
54.41545544429545
 20
-101.1287109122178
 30
0.0
  0
VERTEX
  5
65
330
5E
100
AcDbEntity
  8
_U+30EC_U+30A4_U+30E4_U+30FC 1
370
     0
100
AcDbVertex
100
AcDb2dVertex
 10
55.09448376443819
 20
-100.1554714376347
 30
0.0
  0
VERTEX
  5
66
330
5E
100
AcDbEntity
  8
_U+30EC_U+30A4_U+30E4_U+30FC 1
370
     0
100
AcDbVertex
100
AcDb2dVertex
 10
55.2891316593548
 20
-100.1554714376347
 30
0.0
  0
VERTEX
  5
67
330
5E
100
AcDbEntity
  8
_U+30EC_U+30A4_U+30E4_U+30FC 1
370
     0
100
AcDbVertex
100
AcDb2dVertex
 10
55.2891316593548
 20
-101.1542046188087
 30
0.0
  0
VERTEX
  5
68
330
5E
100
AcDbEntity
  8
_U+30EC_U+30A4_U+30E4_U+30FC 1
370
     0
100
AcDbVertex
100
AcDb2dVertex
 10
55.49652640756684
 20
-101.1542046188087
 30
0.0
  0
VERTEX
  5
69
330
5E
100
AcDbEntity
  8
_U+30EC_U+30A4_U+30E4_U+30FC 1
370
     0
100
AcDbVertex
100
AcDb2dVertex
 10
55.49652640756684
 20
-101.3529866283076
 30
0.0
  0
VERTEX
  5
6A
330
5E
100
AcDbEntity
  8
_U+30EC_U+30A4_U+30E4_U+30FC 1
370
     0
100
AcDbVertex
100
AcDb2dVertex
 10
55.2891316593548
 20
-101.3529866283076
 30
0.0
  0
SEQEND
  5
6B
330
5E
100
AcDbEntity
  8
_U+30EC_U+30A4_U+30E4_U+30FC 1
370
     0
  0
POLYLINE
  5
6C
330
5A
100
AcDbEntity
  8
_U+30EC_U+30A4_U+30E4_U+30FC 1
370
     0
100
AcDb2dPolyline
 66
     1
 10
0.0
 20
0.0
 30
0.0
  0
VERTEX
  5
6D
330
6C
100
AcDbEntity
  8
_U+30EC_U+30A4_U+30E4_U+30FC 1
370
     0
100
AcDbVertex
100
AcDb2dVertex
 10
55.07140162468701
 20
-100.4982584384171
 30
0.0
  0
VERTEX
  5
6E
330
6C
100
AcDbEntity
  8
_U+30EC_U+30A4_U+30E4_U+30FC 1
370
     0
100
AcDbVertex
100
AcDb2dVertex
 10
54.61423745379436
 20
-101.1542046188087
 30
0.0
  0
VERTEX
  5
6F
330
6C
100
AcDbEntity
  8
_U+30EC_U+30A4_U+30E4_U+30FC 1
370
     0
100
AcDbVertex
100
AcDb2dVertex
 10
55.07140162468701
 20
-101.1542046188087
 30
0.0
  0
VERTEX
  5
70
330
6C
100
AcDbEntity
  8
_U+30EC_U+30A4_U+30E4_U+30FC 1
370
     0
100
AcDbVertex
100
AcDb2dVertex
 10
55.07140162468701
 20
-100.4982584384171
 30
0.0
  0
SEQEND
  5
71
330
6C
100
AcDbEntity
  8
_U+30EC_U+30A4_U+30E4_U+30FC 1
370
     0
  0
HATCH
  5
72
330
5A
100
AcDbEntity
  8
_U+30EC_U+30A4_U+30E4_U+30FC 1
 62
   179
420
  2234388
100
AcDbHatch
 10
0.0
 20
0.0
 30
0.0
210
0.0
220
0.0
230
1.0
  2
SOLID
 70
     1
 71
     0
 91
        2
 92
        1
 93
       11
 72
     1
 10
55.2891316593548
 20
-101.3529866283076
 11
55.2891316593548
 21
-101.6999077436723
 72
     1
 10
55.2891316593548
 20
-101.6999077436723
 11
55.07140162468701
 21
-101.6999077436723
 72
     1
 10
55.07140162468701
 20
-101.6999077436723
 11
55.07140162468701
 21
-101.3529866283076
 72
     1
 10
55.07140162468701
 20
-101.3529866283076
 11
54.41545544429545
 21
-101.3529866283076
 72
     1
 10
54.41545544429545
 20
-101.3529866283076
 11
54.41545544429545
 21
-101.1287109122178
 72
     1
 10
54.41545544429545
 20
-101.1287109122178
 11
55.09448376443819
 21
-100.1554714376347
 72
     1
 10
55.09448376443819
 20
-100.1554714376347
 11
55.2891316593548
 21
-100.1554714376347
 72
     1
 10
55.2891316593548
 20
-100.1554714376347
 11
55.2891316593548
 21
-101.1542046188087
 72
     1
 10
55.2891316593548
 20
-101.1542046188087
 11
55.49652640756684
 21
-101.1542046188087
 72
     1
 10
55.49652640756684
 20
-101.1542046188087
 11
55.49652640756684
 21
-101.3529866283076
 72
     1
 10
55.49652640756684
 20
-101.3529866283076
 11
55.2891316593548
 21
-101.3529866283076
 97
        0
 92
        1
 93
        3
 72
     1
 10
55.07140162468701
 20
-100.4982584384171
 11
54.61423745379436
 21
-101.1542046188087
 72
     1
 10
54.61423745379436
 20
-101.1542046188087
 11
55.07140162468701
 21
-101.1542046188087
 72
     1
 10
55.07140162468701
 20
-101.1542046188087
 11
55.07140162468701
 21
-100.4982584384171
 97
        0
 75
     2
 76
     1
 98
        0
  0
ENDBLK
  5
5D
330
5A
100
AcDbEntity
  8
0
100
AcDbBlockEnd
  0
BLOCK
  5
88
330
86
100
AcDbEntity
  8
0
100
AcDbBlockBegin
  2
block 3
 70
     0
 10
0.0
 20
0.0
 30
0.0
  3
block 3
  1

  0
SPLINE
  5
8A
330
86
100
AcDbEntity
  8
_U+30EC_U+30A4_U+30E4_U+30FC 1
370
     0
100
AcDbSpline
210
0.0
220
0.0
230
1.0
 70
    11
 71
     3
 72
    26
 73
    22
 74
     0
 42
0.0000000001
 43
0.0000000001
 12
1.0
 22
0.0
 32
0.0
 13
1.0
 23
0.0
 33
0.0
 40
0.0
 40
0.0
 40
0.0
 40
0.0
 40
1.0
 40
1.0
 40
1.0
 40
2.0
 40
2.0
 40
2.0
 40
3.0
 40
3.0
 40
3.0
 40
4.0
 40
4.0
 40
4.0
 40
5.0
 40
5.0
 40
5.0
 40
6.0
 40
6.0
 40
6.0
 40
7.0
 40
7.0
 40
7.0
 40
7.0
 10
79.29093965031616
 20
-78.09066838325512
 30
0.0
 10
79.29093965031616
 20
-78.09066838325512
 30
0.0
 10
78.18678654729358
 20
-78.09066838325512
 30
0.0
 10
78.18678654729358
 20
-78.09066838325512
 30
0.0
 10
78.18678654729358
 20
-78.09066838325512
 30
0.0
 10
78.18678654729358
 20
-78.42070853074205
 30
0.0
 10
78.18678654729358
 20
-78.42070853074205
 30
0.0
 10
78.18678654729358
 20
-78.42070853074205
 30
0.0
 10
78.03864744142784
 20
-78.42070853074205
 30
0.0
 10
78.03864744142784
 20
-78.42070853074205
 30
0.0
 10
78.02383353084127
 20
-78.08860132596396
 30
0.0
 10
77.86088051438895
 20
-78.04209253691309
 30
0.0
 10
77.74650334427865
 20
-78.01246471573994
 30
0.0
 10
77.74650334427865
 20
-78.01246471573994
 30
0.0
 10
77.74650334427865
 20
-77.86639266716534
 30
0.0
 10
77.74650334427865
 20
-77.86639266716534
 30
0.0
 10
77.74650334427865
 20
-77.86639266716534
 30
0.0
 10
79.29093965031616
 20
-77.86639266716534
 30
0.0
 10
79.29093965031616
 20
-77.86639266716534
 30
0.0
 10
79.29093965031616
 20
-77.86639266716534
 30
0.0
 10
79.29093965031616
 20
-78.09066838325512
 30
0.0
 10
79.29093965031616
 20
-78.09066838325512
 30
0.0
  0
HATCH
  5
8B
330
86
100
AcDbEntity
  8
_U+30EC_U+30A4_U+30E4_U+30FC 1
 62
   179
420
  2234388
100
AcDbHatch
 10
0.0
 20
0.0
 30
0.0
210
0.0
220
0.0
230
1.0
  2
SOLID
 70
     1
 71
     0
 91
        1
 92
        1
 93
        1
 72
     4
 94
        3
 73
     0
 74
     1
 95
       26
 96
       22
 40
0.0
 40
0.0
 40
0.0
 40
0.0
 40
1.0
 40
1.0
 40
1.0
 40
2.0
 40
2.0
 40
2.0
 40
3.0
 40
3.0
 40
3.0
 40
4.0
 40
4.0
 40
4.0
 40
5.0
 40
5.0
 40
5.0
 40
6.0
 40
6.0
 40
6.0
 40
7.0
 40
7.0
 40
7.0
 40
7.0
 10
79.29093965031616
 20
-78.09066838325512
 10
79.29093965031616
 20
-78.09066838325512
 10
78.18678654729358
 20
-78.09066838325512
 10
78.18678654729358
 20
-78.09066838325512
 10
78.18678654729358
 20
-78.09066838325512
 10
78.18678654729358
 20
-78.42070853074205
 10
78.18678654729358
 20
-78.42070853074205
 10
78.18678654729358
 20
-78.42070853074205
 10
78.03864744142784
 20
-78.42070853074205
 10
78.03864744142784
 20
-78.42070853074205
 10
78.02383353084127
 20
-78.08860132596396
 10
77.86088051438895
 20
-78.04209253691309
 10
77.74650334427865
 20
-78.01246471573994
 10
77.74650334427865
 20
-78.01246471573994
 10
77.74650334427865
 20
-77.86639266716534
 10
77.74650334427865
 20
-77.86639266716534
 10
77.74650334427865
 20
-77.86639266716534
 10
79.29093965031616
 20
-77.86639266716534
 10
79.29093965031616
 20
-77.86639266716534
 10
79.29093965031616
 20
-77.86639266716534
 10
79.29093965031616
 20
-78.09066838325512
 10
79.29093965031616
 20
-78.09066838325512
 97
        0
 97
        0
 75
     2
 76
     1
 98
        0
  0
ENDBLK
  5
89
330
86
100
AcDbEntity
  8
0
100
AcDbBlockEnd
  0
BLOCK
  5
8E
330
8C
100
AcDbEntity
  8
0
100
AcDbBlockBegin
  2
block 4
 70
     0
 10
0.0
 20
0.0
 30
0.0
  3
block 4
  1

  0
SPLINE
  5
90
330
8C
100
AcDbEntity
  8
_U+30EC_U+30A4_U+30E4_U+30FC 1
370
     0
100
AcDbSpline
210
0.0
220
0.0
230
1.0
 70
    11
 71
     3
 72
    26
 73
    22
 74
     0
 42
0.0000000001
 43
0.0000000001
 12
1.0
 22
0.0
 32
0.0
 13
1.0
 23
0.0
 33
0.0
 40
0.0
 40
0.0
 40
0.0
 40
0.0
 40
1.0
 40
1.0
 40
1.0
 40
2.0
 40
2.0
 40
2.0
 40
3.0
 40
3.0
 40
3.0
 40
4.0
 40
4.0
 40
4.0
 40
5.0
 40
5.0
 40
5.0
 40
6.0
 40
6.0
 40
6.0
 40
7.0
 40
7.0
 40
7.0
 40
7.0
 10
79.29093965031616
 20
-91.1765190744281
 30
0.0
 10
79.29093965031616
 20
-91.1765190744281
 30
0.0
 10
78.18678654729358
 20
-91.1765190744281
 30
0.0
 10
78.18678654729358
 20
-91.1765190744281
 30
0.0
 10
78.18678654729358
 20
-91.1765190744281
 30
0.0
 10
78.18678654729358
 20
-91.50655922191503
 30
0.0
 10
78.18678654729358
 20
-91.50655922191503
 30
0.0
 10
78.18678654729358
 20
-91.50655922191503
 30
0.0
 10
78.03864744142784
 20
-91.50655922191503
 30
0.0
 10
78.03864744142784
 20
-91.50655922191503
 30
0.0
 10
78.02383353084127
 20
-91.17445201713694
 30
0.0
 10
77.86088051438895
 20
-91.12794322808607
 30
0.0
 10
77.74650334427865
 20
-91.09831540691293
 30
0.0
 10
77.74650334427865
 20
-91.09831540691293
 30
0.0
 10
77.74650334427865
 20
-90.95224335833834
 30
0.0
 10
77.74650334427865
 20
-90.95224335833834
 30
0.0
 10
77.74650334427865
 20
-90.95224335833834
 30
0.0
 10
79.29093965031616
 20
-90.95224335833834
 30
0.0
 10
79.29093965031616
 20
-90.95224335833834
 30
0.0
 10
79.29093965031616
 20
-90.95224335833834
 30
0.0
 10
79.29093965031616
 20
-91.1765190744281
 30
0.0
 10
79.29093965031616
 20
-91.1765190744281
 30
0.0
  0
HATCH
  5
91
330
8C
100
AcDbEntity
  8
_U+30EC_U+30A4_U+30E4_U+30FC 1
 62
   179
420
  2234388
100
AcDbHatch
 10
0.0
 20
0.0
 30
0.0
210
0.0
220
0.0
230
1.0
  2
SOLID
 70
     1
 71
     0
 91
        1
 92
        1
 93
        1
 72
     4
 94
        3
 73
     0
 74
     1
 95
       26
 96
       22
 40
0.0
 40
0.0
 40
0.0
 40
0.0
 40
1.0
 40
1.0
 40
1.0
 40
2.0
 40
2.0
 40
2.0
 40
3.0
 40
3.0
 40
3.0
 40
4.0
 40
4.0
 40
4.0
 40
5.0
 40
5.0
 40
5.0
 40
6.0
 40
6.0
 40
6.0
 40
7.0
 40
7.0
 40
7.0
 40
7.0
 10
79.29093965031616
 20
-91.1765190744281
 10
79.29093965031616
 20
-91.1765190744281
 10
78.18678654729358
 20
-91.1765190744281
 10
78.18678654729358
 20
-91.1765190744281
 10
78.18678654729358
 20
-91.1765190744281
 10
78.18678654729358
 20
-91.50655922191503
 10
78.18678654729358
 20
-91.50655922191503
 10
78.18678654729358
 20
-91.50655922191503
 10
78.03864744142784
 20
-91.50655922191503
 10
78.03864744142784
 20
-91.50655922191503
 10
78.02383353084127
 20
-91.17445201713694
 10
77.86088051438895
 20
-91.12794322808607
 10
77.74650334427865
 20
-91.09831540691293
 10
77.74650334427865
 20
-91.09831540691293
 10
77.74650334427865
 20
-90.95224335833834
 10
77.74650334427865
 20
-90.95224335833834
 10
77.74650334427865
 20
-90.95224335833834
 10
79.29093965031616
 20
-90.95224335833834
 10
79.29093965031616
 20
-90.95224335833834
 10
79.29093965031616
 20
-90.95224335833834
 10
79.29093965031616
 20
-91.1765190744281
 10
79.29093965031616
 20
-91.1765190744281
 97
        0
 97
        0
 75
     2
 76
     1
 98
        0
  0
SPLINE
  5
92
330
8C
100
AcDbEntity
  8
_U+30EC_U+30A4_U+30E4_U+30FC 1
370
     0
100
AcDbSpline
210
0.0
220
0.0
230
1.0
 70
    11
 71
     3
 72
    53
 73
    49
 74
     0
 42
0.0000000001
 43
0.0000000001
 12
1.0
 22
0.0
 32
0.0
 13
1.0
 23
0.0
 33
0.0
 40
0.0
 40
0.0
 40
0.0
 40
0.0
 40
1.0
 40
1.0
 40
1.0
 40
2.0
 40
2.0
 40
2.0
 40
3.0
 40
3.0
 40
3.0
 40
4.0
 40
4.0
 40
4.0
 40
5.0
 40
5.0
 40
5.0
 40
6.0
 40
6.0
 40
6.0
 40
7.0
 40
7.0
 40
7.0
 40
8.0
 40
8.0
 40
8.0
 40
9.0
 40
9.0
 40
9.0
 40
10.0
 40
10.0
 40
10.0
 40
11.0
 40
11.0
 40
11.0
 40
12.0
 40
12.0
 40
12.0
 40
13.0
 40
13.0
 40
13.0
 40
14.0
 40
14.0
 40
14.0
 40
15.0
 40
15.0
 40
15.0
 40
16.0
 40
16.0
 40
16.0
 40
16.0
 10
79.34158255394934
 20
-89.9700466354936
 30
0.0
 10
79.34158255394934
 20
-90.04825030300877
 30
0.0
 10
79.32470158607161
 20
-90.14988061982365
 30
0.0
 10
79.26131182914301
 20
-90.25151093663851
 30
0.0
 10
79.15141328316354
 20
-90.42479923954659
 30
0.0
 10
79.02015514517552
 20
-90.44615883155514
 30
0.0
 10
78.9123236564872
 20
-90.465106856724
 30
0.0
 10
78.9123236564872
 20
-90.465106856724
 30
0.0
 10
78.9123236564872
 20
-90.24289819792538
 30
0.0
 10
78.9123236564872
 20
-90.24289819792538
 30
0.0
 10
79.11110566598612
 20
-90.18812117970992
 30
0.0
 10
79.14073348715927
 20
-90.0609971563042
 30
0.0
 10
79.14073348715927
 20
-89.96797957820246
 30
0.0
 10
79.14073348715927
 20
-89.82845321104983
 30
0.0
 10
79.04117022763555
 20
-89.6761799906018
 30
0.0
 10
78.80862628238118
 20
-89.6761799906018
 30
0.0
 10
78.55265568782711
 20
-89.6761799906018
 30
0.0
 10
78.48272024947654
 20
-89.85601397493184
 30
0.0
 10
78.48272024947654
 20
-89.97659231691557
 30
0.0
 10
78.48272024947654
 20
-90.00828719537988
 30
0.0
 10
78.48272024947654
 20
-90.14988061982365
 30
0.0
 10
78.61191133017341
 20
-90.23876408334309
 30
0.0
 10
78.61191133017341
 20
-90.23876408334309
 30
0.0
 10
78.59296330500455
 20
-90.41446395309083
 30
0.0
 10
78.59296330500455
 20
-90.41446395309083
 30
0.0
 10
78.59296330500455
 20
-90.41446395309083
 30
0.0
 10
77.74650334427865
 20
-90.29388561110709
 30
0.0
 10
77.74650334427865
 20
-90.29388561110709
 30
0.0
 10
77.74650334427865
 20
-90.29388561110709
 30
0.0
 10
77.74650334427865
 20
-89.51529403144062
 30
0.0
 10
77.74650334427865
 20
-89.51529403144062
 30
0.0
 10
77.74650334427865
 20
-89.51529403144062
 30
0.0
 10
77.94115123919528
 20
-89.51529403144062
 30
0.0
 10
77.94115123919528
 20
-89.51529403144062
 30
0.0
 10
77.94115123919528
 20
-89.51529403144062
 30
0.0
 10
77.94115123919528
 20
-90.13093259465477
 30
0.0
 10
77.94115123919528
 20
-90.13093259465477
 30
0.0
 10
77.94115123919528
 20
-90.13093259465477
 30
0.0
 10
78.36420896478396
 20
-90.19638940887452
 30
0.0
 10
78.36420896478396
 20
-90.19638940887452
 30
0.0
 10
78.3304470290285
 20
-90.13506670923707
 30
0.0
 10
78.29013941185109
 20
-90.0527289271396
 30
0.0
 10
78.29013941185109
 20
-89.93421764244701
 30
0.0
 10
78.29013941185109
 20
-89.6803141051841
 30
0.0
 10
78.4765190776031
 20
-89.4432915357989
 30
0.0
 10
78.7896782572123
 20
-89.4432915357989
 30
0.0
 10
79.10697155140382
 20
-89.4432915357989
 30
0.0
 10
79.34158255394934
 20
-89.66756725188867
 30
0.0
 10
79.34158255394934
 20
-89.9700466354936
 30
0.0
  0
HATCH
  5
93
330
8C
100
AcDbEntity
  8
_U+30EC_U+30A4_U+30E4_U+30FC 1
 62
   179
420
  2234388
100
AcDbHatch
 10
0.0
 20
0.0
 30
0.0
210
0.0
220
0.0
230
1.0
  2
SOLID
 70
     1
 71
     0
 91
        1
 92
        1
 93
        1
 72
     4
 94
        3
 73
     0
 74
     1
 95
       53
 96
       49
 40
0.0
 40
0.0
 40
0.0
 40
0.0
 40
1.0
 40
1.0
 40
1.0
 40
2.0
 40
2.0
 40
2.0
 40
3.0
 40
3.0
 40
3.0
 40
4.0
 40
4.0
 40
4.0
 40
5.0
 40
5.0
 40
5.0
 40
6.0
 40
6.0
 40
6.0
 40
7.0
 40
7.0
 40
7.0
 40
8.0
 40
8.0
 40
8.0
 40
9.0
 40
9.0
 40
9.0
 40
10.0
 40
10.0
 40
10.0
 40
11.0
 40
11.0
 40
11.0
 40
12.0
 40
12.0
 40
12.0
 40
13.0
 40
13.0
 40
13.0
 40
14.0
 40
14.0
 40
14.0
 40
15.0
 40
15.0
 40
15.0
 40
16.0
 40
16.0
 40
16.0
 40
16.0
 10
79.34158255394934
 20
-89.9700466354936
 10
79.34158255394934
 20
-90.04825030300877
 10
79.32470158607161
 20
-90.14988061982365
 10
79.26131182914301
 20
-90.25151093663851
 10
79.15141328316354
 20
-90.42479923954659
 10
79.02015514517552
 20
-90.44615883155514
 10
78.9123236564872
 20
-90.465106856724
 10
78.9123236564872
 20
-90.465106856724
 10
78.9123236564872
 20
-90.24289819792538
 10
78.9123236564872
 20
-90.24289819792538
 10
79.11110566598612
 20
-90.18812117970992
 10
79.14073348715927
 20
-90.0609971563042
 10
79.14073348715927
 20
-89.96797957820246
 10
79.14073348715927
 20
-89.82845321104983
 10
79.04117022763555
 20
-89.6761799906018
 10
78.80862628238118
 20
-89.6761799906018
 10
78.55265568782711
 20
-89.6761799906018
 10
78.48272024947654
 20
-89.85601397493184
 10
78.48272024947654
 20
-89.97659231691557
 10
78.48272024947654
 20
-90.00828719537988
 10
78.48272024947654
 20
-90.14988061982365
 10
78.61191133017341
 20
-90.23876408334309
 10
78.61191133017341
 20
-90.23876408334309
 10
78.59296330500455
 20
-90.41446395309083
 10
78.59296330500455
 20
-90.41446395309083
 10
78.59296330500455
 20
-90.41446395309083
 10
77.74650334427865
 20
-90.29388561110709
 10
77.74650334427865
 20
-90.29388561110709
 10
77.74650334427865
 20
-90.29388561110709
 10
77.74650334427865
 20
-89.51529403144062
 10
77.74650334427865
 20
-89.51529403144062
 10
77.74650334427865
 20
-89.51529403144062
 10
77.94115123919528
 20
-89.51529403144062
 10
77.94115123919528
 20
-89.51529403144062
 10
77.94115123919528
 20
-89.51529403144062
 10
77.94115123919528
 20
-90.13093259465477
 10
77.94115123919528
 20
-90.13093259465477
 10
77.94115123919528
 20
-90.13093259465477
 10
78.36420896478396
 20
-90.19638940887452
 10
78.36420896478396
 20
-90.19638940887452
 10
78.3304470290285
 20
-90.13506670923707
 10
78.29013941185109
 20
-90.0527289271396
 10
78.29013941185109
 20
-89.93421764244701
 10
78.29013941185109
 20
-89.6803141051841
 10
78.4765190776031
 20
-89.4432915357989
 10
78.7896782572123
 20
-89.4432915357989
 10
79.10697155140382
 20
-89.4432915357989
 10
79.34158255394934
 20
-89.66756725188867
 10
79.34158255394934
 20
-89.9700466354936
 97
        0
 97
        0
 75
     2
 76
     1
 98
        0
  0
POLYLINE
  5
94
330
8C
100
AcDbEntity
  8
_U+30EC_U+30A4_U+30E4_U+30FC 1
370
     0
100
AcDb2dPolyline
 66
     1
 10
0.0
 20
0.0
 30
0.0
  0
VERTEX
  5
95
330
94
100
AcDbEntity
  8
_U+30EC_U+30A4_U+30E4_U+30FC 1
370
     0
100
AcDbVertex
100
AcDb2dVertex
 10
79.29093965031616
 20
-89.21419268602979
 30
0.0
  0
VERTEX
  5
96
330
94
100
AcDbEntity
  8
_U+30EC_U+30A4_U+30E4_U+30FC 1
370
     0
100
AcDbVertex
100
AcDb2dVertex
 10
79.03910317034439
 20
-89.21419268602979
 30
0.0
  0
VERTEX
  5
97
330
94
100
AcDbEntity
  8
_U+30EC_U+30A4_U+30E4_U+30FC 1
370
     0
100
AcDbVertex
100
AcDb2dVertex
 10
79.03910317034439
 20
-88.96235620605803
 30
0.0
  0
VERTEX
  5
98
330
94
100
AcDbEntity
  8
_U+30EC_U+30A4_U+30E4_U+30FC 1
370
     0
100
AcDbVertex
100
AcDb2dVertex
 10
79.29093965031616
 20
-88.96235620605803
 30
0.0
  0
VERTEX
  5
99
330
94
100
AcDbEntity
  8
_U+30EC_U+30A4_U+30E4_U+30FC 1
370
     0
100
AcDbVertex
100
AcDb2dVertex
 10
79.29093965031616
 20
-89.21419268602979
 30
0.0
  0
SEQEND
  5
9A
330
94
100
AcDbEntity
  8
_U+30EC_U+30A4_U+30E4_U+30FC 1
370
     0
  0
HATCH
  5
9B
330
8C
100
AcDbEntity
  8
_U+30EC_U+30A4_U+30E4_U+30FC 1
 62
   179
420
  2234388
100
AcDbHatch
 10
0.0
 20
0.0
 30
0.0
210
0.0
220
0.0
230
1.0
  2
SOLID
 70
     1
 71
     0
 91
        1
 92
        1
 93
        4
 72
     1
 10
79.29093965031616
 20
-89.21419268602979
 11
79.03910317034439
 21
-89.21419268602979
 72
     1
 10
79.03910317034439
 20
-89.21419268602979
 11
79.03910317034439
 21
-88.96235620605803
 72
     1
 10
79.03910317034439
 20
-88.96235620605803
 11
79.29093965031616
 21
-88.96235620605803
 72
     1
 10
79.29093965031616
 20
-88.96235620605803
 11
79.29093965031616
 21
-89.21419268602979
 97
        0
 75
     2
 76
     1
 98
        0
  0
SPLINE
  5
9C
330
8C
100
AcDbEntity
  8
_U+30EC_U+30A4_U+30E4_U+30FC 1
370
     0
100
AcDbSpline
210
0.0
220
0.0
230
1.0
 70
    11
 71
     3
 72
    44
 73
    40
 74
     0
 42
0.0000000001
 43
0.0000000001
 12
1.0
 22
0.0
 32
0.0
 13
1.0
 23
0.0
 33
0.0
 40
0.0
 40
0.0
 40
0.0
 40
0.0
 40
1.0
 40
1.0
 40
1.0
 40
2.0
 40
2.0
 40
2.0
 40
3.0
 40
3.0
 40
3.0
 40
4.0
 40
4.0
 40
4.0
 40
5.0
 40
5.0
 40
5.0
 40
6.0
 40
6.0
 40
6.0
 40
7.0
 40
7.0
 40
7.0
 40
8.0
 40
8.0
 40
8.0
 40
9.0
 40
9.0
 40
9.0
 40
10.0
 40
10.0
 40
10.0
 40
11.0
 40
11.0
 40
11.0
 40
12.0
 40
12.0
 40
12.0
 40
13.0
 40
13.0
 40
13.0
 40
13.0
 10
78.70906302285746
 20
-88.13312172275839
 30
0.0
 10
78.86788192472748
 20
-88.35085175742618
 30
0.0
 10
78.94195147766035
 20
-88.44386933552792
 30
0.0
 10
79.08561195939527
 20
-88.49278969141848
 30
0.0
 10
79.08561195939527
 20
-88.49278969141848
 30
0.0
 10
79.08561195939527
 20
-87.71419811175201
 30
0.0
 10
79.08561195939527
 20
-87.71419811175201
 30
0.0
 10
79.08561195939527
 20
-87.71419811175201
 30
0.0
 10
79.29093965031616
 20
-87.71419811175201
 30
0.0
 10
79.29093965031616
 20
-87.71419811175201
 30
0.0
 10
79.29093965031616
 20
-87.71419811175201
 30
0.0
 10
79.29093965031616
 20
-88.74221460455057
 30
0.0
 10
79.29093965031616
 20
-88.74221460455057
 30
0.0
 10
78.93333873894723
 20
-88.71051972608626
 30
0.0
 10
78.85513507143206
 20
-88.64506291186652
 30
0.0
 10
78.55678980240941
 20
-88.25990123661559
 30
0.0
 10
78.3580077929105
 20
-88.00393064206152
 30
0.0
 10
78.29013941185109
 20
-87.93847382784178
 30
0.0
 10
78.15268010198962
 20
-87.93847382784178
 30
0.0
 10
78.03416881729702
 20
-87.93847382784178
 30
0.0
 10
77.90325518885753
 20
-88.0104763234835
 30
0.0
 10
77.90325518885753
 20
-88.20719127569126
 30
0.0
 10
77.90325518885753
 20
-88.46729598482763
 30
0.0
 10
78.13373207682073
 20
-88.47556421399223
 30
0.0
 10
78.25017630422218
 20
-88.48004283812305
 30
0.0
 10
78.25017630422218
 20
-88.48004283812305
 30
0.0
 10
78.25017630422218
 20
-88.70431855421282
 30
0.0
 10
78.25017630422218
 20
-88.70431855421282
 30
0.0
 10
78.12305228081647
 20
-88.6957058154997
 30
0.0
 10
78.01108667754585
 20
-88.68502601949541
 30
0.0
 10
77.89257539285325
 20
-88.6047552946891
 30
0.0
 10
77.73168943369208
 20
-88.49485674870962
 30
0.0
 10
77.69792749793663
 20
-88.30847708295761
 30
0.0
 10
77.69792749793663
 20
-88.19237736510469
 30
0.0
 10
77.69792749793663
 20
-87.91504717854208
 30
0.0
 10
77.88189559684898
 20
-87.70765243033003
 30
0.0
 10
78.15474715928076
 20
-87.70765243033003
 30
0.0
 10
78.38350149950135
 20
-87.70765243033003
 30
0.0
 10
78.48272024947654
 20
-87.82409665773147
 30
0.0
 10
78.70906302285746
 20
-88.13312172275839
 30
0.0
  0
HATCH
  5
9D
330
8C
100
AcDbEntity
  8
_U+30EC_U+30A4_U+30E4_U+30FC 1
 62
   179
420
  2234388
100
AcDbHatch
 10
0.0
 20
0.0
 30
0.0
210
0.0
220
0.0
230
1.0
  2
SOLID
 70
     1
 71
     0
 91
        1
 92
        1
 93
        1
 72
     4
 94
        3
 73
     0
 74
     1
 95
       44
 96
       40
 40
0.0
 40
0.0
 40
0.0
 40
0.0
 40
1.0
 40
1.0
 40
1.0
 40
2.0
 40
2.0
 40
2.0
 40
3.0
 40
3.0
 40
3.0
 40
4.0
 40
4.0
 40
4.0
 40
5.0
 40
5.0
 40
5.0
 40
6.0
 40
6.0
 40
6.0
 40
7.0
 40
7.0
 40
7.0
 40
8.0
 40
8.0
 40
8.0
 40
9.0
 40
9.0
 40
9.0
 40
10.0
 40
10.0
 40
10.0
 40
11.0
 40
11.0
 40
11.0
 40
12.0
 40
12.0
 40
12.0
 40
13.0
 40
13.0
 40
13.0
 40
13.0
 10
78.70906302285746
 20
-88.13312172275839
 10
78.86788192472748
 20
-88.35085175742618
 10
78.94195147766035
 20
-88.44386933552792
 10
79.08561195939527
 20
-88.49278969141848
 10
79.08561195939527
 20
-88.49278969141848
 10
79.08561195939527
 20
-87.71419811175201
 10
79.08561195939527
 20
-87.71419811175201
 10
79.08561195939527
 20
-87.71419811175201
 10
79.29093965031616
 20
-87.71419811175201
 10
79.29093965031616
 20
-87.71419811175201
 10
79.29093965031616
 20
-87.71419811175201
 10
79.29093965031616
 20
-88.74221460455057
 10
79.29093965031616
 20
-88.74221460455057
 10
78.93333873894723
 20
-88.71051972608626
 10
78.85513507143206
 20
-88.64506291186652
 10
78.55678980240941
 20
-88.25990123661559
 10
78.3580077929105
 20
-88.00393064206152
 10
78.29013941185109
 20
-87.93847382784178
 10
78.15268010198962
 20
-87.93847382784178
 10
78.03416881729702
 20
-87.93847382784178
 10
77.90325518885753
 20
-88.0104763234835
 10
77.90325518885753
 20
-88.20719127569126
 10
77.90325518885753
 20
-88.46729598482763
 10
78.13373207682073
 20
-88.47556421399223
 10
78.25017630422218
 20
-88.48004283812305
 10
78.25017630422218
 20
-88.48004283812305
 10
78.25017630422218
 20
-88.70431855421282
 10
78.25017630422218
 20
-88.70431855421282
 10
78.12305228081647
 20
-88.6957058154997
 10
78.01108667754585
 20
-88.68502601949541
 10
77.89257539285325
 20
-88.6047552946891
 10
77.73168943369208
 20
-88.49485674870962
 10
77.69792749793663
 20
-88.30847708295761
 10
77.69792749793663
 20
-88.19237736510469
 10
77.69792749793663
 20
-87.91504717854208
 10
77.88189559684898
 20
-87.70765243033003
 10
78.15474715928076
 20
-87.70765243033003
 10
78.38350149950135
 20
-87.70765243033003
 10
78.48272024947654
 20
-87.82409665773147
 10
78.70906302285746
 20
-88.13312172275839
 97
        0
 97
        0
 75
     2
 76
     1
 98
        0
  0
ENDBLK
  5
8F
330
8C
100
AcDbEntity
  8
0
100
AcDbBlockEnd
  0
BLOCK
  5
AE
330
AC
100
AcDbEntity
  8
0
100
AcDbBlockBegin
  2
block 5
 70
     0
 10
0.0
 20
0.0
 30
0.0
  3
block 5
  1

  0
SPLINE
  5
B0
330
AC
100
AcDbEntity
  8
_U+30EC_U+30A4_U+30E4_U+30FC 1
370
     0
100
AcDbSpline
210
0.0
220
0.0
230
1.0
 70
    11
 71
     3
 72
    44
 73
    40
 74
     0
 42
0.0000000001
 43
0.0000000001
 12
1.0
 22
0.0
 32
0.0
 13
1.0
 23
0.0
 33
0.0
 40
0.0
 40
0.0
 40
0.0
 40
0.0
 40
1.0
 40
1.0
 40
1.0
 40
2.0
 40
2.0
 40
2.0
 40
3.0
 40
3.0
 40
3.0
 40
4.0
 40
4.0
 40
4.0
 40
5.0
 40
5.0
 40
5.0
 40
6.0
 40
6.0
 40
6.0
 40
7.0
 40
7.0
 40
7.0
 40
8.0
 40
8.0
 40
8.0
 40
9.0
 40
9.0
 40
9.0
 40
10.0
 40
10.0
 40
10.0
 40
11.0
 40
11.0
 40
11.0
 40
12.0
 40
12.0
 40
12.0
 40
13.0
 40
13.0
 40
13.0
 40
13.0
 10
63.82556150748111
 20
-75.97848034124844
 30
0.0
 10
63.60783147281332
 20
-76.13729924311846
 30
0.0
 10
63.51481389471158
 20
-76.21136879605133
 30
0.0
 10
63.46589353882103
 20
-76.35502927778624
 30
0.0
 10
63.46589353882103
 20
-76.35502927778624
 30
0.0
 10
64.24448511848749
 20
-76.35502927778624
 30
0.0
 10
64.24448511848749
 20
-76.35502927778624
 30
0.0
 10
64.24448511848749
 20
-76.35502927778624
 30
0.0
 10
64.24448511848749
 20
-76.56035696870714
 30
0.0
 10
64.24448511848749
 20
-76.56035696870714
 30
0.0
 10
64.24448511848749
 20
-76.56035696870714
 30
0.0
 10
63.21646862568894
 20
-76.56035696870714
 30
0.0
 10
63.21646862568894
 20
-76.56035696870714
 30
0.0
 10
63.24816350415324
 20
-76.2027560573382
 30
0.0
 10
63.31362031837298
 20
-76.12455238982304
 30
0.0
 10
63.69878199362392
 20
-75.82620712080039
 30
0.0
 10
63.95475258817798
 20
-75.62742511130148
 30
0.0
 10
64.02020940239773
 20
-75.55955673024206
 30
0.0
 10
64.02020940239773
 20
-75.4220974203806
 30
0.0
 10
64.02020940239773
 20
-75.303586135688
 30
0.0
 10
63.94820690675601
 20
-75.1726725072485
 30
0.0
 10
63.75149195454824
 20
-75.1726725072485
 30
0.0
 10
63.49138724541188
 20
-75.1726725072485
 30
0.0
 10
63.48277450669875
 20
-75.40314939521171
 30
0.0
 10
63.47864039211645
 20
-75.51959362261316
 30
0.0
 10
63.47864039211645
 20
-75.51959362261316
 30
0.0
 10
63.25436467602669
 20
-75.51959362261316
 30
0.0
 10
63.25436467602669
 20
-75.51959362261316
 30
0.0
 10
63.26297741473982
 20
-75.39246959920744
 30
0.0
 10
63.27365721074409
 20
-75.28050399593683
 30
0.0
 10
63.35392793555041
 20
-75.16199271124422
 30
0.0
 10
63.46382648152988
 20
-75.00110675208306
 30
0.0
 10
63.65020614728189
 20
-74.96734481632761
 30
0.0
 10
63.76630586513482
 20
-74.96734481632761
 30
0.0
 10
64.04363605169743
 20
-74.96734481632761
 30
0.0
 10
64.25103079990947
 20
-75.15131291523996
 30
0.0
 10
64.25103079990947
 20
-75.42416447767174
 30
0.0
 10
64.25103079990947
 20
-75.65291881789233
 30
0.0
 10
64.13458657250803
 20
-75.75213756786752
 30
0.0
 10
63.82556150748111
 20
-75.97848034124844
 30
0.0
  0
HATCH
  5
B1
330
AC
100
AcDbEntity
  8
_U+30EC_U+30A4_U+30E4_U+30FC 1
 62
   179
420
  2234388
100
AcDbHatch
 10
0.0
 20
0.0
 30
0.0
210
0.0
220
0.0
230
1.0
  2
SOLID
 70
     1
 71
     0
 91
        1
 92
        1
 93
        1
 72
     4
 94
        3
 73
     0
 74
     1
 95
       44
 96
       40
 40
0.0
 40
0.0
 40
0.0
 40
0.0
 40
1.0
 40
1.0
 40
1.0
 40
2.0
 40
2.0
 40
2.0
 40
3.0
 40
3.0
 40
3.0
 40
4.0
 40
4.0
 40
4.0
 40
5.0
 40
5.0
 40
5.0
 40
6.0
 40
6.0
 40
6.0
 40
7.0
 40
7.0
 40
7.0
 40
8.0
 40
8.0
 40
8.0
 40
9.0
 40
9.0
 40
9.0
 40
10.0
 40
10.0
 40
10.0
 40
11.0
 40
11.0
 40
11.0
 40
12.0
 40
12.0
 40
12.0
 40
13.0
 40
13.0
 40
13.0
 40
13.0
 10
63.82556150748111
 20
-75.97848034124844
 10
63.60783147281332
 20
-76.13729924311846
 10
63.51481389471158
 20
-76.21136879605133
 10
63.46589353882103
 20
-76.35502927778624
 10
63.46589353882103
 20
-76.35502927778624
 10
64.24448511848749
 20
-76.35502927778624
 10
64.24448511848749
 20
-76.35502927778624
 10
64.24448511848749
 20
-76.35502927778624
 10
64.24448511848749
 20
-76.56035696870714
 10
64.24448511848749
 20
-76.56035696870714
 10
64.24448511848749
 20
-76.56035696870714
 10
63.21646862568894
 20
-76.56035696870714
 10
63.21646862568894
 20
-76.56035696870714
 10
63.24816350415324
 20
-76.2027560573382
 10
63.31362031837298
 20
-76.12455238982304
 10
63.69878199362392
 20
-75.82620712080039
 10
63.95475258817798
 20
-75.62742511130148
 10
64.02020940239773
 20
-75.55955673024206
 10
64.02020940239773
 20
-75.4220974203806
 10
64.02020940239773
 20
-75.303586135688
 10
63.94820690675601
 20
-75.1726725072485
 10
63.75149195454824
 20
-75.1726725072485
 10
63.49138724541188
 20
-75.1726725072485
 10
63.48277450669875
 20
-75.40314939521171
 10
63.47864039211645
 20
-75.51959362261316
 10
63.47864039211645
 20
-75.51959362261316
 10
63.25436467602669
 20
-75.51959362261316
 10
63.25436467602669
 20
-75.51959362261316
 10
63.26297741473982
 20
-75.39246959920744
 10
63.27365721074409
 20
-75.28050399593683
 10
63.35392793555041
 20
-75.16199271124422
 10
63.46382648152988
 20
-75.00110675208306
 10
63.65020614728189
 20
-74.96734481632761
 10
63.76630586513482
 20
-74.96734481632761
 10
64.04363605169743
 20
-74.96734481632761
 10
64.25103079990947
 20
-75.15131291523996
 10
64.25103079990947
 20
-75.42416447767174
 10
64.25103079990947
 20
-75.65291881789233
 10
64.13458657250803
 20
-75.75213756786752
 10
63.82556150748111
 20
-75.97848034124844
 97
        0
 97
        0
 75
     2
 76
     1
 98
        0
  0
SPLINE
  5
B2
330
AC
100
AcDbEntity
  8
_U+30EC_U+30A4_U+30E4_U+30FC 1
370
     0
100
AcDbSpline
210
0.0
220
0.0
230
1.0
 70
    11
 71
     3
 72
    62
 73
    58
 74
     0
 42
0.0000000001
 43
0.0000000001
 12
1.0
 22
0.0
 32
0.0
 13
1.0
 23
0.0
 33
0.0
 40
0.0
 40
0.0
 40
0.0
 40
0.0
 40
1.0
 40
1.0
 40
1.0
 40
2.0
 40
2.0
 40
2.0
 40
3.0
 40
3.0
 40
3.0
 40
4.0
 40
4.0
 40
4.0
 40
5.0
 40
5.0
 40
5.0
 40
6.0
 40
6.0
 40
6.0
 40
7.0
 40
7.0
 40
7.0
 40
8.0
 40
8.0
 40
8.0
 40
9.0
 40
9.0
 40
9.0
 40
10.0
 40
10.0
 40
10.0
 40
11.0
 40
11.0
 40
11.0
 40
12.0
 40
12.0
 40
12.0
 40
13.0
 40
13.0
 40
13.0
 40
14.0
 40
14.0
 40
14.0
 40
15.0
 40
15.0
 40
15.0
 40
16.0
 40
16.0
 40
16.0
 40
17.0
 40
17.0
 40
17.0
 40
18.0
 40
18.0
 40
18.0
 40
19.0
 40
19.0
 40
19.0
 40
19.0
 10
64.90112031797611
 20
-76.61099987234032
 30
0.0
 10
64.80569117303469
 20
-76.61099987234032
 30
0.0
 10
64.58796113836691
 20
-76.58998478988029
 30
0.0
 10
64.46290417225234
 20
-76.40394963367679
 30
0.0
 10
64.38883461931947
 20
-76.29163952085764
 30
0.0
 10
64.38470050473717
 20
-76.19242077088245
 30
0.0
 10
64.38056639015487
 20
-76.10767142194531
 30
0.0
 10
64.38056639015487
 20
-76.10767142194531
 30
0.0
 10
64.60070799166233
 20
-76.10767142194531
 30
0.0
 10
64.60070799166233
 20
-76.10767142194531
 30
0.0
 10
64.60277504895348
 20
-76.18174097487818
 30
0.0
 10
64.61311033540923
 20
-76.41635197742369
 30
0.0
 10
64.89664169384528
 20
-76.41635197742369
 30
0.0
 10
65.03410100370675
 20
-76.41635197742369
 30
0.0
 10
65.18671873370333
 20
-76.34676104862164
 30
0.0
 10
65.18671873370333
 20
-76.11835121794958
 30
0.0
 10
65.18671873370333
 20
-76.00190699054814
 30
0.0
 10
65.14847817381705
 20
-75.95333114420612
 30
0.0
 10
65.11678329535275
 20
-75.92163626574181
 30
0.0
 10
65.04271374241988
 20
-75.84756671280894
 30
0.0
 10
64.92626951501843
 20
-75.83481985951352
 30
0.0
 10
64.87149249680296
 20
-75.83481985951352
 30
0.0
 10
64.85219996208556
 20
-75.83481985951352
 30
0.0
 10
64.81637096903897
 20
-75.83688691680467
 30
0.0
 10
64.78881020515696
 20
-75.84102103138697
 30
0.0
 10
64.78881020515696
 20
-75.84102103138697
 30
0.0
 10
64.78881020515696
 20
-75.64637313647036
 30
0.0
 10
64.78881020515696
 20
-75.64637313647036
 30
0.0
 10
64.82705076504324
 20
-75.65291881789233
 30
0.0
 10
64.86908092996329
 20
-75.65498587518348
 30
0.0
 10
64.87562661138526
 20
-75.65498587518348
 30
0.0
 10
64.94108342560502
 20
-75.65498587518348
 30
0.0
 10
65.13986543510393
 20
-75.63362628317493
 30
0.0
 10
65.13986543510393
 20
-75.39694822333827
 30
0.0
 10
65.13986543510393
 20
-75.21918129629937
 30
0.0
 10
65.00895180666443
 20
-75.16405976853538
 30
0.0
 10
64.89870875113644
 20
-75.16405976853538
 30
0.0
 10
64.63446992741777
 20
-75.16405976853538
 30
0.0
 10
64.62585718870464
 20
-75.39694822333827
 30
0.0
 10
64.62172307412234
 20
-75.46860620943146
 30
0.0
 10
64.62172307412234
 20
-75.46860620943146
 30
0.0
 10
64.4184624404926
 20
-75.46860620943146
 30
0.0
 10
64.4184624404926
 20
-75.46860620943146
 30
0.0
 10
64.42707517920573
 20
-75.34389375286541
 30
0.0
 10
64.45463594308774
 20
-74.96734481632761
 30
0.0
 10
64.91145560443186
 20
-74.96734481632761
 30
0.0
 10
65.13573132052163
 20
-74.96734481632761
 30
0.0
 10
65.37688800448912
 20
-75.09446883973332
 30
0.0
 10
65.37688800448912
 20
-75.39040254191629
 30
0.0
 10
65.37688800448912
 20
-75.5767822076683
 30
0.0
 10
65.28180336909622
 20
-75.65911998976578
 30
0.0
 10
65.1822401095725
 20
-75.72044268940323
 30
0.0
 10
65.24356280920995
 20
-75.74800345328522
 30
0.0
 10
65.42546385083114
 20
-75.82827417809155
 30
0.0
 10
65.42546385083114
 20
-76.10560436465416
 30
0.0
 10
65.42546385083114
 20
-76.4439127413057
 30
0.0
 10
65.1781059949902
 20
-76.61099987234032
 30
0.0
 10
64.90112031797611
 20
-76.61099987234032
 30
0.0
  0
HATCH
  5
B3
330
AC
100
AcDbEntity
  8
_U+30EC_U+30A4_U+30E4_U+30FC 1
 62
   179
420
  2234388
100
AcDbHatch
 10
0.0
 20
0.0
 30
0.0
210
0.0
220
0.0
230
1.0
  2
SOLID
 70
     1
 71
     0
 91
        1
 92
        1
 93
        1
 72
     4
 94
        3
 73
     0
 74
     1
 95
       62
 96
       58
 40
0.0
 40
0.0
 40
0.0
 40
0.0
 40
1.0
 40
1.0
 40
1.0
 40
2.0
 40
2.0
 40
2.0
 40
3.0
 40
3.0
 40
3.0
 40
4.0
 40
4.0
 40
4.0
 40
5.0
 40
5.0
 40
5.0
 40
6.0
 40
6.0
 40
6.0
 40
7.0
 40
7.0
 40
7.0
 40
8.0
 40
8.0
 40
8.0
 40
9.0
 40
9.0
 40
9.0
 40
10.0
 40
10.0
 40
10.0
 40
11.0
 40
11.0
 40
11.0
 40
12.0
 40
12.0
 40
12.0
 40
13.0
 40
13.0
 40
13.0
 40
14.0
 40
14.0
 40
14.0
 40
15.0
 40
15.0
 40
15.0
 40
16.0
 40
16.0
 40
16.0
 40
17.0
 40
17.0
 40
17.0
 40
18.0
 40
18.0
 40
18.0
 40
19.0
 40
19.0
 40
19.0
 40
19.0
 10
64.90112031797611
 20
-76.61099987234032
 10
64.80569117303469
 20
-76.61099987234032
 10
64.58796113836691
 20
-76.58998478988029
 10
64.46290417225234
 20
-76.40394963367679
 10
64.38883461931947
 20
-76.29163952085764
 10
64.38470050473717
 20
-76.19242077088245
 10
64.38056639015487
 20
-76.10767142194531
 10
64.38056639015487
 20
-76.10767142194531
 10
64.60070799166233
 20
-76.10767142194531
 10
64.60070799166233
 20
-76.10767142194531
 10
64.60277504895348
 20
-76.18174097487818
 10
64.61311033540923
 20
-76.41635197742369
 10
64.89664169384528
 20
-76.41635197742369
 10
65.03410100370675
 20
-76.41635197742369
 10
65.18671873370333
 20
-76.34676104862164
 10
65.18671873370333
 20
-76.11835121794958
 10
65.18671873370333
 20
-76.00190699054814
 10
65.14847817381705
 20
-75.95333114420612
 10
65.11678329535275
 20
-75.92163626574181
 10
65.04271374241988
 20
-75.84756671280894
 10
64.92626951501843
 20
-75.83481985951352
 10
64.87149249680296
 20
-75.83481985951352
 10
64.85219996208556
 20
-75.83481985951352
 10
64.81637096903897
 20
-75.83688691680467
 10
64.78881020515696
 20
-75.84102103138697
 10
64.78881020515696
 20
-75.84102103138697
 10
64.78881020515696
 20
-75.64637313647036
 10
64.78881020515696
 20
-75.64637313647036
 10
64.82705076504324
 20
-75.65291881789233
 10
64.86908092996329
 20
-75.65498587518348
 10
64.87562661138526
 20
-75.65498587518348
 10
64.94108342560502
 20
-75.65498587518348
 10
65.13986543510393
 20
-75.63362628317493
 10
65.13986543510393
 20
-75.39694822333827
 10
65.13986543510393
 20
-75.21918129629937
 10
65.00895180666443
 20
-75.16405976853538
 10
64.89870875113644
 20
-75.16405976853538
 10
64.63446992741777
 20
-75.16405976853538
 10
64.62585718870464
 20
-75.39694822333827
 10
64.62172307412234
 20
-75.46860620943146
 10
64.62172307412234
 20
-75.46860620943146
 10
64.4184624404926
 20
-75.46860620943146
 10
64.4184624404926
 20
-75.46860620943146
 10
64.42707517920573
 20
-75.34389375286541
 10
64.45463594308774
 20
-74.96734481632761
 10
64.91145560443186
 20
-74.96734481632761
 10
65.13573132052163
 20
-74.96734481632761
 10
65.37688800448912
 20
-75.09446883973332
 10
65.37688800448912
 20
-75.39040254191629
 10
65.37688800448912
 20
-75.5767822076683
 10
65.28180336909622
 20
-75.65911998976578
 10
65.1822401095725
 20
-75.72044268940323
 10
65.24356280920995
 20
-75.74800345328522
 10
65.42546385083114
 20
-75.82827417809155
 10
65.42546385083114
 20
-76.10560436465416
 10
65.42546385083114
 20
-76.4439127413057
 10
65.1781059949902
 20
-76.61099987234032
 10
64.90112031797611
 20
-76.61099987234032
 97
        0
 97
        0
 75
     2
 76
     1
 98
        0
  0
ENDBLK
  5
AF
330
AC
100
AcDbEntity
  8
0
100
AcDbBlockEnd
  0
BLOCK
  5
BE
330
BC
100
AcDbEntity
  8
0
100
AcDbBlockBegin
  2
block 6
 70
     0
 10
0.0
 20
0.0
 30
0.0
  3
block 6
  1

  0
SPLINE
  5
C0
330
BC
100
AcDbEntity
  8
_U+30EC_U+30A4_U+30E4_U+30FC 1
370
     0
100
AcDbSpline
210
0.0
220
0.0
230
1.0
 70
    11
 71
     3
 72
    26
 73
    22
 74
     0
 42
0.0000000001
 43
0.0000000001
 12
1.0
 22
0.0
 32
0.0
 13
1.0
 23
0.0
 33
0.0
 40
0.0
 40
0.0
 40
0.0
 40
0.0
 40
1.0
 40
1.0
 40
1.0
 40
2.0
 40
2.0
 40
2.0
 40
3.0
 40
3.0
 40
3.0
 40
4.0
 40
4.0
 40
4.0
 40
5.0
 40
5.0
 40
5.0
 40
6.0
 40
6.0
 40
6.0
 40
7.0
 40
7.0
 40
7.0
 40
7.0
 10
48.24391139201889
 20
-91.29227428273249
 30
0.0
 10
48.24391139201889
 20
-91.29227428273249
 30
0.0
 10
47.13958603422205
 20
-91.29227428273249
 30
0.0
 10
47.13958603422205
 20
-91.29227428273249
 30
0.0
 10
47.13958603422205
 20
-91.29227428273249
 30
0.0
 10
47.13958603422205
 20
-91.62231443021942
 30
0.0
 10
47.13958603422205
 20
-91.62231443021942
 30
0.0
 10
47.13958603422205
 20
-91.62231443021942
 30
0.0
 10
46.99161918313057
 20
-91.62231443021942
 30
0.0
 10
46.99161918313057
 20
-91.62231443021942
 30
0.0
 10
46.976805272544
 20
-91.29020722544134
 30
0.0
 10
46.81385225609168
 20
-91.24335392684195
 30
0.0
 10
46.69964734075565
 20
-91.2137261056688
 30
0.0
 10
46.69964734075565
 20
-91.2137261056688
 30
0.0
 10
46.69964734075565
 20
-91.0676540570942
 30
0.0
 10
46.69964734075565
 20
-91.0676540570942
 30
0.0
 10
46.69964734075565
 20
-91.0676540570942
 30
0.0
 10
48.24391139201889
 20
-91.0676540570942
 30
0.0
 10
48.24391139201889
 20
-91.0676540570942
 30
0.0
 10
48.24391139201889
 20
-91.0676540570942
 30
0.0
 10
48.24391139201889
 20
-91.29227428273249
 30
0.0
 10
48.24391139201889
 20
-91.29227428273249
 30
0.0
  0
HATCH
  5
C1
330
BC
100
AcDbEntity
  8
_U+30EC_U+30A4_U+30E4_U+30FC 1
 62
   179
420
  2234388
100
AcDbHatch
 10
0.0
 20
0.0
 30
0.0
210
0.0
220
0.0
230
1.0
  2
SOLID
 70
     1
 71
     0
 91
        1
 92
        1
 93
        1
 72
     4
 94
        3
 73
     0
 74
     1
 95
       26
 96
       22
 40
0.0
 40
0.0
 40
0.0
 40
0.0
 40
1.0
 40
1.0
 40
1.0
 40
2.0
 40
2.0
 40
2.0
 40
3.0
 40
3.0
 40
3.0
 40
4.0
 40
4.0
 40
4.0
 40
5.0
 40
5.0
 40
5.0
 40
6.0
 40
6.0
 40
6.0
 40
7.0
 40
7.0
 40
7.0
 40
7.0
 10
48.24391139201889
 20
-91.29227428273249
 10
48.24391139201889
 20
-91.29227428273249
 10
47.13958603422205
 20
-91.29227428273249
 10
47.13958603422205
 20
-91.29227428273249
 10
47.13958603422205
 20
-91.29227428273249
 10
47.13958603422205
 20
-91.62231443021942
 10
47.13958603422205
 20
-91.62231443021942
 10
47.13958603422205
 20
-91.62231443021942
 10
46.99161918313057
 20
-91.62231443021942
 10
46.99161918313057
 20
-91.62231443021942
 10
46.976805272544
 20
-91.29020722544134
 10
46.81385225609168
 20
-91.24335392684195
 10
46.69964734075565
 20
-91.2137261056688
 10
46.69964734075565
 20
-91.2137261056688
 10
46.69964734075565
 20
-91.0676540570942
 10
46.69964734075565
 20
-91.0676540570942
 10
46.69964734075565
 20
-91.0676540570942
 10
48.24391139201889
 20
-91.0676540570942
 10
48.24391139201889
 20
-91.0676540570942
 10
48.24391139201889
 20
-91.0676540570942
 10
48.24391139201889
 20
-91.29227428273249
 10
48.24391139201889
 20
-91.29227428273249
 97
        0
 97
        0
 75
     2
 76
     1
 98
        0
  0
SPLINE
  5
C2
330
BC
100
AcDbEntity
  8
_U+30EC_U+30A4_U+30E4_U+30FC 1
370
     0
100
AcDbSpline
210
0.0
220
0.0
230
1.0
 70
    11
 71
     3
 72
    26
 73
    22
 74
     0
 42
0.0000000001
 43
0.0000000001
 12
1.0
 22
0.0
 32
0.0
 13
1.0
 23
0.0
 33
0.0
 40
0.0
 40
0.0
 40
0.0
 40
0.0
 40
1.0
 40
1.0
 40
1.0
 40
2.0
 40
2.0
 40
2.0
 40
3.0
 40
3.0
 40
3.0
 40
4.0
 40
4.0
 40
4.0
 40
5.0
 40
5.0
 40
5.0
 40
6.0
 40
6.0
 40
6.0
 40
7.0
 40
7.0
 40
7.0
 40
7.0
 10
48.24391139201889
 20
-90.15539277260004
 30
0.0
 10
48.24391139201889
 20
-90.15539277260004
 30
0.0
 10
48.24391139201889
 20
-90.39241534198523
 30
0.0
 10
48.24391139201889
 20
-90.39241534198523
 30
0.0
 10
47.93505858176623
 20
-90.36692163539439
 30
0.0
 10
47.4167439660104
 20
-90.17468530731745
 30
0.0
 10
46.91117620354999
 20
-89.76816404005797
 30
0.0
 10
46.91117620354999
 20
-89.76816404005797
 30
0.0
 10
46.91117620354999
 20
-90.60601126207072
 30
0.0
 10
46.91117620354999
 20
-90.60601126207072
 30
0.0
 10
46.91117620354999
 20
-90.60601126207072
 30
0.0
 10
46.69964734075565
 20
-90.60601126207072
 30
0.0
 10
46.69964734075565
 20
-90.60601126207072
 30
0.0
 10
46.69964734075565
 20
-90.60601126207072
 30
0.0
 10
46.69964734075565
 20
-89.5314859802213
 30
0.0
 10
46.69964734075565
 20
-89.5314859802213
 30
0.0
 10
46.69964734075565
 20
-89.5314859802213
 30
0.0
 10
46.91117620354999
 20
-89.5314859802213
 30
0.0
 10
46.91117620354999
 20
-89.5314859802213
 30
0.0
 10
47.2009087338595
 20
-89.85498044628626
 30
0.0
 10
47.79329290254821
 20
-90.1216308368446
 30
0.0
 10
48.24391139201889
 20
-90.15539277260004
 30
0.0
  0
HATCH
  5
C3
330
BC
100
AcDbEntity
  8
_U+30EC_U+30A4_U+30E4_U+30FC 1
 62
   179
420
  2234388
100
AcDbHatch
 10
0.0
 20
0.0
 30
0.0
210
0.0
220
0.0
230
1.0
  2
SOLID
 70
     1
 71
     0
 91
        1
 92
        1
 93
        1
 72
     4
 94
        3
 73
     0
 74
     1
 95
       26
 96
       22
 40
0.0
 40
0.0
 40
0.0
 40
0.0
 40
1.0
 40
1.0
 40
1.0
 40
2.0
 40
2.0
 40
2.0
 40
3.0
 40
3.0
 40
3.0
 40
4.0
 40
4.0
 40
4.0
 40
5.0
 40
5.0
 40
5.0
 40
6.0
 40
6.0
 40
6.0
 40
7.0
 40
7.0
 40
7.0
 40
7.0
 10
48.24391139201889
 20
-90.15539277260004
 10
48.24391139201889
 20
-90.15539277260004
 10
48.24391139201889
 20
-90.39241534198523
 10
48.24391139201889
 20
-90.39241534198523
 10
47.93505858176623
 20
-90.36692163539439
 10
47.4167439660104
 20
-90.17468530731745
 10
46.91117620354999
 20
-89.76816404005797
 10
46.91117620354999
 20
-89.76816404005797
 10
46.91117620354999
 20
-90.60601126207072
 10
46.91117620354999
 20
-90.60601126207072
 10
46.91117620354999
 20
-90.60601126207072
 10
46.69964734075565
 20
-90.60601126207072
 10
46.69964734075565
 20
-90.60601126207072
 10
46.69964734075565
 20
-90.60601126207072
 10
46.69964734075565
 20
-89.5314859802213
 10
46.69964734075565
 20
-89.5314859802213
 10
46.69964734075565
 20
-89.5314859802213
 10
46.91117620354999
 20
-89.5314859802213
 10
46.91117620354999
 20
-89.5314859802213
 10
47.2009087338595
 20
-89.85498044628626
 10
47.79329290254821
 20
-90.1216308368446
 10
48.24391139201889
 20
-90.15539277260004
 97
        0
 97
        0
 75
     2
 76
     1
 98
        0
  0
POLYLINE
  5
C4
330
BC
100
AcDbEntity
  8
_U+30EC_U+30A4_U+30E4_U+30FC 1
370
     0
100
AcDb2dPolyline
 66
     1
 10
0.0
 20
0.0
 30
0.0
  0
VERTEX
  5
C5
330
C4
100
AcDbEntity
  8
_U+30EC_U+30A4_U+30E4_U+30FC 1
370
     0
100
AcDbVertex
100
AcDb2dVertex
 10
48.24391139201889
 20
-89.32994789433418
 30
0.0
  0
VERTEX
  5
C6
330
C4
100
AcDbEntity
  8
_U+30EC_U+30A4_U+30E4_U+30FC 1
370
     0
100
AcDbVertex
100
AcDb2dVertex
 10
47.99224716682139
 20
-89.32994789433418
 30
0.0
  0
VERTEX
  5
C7
330
C4
100
AcDbEntity
  8
_U+30EC_U+30A4_U+30E4_U+30FC 1
370
     0
100
AcDbVertex
100
AcDb2dVertex
 10
47.99224716682139
 20
-89.07811141436243
 30
0.0
  0
VERTEX
  5
C8
330
C4
100
AcDbEntity
  8
_U+30EC_U+30A4_U+30E4_U+30FC 1
370
     0
100
AcDbVertex
100
AcDb2dVertex
 10
48.24391139201889
 20
-89.07811141436243
 30
0.0
  0
VERTEX
  5
C9
330
C4
100
AcDbEntity
  8
_U+30EC_U+30A4_U+30E4_U+30FC 1
370
     0
100
AcDbVertex
100
AcDb2dVertex
 10
48.24391139201889
 20
-89.32994789433418
 30
0.0
  0
SEQEND
  5
CA
330
C4
100
AcDbEntity
  8
_U+30EC_U+30A4_U+30E4_U+30FC 1
370
     0
  0
HATCH
  5
CB
330
BC
100
AcDbEntity
  8
_U+30EC_U+30A4_U+30E4_U+30FC 1
 62
   179
420
  2234388
100
AcDbHatch
 10
0.0
 20
0.0
 30
0.0
210
0.0
220
0.0
230
1.0
  2
SOLID
 70
     1
 71
     0
 91
        1
 92
        1
 93
        4
 72
     1
 10
48.24391139201889
 20
-89.32994789433418
 11
47.99224716682139
 21
-89.32994789433418
 72
     1
 10
47.99224716682139
 20
-89.32994789433418
 11
47.99224716682139
 21
-89.07811141436243
 72
     1
 10
47.99224716682139
 20
-89.07811141436243
 11
48.24391139201889
 21
-89.07811141436243
 72
     1
 10
48.24391139201889
 20
-89.07811141436243
 11
48.24391139201889
 21
-89.32994789433418
 97
        0
 75
     2
 76
     1
 98
        0
  0
SPLINE
  5
CC
330
BC
100
AcDbEntity
  8
_U+30EC_U+30A4_U+30E4_U+30FC 1
370
     0
100
AcDbSpline
210
0.0
220
0.0
230
1.0
 70
    11
 71
     3
 72
    44
 73
    40
 74
     0
 42
0.0000000001
 43
0.0000000001
 12
1.0
 22
0.0
 32
0.0
 13
1.0
 23
0.0
 33
0.0
 40
0.0
 40
0.0
 40
0.0
 40
0.0
 40
1.0
 40
1.0
 40
1.0
 40
2.0
 40
2.0
 40
2.0
 40
3.0
 40
3.0
 40
3.0
 40
4.0
 40
4.0
 40
4.0
 40
5.0
 40
5.0
 40
5.0
 40
6.0
 40
6.0
 40
6.0
 40
7.0
 40
7.0
 40
7.0
 40
8.0
 40
8.0
 40
8.0
 40
9.0
 40
9.0
 40
9.0
 40
10.0
 40
10.0
 40
10.0
 40
11.0
 40
11.0
 40
11.0
 40
12.0
 40
12.0
 40
12.0
 40
13.0
 40
13.0
 40
13.0
 40
13.0
 10
47.66220701933445
 20
-88.24836016674
 30
0.0
 10
47.8208536664302
 20
-88.46626245618205
 30
0.0
 10
47.89492321936308
 20
-88.55945228905806
 30
0.0
 10
48.03875595587225
 20
-88.60802813540008
 30
0.0
 10
48.03875595587225
 20
-88.60802813540008
 30
0.0
 10
48.03875595587225
 20
-87.82960881050788
 30
0.0
 10
48.03875595587225
 20
-87.82960881050788
 30
0.0
 10
48.03875595587225
 20
-87.82960881050788
 30
0.0
 10
48.24391139201889
 20
-87.82960881050788
 30
0.0
 10
48.24391139201889
 20
-87.82960881050788
 30
0.0
 10
48.24391139201889
 20
-87.82960881050788
 30
0.0
 10
48.24391139201889
 20
-88.85762530330643
 30
0.0
 10
48.24391139201889
 20
-88.85762530330643
 30
0.0
 10
47.88631048064995
 20
-88.82593042484213
 30
0.0
 10
47.80810681313478
 20
-88.76047361062238
 30
0.0
 10
47.50976154411214
 20
-88.37531193537146
 30
0.0
 10
47.31097953461323
 20
-88.11934134081739
 30
0.0
 10
47.24328340832807
 20
-88.05388452659764
 30
0.0
 10
47.1058240984666
 20
-88.05388452659764
 30
0.0
 10
46.987312813774
 20
-88.05388452659764
 30
0.0
 10
46.85622693056025
 20
-88.1257147674651
 30
0.0
 10
46.85622693056025
 20
-88.32242971967287
 30
0.0
 10
46.85622693056025
 20
-88.5827066835835
 30
0.0
 10
47.08670381852347
 20
-88.59114716752235
 30
0.0
 10
47.20314804592491
 20
-88.59545353687892
 30
0.0
 10
47.20314804592491
 20
-88.59545353687892
 30
0.0
 10
47.20314804592491
 20
-88.81955699819441
 30
0.0
 10
47.20314804592491
 20
-88.81955699819441
 30
0.0
 10
47.07619627729346
 20
-88.81111651425556
 30
0.0
 10
46.96405841924857
 20
-88.80060897302555
 30
0.0
 10
46.84554713455598
 20
-88.72016599344497
 30
0.0
 10
46.68483343016907
 20
-88.61026744746549
 30
0.0
 10
46.65089923963936
 20
-88.42406003648775
 30
0.0
 10
46.65089923963936
 20
-88.3076158090863
 30
0.0
 10
46.65089923963936
 20
-88.03045787729795
 30
0.0
 10
46.83503959332597
 20
-87.82323538386017
 30
0.0
 10
47.10789115575775
 20
-87.82323538386017
 30
0.0
 10
47.33630098642982
 20
-87.82323538386017
 30
0.0
 10
47.43586424595354
 20
-87.93950735648735
 30
0.0
 10
47.66220701933445
 20
-88.24836016674
 30
0.0
  0
HATCH
  5
CD
330
BC
100
AcDbEntity
  8
_U+30EC_U+30A4_U+30E4_U+30FC 1
 62
   179
420
  2234388
100
AcDbHatch
 10
0.0
 20
0.0
 30
0.0
210
0.0
220
0.0
230
1.0
  2
SOLID
 70
     1
 71
     0
 91
        1
 92
        1
 93
        1
 72
     4
 94
        3
 73
     0
 74
     1
 95
       44
 96
       40
 40
0.0
 40
0.0
 40
0.0
 40
0.0
 40
1.0
 40
1.0
 40
1.0
 40
2.0
 40
2.0
 40
2.0
 40
3.0
 40
3.0
 40
3.0
 40
4.0
 40
4.0
 40
4.0
 40
5.0
 40
5.0
 40
5.0
 40
6.0
 40
6.0
 40
6.0
 40
7.0
 40
7.0
 40
7.0
 40
8.0
 40
8.0
 40
8.0
 40
9.0
 40
9.0
 40
9.0
 40
10.0
 40
10.0
 40
10.0
 40
11.0
 40
11.0
 40
11.0
 40
12.0
 40
12.0
 40
12.0
 40
13.0
 40
13.0
 40
13.0
 40
13.0
 10
47.66220701933445
 20
-88.24836016674
 10
47.8208536664302
 20
-88.46626245618205
 10
47.89492321936308
 20
-88.55945228905806
 10
48.03875595587225
 20
-88.60802813540008
 10
48.03875595587225
 20
-88.60802813540008
 10
48.03875595587225
 20
-87.82960881050788
 10
48.03875595587225
 20
-87.82960881050788
 10
48.03875595587225
 20
-87.82960881050788
 10
48.24391139201889
 20
-87.82960881050788
 10
48.24391139201889
 20
-87.82960881050788
 10
48.24391139201889
 20
-87.82960881050788
 10
48.24391139201889
 20
-88.85762530330643
 10
48.24391139201889
 20
-88.85762530330643
 10
47.88631048064995
 20
-88.82593042484213
 10
47.80810681313478
 20
-88.76047361062238
 10
47.50976154411214
 20
-88.37531193537146
 10
47.31097953461323
 20
-88.11934134081739
 10
47.24328340832807
 20
-88.05388452659764
 10
47.1058240984666
 20
-88.05388452659764
 10
46.987312813774
 20
-88.05388452659764
 10
46.85622693056025
 20
-88.1257147674651
 10
46.85622693056025
 20
-88.32242971967287
 10
46.85622693056025
 20
-88.5827066835835
 10
47.08670381852347
 20
-88.59114716752235
 10
47.20314804592491
 20
-88.59545353687892
 10
47.20314804592491
 20
-88.59545353687892
 10
47.20314804592491
 20
-88.81955699819441
 10
47.20314804592491
 20
-88.81955699819441
 10
47.07619627729346
 20
-88.81111651425556
 10
46.96405841924857
 20
-88.80060897302555
 10
46.84554713455598
 20
-88.72016599344497
 10
46.68483343016907
 20
-88.61026744746549
 10
46.65089923963936
 20
-88.42406003648775
 10
46.65089923963936
 20
-88.3076158090863
 10
46.65089923963936
 20
-88.03045787729795
 10
46.83503959332597
 20
-87.82323538386017
 10
47.10789115575775
 20
-87.82323538386017
 10
47.33630098642982
 20
-87.82323538386017
 10
47.43586424595354
 20
-87.93950735648735
 10
47.66220701933445
 20
-88.24836016674
 97
        0
 97
        0
 75
     2
 76
     1
 98
        0
  0
ENDBLK
  5
BF
330
BC
100
AcDbEntity
  8
0
100
AcDbBlockEnd
  0
ENDSEC
  0
SECTION
  2
ENTITIES
  0
POLYLINE
  5
41
330
1F
100
AcDbEntity
  8
_U+30EC_U+30A4_U+30E4_U+30FC 1
 62
   179
420
  2234388
370
    25
100
AcDb2dPolyline
 66
     1
 10
0.0
 20
0.0
 30
0.0
  0
VERTEX
  5
42
330
41
100
AcDbEntity
  8
_U+30EC_U+30A4_U+30E4_U+30FC 1
 62
   179
420
  2234388
370
    25
100
AcDbVertex
100
AcDb2dVertex
 10
53.85544223714432
 20
-82.09558692392064
 30
0.0
  0
VERTEX
  5
43
330
41
100
AcDbEntity
  8
_U+30EC_U+30A4_U+30E4_U+30FC 1
 62
   179
420
  2234388
370
    25
100
AcDbVertex
100
AcDb2dVertex
 10
75.85547528698783
 20
-82.09558692392064
 30
0.0
  0
VERTEX
  5
44
330
41
100
AcDbEntity
  8
_U+30EC_U+30A4_U+30E4_U+30FC 1
 62
   179
420
  2234388
370
    25
100
AcDbVertex
100
AcDb2dVertex
 10
75.85515778699592
 20
-81.09581470194841
 30
0.0
  0
VERTEX
  5
45
330
41
100
AcDbEntity
  8
_U+30EC_U+30A4_U+30E4_U+30FC 1
 62
   179
420
  2234388
370
    25
100
AcDbVertex
100
AcDb2dVertex
 10
52.85535254043651
 20
-81.09581470194841
 30
0.0
  0
VERTEX
  5
46
330
41
100
AcDbEntity
  8
_U+30EC_U+30A4_U+30E4_U+30FC 1
 62
   179
420
  2234388
370
    25
100
AcDbVertex
100
AcDb2dVertex
 10
52.85535254043651
 20
-98.29616553098145
 30
0.0
  0
VERTEX
  5
47
330
41
100
AcDbEntity
  8
_U+30EC_U+30A4_U+30E4_U+30FC 1
 62
   179
420
  2234388
370
    25
100
AcDbVertex
100
AcDb2dVertex
 10
56.85511160506082
 20
-98.29616553098145
 30
0.0
  0
VERTEX
  5
48
330
41
100
AcDbEntity
  8
_U+30EC_U+30A4_U+30E4_U+30FC 1
 62
   179
420
  2234388
370
    25
100
AcDbVertex
100
AcDb2dVertex
 10
56.85543054134169
 20
-97.2960405312318
 30
0.0
  0
VERTEX
  5
49
330
41
100
AcDbEntity
  8
_U+30EC_U+30A4_U+30E4_U+30FC 1
 62
   179
420
  2234388
370
    25
100
AcDbVertex
100
AcDb2dVertex
 10
53.85544223714432
 20
-97.2960405312318
 30
0.0
  0
VERTEX
  5
4A
330
41
100
AcDbEntity
  8
_U+30EC_U+30A4_U+30E4_U+30FC 1
 62
   179
420
  2234388
370
    25
100
AcDbVertex
100
AcDb2dVertex
 10
53.85544223714432
 20
-82.09558692392064
 30
0.0
  0
SEQEND
  5
4B
330
41
100
AcDbEntity
  8
_U+30EC_U+30A4_U+30E4_U+30FC 1
 62
   179
420
  2234388
370
    25
  0
SPLINE
  5
4C
330
1F
100
AcDbEntity
  8
_U+30EC_U+30A4_U+30E4_U+30FC 1
 62
   179
420
  2234388
370
     9
100
AcDbSpline
210
0.0
220
0.0
230
1.0
 70
    11
 71
     3
 72
    17
 73
    13
 74
     0
 42
0.0000000001
 43
0.0000000001
 12
1.0
 22
0.0
 32
0.0
 13
1.0
 23
0.0
 33
0.0
 40
0.0
 40
0.0
 40
0.0
 40
0.0
 40
1.0
 40
1.0
 40
1.0
 40
2.0
 40
2.0
 40
2.0
 40
3.0
 40
3.0
 40
3.0
 40
4.0
 40
4.0
 40
4.0
 40
4.0
 10
52.95592948231502
 20
-102.2969477522035
 30
0.0
 10
52.95592948231502
 20
-102.2418085855504
 30
0.0
 10
52.91116198345713
 20
-102.1970410855618
 30
0.0
 10
52.85535254043651
 20
-102.1970410855618
 30
0.0
 10
52.80021337517655
 20
-102.1970410855618
 30
0.0
 10
52.75544720903324
 20
-102.2418085855504
 30
0.0
 10
52.75544720903324
 20
-102.2969477522035
 30
0.0
 10
52.75544720903324
 20
-102.3520516410784
 30
0.0
 10
52.80021337517655
 20
-102.3968544188451
 30
0.0
 10
52.85535254043651
 20
-102.3968544188451
 30
0.0
 10
52.91116198345713
 20
-102.3968544188451
 30
0.0
 10
52.95592948231502
 20
-102.3520516410784
 30
0.0
 10
52.95592948231502
 20
-102.2969477522035
 30
0.0
  0
POLYLINE
  5
4D
330
1F
100
AcDbEntity
  8
_U+30EC_U+30A4_U+30E4_U+30FC 1
 62
   179
420
  2234388
370
     9
100
AcDb2dPolyline
 66
     1
 10
0.0
 20
0.0
 30
0.0
  0
VERTEX
  5
4E
330
4D
100
AcDbEntity
  8
_U+30EC_U+30A4_U+30E4_U+30FC 1
 62
   179
420
  2234388
370
     9
100
AcDbVertex
100
AcDb2dVertex
 10
52.85535254043651
 20
-102.2969477522035
 30
0.0
  0
VERTEX
  5
4F
330
4D
100
AcDbEntity
  8
_U+30EC_U+30A4_U+30E4_U+30FC 1
 62
   179
420
  2234388
370
     9
100
AcDbVertex
100
AcDb2dVertex
 10
56.85511160506082
 20
-102.2969477522035
 30
0.0
  0
SEQEND
  5
50
330
4D
100
AcDbEntity
  8
_U+30EC_U+30A4_U+30E4_U+30FC 1
 62
   179
420
  2234388
370
     9
  0
POLYLINE
  5
51
330
1F
100
AcDbEntity
  8
_U+30EC_U+30A4_U+30E4_U+30FC 1
 62
   179
420
  2234388
370
     9
100
AcDb2dPolyline
 66
     1
 10
0.0
 20
0.0
 30
0.0
  0
VERTEX
  5
52
330
51
100
AcDbEntity
  8
_U+30EC_U+30A4_U+30E4_U+30FC 1
 62
   179
420
  2234388
370
     9
100
AcDbVertex
100
AcDb2dVertex
 10
52.85535254043651
 20
-100.9023819192185
 30
0.0
  0
VERTEX
  5
53
330
51
100
AcDbEntity
  8
_U+30EC_U+30A4_U+30E4_U+30FC 1
 62
   179
420
  2234388
370
     9
100
AcDbVertex
100
AcDb2dVertex
 10
52.85535254043651
 20
-103.2960144186205
 30
0.0
  0
SEQEND
  5
54
330
51
100
AcDbEntity
  8
_U+30EC_U+30A4_U+30E4_U+30FC 1
 62
   179
420
  2234388
370
     9
  0
SPLINE
  5
55
330
1F
100
AcDbEntity
  8
_U+30EC_U+30A4_U+30E4_U+30FC 1
 62
   179
420
  2234388
370
     9
100
AcDbSpline
210
0.0
220
0.0
230
1.0
 70
    11
 71
     3
 72
    17
 73
    13
 74
     0
 42
0.0000000001
 43
0.0000000001
 12
1.0
 22
0.0
 32
0.0
 13
1.0
 23
0.0
 33
0.0
 40
0.0
 40
0.0
 40
0.0
 40
0.0
 40
1.0
 40
1.0
 40
1.0
 40
2.0
 40
2.0
 40
2.0
 40
3.0
 40
3.0
 40
3.0
 40
4.0
 40
4.0
 40
4.0
 40
4.0
 10
56.95568854693933
 20
-102.2969477522035
 30
0.0
 10
56.95568854693933
 20
-102.2418085855504
 30
0.0
 10
56.91092104808144
 20
-102.1970410855618
 30
0.0
 10
56.85511160506082
 20
-102.1970410855618
 30
0.0
 10
56.79997243980087
 20
-102.1970410855618
 30
0.0
 10
56.75520494094298
 20
-102.2418085855504
 30
0.0
 10
56.75520494094298
 20
-102.2969477522035
 30
0.0
 10
56.75520494094298
 20
-102.3520516410784
 30
0.0
 10
56.79997243980087
 20
-102.3968544188451
 30
0.0
 10
56.85511160506082
 20
-102.3968544188451
 30
0.0
 10
56.91092104808144
 20
-102.3968544188451
 30
0.0
 10
56.95568854693933
 20
-102.3520516410784
 30
0.0
 10
56.95568854693933
 20
-102.2969477522035
 30
0.0
  0
POLYLINE
  5
56
330
1F
100
AcDbEntity
  8
_U+30EC_U+30A4_U+30E4_U+30FC 1
 62
   179
420
  2234388
370
     9
100
AcDb2dPolyline
 66
     1
 10
0.0
 20
0.0
 30
0.0
  0
VERTEX
  5
57
330
56
100
AcDbEntity
  8
_U+30EC_U+30A4_U+30E4_U+30FC 1
 62
   179
420
  2234388
370
     9
100
AcDbVertex
100
AcDb2dVertex
 10
56.85511160506082
 20
-100.9023819192185
 30
0.0
  0
VERTEX
  5
58
330
56
100
AcDbEntity
  8
_U+30EC_U+30A4_U+30E4_U+30FC 1
 62
   179
420
  2234388
370
     9
100
AcDbVertex
100
AcDb2dVertex
 10
56.85511160506082
 20
-103.2960144186205
 30
0.0
  0
SEQEND
  5
59
330
56
100
AcDbEntity
  8
_U+30EC_U+30A4_U+30E4_U+30FC 1
 62
   179
420
  2234388
370
     9
  0
INSERT
  5
5B
330
1F
100
AcDbEntity
  8
_U+30EC_U+30A4_U+30E4_U+30FC 1
100
AcDbBlockReference
  2
block 2
 10
0.0
 20
0.0
 30
0.0
  0
SPLINE
  5
73
330
1F
100
AcDbEntity
  8
_U+30EC_U+30A4_U+30E4_U+30FC 1
 62
   179
420
  2234388
370
     9
100
AcDbSpline
210
0.0
220
0.0
230
1.0
 70
    11
 71
     3
 72
    17
 73
    13
 74
     0
 42
0.0000000001
 43
0.0000000001
 12
1.0
 22
0.0
 32
0.0
 13
1.0
 23
0.0
 33
0.0
 40
0.0
 40
0.0
 40
0.0
 40
0.0
 40
1.0
 40
1.0
 40
1.0
 40
2.0
 40
2.0
 40
2.0
 40
3.0
 40
3.0
 40
3.0
 40
4.0
 40
4.0
 40
4.0
 40
4.0
 10
79.7994249085915
 20
-97.2960405312318
 30
0.0
 10
79.7994249085915
 20
-97.35117969788423
 30
0.0
 10
79.84422768522627
 20
-97.39594719787343
 30
0.0
 10
79.89933157270934
 20
-97.39594719787343
 30
0.0
 10
79.95447073796929
 20
-97.39594719787343
 30
0.0
 10
79.99923823682718
 20
-97.35117969788423
 30
0.0
 10
79.99923823682718
 20
-97.2960405312318
 30
0.0
 10
79.99923823682718
 20
-97.24093664235623
 30
0.0
 10
79.95447073796929
 20
-97.19613386459015
 30
0.0
 10
79.89933157270934
 20
-97.19613386459015
 30
0.0
 10
79.84422768522627
 20
-97.19613386459015
 30
0.0
 10
79.7994249085915
 20
-97.24093664235623
 30
0.0
 10
79.7994249085915
 20
-97.2960405312318
 30
0.0
  0
SPLINE
  5
74
330
1F
100
AcDbEntity
  8
_U+30EC_U+30A4_U+30E4_U+30FC 1
 62
   179
420
  2234388
370
     9
100
AcDbSpline
210
0.0
220
0.0
230
1.0
 70
    11
 71
     3
 72
    17
 73
    13
 74
     0
 42
0.0000000001
 43
0.0000000001
 12
1.0
 22
0.0
 32
0.0
 13
1.0
 23
0.0
 33
0.0
 40
0.0
 40
0.0
 40
0.0
 40
0.0
 40
1.0
 40
1.0
 40
1.0
 40
2.0
 40
2.0
 40
2.0
 40
3.0
 40
3.0
 40
3.0
 40
4.0
 40
4.0
 40
4.0
 40
4.0
 10
79.7994249085915
 20
-81.09581470194841
 30
0.0
 10
79.7994249085915
 20
-81.15095386860118
 30
0.0
 10
79.84422768522627
 20
-81.19572136859006
 30
0.0
 10
79.89933157270934
 20
-81.19572136859006
 30
0.0
 10
79.95447073796929
 20
-81.19572136859006
 30
0.0
 10
79.99923823682718
 20
-81.15095386860118
 30
0.0
 10
79.99923823682718
 20
-81.09581470194841
 30
0.0
 10
79.99923823682718
 20
-81.04000525751765
 30
0.0
 10
79.95447073796929
 20
-80.9952377575291
 30
0.0
 10
79.89933157270934
 20
-80.9952377575291
 30
0.0
 10
79.84422768522627
 20
-80.9952377575291
 30
0.0
 10
79.7994249085915
 20
-81.04000525751765
 30
0.0
 10
79.7994249085915
 20
-81.09581470194841
 30
0.0
  0
POLYLINE
  5
75
330
1F
100
AcDbEntity
  8
_U+30EC_U+30A4_U+30E4_U+30FC 1
 62
   179
420
  2234388
370
     9
100
AcDb2dPolyline
 66
     1
 10
0.0
 20
0.0
 30
0.0
  0
VERTEX
  5
76
330
75
100
AcDbEntity
  8
_U+30EC_U+30A4_U+30E4_U+30FC 1
 62
   179
420
  2234388
370
     9
100
AcDbVertex
100
AcDb2dVertex
 10
79.89933157270934
 20
-77.32532581400211
 30
0.0
  0
VERTEX
  5
77
330
75
100
AcDbEntity
  8
_U+30EC_U+30A4_U+30E4_U+30FC 1
 62
   179
420
  2234388
370
     9
100
AcDbVertex
100
AcDb2dVertex
 10
79.89933157270934
 20
-97.2960405312318
 30
0.0
  0
SEQEND
  5
78
330
75
100
AcDbEntity
  8
_U+30EC_U+30A4_U+30E4_U+30FC 1
 62
   179
420
  2234388
370
     9
  0
POLYLINE
  5
79
330
1F
100
AcDbEntity
  8
_U+30EC_U+30A4_U+30E4_U+30FC 1
 62
   179
420
  2234388
370
     9
100
AcDb2dPolyline
 66
     1
 10
0.0
 20
0.0
 30
0.0
  0
VERTEX
  5
7A
330
79
100
AcDbEntity
  8
_U+30EC_U+30A4_U+30E4_U+30FC 1
 62
   179
420
  2234388
370
     9
100
AcDbVertex
100
AcDb2dVertex
 10
78.27531911414135
 20
-81.09581470194841
 30
0.0
  0
VERTEX
  5
7B
330
79
100
AcDbEntity
  8
_U+30EC_U+30A4_U+30E4_U+30FC 1
 62
   179
420
  2234388
370
     9
100
AcDbVertex
100
AcDb2dVertex
 10
80.89910376942525
 20
-81.09581470194841
 30
0.0
  0
SEQEND
  5
7C
330
79
100
AcDbEntity
  8
_U+30EC_U+30A4_U+30E4_U+30FC 1
 62
   179
420
  2234388
370
     9
  0
SPLINE
  5
7D
330
1F
100
AcDbEntity
  8
_U+30EC_U+30A4_U+30E4_U+30FC 1
 62
   179
420
  2234388
370
     9
100
AcDbSpline
210
0.0
220
0.0
230
1.0
 70
    11
 71
     3
 72
    17
 73
    13
 74
     0
 42
0.0000000001
 43
0.0000000001
 12
1.0
 22
0.0
 32
0.0
 13
1.0
 23
0.0
 33
0.0
 40
0.0
 40
0.0
 40
0.0
 40
0.0
 40
1.0
 40
1.0
 40
1.0
 40
2.0
 40
2.0
 40
2.0
 40
3.0
 40
3.0
 40
3.0
 40
4.0
 40
4.0
 40
4.0
 40
4.0
 10
79.7994249085915
 20
-82.09558692392064
 30
0.0
 10
79.7994249085915
 20
-82.1507260905734
 30
0.0
 10
79.84422768522627
 20
-82.19549359056228
 30
0.0
 10
79.89933157270934
 20
-82.19549359056228
 30
0.0
 10
79.95447073796929
 20
-82.19549359056228
 30
0.0
 10
79.99923823682718
 20
-82.1507260905734
 30
0.0
 10
79.99923823682718
 20
-82.09558692392064
 30
0.0
 10
79.99923823682718
 20
-82.0397774794902
 30
0.0
 10
79.95447073796929
 20
-81.99500997950132
 30
0.0
 10
79.89933157270934
 20
-81.99500997950132
 30
0.0
 10
79.84422768522627
 20
-81.99500997950132
 30
0.0
 10
79.7994249085915
 20
-82.0397774794902
 30
0.0
 10
79.7994249085915
 20
-82.09558692392064
 30
0.0
  0
POLYLINE
  5
7E
330
1F
100
AcDbEntity
  8
_U+30EC_U+30A4_U+30E4_U+30FC 1
 62
   179
420
  2234388
370
     9
100
AcDb2dPolyline
 66
     1
 10
0.0
 20
0.0
 30
0.0
  0
VERTEX
  5
7F
330
7E
100
AcDbEntity
  8
_U+30EC_U+30A4_U+30E4_U+30FC 1
 62
   179
420
  2234388
370
     9
100
AcDbVertex
100
AcDb2dVertex
 10
78.27531911414135
 20
-82.09558692392064
 30
0.0
  0
VERTEX
  5
80
330
7E
100
AcDbEntity
  8
_U+30EC_U+30A4_U+30E4_U+30FC 1
 62
   179
420
  2234388
370
     9
100
AcDbVertex
100
AcDb2dVertex
 10
80.89910376942525
 20
-82.09558692392064
 30
0.0
  0
SEQEND
  5
81
330
7E
100
AcDbEntity
  8
_U+30EC_U+30A4_U+30E4_U+30FC 1
 62
   179
420
  2234388
370
     9
  0
POLYLINE
  5
82
330
1F
100
AcDbEntity
  8
_U+30EC_U+30A4_U+30E4_U+30FC 1
 62
   179
420
  2234388
370
     9
100
AcDb2dPolyline
 66
     1
 10
0.0
 20
0.0
 30
0.0
  0
VERTEX
  5
83
330
82
100
AcDbEntity
  8
_U+30EC_U+30A4_U+30E4_U+30FC 1
 62
   179
420
  2234388
370
     9
100
AcDbVertex
100
AcDb2dVertex
 10
59.39518209581377
 20
-97.2960405312318
 30
0.0
  0
VERTEX
  5
84
330
82
100
AcDbEntity
  8
_U+30EC_U+30A4_U+30E4_U+30FC 1
 62
   179
420
  2234388
370
     9
100
AcDbVertex
100
AcDb2dVertex
 10
80.89910376942525
 20
-97.2960405312318
 30
0.0
  0
SEQEND
  5
85
330
82
100
AcDbEntity
  8
_U+30EC_U+30A4_U+30E4_U+30FC 1
 62
   179
420
  2234388
370
     9
  0
INSERT
  5
87
330
1F
100
AcDbEntity
  8
_U+30EC_U+30A4_U+30E4_U+30FC 1
100
AcDbBlockReference
  2
block 3
 10
0.0
 20
0.0
 30
0.0
  0
INSERT
  5
8D
330
1F
100
AcDbEntity
  8
_U+30EC_U+30A4_U+30E4_U+30FC 1
100
AcDbBlockReference
  2
block 4
 10
0.0
 20
0.0
 30
0.0
  0
POLYLINE
  5
9E
330
1F
100
AcDbEntity
  8
_U+30EC_U+30A4_U+30E4_U+30FC 1
 62
   179
420
  2234388
370
     9
100
AcDb2dPolyline
 66
     1
 10
0.0
 20
0.0
 30
0.0
  0
VERTEX
  5
9F
330
9E
100
AcDbEntity
  8
_U+30EC_U+30A4_U+30E4_U+30FC 1
 62
   179
420
  2234388
370
     9
100
AcDbVertex
100
AcDb2dVertex
 10
75.82446612111227
 20
-77.09520886961496
 30
0.0
  0
VERTEX
  5
A0
330
9E
100
AcDbEntity
  8
_U+30EC_U+30A4_U+30E4_U+30FC 1
 62
   179
420
  2234388
370
     9
100
AcDbVertex
100
AcDb2dVertex
 10
52.85535254043651
 20
-77.09520886961496
 30
0.0
  0
SEQEND
  5
A1
330
9E
100
AcDbEntity
  8
_U+30EC_U+30A4_U+30E4_U+30FC 1
 62
   179
420
  2234388
370
     9
  0
SPLINE
  5
A2
330
1F
100
AcDbEntity
  8
_U+30EC_U+30A4_U+30E4_U+30FC 1
 62
   179
420
  2234388
370
     9
100
AcDbSpline
210
0.0
220
0.0
230
1.0
 70
    11
 71
     3
 72
    17
 73
    13
 74
     0
 42
0.0000000001
 43
0.0000000001
 12
1.0
 22
0.0
 32
0.0
 13
1.0
 23
0.0
 33
0.0
 40
0.0
 40
0.0
 40
0.0
 40
0.0
 40
1.0
 40
1.0
 40
1.0
 40
2.0
 40
2.0
 40
2.0
 40
3.0
 40
3.0
 40
3.0
 40
4.0
 40
4.0
 40
4.0
 40
4.0
 10
52.82434337456095
 20
-76.99530220297333
 30
0.0
 10
52.76920554236337
 20
-76.99530220297333
 30
0.0
 10
52.72443671044311
 20
-77.04006970296221
 30
0.0
 10
52.72443671044311
 20
-77.09520886961496
 30
0.0
 10
52.72443671044311
 20
-77.1503127584902
 30
0.0
 10
52.76920554236337
 20
-77.19511553625692
 30
0.0
 10
52.82434337456095
 20
-77.19511553625692
 30
0.0
 10
52.87944726204402
 20
-77.19511553625692
 30
0.0
 10
52.92425003867879
 20
-77.1503127584902
 30
0.0
 10
52.92425003867879
 20
-77.09520886961496
 30
0.0
 10
52.92425003867879
 20
-77.04006970296221
 30
0.0
 10
52.87944726204402
 20
-76.99530220297333
 30
0.0
 10
52.82434337456095
 20
-76.99530220297333
 30
0.0
  0
POLYLINE
  5
A3
330
1F
100
AcDbEntity
  8
_U+30EC_U+30A4_U+30E4_U+30FC 1
 62
   179
420
  2234388
370
     9
100
AcDb2dPolyline
 66
     1
 10
0.0
 20
0.0
 30
0.0
  0
VERTEX
  5
A4
330
A3
100
AcDbEntity
  8
_U+30EC_U+30A4_U+30E4_U+30FC 1
 62
   179
420
  2234388
370
     9
100
AcDbVertex
100
AcDb2dVertex
 10
52.82434337456095
 20
-76.09543664764274
 30
0.0
  0
VERTEX
  5
A5
330
A3
100
AcDbEntity
  8
_U+30EC_U+30A4_U+30E4_U+30FC 1
 62
   179
420
  2234388
370
     9
100
AcDbVertex
100
AcDb2dVertex
 10
52.82434337456095
 20
-78.47548720260343
 30
0.0
  0
SEQEND
  5
A6
330
A3
100
AcDbEntity
  8
_U+30EC_U+30A4_U+30E4_U+30FC 1
 62
   179
420
  2234388
370
     9
  0
SPLINE
  5
A7
330
1F
100
AcDbEntity
  8
_U+30EC_U+30A4_U+30E4_U+30FC 1
 62
   179
420
  2234388
370
     9
100
AcDbSpline
210
0.0
220
0.0
230
1.0
 70
    11
 71
     3
 72
    17
 73
    13
 74
     0
 42
0.0000000001
 43
0.0000000001
 12
1.0
 22
0.0
 32
0.0
 13
1.0
 23
0.0
 33
0.0
 40
0.0
 40
0.0
 40
0.0
 40
0.0
 40
1.0
 40
1.0
 40
1.0
 40
2.0
 40
2.0
 40
2.0
 40
3.0
 40
3.0
 40
3.0
 40
4.0
 40
4.0
 40
4.0
 40
4.0
 10
75.82446612111227
 20
-76.99530220297333
 30
0.0
 10
75.7693622336292
 20
-76.99530220297333
 30
0.0
 10
75.72455945699443
 20
-77.04006970296221
 30
0.0
 10
75.72455945699443
 20
-77.09520886961496
 30
0.0
 10
75.72455945699443
 20
-77.1503127584902
 30
0.0
 10
75.7693622336292
 20
-77.19511553625692
 30
0.0
 10
75.82446612111227
 20
-77.19511553625692
 30
0.0
 10
75.87960528637221
 20
-77.19511553625692
 30
0.0
 10
75.92440806300698
 20
-77.1503127584902
 30
0.0
 10
75.92440806300698
 20
-77.09520886961496
 30
0.0
 10
75.92440806300698
 20
-77.04006970296221
 30
0.0
 10
75.87960528637221
 20
-76.99530220297333
 30
0.0
 10
75.82446612111227
 20
-76.99530220297333
 30
0.0
  0
POLYLINE
  5
A8
330
1F
100
AcDbEntity
  8
_U+30EC_U+30A4_U+30E4_U+30FC 1
 62
   179
420
  2234388
370
     9
100
AcDb2dPolyline
 66
     1
 10
0.0
 20
0.0
 30
0.0
  0
VERTEX
  5
A9
330
A8
100
AcDbEntity
  8
_U+30EC_U+30A4_U+30E4_U+30FC 1
 62
   179
420
  2234388
370
     9
100
AcDbVertex
100
AcDb2dVertex
 10
75.82446612111227
 20
-76.09543664764274
 30
0.0
  0
VERTEX
  5
AA
330
A8
100
AcDbEntity
  8
_U+30EC_U+30A4_U+30E4_U+30FC 1
 62
   179
420
  2234388
370
     9
100
AcDbVertex
100
AcDb2dVertex
 10
75.82446612111227
 20
-78.47548720260343
 30
0.0
  0
SEQEND
  5
AB
330
A8
100
AcDbEntity
  8
_U+30EC_U+30A4_U+30E4_U+30FC 1
 62
   179
420
  2234388
370
     9
  0
INSERT
  5
AD
330
1F
100
AcDbEntity
  8
_U+30EC_U+30A4_U+30E4_U+30FC 1
100
AcDbBlockReference
  2
block 5
 10
0.0
 20
0.0
 30
0.0
  0
POLYLINE
  5
B4
330
1F
100
AcDbEntity
  8
_U+30EC_U+30A4_U+30E4_U+30FC 1
 62
   179
420
  2234388
370
     9
100
AcDb2dPolyline
 66
     1
 10
0.0
 20
0.0
 30
0.0
  0
VERTEX
  5
B5
330
B4
100
AcDbEntity
  8
_U+30EC_U+30A4_U+30E4_U+30FC 1
 62
   179
420
  2234388
370
     9
100
AcDbVertex
100
AcDb2dVertex
 10
48.8614495867739
 20
-98.29616553098145
 30
0.0
  0
VERTEX
  5
B6
330
B4
100
AcDbEntity
  8
_U+30EC_U+30A4_U+30E4_U+30FC 1
 62
   179
420
  2234388
370
     9
100
AcDbVertex
100
AcDb2dVertex
 10
48.8614495867739
 20
-81.09616747972586
 30
0.0
  0
SEQEND
  5
B7
330
B4
100
AcDbEntity
  8
_U+30EC_U+30A4_U+30E4_U+30FC 1
 62
   179
420
  2234388
370
     9
  0
POLYLINE
  5
B8
330
1F
100
AcDbEntity
  8
_U+30EC_U+30A4_U+30E4_U+30FC 1
 62
   179
420
  2234388
370
     9
100
AcDb2dPolyline
 66
     1
 10
0.0
 20
0.0
 30
0.0
  0
VERTEX
  5
B9
330
B8
100
AcDbEntity
  8
_U+30EC_U+30A4_U+30E4_U+30FC 1
 62
   179
420
  2234388
370
     9
100
AcDbVertex
100
AcDb2dVertex
 10
49.86326789454872
 20
-98.29616553098145
 30
0.0
  0
VERTEX
  5
BA
330
B8
100
AcDbEntity
  8
_U+30EC_U+30A4_U+30E4_U+30FC 1
 62
   179
420
  2234388
370
     9
100
AcDbVertex
100
AcDb2dVertex
 10
47.85511572355873
 20
-98.29616553098145
 30
0.0
  0
SEQEND
  5
BB
330
B8
100
AcDbEntity
  8
_U+30EC_U+30A4_U+30E4_U+30FC 1
 62
   179
420
  2234388
370
     9
  0
INSERT
  5
BD
330
1F
100
AcDbEntity
  8
_U+30EC_U+30A4_U+30E4_U+30FC 1
100
AcDbBlockReference
  2
block 6
 10
0.0
 20
0.0
 30
0.0
  0
SPLINE
  5
CE
330
1F
100
AcDbEntity
  8
_U+30EC_U+30A4_U+30E4_U+30FC 1
 62
   179
420
  2234388
370
     9
100
AcDbSpline
210
0.0
220
0.0
230
1.0
 70
    11
 71
     3
 72
    17
 73
    13
 74
     0
 42
0.0000000001
 43
0.0000000001
 12
1.0
 22
0.0
 32
0.0
 13
1.0
 23
0.0
 33
0.0
 40
0.0
 40
0.0
 40
0.0
 40
0.0
 40
1.0
 40
1.0
 40
1.0
 40
2.0
 40
2.0
 40
2.0
 40
3.0
 40
3.0
 40
3.0
 40
4.0
 40
4.0
 40
4.0
 40
4.0
 10
48.95514736216125
 20
-98.29478969764857
 30
0.0
 10
48.95514736216125
 20
-98.23965053099549
 30
0.0
 10
48.91037986330336
 20
-98.19520053100653
 30
0.0
 10
48.85524069804342
 20
-98.19520053100653
 30
0.0
 10
48.80013681056035
 20
-98.19520053100653
 30
0.0
 10
48.75533403392558
 20
-98.23965053099549
 30
0.0
 10
48.75533403392558
 20
-98.29478969764857
 30
0.0
 10
48.75533403392558
 20
-98.350599142079
 30
0.0
 10
48.80013681056035
 20
-98.39536664206757
 30
0.0
 10
48.85524069804342
 20
-98.39536664206757
 30
0.0
 10
48.91037986330336
 20
-98.39536664206757
 30
0.0
 10
48.95514736216125
 20
-98.350599142079
 30
0.0
 10
48.95514736216125
 20
-98.29478969764857
 30
0.0
  0
POLYLINE
  5
CF
330
1F
100
AcDbEntity
  8
_U+30EC_U+30A4_U+30E4_U+30FC 1
 62
   179
420
  2234388
370
     9
100
AcDb2dPolyline
 66
     1
 10
0.0
 20
0.0
 30
0.0
  0
VERTEX
  5
D0
330
CF
100
AcDbEntity
  8
_U+30EC_U+30A4_U+30E4_U+30FC 1
 62
   179
420
  2234388
370
     9
100
AcDbVertex
100
AcDb2dVertex
 10
49.86326789454872
 20
-81.09581470194841
 30
0.0
  0
VERTEX
  5
D1
330
CF
100
AcDbEntity
  8
_U+30EC_U+30A4_U+30E4_U+30FC 1
 62
   179
420
  2234388
370
     9
100
AcDbVertex
100
AcDb2dVertex
 10
47.85511572355873
 20
-81.09581470194841
 30
0.0
  0
SEQEND
  5
D2
330
CF
100
AcDbEntity
  8
_U+30EC_U+30A4_U+30E4_U+30FC 1
 62
   179
420
  2234388
370
     9
  0
SPLINE
  5
D3
330
1F
100
AcDbEntity
  8
_U+30EC_U+30A4_U+30E4_U+30FC 1
 62
   179
420
  2234388
370
     9
100
AcDbSpline
210
0.0
220
0.0
230
1.0
 70
    11
 71
     3
 72
    17
 73
    13
 74
     0
 42
0.0000000001
 43
0.0000000001
 12
1.0
 22
0.0
 32
0.0
 13
1.0
 23
0.0
 33
0.0
 40
0.0
 40
0.0
 40
0.0
 40
0.0
 40
1.0
 40
1.0
 40
1.0
 40
2.0
 40
2.0
 40
2.0
 40
3.0
 40
3.0
 40
3.0
 40
4.0
 40
4.0
 40
4.0
 40
4.0
 10
48.95514736216125
 20
-81.09443886861521
 30
0.0
 10
48.95514736216125
 20
-81.03933497974029
 30
0.0
 10
48.91037986330336
 20
-80.99488497975133
 30
0.0
 10
48.85524069804342
 20
-80.99488497975133
 30
0.0
 10
48.80013681056035
 20
-80.99488497975133
 30
0.0
 10
48.75533403392558
 20
-81.03933497974029
 30
0.0
 10
48.75533403392558
 20
-81.09443886861521
 30
0.0
 10
48.75533403392558
 20
-81.15024831304565
 30
0.0
 10
48.80013681056035
 20
-81.19505109081237
 30
0.0
 10
48.85524069804342
 20
-81.19505109081237
 30
0.0
 10
48.91037986330336
 20
-81.19505109081237
 30
0.0
 10
48.95514736216125
 20
-81.15024831304565
 30
0.0
 10
48.95514736216125
 20
-81.09443886861521
 30
0.0
  0
ENDSEC
  0
SECTION
  2
OBJECTS
  0
DICTIONARY
  5
C
330
0
100
AcDbDictionary
281
     1
  3
ACAD_GROUP
350
D
  3
ACAD_LAYOUT
350
1A
  3
ACAD_MATERIAL
350
3B
  3
ACAD_MLEADERSTYLE
350
D5
  3
ACAD_MLINESTYLE
350
17
  3
ACAD_PLOTSETTINGS
350
19
  3
ACAD_PLOTSTYLENAME
350
E
  3
ACAD_TABLESTYLE
350
D4
  3
ACAD_VISUALSTYLE
350
2A
  0
SUN
  5
3F
330
29
100
AcDbSun
 90
        1
290
     0
 63
     7
421
 16777215
 40
1.0
291
     1
 91
  2455826
 92
 54000000
292
     0
 70
     2
 71
   256
280
     1
  0
DICTIONARY
  5
D
102
{ACAD_REACTORS
330
C
102
}
330
C
100
AcDbDictionary
281
     1
  0
DICTIONARY
  5
1A
102
{ACAD_REACTORS
330
C
102
}
330
C
100
AcDbDictionary
281
     1
  3
Layout1
350
1E
  3
Layout2
350
26
  3
Model
350
22
  0
DICTIONARY
  5
3B
102
{ACAD_REACTORS
330
C
102
}
330
C
100
AcDbDictionary
281
     1
  3
ByBlock
350
3D
  3
ByLayer
350
3C
  3
Global
350
3E
  0
DICTIONARY
  5
D5
102
{ACAD_REACTORS
330
C
102
}
330
C
100
AcDbDictionary
281
     1
  0
DICTIONARY
  5
17
102
{ACAD_REACTORS
330
C
102
}
330
C
100
AcDbDictionary
281
     1
  3
Standard
350
18
  0
DICTIONARY
  5
19
102
{ACAD_REACTORS
330
C
102
}
330
C
100
AcDbDictionary
281
     1
  0
ACDBDICTIONARYWDFLT
  5
E
102
{ACAD_REACTORS
330
C
102
}
330
C
100
AcDbDictionary
281
     1
  3
Normal
350
F
100
AcDbDictionaryWithDefault
340
F
  0
DICTIONARY
  5
D4
102
{ACAD_REACTORS
330
C
102
}
330
C
100
AcDbDictionary
281
     1
  0
DICTIONARY
  5
2A
102
{ACAD_REACTORS
330
C
102
}
330
C
100
AcDbDictionary
281
     1
  3
2dWireframe
350
2F
  3
3D Hidden
350
31
  3
3dWireframe
350
30
  3
Basic
350
32
  3
Brighten
350
36
  3
ColorChange
350
3A
  3
Conceptual
350
34
  3
Dim
350
35
  3
Facepattern
350
39
  3
Flat
350
2B
  3
FlatWithEdges
350
2C
  3
Gouraud
350
2D
  3
GouraudWithEdges
350
2E
  3
Linepattern
350
38
  3
Realistic
350
33
  3
Thicken
350
37
  0
LAYOUT
  5
1E
102
{ACAD_REACTORS
330
1A
102
}
330
1A
100
AcDbPlotSettings
  1

  2
none_device
  4

  6

 40
0.0
 41
0.0
 42
0.0
 43
0.0
 44
0.0
 45
0.0
 46
0.0
 47
0.0
 48
0.0
 49
0.0
140
0.0
141
0.0
142
1.0
143
1.0
 70
   688
 72
     0
 73
     0
 74
     5
  7

 75
    16
 76
     0
 77
     2
 78
   300
147
1.0
148
0.0
149
0.0
100
AcDbLayout
  1
Layout1
 70
     1
 71
     1
 10
0.0
 20
0.0
 11
12.0
 21
9.0
 12
0.0
 22
0.0
 32
0.0
 14
1.000000000000000E+20
 24
1.000000000000000E+20
 34
1.000000000000000E+20
 15
-1.000000000000000E+20
 25
-1.000000000000000E+20
 35
-1.000000000000000E+20
146
0.0
 13
0.0
 23
0.0
 33
0.0
 16
1.0
 26
0.0
 36
0.0
 17
0.0
 27
1.0
 37
0.0
 76
     0
330
1B
  0
LAYOUT
  5
26
102
{ACAD_REACTORS
330
1A
102
}
330
1A
100
AcDbPlotSettings
  1

  2
none_device
  4

  6

 40
0.0
 41
0.0
 42
0.0
 43
0.0
 44
0.0
 45
0.0
 46
0.0
 47
0.0
 48
0.0
 49
0.0
140
0.0
141
0.0
142
1.0
143
1.0
 70
   688
 72
     0
 73
     0
 74
     5
  7

 75
    16
 76
     0
 77
     2
 78
   300
147
1.0
148
0.0
149
0.0
100
AcDbLayout
  1
Layout2
 70
     1
 71
     2
 10
0.0
 20
0.0
 11
0.0
 21
0.0
 12
0.0
 22
0.0
 32
0.0
 14
0.0
 24
0.0
 34
0.0
 15
0.0
 25
0.0
 35
0.0
146
0.0
 13
0.0
 23
0.0
 33
0.0
 16
1.0
 26
0.0
 36
0.0
 17
0.0
 27
1.0
 37
0.0
 76
     0
330
23
  0
LAYOUT
  5
22
102
{ACAD_REACTORS
330
1A
102
}
330
1A
100
AcDbPlotSettings
  1

  2
none_device
  4

  6

 40
0.0
 41
0.0
 42
0.0
 43
0.0
 44
0.0
 45
0.0
 46
0.0
 47
0.0
 48
0.0
 49
0.0
140
0.0
141
0.0
142
1.0
143
1.0
 70
  1712
 72
     0
 73
     0
 74
     0
  7

 75
     0
 76
     0
 77
     2
 78
   300
147
1.0
148
0.0
149
0.0
100
AcDbLayout
  1
Model
 70
     1
 71
     0
 10
0.0
 20
0.0
 11
12.0
 21
9.0
 12
0.0
 22
0.0
 32
0.0
 14
1.000000000000000E+20
 24
1.000000000000000E+20
 34
1.000000000000000E+20
 15
-1.000000000000000E+20
 25
-1.000000000000000E+20
 35
-1.000000000000000E+20
146
0.0
 13
0.0
 23
0.0
 33
0.0
 16
1.0
 26
0.0
 36
0.0
 17
0.0
 27
1.0
 37
0.0
 76
     0
330
1F
331
29
  0
MATERIAL
  5
3D
102
{ACAD_REACTORS
330
3B
102
}
330
3B
100
AcDbMaterial
  1
ByBlock
 72
     1
 94
      127
  0
MATERIAL
  5
3C
102
{ACAD_REACTORS
330
3B
102
}
330
3B
100
AcDbMaterial
  1
ByLayer
 72
     1
 94
      127
  0
MATERIAL
  5
3E
102
{ACAD_REACTORS
330
3B
102
}
330
3B
100
AcDbMaterial
  1
Global
 72
     1
 94
      127
  0
MLINESTYLE
  5
18
102
{ACAD_REACTORS
330
17
102
}
330
17
100
AcDbMlineStyle
  2
Standard
 70
     0
  3

 62
   256
 51
90.0
 52
90.0
 71
     2
 49
0.5
 62
   256
  6
BYLAYER
 49
-0.5
 62
   256
  6
BYLAYER
  0
ACDBPLACEHOLDER
  5
F
102
{ACAD_REACTORS
330
E
102
}
330
E
  0
VISUALSTYLE
  5
2F
102
{ACAD_REACTORS
330
2A
102
}
330
2A
100
AcDbVisualStyle
  2
2dWireframe
 70
     4
177
     2
291
     0
 71
     0
176
     1
 72
     2
176
     1
 73
     0
176
     1
 90
        0
176
     1
 40
-0.6
176
     1
 41
-30.0
176
     1
 62
     5
 63
     7
421
 16777215
176
     1
 74
     1
176
     1
 91
        4
176
     1
 64
     7
176
     1
 65
   257
176
     1
 75
     1
176
     1
175
     1
176
     1
 42
1.0
176
     1
 92
        0
176
     1
 66
   257
176
     1
 43
1.0
176
     1
 76
     1
176
     1
 77
     6
176
     1
 78
     2
176
     1
 67
     7
176
     1
 79
     5
176
     1
170
     0
176
     1
171
     0
176
     1
290
     0
176
     1
 93
        1
176
     1
 44
0.0
176
     1
173
     0
176
     1
  0
VISUALSTYLE
  5
31
102
{ACAD_REACTORS
330
2A
102
}
330
2A
100
AcDbVisualStyle
  2
3D Hidden
 70
     6
177
     2
291
     0
 71
     1
176
     1
 72
     2
176
     1
 73
     2
176
     1
 90
        0
176
     1
 40
-0.6
176
     1
 41
-30.0
176
     1
 62
     5
 63
     7
421
 16777215
176
     1
 74
     2
176
     1
 91
        2
176
     1
 64
     7
176
     1
 65
   257
176
     1
 75
     2
176
     1
175
     1
176
     1
 42
40.0
176
     1
 92
        0
176
     1
 66
   257
176
     1
 43
1.0
176
     1
 76
     1
176
     1
 77
     6
176
     1
 78
     2
176
     1
 67
     7
176
     1
 79
     3
176
     1
170
     0
176
     1
171
     0
176
     1
290
     0
176
     1
 93
        1
176
     1
 44
0.0
176
     1
173
     0
176
     1
  0
VISUALSTYLE
  5
30
102
{ACAD_REACTORS
330
2A
102
}
330
2A
100
AcDbVisualStyle
  2
3dWireframe
 70
     5
177
     2
291
     0
 71
     0
176
     1
 72
     2
176
     1
 73
     0
176
     1
 90
        0
176
     1
 40
-0.6
176
     1
 41
-30.0
176
     1
 62
     5
 63
     7
421
 16777215
176
     1
 74
     1
176
     1
 91
        4
176
     1
 64
     7
176
     1
 65
   257
176
     1
 75
     1
176
     1
175
     1
176
     1
 42
1.0
176
     1
 92
        0
176
     1
 66
   257
176
     1
 43
1.0
176
     1
 76
     1
176
     1
 77
     6
176
     1
 78
     2
176
     1
 67
     7
176
     1
 79
     5
176
     1
170
     0
176
     1
171
     0
176
     1
290
     0
176
     1
 93
        1
176
     1
 44
0.0
176
     1
173
     0
176
     1
  0
VISUALSTYLE
  5
32
102
{ACAD_REACTORS
330
2A
102
}
330
2A
100
AcDbVisualStyle
  2
Basic
 70
     7
177
     2
291
     1
 71
     1
176
     1
 72
     0
176
     1
 73
     1
176
     1
 90
        0
176
     1
 40
-0.6
176
     1
 41
-30.0
176
     1
 62
     5
 63
     7
421
 16777215
176
     1
 74
     0
176
     1
 91
        4
176
     1
 64
     7
176
     1
 65
   257
176
     1
 75
     1
176
     1
175
     1
176
     1
 42
1.0
176
     1
 92
        8
176
     1
 66
     7
176
     1
 43
1.0
176
     1
 76
     1
176
     1
 77
     6
176
     1
 78
     2
176
     1
 67
     7
176
     1
 79
     5
176
     1
170
     0
176
     1
171
     0
176
     1
290
     0
176
     1
 93
        1
176
     1
 44
0.0
176
     1
173
     0
176
     1
  0
VISUALSTYLE
  5
36
102
{ACAD_REACTORS
330
2A
102
}
330
2A
100
AcDbVisualStyle
  2
Brighten
 70
    12
177
     2
291
     1
 71
     2
176
     1
 72
     2
176
     1
 73
     0
176
     1
 90
        0
176
     1
 40
-0.6
176
     1
 41
-30.0
176
     1
 62
     5
 63
     7
421
 16777215
176
     1
 74
     1
176
     1
 91
        4
176
     1
 64
     7
176
     1
 65
   257
176
     1
 75
     1
176
     1
175
     1
176
     1
 42
1.0
176
     1
 92
        8
176
     1
 66
     7
176
     1
 43
1.0
176
     1
 76
     1
176
     1
 77
     6
176
     1
 78
     2
176
     1
 67
     7
176
     1
 79
     5
176
     1
170
     0
176
     1
171
     0
176
     1
290
     0
176
     1
 93
        1
176
     1
 44
50.0
176
     1
173
     0
176
     1
  0
VISUALSTYLE
  5
3A
102
{ACAD_REACTORS
330
2A
102
}
330
2A
100
AcDbVisualStyle
  2
ColorChange
 70
    16
177
     2
291
     1
 71
     2
176
     1
 72
     2
176
     1
 73
     3
176
     1
 90
        0
176
     1
 40
-0.6
176
     1
 41
-30.0
176
     1
 62
     5
 63
     8
421
  8421504
176
     1
 74
     1
176
     1
 91
        4
176
     1
 64
     7
176
     1
 65
   257
176
     1
 75
     1
176
     1
175
     1
176
     1
 42
1.0
176
     1
 92
        8
176
     1
 66
     8
424
  8421504
176
     1
 43
1.0
176
     1
 76
     1
176
     1
 77
     6
176
     1
 78
     2
176
     1
 67
     7
176
     1
 79
     5
176
     1
170
     0
176
     1
171
     0
176
     1
290
     0
176
     1
 93
        1
176
     1
 44
0.0
176
     1
173
     0
176
     1
  0
VISUALSTYLE
  5
34
102
{ACAD_REACTORS
330
2A
102
}
330
2A
100
AcDbVisualStyle
  2
Conceptual
 70
     9
177
     2
291
     0
 71
     3
176
     1
 72
     2
176
     1
 73
     0
176
     1
 90
        0
176
     1
 40
-0.6
176
     1
 41
-30.0
176
     1
 62
     5
 63
     7
421
 16777215
176
     1
 74
     2
176
     1
 91
        2
176
     1
 64
     7
176
     1
 65
   257
176
     1
 75
     1
176
     1
175
     1
176
     1
 42
40.0
176
     1
 92
        8
176
     1
 66
     7
176
     1
 43
1.0
176
     1
 76
     1
176
     1
 77
     6
176
     1
 78
     2
176
     1
 67
     7
176
     1
 79
     3
176
     1
170
     0
176
     1
171
     0
176
     1
290
     0
176
     1
 93
        1
176
     1
 44
0.0
176
     1
173
     0
176
     1
  0
VISUALSTYLE
  5
35
102
{ACAD_REACTORS
330
2A
102
}
330
2A
100
AcDbVisualStyle
  2
Dim
 70
    11
177
     2
291
     1
 71
     2
176
     1
 72
     2
176
     1
 73
     0
176
     1
 90
        0
176
     1
 40
-0.6
176
     1
 41
-30.0
176
     1
 62
     5
 63
     7
421
 16777215
176
     1
 74
     1
176
     1
 91
        4
176
     1
 64
     7
176
     1
 65
   257
176
     1
 75
     1
176
     1
175
     1
176
     1
 42
1.0
176
     1
 92
        8
176
     1
 66
     7
176
     1
 43
1.0
176
     1
 76
     1
176
     1
 77
     6
176
     1
 78
     2
176
     1
 67
     7
176
     1
 79
     5
176
     1
170
     0
176
     1
171
     0
176
     1
290
     0
176
     1
 93
        1
176
     1
 44
-50.0
176
     1
173
     0
176
     1
  0
VISUALSTYLE
  5
39
102
{ACAD_REACTORS
330
2A
102
}
330
2A
100
AcDbVisualStyle
  2
Facepattern
 70
    15
177
     2
291
     1
 71
     2
176
     1
 72
     2
176
     1
 73
     0
176
     1
 90
        0
176
     1
 40
-0.6
176
     1
 41
-30.0
176
     1
 62
     5
 63
     7
421
 16777215
176
     1
 74
     1
176
     1
 91
        4
176
     1
 64
     7
176
     1
 65
   257
176
     1
 75
     1
176
     1
175
     1
176
     1
 42
1.0
176
     1
 92
        8
176
     1
 66
     7
176
     1
 43
1.0
176
     1
 76
     1
176
     1
 77
     6
176
     1
 78
     2
176
     1
 67
     7
176
     1
 79
     5
176
     1
170
     0
176
     1
171
     0
176
     1
290
     0
176
     1
 93
        1
176
     1
 44
0.0
176
     1
173
     0
176
     1
  0
VISUALSTYLE
  5
2B
102
{ACAD_REACTORS
330
2A
102
}
330
2A
100
AcDbVisualStyle
  2
Flat
 70
     0
177
     2
291
     1
 71
     2
176
     1
 72
     1
176
     1
 73
     1
176
     1
 90
        2
176
     1
 40
-0.6
176
     1
 41
30.0
176
     1
 62
     5
 63
     7
421
 16777215
176
     1
 74
     0
176
     1
 91
        4
176
     1
 64
     7
176
     1
 65
   257
176
     1
 75
     1
176
     1
175
     1
176
     1
 42
1.0
176
     1
 92
        8
176
     1
 66
     7
176
     1
 43
1.0
176
     1
 76
     1
176
     1
 77
     6
176
     1
 78
     2
176
     1
 67
     7
176
     1
 79
     5
176
     1
170
     0
176
     1
171
     0
176
     1
290
     0
176
     1
 93
       13
176
     1
 44
0.0
176
     1
173
     0
176
     1
  0
VISUALSTYLE
  5
2C
102
{ACAD_REACTORS
330
2A
102
}
330
2A
100
AcDbVisualStyle
  2
FlatWithEdges
 70
     1
177
     2
291
     1
 71
     2
176
     1
 72
     1
176
     1
 73
     1
176
     1
 90
        2
176
     1
 40
-0.6
176
     1
 41
30.0
176
     1
 62
     5
 63
     7
421
 16777215
176
     1
 74
     1
176
     1
 91
        4
176
     1
 64
     7
176
     1
 65
   257
176
     1
 75
     1
176
     1
175
     1
176
     1
 42
1.0
176
     1
 92
        0
176
     1
 66
   257
176
     1
 43
1.0
176
     1
 76
     1
176
     1
 77
     6
176
     1
 78
     2
176
     1
 67
     7
176
     1
 79
     5
176
     1
170
     0
176
     1
171
     0
176
     1
290
     0
176
     1
 93
       13
176
     1
 44
0.0
176
     1
173
     0
176
     1
  0
VISUALSTYLE
  5
2D
102
{ACAD_REACTORS
330
2A
102
}
330
2A
100
AcDbVisualStyle
  2
Gouraud
 70
     2
177
     2
291
     1
 71
     2
176
     1
 72
     2
176
     1
 73
     1
176
     1
 90
        2
176
     1
 40
-0.6
176
     1
 41
30.0
176
     1
 62
     5
 63
     7
421
 16777215
176
     1
 74
     0
176
     1
 91
        4
176
     1
 64
     7
176
     1
 65
   257
176
     1
 75
     1
176
     1
175
     1
176
     1
 42
1.0
176
     1
 92
        0
176
     1
 66
     7
176
     1
 43
1.0
176
     1
 76
     1
176
     1
 77
     6
176
     1
 78
     2
176
     1
 67
     7
176
     1
 79
     5
176
     1
170
     0
176
     1
171
     0
176
     1
290
     0
176
     1
 93
       13
176
     1
 44
0.0
176
     1
173
     0
176
     1
  0
VISUALSTYLE
  5
2E
102
{ACAD_REACTORS
330
2A
102
}
330
2A
100
AcDbVisualStyle
  2
GouraudWithEdges
 70
     3
177
     2
291
     1
 71
     2
176
     1
 72
     2
176
     1
 73
     1
176
     1
 90
        2
176
     1
 40
-0.6
176
     1
 41
30.0
176
     1
 62
     5
 63
     7
421
 16777215
176
     1
 74
     1
176
     1
 91
        4
176
     1
 64
     7
176
     1
 65
   257
176
     1
 75
     1
176
     1
175
     1
176
     1
 42
1.0
176
     1
 92
        0
176
     1
 66
   257
176
     1
 43
1.0
176
     1
 76
     1
176
     1
 77
     6
176
     1
 78
     2
176
     1
 67
     7
176
     1
 79
     5
176
     1
170
     0
176
     1
171
     0
176
     1
290
     0
176
     1
 93
       13
176
     1
 44
0.0
176
     1
173
     0
176
     1
  0
VISUALSTYLE
  5
38
102
{ACAD_REACTORS
330
2A
102
}
330
2A
100
AcDbVisualStyle
  2
Linepattern
 70
    14
177
     2
291
     1
 71
     2
176
     1
 72
     2
176
     1
 73
     0
176
     1
 90
        0
176
     1
 40
-0.6
176
     1
 41
-30.0
176
     1
 62
     5
 63
     7
421
 16777215
176
     1
 74
     1
176
     1
 91
        4
176
     1
 64
     7
176
     1
 65
   257
176
     1
 75
     7
176
     1
175
     7
176
     1
 42
1.0
176
     1
 92
        8
176
     1
 66
     7
176
     1
 43
1.0
176
     1
 76
     1
176
     1
 77
     6
176
     1
 78
     2
176
     1
 67
     7
176
     1
 79
     5
176
     1
170
     0
176
     1
171
     0
176
     1
290
     0
176
     1
 93
        1
176
     1
 44
0.0
176
     1
173
     0
176
     1
  0
VISUALSTYLE
  5
33
102
{ACAD_REACTORS
330
2A
102
}
330
2A
100
AcDbVisualStyle
  2
Realistic
 70
     8
177
     2
291
     0
 71
     2
176
     1
 72
     2
176
     1
 73
     0
176
     1
 90
        0
176
     1
 40
-0.6
176
     1
 41
-30.0
176
     1
 62
     5
 63
     7
421
 16777215
176
     1
 74
     1
176
     1
 91
        0
176
     1
 64
     7
176
     1
 65
   257
176
     1
 75
     1
176
     1
175
     1
176
     1
 42
1.0
176
     1
 92
        8
176
     1
 66
     8
424
  7895160
176
     1
 43
1.0
176
     1
 76
     1
176
     1
 77
     6
176
     1
 78
     2
176
     1
 67
     7
176
     1
 79
     5
176
     1
170
     0
176
     1
171
     0
176
     1
290
     0
176
     1
 93
       13
176
     1
 44
0.0
176
     1
173
     0
176
     1
  0
VISUALSTYLE
  5
37
102
{ACAD_REACTORS
330
2A
102
}
330
2A
100
AcDbVisualStyle
  2
Thicken
 70
    13
177
     2
291
     1
 71
     2
176
     1
 72
     2
176
     1
 73
     0
176
     1
 90
        0
176
     1
 40
-0.6
176
     1
 41
-30.0
176
     1
 62
     5
 63
     7
421
 16777215
176
     1
 74
     1
176
     1
 91
        4
176
     1
 64
     7
176
     1
 65
   257
176
     1
 75
     1
176
     1
175
     1
176
     1
 42
1.0
176
     1
 92
       12
176
     1
 66
     7
176
     1
 43
1.0
176
     1
 76
     1
176
     1
 77
     6
176
     1
 78
     2
176
     1
 67
     7
176
     1
 79
     5
176
     1
170
     0
176
     1
171
     0
176
     1
290
     0
176
     1
 93
        1
176
     1
 44
0.0
176
     1
173
     0
176
     1
  0
ENDSEC
  0
EOF
