  0
SECTION
  2
HEADER
  9
$ACADVER
  1
AC1024
  9
$ACADMAINTVER
 70
     6
  9
$DWGCODEPAGE
  3
UNDEFINED
  9
$INSBASE
 10
0.0
 20
0.0
 30
0.0
  9
$EXTMIN
 10
1.000000000000000E+20
 20
1.000000000000000E+20
 30
1.000000000000000E+20
  9
$EXTMAX
 10
-1.000000000000000E+20
 20
-1.000000000000000E+20
 30
-1.000000000000000E+20
  9
$LIMMIN
 10
0.0
 20
0.0
  9
$LIMMAX
 10
12.0
 20
9.0
  9
$ORTHOMODE
 70
     0
  9
$REGENMODE
 70
     1
  9
$FILLMODE
 70
     1
  9
$QTEXTMODE
 70
     0
  9
$MIRRTEXT
 70
     1
  9
$LTSCALE
 40
1.0
  9
$ATTMODE
 70
     1
  9
$TEXTSIZE
 40
0.2
  9
$TRACEWID
 40
0.05
  9
$TEXTSTYLE
  7
Standard
  9
$CLAYER
  8
0
  9
$CELTYPE
  6
ByLayer
  9
$CECOLOR
 62
   256
  9
$CELTSCALE
 40
1.0
  9
$DISPSILH
 70
     0
  9
$DIMSCALE
 40
1.0
  9
$DIMASZ
 40
0.18
  9
$DIMEXO
 40
0.0625
  9
$DIMDLI
 40
0.38
  9
$DIMRND
 40
0.0
  9
$DIMDLE
 40
0.0
  9
$DIMEXE
 40
0.18
  9
$DIMTP
 40
0.0
  9
$DIMTM
 40
0.0
  9
$DIMTXT
 40
0.18
  9
$DIMCEN
 40
0.09
  9
$DIMTSZ
 40
0.0
  9
$DIMTOL
 70
     0
  9
$DIMLIM
 70
     0
  9
$DIMTIH
 70
     1
  9
$DIMTOH
 70
     1
  9
$DIMSE1
 70
     0
  9
$DIMSE2
 70
     0
  9
$DIMTAD
 70
     0
  9
$DIMZIN
 70
     0
  9
$DIMBLK
  1

  9
$DIMASO
 70
     1
  9
$DIMSHO
 70
     1
  9
$DIMPOST
  1

  9
$DIMAPOST
  1

  9
$DIMALT
 70
     0
  9
$DIMALTD
 70
     2
  9
$DIMALTF
 40
25.4
  9
$DIMLFAC
 40
1.0
  9
$DIMTOFL
 70
     0
  9
$DIMTVP
 40
0.0
  9
$DIMTIX
 70
     0
  9
$DIMSOXD
 70
     0
  9
$DIMSAH
 70
     0
  9
$DIMBLK1
  1

  9
$DIMBLK2
  1

  9
$DIMSTYLE
  2
Standard
  9
$DIMCLRD
 70
     0
  9
$DIMCLRE
 70
     0
  9
$DIMCLRT
 70
     0
  9
$DIMTFAC
 40
1.0
  9
$DIMGAP
 40
0.09
  9
$DIMJUST
 70
     0
  9
$DIMSD1
 70
     0
  9
$DIMSD2
 70
     0
  9
$DIMTOLJ
 70
     1
  9
$DIMTZIN
 70
     0
  9
$DIMALTZ
 70
     0
  9
$DIMALTTZ
 70
     0
  9
$DIMUPT
 70
     0
  9
$DIMDEC
 70
     4
  9
$DIMTDEC
 70
     4
  9
$DIMALTU
 70
     2
  9
$DIMALTTD
 70
     2
  9
$DIMTXSTY
  7
Standard
  9
$DIMAUNIT
 70
     0
  9
$DIMADEC
 70
     0
  9
$DIMALTRND
 40
0.0
  9
$DIMAZIN
 70
     0
  9
$DIMDSEP
 70
    46
  9
$DIMATFIT
 70
     3
  9
$DIMFRAC
 70
     0
  9
$DIMLDRBLK
  1

  9
$DIMLUNIT
 70
     2
  9
$DIMLWD
 70
    -2
  9
$DIMLWE
 70
    -2
  9
$DIMTMOVE
 70
     0
  9
$DIMFXL
 40
1.0
  9
$DIMFXLON
 70
     0
  9
$DIMJOGANG
 40
0.7853981633974483
  9
$DIMTFILL
 70
     0
  9
$DIMTFILLCLR
 70
     0
  9
$DIMARCSYM
 70
     0
  9
$DIMLTYPE
  6

  9
$DIMLTEX1
  6

  9
$DIMLTEX2
  6

  9
$DIMTXTDIRECTION
 70
     0
  9
$LUNITS
 70
     2
  9
$LUPREC
 70
     4
  9
$SKETCHINC
 40
0.1
  9
$FILLETRAD
 40
0.5
  9
$AUNITS
 70
     0
  9
$AUPREC
 70
     0
  9
$MENU
  1
.
  9
$ELEVATION
 40
0.0
  9
$PELEVATION
 40
0.0
  9
$THICKNESS
 40
0.0
  9
$LIMCHECK
 70
     0
  9
$CHAMFERA
 40
0.5
  9
$CHAMFERB
 40
0.5
  9
$CHAMFERC
 40
1.0
  9
$CHAMFERD
 40
0.0
  9
$SKPOLY
 70
     0
  9
$TDCREATE
 40
2457917.586724525
  9
$TDUCREATE
 40
2457917.211724537
  9
$TDUPDATE
 40
2457917.586724525
  9
$TDUUPDATE
 40
2457917.211724537
  9
$TDINDWG
 40
0.0000000116
  9
$TDUSRTIMER
 40
0.0000000116
  9
$USRTIMER
 70
     1
  9
$ANGBASE
 50
0.0
  9
$ANGDIR
 70
     0
  9
$PDMODE
 70
     0
  9
$PDSIZE
 40
0.0
  9
$PLINEWID
 40
0.0
  9
$SPLFRAME
 70
     0
  9
$SPLINETYPE
 70
     6
  9
$SPLINESEGS
 70
     8
  9
$HANDSEED
  5
13D
  9
$SURFTAB1
 70
     6
  9
$SURFTAB2
 70
     6
  9
$SURFTYPE
 70
     6
  9
$SURFU
 70
     6
  9
$SURFV
 70
     6
  9
$UCSBASE
  2

  9
$UCSNAME
  2

  9
$UCSORG
 10
0.0
 20
0.0
 30
0.0
  9
$UCSXDIR
 10
1.0
 20
0.0
 30
0.0
  9
$UCSYDIR
 10
0.0
 20
1.0
 30
0.0
  9
$UCSORTHOREF
  2

  9
$UCSORTHOVIEW
 70
     0
  9
$UCSORGTOP
 10
0.0
 20
0.0
 30
0.0
  9
$UCSORGBOTTOM
 10
0.0
 20
0.0
 30
0.0
  9
$UCSORGLEFT
 10
0.0
 20
0.0
 30
0.0
  9
$UCSORGRIGHT
 10
0.0
 20
0.0
 30
0.0
  9
$UCSORGFRONT
 10
0.0
 20
0.0
 30
0.0
  9
$UCSORGBACK
 10
0.0
 20
0.0
 30
0.0
  9
$PUCSBASE
  2

  9
$PUCSNAME
  2

  9
$PUCSORG
 10
0.0
 20
0.0
 30
0.0
  9
$PUCSXDIR
 10
1.0
 20
0.0
 30
0.0
  9
$PUCSYDIR
 10
0.0
 20
1.0
 30
0.0
  9
$PUCSORTHOREF
  2

  9
$PUCSORTHOVIEW
 70
     0
  9
$PUCSORGTOP
 10
0.0
 20
0.0
 30
0.0
  9
$PUCSORGBOTTOM
 10
0.0
 20
0.0
 30
0.0
  9
$PUCSORGLEFT
 10
0.0
 20
0.0
 30
0.0
  9
$PUCSORGRIGHT
 10
0.0
 20
0.0
 30
0.0
  9
$PUCSORGFRONT
 10
0.0
 20
0.0
 30
0.0
  9
$PUCSORGBACK
 10
0.0
 20
0.0
 30
0.0
  9
$USERI1
 70
     0
  9
$USERI2
 70
     0
  9
$USERI3
 70
     0
  9
$USERI4
 70
     0
  9
$USERI5
 70
     0
  9
$USERR1
 40
0.0
  9
$USERR2
 40
0.0
  9
$USERR3
 40
0.0
  9
$USERR4
 40
0.0
  9
$USERR5
 40
0.0
  9
$WORLDVIEW
 70
     1
  9
$SHADEDGE
 70
     3
  9
$SHADEDIF
 70
    70
  9
$TILEMODE
 70
     1
  9
$MAXACTVP
 70
    64
  9
$PINSBASE
 10
0.0
 20
0.0
 30
0.0
  9
$PLIMCHECK
 70
     0
  9
$PEXTMIN
 10
1.000000000000000E+20
 20
1.000000000000000E+20
 30
1.000000000000000E+20
  9
$PEXTMAX
 10
-1.000000000000000E+20
 20
-1.000000000000000E+20
 30
-1.000000000000000E+20
  9
$PLIMMIN
 10
0.0
 20
0.0
  9
$PLIMMAX
 10
12.0
 20
9.0
  9
$UNITMODE
 70
     0
  9
$VISRETAIN
 70
     1
  9
$PLINEGEN
 70
     0
  9
$PSLTSCALE
 70
     1
  9
$TREEDEPTH
 70
  3020
  9
$CMLSTYLE
  2
Standard
  9
$CMLJUST
 70
     0
  9
$CMLSCALE
 40
1.0
  9
$PROXYGRAPHICS
 70
     1
  9
$MEASUREMENT
 70
     0
  9
$CELWEIGHT
370
    -1
  9
$ENDCAPS
280
     0
  9
$JOINSTYLE
280
     0
  9
$LWDISPLAY
290
     1
  9
$INSUNITS
 70
     1
  9
$HYPERLINKBASE
  1

  9
$STYLESHEET
  1

  9
$XEDIT
290
     1
  9
$CEPSNTYPE
380
     0
  9
$PSTYLEMODE
290
     1
  9
$FINGERPRINTGUID
  2
{6CBA50A4-4F3D-6E7E-4358-36AB89AA9C2D}
  9
$VERSIONGUID
  2
{FAEB1C32-E019-11D5-929B-00C0DF256EC4}
  9
$EXTNAMES
290
     1
  9
$PSVPSCALE
 40
0.0
  9
$OLESTARTUP
290
     0
  9
$SORTENTS
280
   127
  9
$INDEXCTL
280
     0
  9
$HIDETEXT
280
     1
  9
$XCLIPFRAME
280
     2
  9
$HALOGAP
280
     0
  9
$OBSCOLOR
 70
   257
  9
$OBSLTYPE
280
     0
  9
$INTERSECTIONDISPLAY
280
     0
  9
$INTERSECTIONCOLOR
 70
   257
  9
$DIMASSOC
280
     2
  9
$PROJECTNAME
  1

  9
$CAMERADISPLAY
290
     0
  9
$LENSLENGTH
 40
50.0
  9
$CAMERAHEIGHT
 40
0.0
  9
$STEPSPERSEC
 40
2.0
  9
$STEPSIZE
 40
6.0
  9
$3DDWFPREC
 40
2.0
  9
$PSOLWIDTH
 40
0.25
  9
$PSOLHEIGHT
 40
4.0
  9
$LOFTANG1
 40
1.570796326794897
  9
$LOFTANG2
 40
1.570796326794897
  9
$LOFTMAG1
 40
0.0
  9
$LOFTMAG2
 40
0.0
  9
$LOFTPARAM
 70
     7
  9
$LOFTNORMALS
280
     1
  9
$LATITUDE
 40
37.795
  9
$LONGITUDE
 40
-122.394
  9
$NORTHDIRECTION
 40
0.0
  9
$TIMEZONE
 70
 -8000
  9
$LIGHTGLYPHDISPLAY
280
     1
  9
$TILEMODELIGHTSYNCH
280
     1
  9
$CMATERIAL
347
3C
  9
$SOLIDHIST
280
     1
  9
$SHOWHIST
280
     1
  9
$DWFFRAME
280
     2
  9
$DGNFRAME
280
     2
  9
$REALWORLDSCALE
290
     1
  9
$INTERFERECOLOR
 62
   256
  9
$CSHADOW
280
     0
  9
$SHADOWPLANELOCATION
 40
0.0
  0
ENDSEC
  0
SECTION
  2
CLASSES
  0
CLASS
  1
ACDBDICTIONARYWDFLT
  2
AcDbDictionaryWithDefault
  3
ObjectDBX Classes
 90
        0
 91
        4
280
     0
281
     0
  0
CLASS
  1
VISUALSTYLE
  2
AcDbVisualStyle
  3
ObjectDBX Classes
 90
     4095
 91
        4
280
     0
281
     0
  0
CLASS
  1
MATERIAL
  2
AcDbMaterial
  3
ObjectDBX Classes
 90
     1153
 91
        4
280
     0
281
     0
  0
CLASS
  1
SUN
  2
AcDbSun
  3
SCENEOE
 90
     1024
 91
        4
280
     0
281
     0
  0
ENDSEC
  0
SECTION
  2
TABLES
  0
TABLE
  2
VPORT
  5
8
330
0
100
AcDbSymbolTable
 70
     1
  0
VPORT
  5
29
330
8
100
AcDbSymbolTableRecord
100
AcDbViewportTableRecord
  2
*Active
 70
     0
 10
0.0
 20
0.0
 11
1.0
 21
1.0
 12
0.0
 22
0.0
 13
0.0
 23
0.0
 14
0.5
 24
0.5
 15
0.5
 25
0.5
 16
0.0
 26
0.0
 36
1.0
 17
105.0008280156501
 27
-148.4999710739862
 37
0.0
 40
296.9999421479724
 41
0.7070764206636528
 42
50.0
 43
0.0
 44
0.0
 50
0.0
 51
0.0
 71
     0
 72
   100
 73
     1
 74
     3
 75
     0
 76
     0
 77
     0
 78
     0
281
     0
 65
     1
110
0.0
120
0.0
130
0.0
111
1.0
121
0.0
131
0.0
112
0.0
122
1.0
132
0.0
 79
     0
146
0.0
 60
     3
 61
     5
292
     1
282
     1
141
0.0
142
0.0
 63
   250
361
3F
  0
ENDTAB
  0
TABLE
  2
LTYPE
  5
5
330
0
100
AcDbSymbolTable
 70
     1
  0
LTYPE
  5
14
330
5
100
AcDbSymbolTableRecord
100
AcDbLinetypeTableRecord
  2
ByBlock
 70
     0
  3

 72
    65
 73
     0
 40
0.0
  0
LTYPE
  5
15
330
5
100
AcDbSymbolTableRecord
100
AcDbLinetypeTableRecord
  2
ByLayer
 70
     0
  3

 72
    65
 73
     0
 40
0.0
  0
LTYPE
  5
16
330
5
100
AcDbSymbolTableRecord
100
AcDbLinetypeTableRecord
  2
Continuous
 70
     0
  3
Solid line
 72
    65
 73
     0
 40
0.0
  0
ENDTAB
  0
TABLE
  2
LAYER
  5
2
330
0
100
AcDbSymbolTable
 70
     2
  0
LAYER
  5
10
330
2
100
AcDbSymbolTableRecord
100
AcDbLayerTableRecord
  2
0
 70
     0
 62
     7
  6
Continuous
370
    -3
390
F
347
3E
  0
LAYER
  5
40
330
2
100
AcDbSymbolTableRecord
100
AcDbLayerTableRecord
  2
_U+30EC_U+30A4_U+30E4_U+30FC 1
 70
     0
 62
     7
  6
Continuous
370
    -3
390
F
347
3E
  0
ENDTAB
  0
TABLE
  2
STYLE
  5
3
330
0
100
AcDbSymbolTable
 70
     1
  0
STYLE
  5
11
330
3
100
AcDbSymbolTableRecord
100
AcDbTextStyleTableRecord
  2
Standard
 70
     0
 40
0.0
 41
1.0
 50
0.0
 71
     0
 42
0.2
  3
txt
  4

  0
ENDTAB
  0
TABLE
  2
VIEW
  5
6
330
0
100
AcDbSymbolTable
 70
     0
  0
ENDTAB
  0
TABLE
  2
UCS
  5
7
330
0
100
AcDbSymbolTable
 70
     0
  0
ENDTAB
  0
TABLE
  2
APPID
  5
9
330
0
100
AcDbSymbolTable
 70
     1
  0
APPID
  5
12
330
9
100
AcDbSymbolTableRecord
100
AcDbRegAppTableRecord
  2
ACAD
 70
     0
  0
ENDTAB
  0
TABLE
  2
DIMSTYLE
  5
A
330
0
100
AcDbSymbolTable
 70
     1
100
AcDbDimStyleTable
  0
DIMSTYLE
105
27
330
A
100
AcDbSymbolTableRecord
100
AcDbDimStyleTableRecord
  2
Standard
 70
     0
178
     0
340
11
  0
ENDTAB
  0
TABLE
  2
BLOCK_RECORD
  5
1
330
0
100
AcDbSymbolTable
 70
    11
  0
BLOCK_RECORD
  5
1F
330
1
100
AcDbSymbolTableRecord
100
AcDbBlockTableRecord
  2
*Model_Space
340
22
 70
     0
280
     1
281
     0
  0
BLOCK_RECORD
  5
1B
330
1
100
AcDbSymbolTableRecord
100
AcDbBlockTableRecord
  2
*Paper_Space
340
1E
 70
     0
280
     1
281
     0
  0
BLOCK_RECORD
  5
23
330
1
100
AcDbSymbolTableRecord
100
AcDbBlockTableRecord
  2
*Paper_Space0
340
26
 70
     0
280
     1
281
     0
  0
BLOCK_RECORD
  5
41
330
1
100
AcDbSymbolTableRecord
100
AcDbBlockTableRecord
  2
block 2
340
0
102
{BLKREFS
331
42
102
}
 70
     0
280
     1
281
     0
  0
BLOCK_RECORD
  5
94
330
1
100
AcDbSymbolTableRecord
100
AcDbBlockTableRecord
  2
block 3
340
0
102
{BLKREFS
331
95
102
}
 70
     0
280
     1
281
     0
  0
BLOCK_RECORD
  5
AC
330
1
100
AcDbSymbolTableRecord
100
AcDbBlockTableRecord
  2
block 4
340
0
102
{BLKREFS
331
AD
102
}
 70
     0
280
     1
281
     0
  0
BLOCK_RECORD
  5
BC
330
1
100
AcDbSymbolTableRecord
100
AcDbBlockTableRecord
  2
block 5
340
0
102
{BLKREFS
331
BD
102
}
 70
     0
280
     1
281
     0
  0
BLOCK_RECORD
  5
CE
330
1
100
AcDbSymbolTableRecord
100
AcDbBlockTableRecord
  2
block 6
340
0
102
{BLKREFS
331
CF
102
}
 70
     0
280
     1
281
     0
  0
BLOCK_RECORD
  5
EB
330
1
100
AcDbSymbolTableRecord
100
AcDbBlockTableRecord
  2
block 7
340
0
102
{BLKREFS
331
EC
102
}
 70
     0
280
     1
281
     0
  0
BLOCK_RECORD
  5
FD
330
1
100
AcDbSymbolTableRecord
100
AcDbBlockTableRecord
  2
block 8
340
0
102
{BLKREFS
331
FE
102
}
 70
     0
280
     1
281
     0
  0
BLOCK_RECORD
  5
112
330
1
100
AcDbSymbolTableRecord
100
AcDbBlockTableRecord
  2
block 9
340
0
102
{BLKREFS
331
113
102
}
 70
     0
280
     1
281
     0
  0
BLOCK_RECORD
  5
124
330
1
100
AcDbSymbolTableRecord
100
AcDbBlockTableRecord
  2
block 10
340
0
102
{BLKREFS
331
125
102
}
 70
     0
280
     1
281
     0
  0
BLOCK_RECORD
  5
135
330
1
100
AcDbSymbolTableRecord
100
AcDbBlockTableRecord
  2
block 11
340
0
102
{BLKREFS
331
136
102
}
 70
     0
280
     1
281
     0
  0
ENDTAB
  0
ENDSEC
  0
SECTION
  2
BLOCKS
  0
BLOCK
  5
20
330
1F
100
AcDbEntity
  8
0
100
AcDbBlockBegin
  2
*Model_Space
 70
     0
 10
0.0
 20
0.0
 30
0.0
  3
*Model_Space
  1

  0
ENDBLK
  5
21
330
1F
100
AcDbEntity
  8
0
100
AcDbBlockEnd
  0
BLOCK
  5
1C
330
1B
100
AcDbEntity
 67
     1
  8
0
100
AcDbBlockBegin
  2
*Paper_Space
 70
     0
 10
0.0
 20
0.0
 30
0.0
  3
*Paper_Space
  1

  0
ENDBLK
  5
1D
330
1B
100
AcDbEntity
 67
     1
  8
0
100
AcDbBlockEnd
  0
BLOCK
  5
24
330
23
100
AcDbEntity
  8
0
100
AcDbBlockBegin
  2
*Paper_Space0
 70
     0
 10
0.0
 20
0.0
 30
0.0
  3
*Paper_Space0
  1

  0
ENDBLK
  5
25
330
23
100
AcDbEntity
  8
0
100
AcDbBlockEnd
  0
BLOCK
  5
43
330
41
100
AcDbEntity
  8
0
100
AcDbBlockBegin
  2
block 2
 70
     0
 10
0.0
 20
0.0
 30
0.0
  3
block 2
  1

  0
POLYLINE
  5
45
330
41
100
AcDbEntity
  8
_U+30EC_U+30A4_U+30E4_U+30FC 1
 62
     7
420
 16777215
370
    25
100
AcDb2dPolyline
 66
     1
 10
0.0
 20
0.0
 30
0.0
  0
VERTEX
  5
46
330
45
100
AcDbEntity
  8
_U+30EC_U+30A4_U+30E4_U+30FC 1
 62
     7
420
 16777215
370
    25
100
AcDbVertex
100
AcDb2dVertex
 10
94.73219036095826
 20
-139.9545996872336
 30
0.0
  0
VERTEX
  5
47
330
45
100
AcDbEntity
  8
_U+30EC_U+30A4_U+30E4_U+30FC 1
 62
     7
420
 16777215
370
    25
100
AcDbVertex
100
AcDb2dVertex
 10
118.7958322470436
 20
-139.9545996872336
 30
0.0
  0
SEQEND
  5
48
330
45
100
AcDbEntity
  8
_U+30EC_U+30A4_U+30E4_U+30FC 1
 62
     7
420
 16777215
370
    25
  0
POLYLINE
  5
49
330
41
100
AcDbEntity
  8
_U+30EC_U+30A4_U+30E4_U+30FC 1
 62
     7
420
 16777215
370
    25
100
AcDb2dPolyline
 66
     1
 10
0.0
 20
0.0
 30
0.0
  0
VERTEX
  5
4A
330
49
100
AcDbEntity
  8
_U+30EC_U+30A4_U+30E4_U+30FC 1
 62
     7
420
 16777215
370
    25
100
AcDbVertex
100
AcDb2dVertex
 10
118.7958322470436
 20
-138.9548274652614
 30
0.0
  0
VERTEX
  5
4B
330
49
100
AcDbEntity
  8
_U+30EC_U+30A4_U+30E4_U+30FC 1
 62
     7
420
 16777215
370
    25
100
AcDbVertex
100
AcDb2dVertex
 10
118.7958322470436
 20
-139.9545996872336
 30
0.0
  0
SEQEND
  5
4C
330
49
100
AcDbEntity
  8
_U+30EC_U+30A4_U+30E4_U+30FC 1
 62
     7
420
 16777215
370
    25
  0
POLYLINE
  5
4D
330
41
100
AcDbEntity
  8
_U+30EC_U+30A4_U+30E4_U+30FC 1
 62
     7
420
 16777215
370
    25
100
AcDb2dPolyline
 66
     1
 10
0.0
 20
0.0
 30
0.0
  0
VERTEX
  5
4E
330
4D
100
AcDbEntity
  8
_U+30EC_U+30A4_U+30E4_U+30FC 1
 62
     7
420
 16777215
370
    25
100
AcDbVertex
100
AcDb2dVertex
 10
93.79581232929169
 20
-138.9548274652614
 30
0.0
  0
VERTEX
  5
4F
330
4D
100
AcDbEntity
  8
_U+30EC_U+30A4_U+30E4_U+30FC 1
 62
     7
420
 16777215
370
    25
100
AcDbVertex
100
AcDb2dVertex
 10
118.7958322470436
 20
-138.9548274652614
 30
0.0
  0
SEQEND
  5
50
330
4D
100
AcDbEntity
  8
_U+30EC_U+30A4_U+30E4_U+30FC 1
 62
     7
420
 16777215
370
    25
  0
POLYLINE
  5
51
330
41
100
AcDbEntity
  8
_U+30EC_U+30A4_U+30E4_U+30FC 1
 62
     7
420
 16777215
370
    25
100
AcDb2dPolyline
 66
     1
 10
0.0
 20
0.0
 30
0.0
  0
VERTEX
  5
52
330
51
100
AcDbEntity
  8
_U+30EC_U+30A4_U+30E4_U+30FC 1
 62
     7
420
 16777215
370
    25
100
AcDbVertex
100
AcDb2dVertex
 10
93.87677482722617
 20
-155.4547732944697
 30
0.0
  0
VERTEX
  5
53
330
51
100
AcDbEntity
  8
_U+30EC_U+30A4_U+30E4_U+30FC 1
 62
     7
420
 16777215
370
    25
100
AcDbVertex
100
AcDb2dVertex
 10
102.7957729330169
 20
-155.4547732944697
 30
0.0
  0
SEQEND
  5
54
330
51
100
AcDbEntity
  8
_U+30EC_U+30A4_U+30E4_U+30FC 1
 62
     7
420
 16777215
370
    25
  0
POLYLINE
  5
55
330
41
100
AcDbEntity
  8
_U+30EC_U+30A4_U+30E4_U+30FC 1
 62
     7
420
 16777215
370
    25
100
AcDb2dPolyline
 66
     1
 10
0.0
 20
0.0
 30
0.0
  0
VERTEX
  5
56
330
55
100
AcDbEntity
  8
_U+30EC_U+30A4_U+30E4_U+30FC 1
 62
     7
420
 16777215
370
    25
100
AcDbVertex
100
AcDb2dVertex
 10
102.7957729330169
 20
-155.4547732944697
 30
0.0
  0
VERTEX
  5
57
330
55
100
AcDbEntity
  8
_U+30EC_U+30A4_U+30E4_U+30FC 1
 62
     7
420
 16777215
370
    25
100
AcDbVertex
100
AcDb2dVertex
 10
102.7957729330169
 20
-155.7544932943946
 30
0.0
  0
SEQEND
  5
58
330
55
100
AcDbEntity
  8
_U+30EC_U+30A4_U+30E4_U+30FC 1
 62
     7
420
 16777215
370
    25
  0
POLYLINE
  5
59
330
41
100
AcDbEntity
  8
_U+30EC_U+30A4_U+30E4_U+30FC 1
 62
     7
420
 16777215
370
    25
100
AcDb2dPolyline
 66
     1
 10
0.0
 20
0.0
 30
0.0
  0
VERTEX
  5
5A
330
59
100
AcDbEntity
  8
_U+30EC_U+30A4_U+30E4_U+30FC 1
 62
     7
420
 16777215
370
    25
100
AcDbVertex
100
AcDb2dVertex
 10
97.78629333859715
 20
-156.1437835720754
 30
0.0
  0
VERTEX
  5
5B
330
59
100
AcDbEntity
  8
_U+30EC_U+30A4_U+30E4_U+30FC 1
 62
     7
420
 16777215
370
    25
100
AcDbVertex
100
AcDb2dVertex
 10
102.7957729330169
 20
-155.7544932943946
 30
0.0
  0
SEQEND
  5
5C
330
59
100
AcDbEntity
  8
_U+30EC_U+30A4_U+30E4_U+30FC 1
 62
     7
420
 16777215
370
    25
  0
POLYLINE
  5
5D
330
41
100
AcDbEntity
  8
_U+30EC_U+30A4_U+30E4_U+30FC 1
 62
     7
420
 16777215
370
    25
100
AcDb2dPolyline
 66
     1
 10
0.0
 20
0.0
 30
0.0
  0
VERTEX
  5
5E
330
5D
100
AcDbEntity
  8
_U+30EC_U+30A4_U+30E4_U+30FC 1
 62
     7
420
 16777215
370
    25
100
AcDbVertex
100
AcDb2dVertex
 10
93.41170789464657
 20
-156.1830477387318
 30
0.0
  0
VERTEX
  5
5F
330
5D
100
AcDbEntity
  8
_U+30EC_U+30A4_U+30E4_U+30FC 1
 62
     7
420
 16777215
370
    25
100
AcDbVertex
100
AcDb2dVertex
 10
94.09175759951928
 20
-156.549619127529
 30
0.0
  0
SEQEND
  5
60
330
5D
100
AcDbEntity
  8
_U+30EC_U+30A4_U+30E4_U+30FC 1
 62
     7
420
 16777215
370
    25
  0
POLYLINE
  5
61
330
41
100
AcDbEntity
  8
_U+30EC_U+30A4_U+30E4_U+30FC 1
 62
     7
420
 16777215
370
    25
100
AcDb2dPolyline
 66
     1
 10
0.0
 20
0.0
 30
0.0
  0
VERTEX
  5
62
330
61
100
AcDbEntity
  8
_U+30EC_U+30A4_U+30E4_U+30FC 1
 62
     7
420
 16777215
370
    25
100
AcDbVertex
100
AcDb2dVertex
 10
94.09175759951928
 20
-156.549619127529
 30
0.0
  0
VERTEX
  5
63
330
61
100
AcDbEntity
  8
_U+30EC_U+30A4_U+30E4_U+30FC 1
 62
     7
420
 16777215
370
    25
100
AcDbVertex
100
AcDb2dVertex
 10
94.70774286158196
 20
-156.0824707943128
 30
0.0
  0
SEQEND
  5
64
330
61
100
AcDbEntity
  8
_U+30EC_U+30A4_U+30E4_U+30FC 1
 62
     7
420
 16777215
370
    25
  0
POLYLINE
  5
65
330
41
100
AcDbEntity
  8
_U+30EC_U+30A4_U+30E4_U+30FC 1
 62
     7
420
 16777215
370
    25
100
AcDb2dPolyline
 66
     1
 10
0.0
 20
0.0
 30
0.0
  0
VERTEX
  5
66
330
65
100
AcDbEntity
  8
_U+30EC_U+30A4_U+30E4_U+30FC 1
 62
     7
420
 16777215
370
    25
100
AcDbVertex
100
AcDb2dVertex
 10
93.41170789464657
 20
-156.1830477387318
 30
0.0
  0
VERTEX
  5
67
330
65
100
AcDbEntity
  8
_U+30EC_U+30A4_U+30E4_U+30FC 1
 62
     7
420
 16777215
370
    25
100
AcDbVertex
100
AcDb2dVertex
 10
92.79572497680095
 20
-156.6502313497262
 30
0.0
  0
SEQEND
  5
68
330
65
100
AcDbEntity
  8
_U+30EC_U+30A4_U+30E4_U+30FC 1
 62
     7
420
 16777215
370
    25
  0
POLYLINE
  5
69
330
41
100
AcDbEntity
  8
_U+30EC_U+30A4_U+30E4_U+30FC 1
 62
     7
420
 16777215
370
    25
100
AcDb2dPolyline
 66
     1
 10
0.0
 20
0.0
 30
0.0
  0
VERTEX
  5
6A
330
69
100
AcDbEntity
  8
_U+30EC_U+30A4_U+30E4_U+30FC 1
 62
     7
420
 16777215
370
    25
100
AcDbVertex
100
AcDb2dVertex
 10
95.38779256645468
 20
-156.4490069053325
 30
0.0
  0
VERTEX
  5
6B
330
69
100
AcDbEntity
  8
_U+30EC_U+30A4_U+30E4_U+30FC 1
 62
     7
420
 16777215
370
    25
100
AcDbVertex
100
AcDb2dVertex
 10
94.70774286158196
 20
-156.0824707943128
 30
0.0
  0
SEQEND
  5
6C
330
69
100
AcDbEntity
  8
_U+30EC_U+30A4_U+30E4_U+30FC 1
 62
     7
420
 16777215
370
    25
  0
POLYLINE
  5
6D
330
41
100
AcDbEntity
  8
_U+30EC_U+30A4_U+30E4_U+30FC 1
 62
     7
420
 16777215
370
    25
100
AcDb2dPolyline
 66
     1
 10
0.0
 20
0.0
 30
0.0
  0
VERTEX
  5
6E
330
6D
100
AcDbEntity
  8
_U+30EC_U+30A4_U+30E4_U+30FC 1
 62
     7
420
 16777215
370
    25
100
AcDbVertex
100
AcDb2dVertex
 10
96.00377782851736
 20
-155.9818585721156
 30
0.0
  0
VERTEX
  5
6F
330
6D
100
AcDbEntity
  8
_U+30EC_U+30A4_U+30E4_U+30FC 1
 62
     7
420
 16777215
370
    25
100
AcDbVertex
100
AcDb2dVertex
 10
95.38779256645468
 20
-156.4490069053325
 30
0.0
  0
SEQEND
  5
70
330
6D
100
AcDbEntity
  8
_U+30EC_U+30A4_U+30E4_U+30FC 1
 62
     7
420
 16777215
370
    25
  0
POLYLINE
  5
71
330
41
100
AcDbEntity
  8
_U+30EC_U+30A4_U+30E4_U+30FC 1
 62
     7
420
 16777215
370
    25
100
AcDb2dPolyline
 66
     1
 10
0.0
 20
0.0
 30
0.0
  0
VERTEX
  5
72
330
71
100
AcDbEntity
  8
_U+30EC_U+30A4_U+30E4_U+30FC 1
 62
     7
420
 16777215
370
    25
100
AcDbVertex
100
AcDb2dVertex
 10
96.00377782851736
 20
-155.9818585721156
 30
0.0
  0
VERTEX
  5
73
330
71
100
AcDbEntity
  8
_U+30EC_U+30A4_U+30E4_U+30FC 1
 62
     7
420
 16777215
370
    25
100
AcDbVertex
100
AcDb2dVertex
 10
96.68386281116695
 20
-156.3484299609129
 30
0.0
  0
SEQEND
  5
74
330
71
100
AcDbEntity
  8
_U+30EC_U+30A4_U+30E4_U+30FC 1
 62
     7
420
 16777215
370
    25
  0
POLYLINE
  5
75
330
41
100
AcDbEntity
  8
_U+30EC_U+30A4_U+30E4_U+30FC 1
 62
     7
420
 16777215
370
    25
100
AcDb2dPolyline
 66
     1
 10
0.0
 20
0.0
 30
0.0
  0
VERTEX
  5
76
330
75
100
AcDbEntity
  8
_U+30EC_U+30A4_U+30E4_U+30FC 1
 62
     7
420
 16777215
370
    25
100
AcDbVertex
100
AcDb2dVertex
 10
97.29981279545275
 20
-155.8812816276966
 30
0.0
  0
VERTEX
  5
77
330
75
100
AcDbEntity
  8
_U+30EC_U+30A4_U+30E4_U+30FC 1
 62
     7
420
 16777215
370
    25
100
AcDbVertex
100
AcDb2dVertex
 10
97.78629333859715
 20
-156.1437835720754
 30
0.0
  0
SEQEND
  5
78
330
75
100
AcDbEntity
  8
_U+30EC_U+30A4_U+30E4_U+30FC 1
 62
     7
420
 16777215
370
    25
  0
POLYLINE
  5
79
330
41
100
AcDbEntity
  8
_U+30EC_U+30A4_U+30E4_U+30FC 1
 62
     7
420
 16777215
370
    25
100
AcDb2dPolyline
 66
     1
 10
0.0
 20
0.0
 30
0.0
  0
VERTEX
  5
7A
330
79
100
AcDbEntity
  8
_U+30EC_U+30A4_U+30E4_U+30FC 1
 62
     7
420
 16777215
370
    25
100
AcDbVertex
100
AcDb2dVertex
 10
97.29981279545275
 20
-155.8812816276966
 30
0.0
  0
VERTEX
  5
7B
330
79
100
AcDbEntity
  8
_U+30EC_U+30A4_U+30E4_U+30FC 1
 62
     7
420
 16777215
370
    25
100
AcDbVertex
100
AcDb2dVertex
 10
96.68386281116695
 20
-156.3484299609129
 30
0.0
  0
SEQEND
  5
7C
330
79
100
AcDbEntity
  8
_U+30EC_U+30A4_U+30E4_U+30FC 1
 62
     7
420
 16777215
370
    25
  0
POLYLINE
  5
7D
330
41
100
AcDbEntity
  8
_U+30EC_U+30A4_U+30E4_U+30FC 1
 62
     7
420
 16777215
370
     9
100
AcDb2dPolyline
 66
     1
 10
0.0
 20
0.0
 30
0.0
  0
VERTEX
  5
7E
330
7D
100
AcDbEntity
  8
_U+30EC_U+30A4_U+30E4_U+30FC 1
 62
     7
420
 16777215
370
     9
100
AcDbVertex
100
AcDb2dVertex
 10
93.5643195574198
 20
-156.4986427386534
 30
0.0
  0
VERTEX
  5
7F
330
7D
100
AcDbEntity
  8
_U+30EC_U+30A4_U+30E4_U+30FC 1
 62
     7
420
 16777215
370
     9
100
AcDbVertex
100
AcDb2dVertex
 10
89.62657882454658
 20
-159.9940355155573
 30
0.0
  0
SEQEND
  5
80
330
7D
100
AcDbEntity
  8
_U+30EC_U+30A4_U+30E4_U+30FC 1
 62
     7
420
 16777215
370
     9
  0
POLYLINE
  5
81
330
41
100
AcDbEntity
  8
_U+30EC_U+30A4_U+30E4_U+30FC 1
 62
     7
420
 16777215
370
    25
100
AcDb2dPolyline
 66
     1
 10
0.0
 20
0.0
 30
0.0
  0
VERTEX
  5
82
330
81
100
AcDbEntity
  8
_U+30EC_U+30A4_U+30E4_U+30FC 1
 62
     7
420
 16777215
370
    25
100
AcDbVertex
100
AcDb2dVertex
 10
93.79581232929169
 20
-138.9541219097059
 30
0.0
  0
VERTEX
  5
83
330
81
100
AcDbEntity
  8
_U+30EC_U+30A4_U+30E4_U+30FC 1
 62
     7
420
 16777215
370
    25
100
AcDbVertex
100
AcDb2dVertex
 10
92.79572497680095
 20
-156.6502313497262
 30
0.0
  0
SEQEND
  5
84
330
81
100
AcDbEntity
  8
_U+30EC_U+30A4_U+30E4_U+30FC 1
 62
     7
420
 16777215
370
    25
  0
POLYLINE
  5
85
330
41
100
AcDbEntity
  8
_U+30EC_U+30A4_U+30E4_U+30FC 1
 62
     7
420
 16777215
370
    25
100
AcDb2dPolyline
 66
     1
 10
0.0
 20
0.0
 30
0.0
  0
VERTEX
  5
86
330
85
100
AcDbEntity
  8
_U+30EC_U+30A4_U+30E4_U+30FC 1
 62
     7
420
 16777215
370
    25
100
AcDbVertex
100
AcDb2dVertex
 10
94.73219036095826
 20
-139.9545996872336
 30
0.0
  0
VERTEX
  5
87
330
85
100
AcDbEntity
  8
_U+30EC_U+30A4_U+30E4_U+30FC 1
 62
     7
420
 16777215
370
    25
100
AcDbVertex
100
AcDb2dVertex
 10
93.87677482722617
 20
-155.4547732944697
 30
0.0
  0
SEQEND
  5
88
330
85
100
AcDbEntity
  8
_U+30EC_U+30A4_U+30E4_U+30FC 1
 62
     7
420
 16777215
370
    25
  0
SPLINE
  5
89
330
41
100
AcDbEntity
  8
_U+30EC_U+30A4_U+30E4_U+30FC 1
 62
     7
420
 16777215
370
     9
100
AcDbSpline
210
0.0
220
0.0
230
1.0
 70
    11
 71
     3
 72
    17
 73
    13
 74
     0
 42
0.0000000001
 43
0.0000000001
 12
1.0
 22
0.0
 32
0.0
 13
1.0
 23
0.0
 33
0.0
 40
0.0
 40
0.0
 40
0.0
 40
0.0
 40
1.0
 40
1.0
 40
1.0
 40
2.0
 40
2.0
 40
2.0
 40
3.0
 40
3.0
 40
3.0
 40
4.0
 40
4.0
 40
4.0
 40
4.0
 10
92.89562929670171
 20
-134.985371910698
 30
0.0
 10
92.89562929670171
 20
-134.9302680218231
 30
0.0
 10
92.85082652006696
 20
-134.8854652440564
 30
0.0
 10
92.79572497680095
 20
-134.8854652440564
 30
0.0
 10
92.74058346732393
 20
-134.8854652440564
 30
0.0
 10
92.69581596846605
 20
-134.9302680218231
 30
0.0
 10
92.69581596846605
 20
-134.985371910698
 30
0.0
 10
92.69581596846605
 20
-135.0405110773511
 30
0.0
 10
92.74058346732393
 20
-135.0852785773397
 30
0.0
 10
92.79572497680095
 20
-135.0852785773397
 30
0.0
 10
92.85082652006696
 20
-135.0852785773397
 30
0.0
 10
92.89562929670171
 20
-135.0405110773511
 30
0.0
 10
92.89562929670171
 20
-134.985371910698
 30
0.0
  0
SPLINE
  5
8A
330
41
100
AcDbEntity
  8
_U+30EC_U+30A4_U+30E4_U+30FC 1
 62
     7
420
 16777215
370
     9
100
AcDbSpline
210
0.0
220
0.0
230
1.0
 70
    11
 71
     3
 72
    17
 73
    13
 74
     0
 42
0.0000000001
 43
0.0000000001
 12
1.0
 22
0.0
 32
0.0
 13
1.0
 23
0.0
 33
0.0
 40
0.0
 40
0.0
 40
0.0
 40
0.0
 40
1.0
 40
1.0
 40
1.0
 40
2.0
 40
2.0
 40
2.0
 40
3.0
 40
3.0
 40
3.0
 40
4.0
 40
4.0
 40
4.0
 40
4.0
 10
93.89571899340953
 20
-134.985371910698
 30
0.0
 10
93.89571899340953
 20
-134.9302680218231
 30
0.0
 10
93.85095149455164
 20
-134.8854652440564
 30
0.0
 10
93.79581232929169
 20
-134.8854652440564
 30
0.0
 10
93.74035566403984
 20
-134.8854652440564
 30
0.0
 10
93.69558816518196
 20
-134.9302680218231
 30
0.0
 10
93.69558816518196
 20
-134.985371910698
 30
0.0
 10
93.69558816518196
 20
-135.0405110773511
 30
0.0
 10
93.74035566403984
 20
-135.0852785773397
 30
0.0
 10
93.79581232929169
 20
-135.0852785773397
 30
0.0
 10
93.85095149455164
 20
-135.0852785773397
 30
0.0
 10
93.89571899340953
 20
-135.0405110773511
 30
0.0
 10
93.89571899340953
 20
-134.985371910698
 30
0.0
  0
SPLINE
  5
8B
330
41
100
AcDbEntity
  8
_U+30EC_U+30A4_U+30E4_U+30FC 1
 62
     7
420
 16777215
370
     9
100
AcDbSpline
210
0.0
220
0.0
230
1.0
 70
    11
 71
     3
 72
    17
 73
    13
 74
     0
 42
0.0000000001
 43
0.0000000001
 12
1.0
 22
0.0
 32
0.0
 13
1.0
 23
0.0
 33
0.0
 40
0.0
 40
0.0
 40
0.0
 40
0.0
 40
1.0
 40
1.0
 40
1.0
 40
2.0
 40
2.0
 40
2.0
 40
3.0
 40
3.0
 40
3.0
 40
4.0
 40
4.0
 40
4.0
 40
4.0
 10
122.8958507535545
 20
-155.4547732944697
 30
0.0
 10
122.8958507535545
 20
-155.3996341278166
 30
0.0
 10
122.8510832546966
 20
-155.354866627828
 30
0.0
 10
122.7955944137457
 20
-155.354866627828
 30
0.0
 10
122.7404874241848
 20
-155.354866627828
 30
0.0
 10
122.6956846475501
 20
-155.3996341278166
 30
0.0
 10
122.6956846475501
 20
-155.4547732944697
 30
0.0
 10
122.6956846475501
 20
-155.5098771833446
 30
0.0
 10
122.7404874241848
 20
-155.5546799611113
 30
0.0
 10
122.7955944137457
 20
-155.5546799611113
 30
0.0
 10
122.8510832546966
 20
-155.5546799611113
 30
0.0
 10
122.8958507535545
 20
-155.5098771833446
 30
0.0
 10
122.8958507535545
 20
-155.4547732944697
 30
0.0
  0
SPLINE
  5
8C
330
41
100
AcDbEntity
  8
_U+30EC_U+30A4_U+30E4_U+30FC 1
 62
     7
420
 16777215
370
     9
100
AcDbSpline
210
0.0
220
0.0
230
1.0
 70
    11
 71
     3
 72
    17
 73
    13
 74
     0
 42
0.0000000001
 43
0.0000000001
 12
1.0
 22
0.0
 32
0.0
 13
1.0
 23
0.0
 33
0.0
 40
0.0
 40
0.0
 40
0.0
 40
0.0
 40
1.0
 40
1.0
 40
1.0
 40
2.0
 40
2.0
 40
2.0
 40
3.0
 40
3.0
 40
3.0
 40
4.0
 40
4.0
 40
4.0
 40
4.0
 10
106.8957914395278
 20
-155.4547732944697
 30
0.0
 10
106.8957914395278
 20
-155.3996341278166
 30
0.0
 10
106.8510239406699
 20
-155.354866627828
 30
0.0
 10
106.79588477541
 20
-155.354866627828
 30
0.0
 10
106.7407808879269
 20
-155.354866627828
 30
0.0
 10
106.6959781112922
 20
-155.3996341278166
 30
0.0
 10
106.6959781112922
 20
-155.4547732944697
 30
0.0
 10
106.6959781112922
 20
-155.5098771833446
 30
0.0
 10
106.7407808879269
 20
-155.5546799611113
 30
0.0
 10
106.79588477541
 20
-155.5546799611113
 30
0.0
 10
106.8510239406699
 20
-155.5546799611113
 30
0.0
 10
106.8957914395278
 20
-155.5098771833446
 30
0.0
 10
106.8957914395278
 20
-155.4547732944697
 30
0.0
  0
SPLINE
  5
8D
330
41
100
AcDbEntity
  8
_U+30EC_U+30A4_U+30E4_U+30FC 1
 62
     7
420
 16777215
370
     9
100
AcDbSpline
210
0.0
220
0.0
230
1.0
 70
    11
 71
     3
 72
    17
 73
    13
 74
     0
 42
0.0000000001
 43
0.0000000001
 12
1.0
 22
0.0
 32
0.0
 13
1.0
 23
0.0
 33
0.0
 40
0.0
 40
0.0
 40
0.0
 40
0.0
 40
1.0
 40
1.0
 40
1.0
 40
2.0
 40
2.0
 40
2.0
 40
3.0
 40
3.0
 40
3.0
 40
4.0
 40
4.0
 40
4.0
 40
4.0
 10
106.8957914395278
 20
-155.7544932943946
 30
0.0
 10
106.8957914395278
 20
-155.6993541277421
 30
0.0
 10
106.8510239406699
 20
-155.6545866277529
 30
0.0
 10
106.79588477541
 20
-155.6545866277529
 30
0.0
 10
106.7407808879269
 20
-155.6545866277529
 30
0.0
 10
106.6959781112922
 20
-155.6993541277421
 30
0.0
 10
106.6959781112922
 20
-155.7544932943946
 30
0.0
 10
106.6959781112922
 20
-155.8095971832701
 30
0.0
 10
106.7407808879269
 20
-155.8543999610362
 30
0.0
 10
106.79588477541
 20
-155.8543999610362
 30
0.0
 10
106.8510239406699
 20
-155.8543999610362
 30
0.0
 10
106.8957914395278
 20
-155.8095971832701
 30
0.0
 10
106.8957914395278
 20
-155.7544932943946
 30
0.0
  0
SPLINE
  5
8E
330
41
100
AcDbEntity
  8
_U+30EC_U+30A4_U+30E4_U+30FC 1
 62
     7
420
 16777215
370
     9
100
AcDbSpline
210
0.0
220
0.0
230
1.0
 70
    11
 71
     3
 72
    17
 73
    13
 74
     0
 42
0.0000000001
 43
0.0000000001
 12
1.0
 22
0.0
 32
0.0
 13
1.0
 23
0.0
 33
0.0
 40
0.0
 40
0.0
 40
0.0
 40
0.0
 40
1.0
 40
1.0
 40
1.0
 40
2.0
 40
2.0
 40
2.0
 40
3.0
 40
3.0
 40
3.0
 40
4.0
 40
4.0
 40
4.0
 40
4.0
 10
92.89562929670171
 20
-160.6506607931704
 30
0.0
 10
92.89562929670171
 20
-160.59485134874
 30
0.0
 10
92.85082652006696
 20
-160.5500485709739
 30
0.0
 10
92.79572497680095
 20
-160.5500485709739
 30
0.0
 10
92.74058346732393
 20
-160.5500485709739
 30
0.0
 10
92.69581596846605
 20
-160.59485134874
 30
0.0
 10
92.69581596846605
 20
-160.6506607931704
 30
0.0
 10
92.69581596846605
 20
-160.705764682046
 30
0.0
 10
92.74058346732393
 20
-160.7505674598121
 30
0.0
 10
92.79572497680095
 20
-160.7505674598121
 30
0.0
 10
92.85082652006696
 20
-160.7505674598121
 30
0.0
 10
92.89562929670171
 20
-160.705764682046
 30
0.0
 10
92.89562929670171
 20
-160.6506607931704
 30
0.0
  0
SPLINE
  5
8F
330
41
100
AcDbEntity
  8
_U+30EC_U+30A4_U+30E4_U+30FC 1
 62
     7
420
 16777215
370
     9
100
AcDbSpline
210
0.0
220
0.0
230
1.0
 70
    11
 71
     3
 72
    17
 73
    13
 74
     0
 42
0.0000000001
 43
0.0000000001
 12
1.0
 22
0.0
 32
0.0
 13
1.0
 23
0.0
 33
0.0
 40
0.0
 40
0.0
 40
0.0
 40
0.0
 40
1.0
 40
1.0
 40
1.0
 40
2.0
 40
2.0
 40
2.0
 40
3.0
 40
3.0
 40
3.0
 40
4.0
 40
4.0
 40
4.0
 40
4.0
 10
97.88620000271499
 20
-160.6506607931704
 30
0.0
 10
97.88620000271499
 20
-160.59485134874
 30
0.0
 10
97.84139722608022
 20
-160.5500485709739
 30
0.0
 10
97.78629333859715
 20
-160.5500485709739
 30
0.0
 10
97.73080139556842
 20
-160.5500485709739
 30
0.0
 10
97.68603389671054
 20
-160.59485134874
 30
0.0
 10
97.68603389671054
 20
-160.6506607931704
 30
0.0
 10
97.68603389671054
 20
-160.705764682046
 30
0.0
 10
97.73080139556842
 20
-160.7505674598121
 30
0.0
 10
97.78629333859715
 20
-160.7505674598121
 30
0.0
 10
97.84139722608022
 20
-160.7505674598121
 30
0.0
 10
97.88620000271499
 20
-160.705764682046
 30
0.0
 10
97.88620000271499
 20
-160.6506607931704
 30
0.0
  0
SPLINE
  5
90
330
41
100
AcDbEntity
  8
_U+30EC_U+30A4_U+30E4_U+30FC 1
 62
     7
420
 16777215
370
     9
100
AcDbSpline
210
0.0
220
0.0
230
1.0
 70
    11
 71
     3
 72
    17
 73
    13
 74
     0
 42
0.0000000001
 43
0.0000000001
 12
1.0
 22
0.0
 32
0.0
 13
1.0
 23
0.0
 33
0.0
 40
0.0
 40
0.0
 40
0.0
 40
0.0
 40
1.0
 40
1.0
 40
1.0
 40
2.0
 40
2.0
 40
2.0
 40
3.0
 40
3.0
 40
3.0
 40
4.0
 40
4.0
 40
4.0
 40
4.0
 10
102.8957148749116
 20
-164.6504199588373
 30
0.0
 10
102.8957148749116
 20
-164.5952807921842
 30
0.0
 10
102.8509120982769
 20
-164.5505132921957
 30
0.0
 10
102.7957729330169
 20
-164.5505132921957
 30
0.0
 10
102.7403162677651
 20
-164.5505132921957
 30
0.0
 10
102.6955487689072
 20
-164.5952807921842
 30
0.0
 10
102.6955487689072
 20
-164.6504199588373
 30
0.0
 10
102.6955487689072
 20
-164.7055238477122
 30
0.0
 10
102.7403162677651
 20
-164.7503266254789
 30
0.0
 10
102.7957729330169
 20
-164.7503266254789
 30
0.0
 10
102.8509120982769
 20
-164.7503266254789
 30
0.0
 10
102.8957148749116
 20
-164.7055238477122
 30
0.0
 10
102.8957148749116
 20
-164.6504199588373
 30
0.0
  0
SPLINE
  5
91
330
41
100
AcDbEntity
  8
_U+30EC_U+30A4_U+30E4_U+30FC 1
 62
     7
420
 16777215
370
     9
100
AcDbSpline
210
0.0
220
0.0
230
1.0
 70
    11
 71
     3
 72
    17
 73
    13
 74
     0
 42
0.0000000001
 43
0.0000000001
 12
1.0
 22
0.0
 32
0.0
 13
1.0
 23
0.0
 33
0.0
 40
0.0
 40
0.0
 40
0.0
 40
0.0
 40
1.0
 40
1.0
 40
1.0
 40
2.0
 40
2.0
 40
2.0
 40
3.0
 40
3.0
 40
3.0
 40
4.0
 40
4.0
 40
4.0
 40
4.0
 10
92.89562929670171
 20
-164.6504199588373
 30
0.0
 10
92.89562929670171
 20
-164.5952807921842
 30
0.0
 10
92.85082652006696
 20
-164.5505132921957
 30
0.0
 10
92.79572497680095
 20
-164.5505132921957
 30
0.0
 10
92.74058346732393
 20
-164.5505132921957
 30
0.0
 10
92.69581596846605
 20
-164.5952807921842
 30
0.0
 10
92.69581596846605
 20
-164.6504199588373
 30
0.0
 10
92.69581596846605
 20
-164.7055238477122
 30
0.0
 10
92.74058346732393
 20
-164.7503266254789
 30
0.0
 10
92.79572497680095
 20
-164.7503266254789
 30
0.0
 10
92.85082652006696
 20
-164.7503266254789
 30
0.0
 10
92.89562929670171
 20
-164.7055238477122
 30
0.0
 10
92.89562929670171
 20
-164.6504199588373
 30
0.0
  0
SPLINE
  5
92
330
41
100
AcDbEntity
  8
_U+30EC_U+30A4_U+30E4_U+30FC 1
 62
     7
420
 16777215
370
     9
100
AcDbSpline
210
0.0
220
0.0
230
1.0
 70
    11
 71
     3
 72
    17
 73
    13
 74
     0
 42
0.0000000001
 43
0.0000000001
 12
1.0
 22
0.0
 32
0.0
 13
1.0
 23
0.0
 33
0.0
 40
0.0
 40
0.0
 40
0.0
 40
0.0
 40
1.0
 40
1.0
 40
1.0
 40
2.0
 40
2.0
 40
2.0
 40
3.0
 40
3.0
 40
3.0
 40
4.0
 40
4.0
 40
4.0
 40
4.0
 10
118.8957389111614
 20
-134.985371910698
 30
0.0
 10
118.8957389111614
 20
-134.9302680218231
 30
0.0
 10
118.8509714123036
 20
-134.8854652440564
 30
0.0
 10
118.7958322470436
 20
-134.8854652440564
 30
0.0
 10
118.7403755817918
 20
-134.8854652440564
 30
0.0
 10
118.6959255829258
 20
-134.9302680218231
 30
0.0
 10
118.6959255829258
 20
-134.985371910698
 30
0.0
 10
118.6959255829258
 20
-135.0405110773511
 30
0.0
 10
118.7403755817918
 20
-135.0852785773397
 30
0.0
 10
118.7958322470436
 20
-135.0852785773397
 30
0.0
 10
118.8509714123036
 20
-135.0852785773397
 30
0.0
 10
118.8957389111614
 20
-135.0405110773511
 30
0.0
 10
118.8957389111614
 20
-134.985371910698
 30
0.0
  0
SPLINE
  5
93
330
41
100
AcDbEntity
  8
_U+30EC_U+30A4_U+30E4_U+30FC 1
 62
     7
420
 16777215
370
     9
100
AcDbSpline
210
0.0
220
0.0
230
1.0
 70
    11
 71
     3
 72
    17
 73
    13
 74
     0
 42
0.0000000001
 43
0.0000000001
 12
1.0
 22
0.0
 32
0.0
 13
1.0
 23
0.0
 33
0.0
 40
0.0
 40
0.0
 40
0.0
 40
0.0
 40
1.0
 40
1.0
 40
1.0
 40
2.0
 40
2.0
 40
2.0
 40
3.0
 40
3.0
 40
3.0
 40
4.0
 40
4.0
 40
4.0
 40
4.0
 10
122.8958507535545
 20
-139.9545996872336
 30
0.0
 10
122.8958507535545
 20
-139.8994605205808
 30
0.0
 10
122.8510832546966
 20
-139.854693020592
 30
0.0
 10
122.7955944137457
 20
-139.854693020592
 30
0.0
 10
122.7404874241848
 20
-139.854693020592
 30
0.0
 10
122.6956846475501
 20
-139.8994605205808
 30
0.0
 10
122.6956846475501
 20
-139.9545996872336
 30
0.0
 10
122.6956846475501
 20
-140.010409131664
 30
0.0
 10
122.7404874241848
 20
-140.0551766316529
 30
0.0
 10
122.7955944137457
 20
-140.0551766316529
 30
0.0
 10
122.8510832546966
 20
-140.0551766316529
 30
0.0
 10
122.8958507535545
 20
-140.010409131664
 30
0.0
 10
122.8958507535545
 20
-139.9545996872336
 30
0.0
  0
INSERT
  5
95
330
41
100
AcDbEntity
  8
_U+30EC_U+30A4_U+30E4_U+30FC 1
100
AcDbBlockReference
  2
block 3
 10
0.0
 20
0.0
 30
0.0
  0
POLYLINE
  5
A0
330
41
100
AcDbEntity
  8
_U+30EC_U+30A4_U+30E4_U+30FC 1
 62
     7
420
 16777215
370
     9
100
AcDb2dPolyline
 66
     1
 10
0.0
 20
0.0
 30
0.0
  0
VERTEX
  5
A1
330
A0
100
AcDbEntity
  8
_U+30EC_U+30A4_U+30E4_U+30FC 1
 62
     7
420
 16777215
370
     9
100
AcDbVertex
100
AcDb2dVertex
 10
93.79581232929169
 20
-134.985371910698
 30
0.0
  0
VERTEX
  5
A2
330
A0
100
AcDbEntity
  8
_U+30EC_U+30A4_U+30E4_U+30FC 1
 62
     7
420
 16777215
370
     9
100
AcDbVertex
100
AcDb2dVertex
 10
118.7958322470436
 20
-134.985371910698
 30
0.0
  0
SEQEND
  5
A3
330
A0
100
AcDbEntity
  8
_U+30EC_U+30A4_U+30E4_U+30FC 1
 62
     7
420
 16777215
370
     9
  0
POLYLINE
  5
A4
330
41
100
AcDbEntity
  8
_U+30EC_U+30A4_U+30E4_U+30FC 1
 62
     7
420
 16777215
370
     9
100
AcDb2dPolyline
 66
     1
 10
0.0
 20
0.0
 30
0.0
  0
VERTEX
  5
A5
330
A4
100
AcDbEntity
  8
_U+30EC_U+30A4_U+30E4_U+30FC 1
 62
     7
420
 16777215
370
     9
100
AcDbVertex
100
AcDb2dVertex
 10
93.79581232929169
 20
-136.4454132992221
 30
0.0
  0
VERTEX
  5
A6
330
A4
100
AcDbEntity
  8
_U+30EC_U+30A4_U+30E4_U+30FC 1
 62
     7
420
 16777215
370
     9
100
AcDbVertex
100
AcDb2dVertex
 10
93.79581232929169
 20
-133.9849294109481
 30
0.0
  0
SEQEND
  5
A7
330
A4
100
AcDbEntity
  8
_U+30EC_U+30A4_U+30E4_U+30FC 1
 62
     7
420
 16777215
370
     9
  0
POLYLINE
  5
A8
330
41
100
AcDbEntity
  8
_U+30EC_U+30A4_U+30E4_U+30FC 1
 62
     7
420
 16777215
370
     9
100
AcDb2dPolyline
 66
     1
 10
0.0
 20
0.0
 30
0.0
  0
VERTEX
  5
A9
330
A8
100
AcDbEntity
  8
_U+30EC_U+30A4_U+30E4_U+30FC 1
 62
     7
420
 16777215
370
     9
100
AcDbVertex
100
AcDb2dVertex
 10
118.7958322470436
 20
-136.4454132992221
 30
0.0
  0
VERTEX
  5
AA
330
A8
100
AcDbEntity
  8
_U+30EC_U+30A4_U+30E4_U+30FC 1
 62
     7
420
 16777215
370
     9
100
AcDbVertex
100
AcDb2dVertex
 10
118.7958322470436
 20
-133.9849294109481
 30
0.0
  0
SEQEND
  5
AB
330
A8
100
AcDbEntity
  8
_U+30EC_U+30A4_U+30E4_U+30FC 1
 62
     7
420
 16777215
370
     9
  0
INSERT
  5
AD
330
41
100
AcDbEntity
  8
_U+30EC_U+30A4_U+30E4_U+30FC 1
100
AcDbBlockReference
  2
block 4
 10
0.0
 20
0.0
 30
0.0
  0
POLYLINE
  5
B4
330
41
100
AcDbEntity
  8
_U+30EC_U+30A4_U+30E4_U+30FC 1
 62
     7
420
 16777215
370
     9
100
AcDb2dPolyline
 66
     1
 10
0.0
 20
0.0
 30
0.0
  0
VERTEX
  5
B5
330
B4
100
AcDbEntity
  8
_U+30EC_U+30A4_U+30E4_U+30FC 1
 62
     7
420
 16777215
370
     9
100
AcDbVertex
100
AcDb2dVertex
 10
93.79581232929169
 20
-134.985371910698
 30
0.0
  0
VERTEX
  5
B6
330
B4
100
AcDbEntity
  8
_U+30EC_U+30A4_U+30E4_U+30FC 1
 62
     7
420
 16777215
370
     9
100
AcDbVertex
100
AcDb2dVertex
 10
91.79595275482873
 20
-134.985371910698
 30
0.0
  0
SEQEND
  5
B7
330
B4
100
AcDbEntity
  8
_U+30EC_U+30A4_U+30E4_U+30FC 1
 62
     7
420
 16777215
370
     9
  0
POLYLINE
  5
B8
330
41
100
AcDbEntity
  8
_U+30EC_U+30A4_U+30E4_U+30FC 1
 62
     7
420
 16777215
370
     9
100
AcDb2dPolyline
 66
     1
 10
0.0
 20
0.0
 30
0.0
  0
VERTEX
  5
B9
330
B8
100
AcDbEntity
  8
_U+30EC_U+30A4_U+30E4_U+30FC 1
 62
     7
420
 16777215
370
     9
100
AcDbVertex
100
AcDb2dVertex
 10
92.79572497680095
 20
-151.6410338509784
 30
0.0
  0
VERTEX
  5
BA
330
B8
100
AcDbEntity
  8
_U+30EC_U+30A4_U+30E4_U+30FC 1
 62
     7
420
 16777215
370
     9
100
AcDbVertex
100
AcDb2dVertex
 10
92.79572497680095
 20
-133.9849294109481
 30
0.0
  0
SEQEND
  5
BB
330
B8
100
AcDbEntity
  8
_U+30EC_U+30A4_U+30E4_U+30FC 1
 62
     7
420
 16777215
370
     9
  0
INSERT
  5
BD
330
41
100
AcDbEntity
  8
_U+30EC_U+30A4_U+30E4_U+30FC 1
100
AcDbBlockReference
  2
block 5
 10
0.0
 20
0.0
 30
0.0
  0
POLYLINE
  5
C2
330
41
100
AcDbEntity
  8
_U+30EC_U+30A4_U+30E4_U+30FC 1
 62
     7
420
 16777215
370
     9
100
AcDb2dPolyline
 66
     1
 10
0.0
 20
0.0
 30
0.0
  0
VERTEX
  5
C3
330
C2
100
AcDbEntity
  8
_U+30EC_U+30A4_U+30E4_U+30FC 1
 62
     7
420
 16777215
370
     9
100
AcDbVertex
100
AcDb2dVertex
 10
106.79588477541
 20
-155.4547732944697
 30
0.0
  0
VERTEX
  5
C4
330
C2
100
AcDbEntity
  8
_U+30EC_U+30A4_U+30E4_U+30FC 1
 62
     7
420
 16777215
370
     9
100
AcDbVertex
100
AcDb2dVertex
 10
106.79588477541
 20
-150.1968674624508
 30
0.0
  0
SEQEND
  5
C5
330
C2
100
AcDbEntity
  8
_U+30EC_U+30A4_U+30E4_U+30FC 1
 62
     7
420
 16777215
370
     9
  0
POLYLINE
  5
C6
330
41
100
AcDbEntity
  8
_U+30EC_U+30A4_U+30E4_U+30FC 1
 62
     7
420
 16777215
370
     9
100
AcDb2dPolyline
 66
     1
 10
0.0
 20
0.0
 30
0.0
  0
VERTEX
  5
C7
330
C6
100
AcDbEntity
  8
_U+30EC_U+30A4_U+30E4_U+30FC 1
 62
     7
420
 16777215
370
     9
100
AcDbVertex
100
AcDb2dVertex
 10
106.79588477541
 20
-155.4547732944697
 30
0.0
  0
VERTEX
  5
C8
330
C6
100
AcDbEntity
  8
_U+30EC_U+30A4_U+30E4_U+30FC 1
 62
     7
420
 16777215
370
     9
100
AcDbVertex
100
AcDb2dVertex
 10
106.79588477541
 20
-156.7549357941445
 30
0.0
  0
SEQEND
  5
C9
330
C6
100
AcDbEntity
  8
_U+30EC_U+30A4_U+30E4_U+30FC 1
 62
     7
420
 16777215
370
     9
  0
POLYLINE
  5
CA
330
41
100
AcDbEntity
  8
_U+30EC_U+30A4_U+30E4_U+30FC 1
 62
     7
420
 16777215
370
     9
100
AcDb2dPolyline
 66
     1
 10
0.0
 20
0.0
 30
0.0
  0
VERTEX
  5
CB
330
CA
100
AcDbEntity
  8
_U+30EC_U+30A4_U+30E4_U+30FC 1
 62
     7
420
 16777215
370
     9
100
AcDbVertex
100
AcDb2dVertex
 10
105.3358434237699
 20
-155.7544932943946
 30
0.0
  0
VERTEX
  5
CC
330
CA
100
AcDbEntity
  8
_U+30EC_U+30A4_U+30E4_U+30FC 1
 62
     7
420
 16777215
370
     9
100
AcDbVertex
100
AcDb2dVertex
 10
107.7956569721259
 20
-155.7544932943946
 30
0.0
  0
SEQEND
  5
CD
330
CA
100
AcDbEntity
  8
_U+30EC_U+30A4_U+30E4_U+30FC 1
 62
     7
420
 16777215
370
     9
  0
INSERT
  5
CF
330
41
100
AcDbEntity
  8
_U+30EC_U+30A4_U+30E4_U+30FC 1
100
AcDbBlockReference
  2
block 6
 10
0.0
 20
0.0
 30
0.0
  0
POLYLINE
  5
DF
330
41
100
AcDbEntity
  8
_U+30EC_U+30A4_U+30E4_U+30FC 1
 62
     7
420
 16777215
370
     9
100
AcDb2dPolyline
 66
     1
 10
0.0
 20
0.0
 30
0.0
  0
VERTEX
  5
E0
330
DF
100
AcDbEntity
  8
_U+30EC_U+30A4_U+30E4_U+30FC 1
 62
     7
420
 16777215
370
     9
100
AcDbVertex
100
AcDb2dVertex
 10
92.79572497680095
 20
-160.6506607931704
 30
0.0
  0
VERTEX
  5
E1
330
DF
100
AcDbEntity
  8
_U+30EC_U+30A4_U+30E4_U+30FC 1
 62
     7
420
 16777215
370
     9
100
AcDbVertex
100
AcDb2dVertex
 10
97.78629333859715
 20
-160.6506607931704
 30
0.0
  0
SEQEND
  5
E2
330
DF
100
AcDbEntity
  8
_U+30EC_U+30A4_U+30E4_U+30FC 1
 62
     7
420
 16777215
370
     9
  0
POLYLINE
  5
E3
330
41
100
AcDbEntity
  8
_U+30EC_U+30A4_U+30E4_U+30FC 1
 62
     7
420
 16777215
370
     9
100
AcDb2dPolyline
 66
     1
 10
0.0
 20
0.0
 30
0.0
  0
VERTEX
  5
E4
330
E3
100
AcDbEntity
  8
_U+30EC_U+30A4_U+30E4_U+30FC 1
 62
     7
420
 16777215
370
     9
100
AcDbVertex
100
AcDb2dVertex
 10
92.79572497680095
 20
-159.1906194046467
 30
0.0
  0
VERTEX
  5
E5
330
E3
100
AcDbEntity
  8
_U+30EC_U+30A4_U+30E4_U+30FC 1
 62
     7
420
 16777215
370
     9
100
AcDbVertex
100
AcDb2dVertex
 10
92.79572497680095
 20
-161.650433015143
 30
0.0
  0
SEQEND
  5
E6
330
E3
100
AcDbEntity
  8
_U+30EC_U+30A4_U+30E4_U+30FC 1
 62
     7
420
 16777215
370
     9
  0
POLYLINE
  5
E7
330
41
100
AcDbEntity
  8
_U+30EC_U+30A4_U+30E4_U+30FC 1
 62
     7
420
 16777215
370
     9
100
AcDb2dPolyline
 66
     1
 10
0.0
 20
0.0
 30
0.0
  0
VERTEX
  5
E8
330
E7
100
AcDbEntity
  8
_U+30EC_U+30A4_U+30E4_U+30FC 1
 62
     7
420
 16777215
370
     9
100
AcDbVertex
100
AcDb2dVertex
 10
97.78629333859715
 20
-158.6835013492179
 30
0.0
  0
VERTEX
  5
E9
330
E7
100
AcDbEntity
  8
_U+30EC_U+30A4_U+30E4_U+30FC 1
 62
     7
420
 16777215
370
     9
100
AcDbVertex
100
AcDb2dVertex
 10
97.78629333859715
 20
-161.650433015143
 30
0.0
  0
SEQEND
  5
EA
330
E7
100
AcDbEntity
  8
_U+30EC_U+30A4_U+30E4_U+30FC 1
 62
     7
420
 16777215
370
     9
  0
INSERT
  5
EC
330
41
100
AcDbEntity
  8
_U+30EC_U+30A4_U+30E4_U+30FC 1
100
AcDbBlockReference
  2
block 7
 10
0.0
 20
0.0
 30
0.0
  0
POLYLINE
  5
F1
330
41
100
AcDbEntity
  8
_U+30EC_U+30A4_U+30E4_U+30FC 1
 62
     7
420
 16777215
370
     9
100
AcDb2dPolyline
 66
     1
 10
0.0
 20
0.0
 30
0.0
  0
VERTEX
  5
F2
330
F1
100
AcDbEntity
  8
_U+30EC_U+30A4_U+30E4_U+30FC 1
 62
     7
420
 16777215
370
     9
100
AcDbVertex
100
AcDb2dVertex
 10
92.79572497680095
 20
-164.6504199588373
 30
0.0
  0
VERTEX
  5
F3
330
F1
100
AcDbEntity
  8
_U+30EC_U+30A4_U+30E4_U+30FC 1
 62
     7
420
 16777215
370
     9
100
AcDbVertex
100
AcDb2dVertex
 10
102.7957729330169
 20
-164.6504199588373
 30
0.0
  0
SEQEND
  5
F4
330
F1
100
AcDbEntity
  8
_U+30EC_U+30A4_U+30E4_U+30FC 1
 62
     7
420
 16777215
370
     9
  0
POLYLINE
  5
F5
330
41
100
AcDbEntity
  8
_U+30EC_U+30A4_U+30E4_U+30FC 1
 62
     7
420
 16777215
370
     9
100
AcDb2dPolyline
 66
     1
 10
0.0
 20
0.0
 30
0.0
  0
VERTEX
  5
F6
330
F5
100
AcDbEntity
  8
_U+30EC_U+30A4_U+30E4_U+30FC 1
 62
     7
420
 16777215
370
     9
100
AcDbVertex
100
AcDb2dVertex
 10
92.79572497680095
 20
-159.1906194046467
 30
0.0
  0
VERTEX
  5
F7
330
F5
100
AcDbEntity
  8
_U+30EC_U+30A4_U+30E4_U+30FC 1
 62
     7
420
 16777215
370
     9
100
AcDbVertex
100
AcDb2dVertex
 10
92.79572497680095
 20
-165.6501921808099
 30
0.0
  0
SEQEND
  5
F8
330
F5
100
AcDbEntity
  8
_U+30EC_U+30A4_U+30E4_U+30FC 1
 62
     7
420
 16777215
370
     9
  0
POLYLINE
  5
F9
330
41
100
AcDbEntity
  8
_U+30EC_U+30A4_U+30E4_U+30FC 1
 62
     7
420
 16777215
370
     9
100
AcDb2dPolyline
 66
     1
 10
0.0
 20
0.0
 30
0.0
  0
VERTEX
  5
FA
330
F9
100
AcDbEntity
  8
_U+30EC_U+30A4_U+30E4_U+30FC 1
 62
     7
420
 16777215
370
     9
100
AcDbVertex
100
AcDb2dVertex
 10
102.7957729330169
 20
-158.2949166270926
 30
0.0
  0
VERTEX
  5
FB
330
F9
100
AcDbEntity
  8
_U+30EC_U+30A4_U+30E4_U+30FC 1
 62
     7
420
 16777215
370
     9
100
AcDbVertex
100
AcDb2dVertex
 10
102.7957729330169
 20
-165.6501921808099
 30
0.0
  0
SEQEND
  5
FC
330
F9
100
AcDbEntity
  8
_U+30EC_U+30A4_U+30E4_U+30FC 1
 62
     7
420
 16777215
370
     9
  0
INSERT
  5
FE
330
41
100
AcDbEntity
  8
_U+30EC_U+30A4_U+30E4_U+30FC 1
100
AcDbBlockReference
  2
block 8
 10
0.0
 20
0.0
 30
0.0
  0
POLYLINE
  5
106
330
41
100
AcDbEntity
  8
_U+30EC_U+30A4_U+30E4_U+30FC 1
 62
     7
420
 16777215
370
     9
100
AcDb2dPolyline
 66
     1
 10
0.0
 20
0.0
 30
0.0
  0
VERTEX
  5
107
330
106
100
AcDbEntity
  8
_U+30EC_U+30A4_U+30E4_U+30FC 1
 62
     7
420
 16777215
370
     9
100
AcDbVertex
100
AcDb2dVertex
 10
122.7955944137457
 20
-139.9545996872336
 30
0.0
  0
VERTEX
  5
108
330
106
100
AcDbEntity
  8
_U+30EC_U+30A4_U+30E4_U+30FC 1
 62
     7
420
 16777215
370
     9
100
AcDbVertex
100
AcDb2dVertex
 10
122.7955944137457
 20
-155.4547732944697
 30
0.0
  0
SEQEND
  5
109
330
106
100
AcDbEntity
  8
_U+30EC_U+30A4_U+30E4_U+30FC 1
 62
     7
420
 16777215
370
     9
  0
POLYLINE
  5
10A
330
41
100
AcDbEntity
  8
_U+30EC_U+30A4_U+30E4_U+30FC 1
 62
     7
420
 16777215
370
     9
100
AcDb2dPolyline
 66
     1
 10
0.0
 20
0.0
 30
0.0
  0
VERTEX
  5
10B
330
10A
100
AcDbEntity
  8
_U+30EC_U+30A4_U+30E4_U+30FC 1
 62
     7
420
 16777215
370
     9
100
AcDbVertex
100
AcDb2dVertex
 10
121.3359027377966
 20
-139.9545996872336
 30
0.0
  0
VERTEX
  5
10C
330
10A
100
AcDbEntity
  8
_U+30EC_U+30A4_U+30E4_U+30FC 1
 62
     7
420
 16777215
370
     9
100
AcDbVertex
100
AcDb2dVertex
 10
123.7957194134953
 20
-139.9545996872336
 30
0.0
  0
SEQEND
  5
10D
330
10A
100
AcDbEntity
  8
_U+30EC_U+30A4_U+30E4_U+30FC 1
 62
     7
420
 16777215
370
     9
  0
POLYLINE
  5
10E
330
41
100
AcDbEntity
  8
_U+30EC_U+30A4_U+30E4_U+30FC 1
 62
     7
420
 16777215
370
     9
100
AcDb2dPolyline
 66
     1
 10
0.0
 20
0.0
 30
0.0
  0
VERTEX
  5
10F
330
10E
100
AcDbEntity
  8
_U+30EC_U+30A4_U+30E4_U+30FC 1
 62
     7
420
 16777215
370
     9
100
AcDbVertex
100
AcDb2dVertex
 10
105.3358434237699
 20
-155.4547732944697
 30
0.0
  0
VERTEX
  5
110
330
10E
100
AcDbEntity
  8
_U+30EC_U+30A4_U+30E4_U+30FC 1
 62
     7
420
 16777215
370
     9
100
AcDbVertex
100
AcDb2dVertex
 10
123.7957194134953
 20
-155.4547732944697
 30
0.0
  0
SEQEND
  5
111
330
10E
100
AcDbEntity
  8
_U+30EC_U+30A4_U+30E4_U+30FC 1
 62
     7
420
 16777215
370
     9
  0
INSERT
  5
113
330
41
100
AcDbEntity
  8
_U+30EC_U+30A4_U+30E4_U+30FC 1
100
AcDbBlockReference
  2
block 9
 10
0.0
 20
0.0
 30
0.0
  0
ENDBLK
  5
44
330
41
100
AcDbEntity
  8
0
100
AcDbBlockEnd
  0
BLOCK
  5
96
330
94
100
AcDbEntity
  8
0
100
AcDbBlockBegin
  2
block 3
 70
     0
 10
0.0
 20
0.0
 30
0.0
  3
block 3
  1

  0
SPLINE
  5
98
330
94
100
AcDbEntity
  8
_U+30EC_U+30A4_U+30E4_U+30FC 1
370
     0
100
AcDbSpline
210
0.0
220
0.0
230
1.0
 70
    11
 71
     3
 72
    56
 73
    52
 74
     0
 42
0.0000000001
 43
0.0000000001
 12
1.0
 22
0.0
 32
0.0
 13
1.0
 23
0.0
 33
0.0
 40
0.0
 40
0.0
 40
0.0
 40
0.0
 40
1.0
 40
1.0
 40
1.0
 40
2.0
 40
2.0
 40
2.0
 40
3.0
 40
3.0
 40
3.0
 40
4.0
 40
4.0
 40
4.0
 40
5.0
 40
5.0
 40
5.0
 40
6.0
 40
6.0
 40
6.0
 40
7.0
 40
7.0
 40
7.0
 40
8.0
 40
8.0
 40
8.0
 40
9.0
 40
9.0
 40
9.0
 40
10.0
 40
10.0
 40
10.0
 40
11.0
 40
11.0
 40
11.0
 40
12.0
 40
12.0
 40
12.0
 40
13.0
 40
13.0
 40
13.0
 40
14.0
 40
14.0
 40
14.0
 40
15.0
 40
15.0
 40
15.0
 40
16.0
 40
16.0
 40
16.0
 40
17.0
 40
17.0
 40
17.0
 40
17.0
 10
88.65178084806276
 20
-163.0019368082079
 30
0.0
 10
88.44593639281908
 20
-162.6932562527295
 30
0.0
 10
88.17015649922483
 20
-162.4879285618086
 30
0.0
 10
88.07300480654078
 20
-162.4224717475888
 30
0.0
 10
87.75863984351173
 20
-162.7607801242404
 30
0.0
 10
87.44892575938778
 20
-162.9130533446884
 30
0.0
 10
87.23636336794786
 20
-163.0064154323387
 30
0.0
 10
87.23636336794786
 20
-163.0064154323387
 30
0.0
 10
87.06686467007357
 20
-162.8179687092955
 30
0.0
 10
87.06686467007357
 20
-162.8179687092955
 30
0.0
 10
87.17762448992434
 20
-162.7821397162489
 30
0.0
 10
87.40603432059642
 20
-162.7060031060249
 30
0.0
 10
87.65459795985718
 20
-162.5196234402729
 30
0.0
 10
87.93726804442194
 20
-162.3080945774785
 30
0.0
 10
88.13622230869511
 20
-162.0204291044602
 30
0.0
 10
88.26730819190887
 20
-161.707269924851
 30
0.0
 10
88.26730819190887
 20
-161.707269924851
 30
0.0
 10
87.86492103923169
 20
-161.707269924851
 30
0.0
 10
87.86492103923169
 20
-161.707269924851
 30
0.0
 10
87.70214027755364
 20
-161.707269924851
 30
0.0
 10
87.47838132578666
 20
-161.7117485489818
 30
0.0
 10
87.31783987617402
 20
-161.7306965741507
 30
0.0
 10
87.31783987617402
 20
-161.7306965741507
 30
0.0
 10
87.31783987617402
 20
-161.5191677113563
 30
0.0
 10
87.31783987617402
 20
-161.5191677113563
 30
0.0
 10
87.39018688136426
 20
-161.5253688832298
 30
0.0
 10
87.66820608702392
 20
-161.5360486792341
 30
0.0
 10
87.76087915557714
 20
-161.5360486792341
 30
0.0
 10
87.76087915557714
 20
-161.5360486792341
 30
0.0
 10
88.09333086990375
 20
-161.5360486792341
 30
0.0
 10
88.09333086990375
 20
-161.5360486792341
 30
0.0
 10
88.31485050960532
 20
-161.5360486792341
 30
0.0
 10
88.33965519709912
 20
-161.5295029978121
 30
0.0
 10
88.36463213936717
 20
-161.5253688832298
 30
0.0
 10
88.41200220228936
 20
-161.5191677113563
 30
0.0
 10
88.45282658378957
 20
-161.4936740047655
 30
0.0
 10
88.47539195921796
 20
-161.4767930368878
 30
0.0
 10
88.47539195921796
 20
-161.4767930368878
 30
0.0
 10
88.64265134502683
 20
-161.6500813397958
 30
0.0
 10
88.64265134502683
 20
-161.6500813397958
 30
0.0
 10
88.59975990623548
 20
-161.6776421036778
 30
0.0
 10
88.58615177906874
 20
-161.6883218996821
 30
0.0
 10
88.53413083724148
 20
-161.7241508927287
 30
0.0
 10
88.39632701783148
 20
-161.9718532581182
 30
0.0
 10
88.3103718854745
 20
-162.1220594212751
 30
0.0
 10
88.19961206562371
 20
-162.2681314698496
 30
0.0
 10
88.53413083724148
 20
-162.4858615045174
 30
0.0
 10
88.77838810714569
 20
-162.7714599202446
 30
0.0
 10
88.83488767310378
 20
-162.8496635877598
 30
0.0
 10
88.83488767310378
 20
-162.8496635877598
 30
0.0
 10
88.65178084806276
 20
-163.0019368082079
 30
0.0
 10
88.65178084806276
 20
-163.0019368082079
 30
0.0
  0
HATCH
  5
99
330
94
100
AcDbEntity
  8
_U+30EC_U+30A4_U+30E4_U+30FC 1
 62
     7
420
 16777215
100
AcDbHatch
 10
0.0
 20
0.0
 30
0.0
210
0.0
220
0.0
230
1.0
  2
SOLID
 70
     1
 71
     0
 91
        1
 92
        1
 93
        1
 72
     4
 94
        3
 73
     0
 74
     1
 95
       56
 96
       52
 40
0.0
 40
0.0
 40
0.0
 40
0.0
 40
1.0
 40
1.0
 40
1.0
 40
2.0
 40
2.0
 40
2.0
 40
3.0
 40
3.0
 40
3.0
 40
4.0
 40
4.0
 40
4.0
 40
5.0
 40
5.0
 40
5.0
 40
6.0
 40
6.0
 40
6.0
 40
7.0
 40
7.0
 40
7.0
 40
8.0
 40
8.0
 40
8.0
 40
9.0
 40
9.0
 40
9.0
 40
10.0
 40
10.0
 40
10.0
 40
11.0
 40
11.0
 40
11.0
 40
12.0
 40
12.0
 40
12.0
 40
13.0
 40
13.0
 40
13.0
 40
14.0
 40
14.0
 40
14.0
 40
15.0
 40
15.0
 40
15.0
 40
16.0
 40
16.0
 40
16.0
 40
17.0
 40
17.0
 40
17.0
 40
17.0
 10
88.65178084806276
 20
-163.0019368082079
 10
88.44593639281908
 20
-162.6932562527295
 10
88.17015649922483
 20
-162.4879285618086
 10
88.07300480654078
 20
-162.4224717475888
 10
87.75863984351173
 20
-162.7607801242404
 10
87.44892575938778
 20
-162.9130533446884
 10
87.23636336794786
 20
-163.0064154323387
 10
87.23636336794786
 20
-163.0064154323387
 10
87.06686467007357
 20
-162.8179687092955
 10
87.06686467007357
 20
-162.8179687092955
 10
87.17762448992434
 20
-162.7821397162489
 10
87.40603432059642
 20
-162.7060031060249
 10
87.65459795985718
 20
-162.5196234402729
 10
87.93726804442194
 20
-162.3080945774785
 10
88.13622230869511
 20
-162.0204291044602
 10
88.26730819190887
 20
-161.707269924851
 10
88.26730819190887
 20
-161.707269924851
 10
87.86492103923169
 20
-161.707269924851
 10
87.86492103923169
 20
-161.707269924851
 10
87.70214027755364
 20
-161.707269924851
 10
87.47838132578666
 20
-161.7117485489818
 10
87.31783987617402
 20
-161.7306965741507
 10
87.31783987617402
 20
-161.7306965741507
 10
87.31783987617402
 20
-161.5191677113563
 10
87.31783987617402
 20
-161.5191677113563
 10
87.39018688136426
 20
-161.5253688832298
 10
87.66820608702392
 20
-161.5360486792341
 10
87.76087915557714
 20
-161.5360486792341
 10
87.76087915557714
 20
-161.5360486792341
 10
88.09333086990375
 20
-161.5360486792341
 10
88.09333086990375
 20
-161.5360486792341
 10
88.31485050960532
 20
-161.5360486792341
 10
88.33965519709912
 20
-161.5295029978121
 10
88.36463213936717
 20
-161.5253688832298
 10
88.41200220228936
 20
-161.5191677113563
 10
88.45282658378957
 20
-161.4936740047655
 10
88.47539195921796
 20
-161.4767930368878
 10
88.47539195921796
 20
-161.4767930368878
 10
88.64265134502683
 20
-161.6500813397958
 10
88.64265134502683
 20
-161.6500813397958
 10
88.59975990623548
 20
-161.6776421036778
 10
88.58615177906874
 20
-161.6883218996821
 10
88.53413083724148
 20
-161.7241508927287
 10
88.39632701783148
 20
-161.9718532581182
 10
88.3103718854745
 20
-162.1220594212751
 10
88.19961206562371
 20
-162.2681314698496
 10
88.53413083724148
 20
-162.4858615045174
 10
88.77838810714569
 20
-162.7714599202446
 10
88.83488767310378
 20
-162.8496635877598
 10
88.83488767310378
 20
-162.8496635877598
 10
88.65178084806276
 20
-163.0019368082079
 10
88.65178084806276
 20
-163.0019368082079
 97
        0
 97
        0
 75
     2
 76
     1
 98
        0
  0
SPLINE
  5
9A
330
94
100
AcDbEntity
  8
_U+30EC_U+30A4_U+30E4_U+30FC 1
370
     0
100
AcDbSpline
210
0.0
220
0.0
230
1.0
 70
    11
 71
     3
 72
    20
 73
    16
 74
     0
 42
0.0000000001
 43
0.0000000001
 12
1.0
 22
0.0
 32
0.0
 13
1.0
 23
0.0
 33
0.0
 40
0.0
 40
0.0
 40
0.0
 40
0.0
 40
1.0
 40
1.0
 40
1.0
 40
2.0
 40
2.0
 40
2.0
 40
3.0
 40
3.0
 40
3.0
 40
4.0
 40
4.0
 40
4.0
 40
5.0
 40
5.0
 40
5.0
 40
5.0
 10
89.55956350842608
 20
-162.2109428847945
 30
0.0
 10
89.49169512736667
 20
-162.1665011530348
 30
0.0
 10
89.45776093683695
 20
-162.1451415610262
 30
0.0
 10
89.31082761439104
 20
-162.0858859186799
 30
0.0
 10
89.148046852713
 20
-162.0204291044602
 30
0.0
 10
89.10291610185622
 20
-162.0056151938736
 30
0.0
 10
89.05089516002894
 20
-161.9887342259959
 30
0.0
 10
89.05089516002894
 20
-161.9887342259959
 30
0.0
 10
89.148046852713
 20
-161.8089002416658
 30
0.0
 10
89.148046852713
 20
-161.8089002416658
 30
0.0
 10
89.20919729757618
 20
-161.8323268909655
 30
0.0
 10
89.49393443943208
 20
-161.9401583796539
 30
0.0
 10
89.6591267679498
 20
-162.0479898683422
 30
0.0
 10
89.6591267679498
 20
-162.0479898683422
 30
0.0
 10
89.55956350842608
 20
-162.2109428847945
 30
0.0
 10
89.55956350842608
 20
-162.2109428847945
 30
0.0
  0
SPLINE
  5
9B
330
94
100
AcDbEntity
  8
_U+30EC_U+30A4_U+30E4_U+30FC 1
370
     0
100
AcDbSpline
210
0.0
220
0.0
230
1.0
 70
    11
 71
     3
 72
    26
 73
    22
 74
     0
 42
0.0000000001
 43
0.0000000001
 12
1.0
 22
0.0
 32
0.0
 13
1.0
 23
0.0
 33
0.0
 40
0.0
 40
0.0
 40
0.0
 40
0.0
 40
1.0
 40
1.0
 40
1.0
 40
2.0
 40
2.0
 40
2.0
 40
3.0
 40
3.0
 40
3.0
 40
4.0
 40
4.0
 40
4.0
 40
5.0
 40
5.0
 40
5.0
 40
6.0
 40
6.0
 40
6.0
 40
7.0
 40
7.0
 40
7.0
 40
7.0
 10
89.4239990010815
 20
-163.065671074685
 30
0.0
 10
89.42158743424183
 20
-163.0908202717273
 30
0.0
 10
89.417108810111
 20
-163.141807684909
 30
0.0
 10
89.37645668338506
 20
-163.141807684909
 30
0.0
 10
89.36973874718882
 20
-163.141807684909
 30
0.0
 10
89.35165199589126
 20
-163.135262003487
 30
0.0
 10
89.33804386872453
 20
-163.1204480929005
 30
0.0
 10
89.33804386872453
 20
-163.1204480929005
 30
0.0
 10
89.16837291607597
 20
-162.9130533446884
 30
0.0
 10
89.16837291607597
 20
-162.9130533446884
 30
0.0
 10
89.29050155102807
 20
-162.8813584662241
 30
0.0
 10
89.53475882093228
 20
-162.8179687092955
 30
0.0
 10
89.9438639098057
 20
-162.5113552111083
 30
0.0
 10
90.27631562413231
 20
-162.2636528457188
 30
0.0
 10
90.4435750099412
 20
-162.0648708362199
 30
0.0
 10
90.59963783542301
 20
-161.8447292347124
 30
0.0
 10
90.59963783542301
 20
-161.8447292347124
 30
0.0
 10
90.737441654833
 20
-162.0204291044602
 30
0.0
 10
90.737441654833
 20
-162.0204291044602
 30
0.0
 10
90.41188013147689
 20
-162.5068765869775
 30
0.0
 10
89.72682289423497
 20
-162.9492268472835
 30
0.0
 10
89.4239990010815
 20
-163.065671074685
 30
0.0
  0
SPLINE
  5
9C
330
94
100
AcDbEntity
  8
_U+30EC_U+30A4_U+30E4_U+30FC 1
370
     0
100
AcDbSpline
210
0.0
220
0.0
230
1.0
 70
    11
 71
     3
 72
    17
 73
    13
 74
     0
 42
0.0000000001
 43
0.0000000001
 12
1.0
 22
0.0
 32
0.0
 13
1.0
 23
0.0
 33
0.0
 40
0.0
 40
0.0
 40
0.0
 40
0.0
 40
1.0
 40
1.0
 40
1.0
 40
2.0
 40
2.0
 40
2.0
 40
3.0
 40
3.0
 40
3.0
 40
4.0
 40
4.0
 40
4.0
 40
4.0
 10
89.81501733865736
 20
-161.7093369821421
 30
0.0
 10
89.66360539208063
 20
-161.5953043215804
 30
0.0
 10
89.43519556140856
 20
-161.5105549726432
 30
0.0
 10
89.29739174199857
 20
-161.4726589223054
 30
0.0
 10
89.29739174199857
 20
-161.4726589223054
 30
0.0
 10
89.39006481055179
 20
-161.2969590525577
 30
0.0
 10
89.39006481055179
 20
-161.2969590525577
 30
0.0
 10
89.58901907482498
 20
-161.3710286054906
 30
0.0
 10
89.76764727573517
 20
-161.4578450117189
 30
0.0
 10
89.91234128611566
 20
-161.5401827938163
 30
0.0
 10
89.91234128611566
 20
-161.5401827938163
 30
0.0
 10
89.81501733865736
 20
-161.7093369821421
 30
0.0
 10
89.81501733865736
 20
-161.7093369821421
 30
0.0
  0
SPLINE
  5
9D
330
94
100
AcDbEntity
  8
_U+30EC_U+30A4_U+30E4_U+30FC 1
370
     0
100
AcDbSpline
210
0.0
220
0.0
230
1.0
 70
    11
 71
     3
 72
    17
 73
    13
 74
     0
 42
0.0000000001
 43
0.0000000001
 12
1.0
 22
0.0
 32
0.0
 13
1.0
 23
0.0
 33
0.0
 40
0.0
 40
0.0
 40
0.0
 40
0.0
 40
1.0
 40
1.0
 40
1.0
 40
2.0
 40
2.0
 40
2.0
 40
3.0
 40
3.0
 40
3.0
 40
4.0
 40
4.0
 40
4.0
 40
4.0
 10
90.51592201513144
 20
-161.6352674292093
 30
0.0
 10
90.45718313710793
 20
-161.5784233537026
 30
0.0
 10
90.39155406811392
 20
-161.5191677113563
 30
0.0
 10
90.26942543316181
 20
-161.4471652157146
 30
0.0
 10
90.26942543316181
 20
-161.4471652157146
 30
0.0
 10
90.37122800475095
 20
-161.3434678416086
 30
0.0
 10
90.37122800475095
 20
-161.3434678416086
 30
0.0
 10
90.45494382504252
 20
-161.3858425160772
 30
0.0
 10
90.5657036448933
 20
-161.4450981584235
 30
0.0
 10
90.62892114704763
 20
-161.5274359405209
 30
0.0
 10
90.62892114704763
 20
-161.5274359405209
 30
0.0
 10
90.51592201513144
 20
-161.6352674292093
 30
0.0
 10
90.51592201513144
 20
-161.6352674292093
 30
0.0
  0
SPLINE
  5
9E
330
94
100
AcDbEntity
  8
_U+30EC_U+30A4_U+30E4_U+30FC 1
370
     0
100
AcDbSpline
210
0.0
220
0.0
230
1.0
 70
    11
 71
     3
 72
    17
 73
    13
 74
     0
 42
0.0000000001
 43
0.0000000001
 12
1.0
 22
0.0
 32
0.0
 13
1.0
 23
0.0
 33
0.0
 40
0.0
 40
0.0
 40
0.0
 40
0.0
 40
1.0
 40
1.0
 40
1.0
 40
2.0
 40
2.0
 40
2.0
 40
3.0
 40
3.0
 40
3.0
 40
4.0
 40
4.0
 40
4.0
 40
4.0
 10
90.75776771819598
 20
-161.48092715147
 30
0.0
 10
90.737441654833
 20
-161.4640461835923
 30
0.0
 10
90.51816132719685
 20
-161.307638848562
 30
0.0
 10
90.48887801557223
 20
-161.2883463138446
 30
0.0
 10
90.48887801557223
 20
-161.2883463138446
 30
0.0
 10
90.60411645955384
 20
-161.1784477678651
 30
0.0
 10
90.60411645955384
 20
-161.1784477678651
 30
0.0
 10
90.72159421560086
 20
-161.2545843780891
 30
0.0
 10
90.7352023427676
 20
-161.2652641740934
 30
0.0
 10
90.87093910488643
 20
-161.3710286054906
 30
0.0
 10
90.87093910488643
 20
-161.3710286054906
 30
0.0
 10
90.75776771819598
 20
-161.48092715147
 30
0.0
 10
90.75776771819598
 20
-161.48092715147
 30
0.0
  0
HATCH
  5
9F
330
94
100
AcDbEntity
  8
_U+30EC_U+30A4_U+30E4_U+30FC 1
 62
     7
420
 16777215
100
AcDbHatch
 10
0.0
 20
0.0
 30
0.0
210
0.0
220
0.0
230
1.0
  2
SOLID
 70
     1
 71
     0
 91
        5
 92
        1
 93
        1
 72
     4
 94
        3
 73
     0
 74
     1
 95
       20
 96
       16
 40
0.0
 40
0.0
 40
0.0
 40
0.0
 40
1.0
 40
1.0
 40
1.0
 40
2.0
 40
2.0
 40
2.0
 40
3.0
 40
3.0
 40
3.0
 40
4.0
 40
4.0
 40
4.0
 40
5.0
 40
5.0
 40
5.0
 40
5.0
 10
89.55956350842608
 20
-162.2109428847945
 10
89.49169512736667
 20
-162.1665011530348
 10
89.45776093683695
 20
-162.1451415610262
 10
89.31082761439104
 20
-162.0858859186799
 10
89.148046852713
 20
-162.0204291044602
 10
89.10291610185622
 20
-162.0056151938736
 10
89.05089516002894
 20
-161.9887342259959
 10
89.05089516002894
 20
-161.9887342259959
 10
89.148046852713
 20
-161.8089002416658
 10
89.148046852713
 20
-161.8089002416658
 10
89.20919729757618
 20
-161.8323268909655
 10
89.49393443943208
 20
-161.9401583796539
 10
89.6591267679498
 20
-162.0479898683422
 10
89.6591267679498
 20
-162.0479898683422
 10
89.55956350842608
 20
-162.2109428847945
 10
89.55956350842608
 20
-162.2109428847945
 97
        0
 97
        0
 92
        1
 93
        1
 72
     4
 94
        3
 73
     0
 74
     1
 95
       26
 96
       22
 40
0.0
 40
0.0
 40
0.0
 40
0.0
 40
1.0
 40
1.0
 40
1.0
 40
2.0
 40
2.0
 40
2.0
 40
3.0
 40
3.0
 40
3.0
 40
4.0
 40
4.0
 40
4.0
 40
5.0
 40
5.0
 40
5.0
 40
6.0
 40
6.0
 40
6.0
 40
7.0
 40
7.0
 40
7.0
 40
7.0
 10
89.4239990010815
 20
-163.065671074685
 10
89.42158743424183
 20
-163.0908202717273
 10
89.417108810111
 20
-163.141807684909
 10
89.37645668338506
 20
-163.141807684909
 10
89.36973874718882
 20
-163.141807684909
 10
89.35165199589126
 20
-163.135262003487
 10
89.33804386872453
 20
-163.1204480929005
 10
89.33804386872453
 20
-163.1204480929005
 10
89.16837291607597
 20
-162.9130533446884
 10
89.16837291607597
 20
-162.9130533446884
 10
89.29050155102807
 20
-162.8813584662241
 10
89.53475882093228
 20
-162.8179687092955
 10
89.9438639098057
 20
-162.5113552111083
 10
90.27631562413231
 20
-162.2636528457188
 10
90.4435750099412
 20
-162.0648708362199
 10
90.59963783542301
 20
-161.8447292347124
 10
90.59963783542301
 20
-161.8447292347124
 10
90.737441654833
 20
-162.0204291044602
 10
90.737441654833
 20
-162.0204291044602
 10
90.41188013147689
 20
-162.5068765869775
 10
89.72682289423497
 20
-162.9492268472835
 10
89.4239990010815
 20
-163.065671074685
 97
        0
 97
        0
 92
        1
 93
        1
 72
     4
 94
        3
 73
     0
 74
     1
 95
       17
 96
       13
 40
0.0
 40
0.0
 40
0.0
 40
0.0
 40
1.0
 40
1.0
 40
1.0
 40
2.0
 40
2.0
 40
2.0
 40
3.0
 40
3.0
 40
3.0
 40
4.0
 40
4.0
 40
4.0
 40
4.0
 10
89.81501733865736
 20
-161.7093369821421
 10
89.66360539208063
 20
-161.5953043215804
 10
89.43519556140856
 20
-161.5105549726432
 10
89.29739174199857
 20
-161.4726589223054
 10
89.29739174199857
 20
-161.4726589223054
 10
89.39006481055179
 20
-161.2969590525577
 10
89.39006481055179
 20
-161.2969590525577
 10
89.58901907482498
 20
-161.3710286054906
 10
89.76764727573517
 20
-161.4578450117189
 10
89.91234128611566
 20
-161.5401827938163
 10
89.91234128611566
 20
-161.5401827938163
 10
89.81501733865736
 20
-161.7093369821421
 10
89.81501733865736
 20
-161.7093369821421
 97
        0
 97
        0
 92
        1
 93
        1
 72
     4
 94
        3
 73
     0
 74
     1
 95
       17
 96
       13
 40
0.0
 40
0.0
 40
0.0
 40
0.0
 40
1.0
 40
1.0
 40
1.0
 40
2.0
 40
2.0
 40
2.0
 40
3.0
 40
3.0
 40
3.0
 40
4.0
 40
4.0
 40
4.0
 40
4.0
 10
90.51592201513144
 20
-161.6352674292093
 10
90.45718313710793
 20
-161.5784233537026
 10
90.39155406811392
 20
-161.5191677113563
 10
90.26942543316181
 20
-161.4471652157146
 10
90.26942543316181
 20
-161.4471652157146
 10
90.37122800475095
 20
-161.3434678416086
 10
90.37122800475095
 20
-161.3434678416086
 10
90.45494382504252
 20
-161.3858425160772
 10
90.5657036448933
 20
-161.4450981584235
 10
90.62892114704763
 20
-161.5274359405209
 10
90.62892114704763
 20
-161.5274359405209
 10
90.51592201513144
 20
-161.6352674292093
 10
90.51592201513144
 20
-161.6352674292093
 97
        0
 97
        0
 92
        1
 93
        1
 72
     4
 94
        3
 73
     0
 74
     1
 95
       17
 96
       13
 40
0.0
 40
0.0
 40
0.0
 40
0.0
 40
1.0
 40
1.0
 40
1.0
 40
2.0
 40
2.0
 40
2.0
 40
3.0
 40
3.0
 40
3.0
 40
4.0
 40
4.0
 40
4.0
 40
4.0
 10
90.75776771819598
 20
-161.48092715147
 10
90.737441654833
 20
-161.4640461835923
 10
90.51816132719685
 20
-161.307638848562
 10
90.48887801557223
 20
-161.2883463138446
 10
90.48887801557223
 20
-161.2883463138446
 10
90.60411645955384
 20
-161.1784477678651
 10
90.60411645955384
 20
-161.1784477678651
 10
90.72159421560086
 20
-161.2545843780891
 10
90.7352023427676
 20
-161.2652641740934
 10
90.87093910488643
 20
-161.3710286054906
 10
90.87093910488643
 20
-161.3710286054906
 10
90.75776771819598
 20
-161.48092715147
 10
90.75776771819598
 20
-161.48092715147
 97
        0
 97
        0
 75
     2
 76
     1
 98
        0
  0
ENDBLK
  5
97
330
94
100
AcDbEntity
  8
0
100
AcDbBlockEnd
  0
BLOCK
  5
AE
330
AC
100
AcDbEntity
  8
0
100
AcDbBlockBegin
  2
block 4
 70
     0
 10
0.0
 20
0.0
 30
0.0
  3
block 4
  1

  0
SPLINE
  5
B0
330
AC
100
AcDbEntity
  8
_U+30EC_U+30A4_U+30E4_U+30FC 1
370
     0
100
AcDbSpline
210
0.0
220
0.0
230
1.0
 70
    11
 71
     3
 72
    44
 73
    40
 74
     0
 42
0.0000000001
 43
0.0000000001
 12
1.0
 22
0.0
 32
0.0
 13
1.0
 23
0.0
 33
0.0
 40
0.0
 40
0.0
 40
0.0
 40
0.0
 40
1.0
 40
1.0
 40
1.0
 40
2.0
 40
2.0
 40
2.0
 40
3.0
 40
3.0
 40
3.0
 40
4.0
 40
4.0
 40
4.0
 40
5.0
 40
5.0
 40
5.0
 40
6.0
 40
6.0
 40
6.0
 40
7.0
 40
7.0
 40
7.0
 40
8.0
 40
8.0
 40
8.0
 40
9.0
 40
9.0
 40
9.0
 40
10.0
 40
10.0
 40
10.0
 40
11.0
 40
11.0
 40
11.0
 40
12.0
 40
12.0
 40
12.0
 40
13.0
 40
13.0
 40
13.0
 40
13.0
 10
105.7713215881405
 20
-132.8663085605334
 30
0.0
 10
105.5384331333376
 20
-133.0251274624034
 30
0.0
 10
105.4386976190396
 20
-133.0991970153363
 30
0.0
 10
105.3870211867609
 20
-133.2428574970712
 30
0.0
 10
105.3870211867609
 20
-133.2428574970712
 30
0.0
 10
106.2184949821259
 20
-133.2428574970712
 30
0.0
 10
106.2184949821259
 20
-133.2428574970712
 30
0.0
 10
106.2184949821259
 20
-133.2428574970712
 30
0.0
 10
106.2184949821259
 20
-133.4481851879921
 30
0.0
 10
106.2184949821259
 20
-133.4481851879921
 30
0.0
 10
106.2184949821259
 20
-133.4481851879921
 30
0.0
 10
105.120026286654
 20
-133.4481851879921
 30
0.0
 10
105.120026286654
 20
-133.4481851879921
 30
0.0
 10
105.154132731958
 20
-133.0905842766232
 30
0.0
 10
105.2240681703086
 20
-133.012380609108
 30
0.0
 10
105.6355848260217
 20
-132.7140353400854
 30
0.0
 10
105.9091254075505
 20
-132.5152533305865
 30
0.0
 10
105.9794053554496
 20
-132.447384949527
 30
0.0
 10
105.9794053554496
 20
-132.3099256396656
 30
0.0
 10
105.9794053554496
 20
-132.191414354973
 30
0.0
 10
105.90223521658
 20
-132.0605007265335
 30
0.0
 10
105.6920843919798
 20
-132.0605007265335
 30
0.0
 10
105.4138929315458
 20
-132.0605007265335
 30
0.0
 10
105.4049356832842
 20
-132.2909776144967
 30
0.0
 10
105.4004570591534
 20
-132.4074218418982
 30
0.0
 10
105.4004570591534
 20
-132.4074218418982
 30
0.0
 10
105.16067841338
 20
-132.4074218418982
 30
0.0
 10
105.16067841338
 20
-132.4074218418982
 30
0.0
 10
105.1699801711901
 20
-132.2802978184924
 30
0.0
 10
105.1810044767429
 20
-132.1683322152218
 30
0.0
 10
105.2671318638742
 20
-132.0498209305292
 30
0.0
 10
105.3846096199212
 20
-131.8889349713681
 30
0.0
 10
105.5832193746459
 20
-131.8551730356126
 30
0.0
 10
105.7079318312119
 20
-131.8551730356126
 30
0.0
 10
106.0042100429434
 20
-131.8551730356126
 30
0.0
 10
106.2253851730964
 20
-132.039141134525
 30
0.0
 10
106.2253851730964
 20
-132.3119926969567
 30
0.0
 10
106.2253851730964
 20
-132.5407470371773
 30
0.0
 10
106.1013617356274
 20
-132.6399657871525
 30
0.0
 10
105.7713215881405
 20
-132.8663085605334
 30
0.0
  0
HATCH
  5
B1
330
AC
100
AcDbEntity
  8
_U+30EC_U+30A4_U+30E4_U+30FC 1
 62
     7
420
 16777215
100
AcDbHatch
 10
0.0
 20
0.0
 30
0.0
210
0.0
220
0.0
230
1.0
  2
SOLID
 70
     1
 71
     0
 91
        1
 92
        1
 93
        1
 72
     4
 94
        3
 73
     0
 74
     1
 95
       44
 96
       40
 40
0.0
 40
0.0
 40
0.0
 40
0.0
 40
1.0
 40
1.0
 40
1.0
 40
2.0
 40
2.0
 40
2.0
 40
3.0
 40
3.0
 40
3.0
 40
4.0
 40
4.0
 40
4.0
 40
5.0
 40
5.0
 40
5.0
 40
6.0
 40
6.0
 40
6.0
 40
7.0
 40
7.0
 40
7.0
 40
8.0
 40
8.0
 40
8.0
 40
9.0
 40
9.0
 40
9.0
 40
10.0
 40
10.0
 40
10.0
 40
11.0
 40
11.0
 40
11.0
 40
12.0
 40
12.0
 40
12.0
 40
13.0
 40
13.0
 40
13.0
 40
13.0
 10
105.7713215881405
 20
-132.8663085605334
 10
105.5384331333376
 20
-133.0251274624034
 10
105.4386976190396
 20
-133.0991970153363
 10
105.3870211867609
 20
-133.2428574970712
 10
105.3870211867609
 20
-133.2428574970712
 10
106.2184949821259
 20
-133.2428574970712
 10
106.2184949821259
 20
-133.2428574970712
 10
106.2184949821259
 20
-133.2428574970712
 10
106.2184949821259
 20
-133.4481851879921
 10
106.2184949821259
 20
-133.4481851879921
 10
106.2184949821259
 20
-133.4481851879921
 10
105.120026286654
 20
-133.4481851879921
 10
105.120026286654
 20
-133.4481851879921
 10
105.154132731958
 20
-133.0905842766232
 10
105.2240681703086
 20
-133.012380609108
 10
105.6355848260217
 20
-132.7140353400854
 10
105.9091254075505
 20
-132.5152533305865
 10
105.9794053554496
 20
-132.447384949527
 10
105.9794053554496
 20
-132.3099256396656
 10
105.9794053554496
 20
-132.191414354973
 10
105.90223521658
 20
-132.0605007265335
 10
105.6920843919798
 20
-132.0605007265335
 10
105.4138929315458
 20
-132.0605007265335
 10
105.4049356832842
 20
-132.2909776144967
 10
105.4004570591534
 20
-132.4074218418982
 10
105.4004570591534
 20
-132.4074218418982
 10
105.16067841338
 20
-132.4074218418982
 10
105.16067841338
 20
-132.4074218418982
 10
105.1699801711901
 20
-132.2802978184924
 10
105.1810044767429
 20
-132.1683322152218
 10
105.2671318638742
 20
-132.0498209305292
 10
105.3846096199212
 20
-131.8889349713681
 10
105.5832193746459
 20
-131.8551730356126
 10
105.7079318312119
 20
-131.8551730356126
 10
106.0042100429434
 20
-131.8551730356126
 10
106.2253851730964
 20
-132.039141134525
 10
106.2253851730964
 20
-132.3119926969567
 10
106.2253851730964
 20
-132.5407470371773
 10
106.1013617356274
 20
-132.6399657871525
 10
105.7713215881405
 20
-132.8663085605334
 97
        0
 97
        0
 75
     2
 76
     1
 98
        0
  0
SPLINE
  5
B2
330
AC
100
AcDbEntity
  8
_U+30EC_U+30A4_U+30E4_U+30FC 1
370
     0
100
AcDbSpline
210
0.0
220
0.0
230
1.0
 70
    11
 71
     3
 72
    53
 73
    49
 74
     0
 42
0.0000000001
 43
0.0000000001
 12
1.0
 22
0.0
 32
0.0
 13
1.0
 23
0.0
 33
0.0
 40
0.0
 40
0.0
 40
0.0
 40
0.0
 40
1.0
 40
1.0
 40
1.0
 40
2.0
 40
2.0
 40
2.0
 40
3.0
 40
3.0
 40
3.0
 40
4.0
 40
4.0
 40
4.0
 40
5.0
 40
5.0
 40
5.0
 40
6.0
 40
6.0
 40
6.0
 40
7.0
 40
7.0
 40
7.0
 40
8.0
 40
8.0
 40
8.0
 40
9.0
 40
9.0
 40
9.0
 40
10.0
 40
10.0
 40
10.0
 40
11.0
 40
11.0
 40
11.0
 40
12.0
 40
12.0
 40
12.0
 40
13.0
 40
13.0
 40
13.0
 40
14.0
 40
14.0
 40
14.0
 40
15.0
 40
15.0
 40
15.0
 40
16.0
 40
16.0
 40
16.0
 40
16.0
 10
106.90889211737
 20
-133.4988280916253
 30
0.0
 10
106.825520806627
 20
-133.4988280916253
 30
0.0
 10
106.7166557892931
 20
-133.4819471237476
 30
0.0
 10
106.6084797910562
 20
-133.418557366819
 30
0.0
 10
106.4231336539498
 20
-133.3086588208395
 30
0.0
 10
106.4003960237471
 20
-133.1774006828515
 30
0.0
 10
106.3804144699327
 20
-133.0695691941632
 30
0.0
 10
106.3804144699327
 20
-133.0695691941632
 30
0.0
 10
106.6174370393179
 20
-133.0695691941632
 30
0.0
 10
106.6174370393179
 20
-133.0695691941632
 30
0.0
 10
106.6760036625671
 20
-133.2683512036621
 30
0.0
 10
106.811740424686
 20
-133.2979790248352
 30
0.0
 10
106.9116481937582
 20
-133.2979790248352
 30
0.0
 10
107.060476318721
 20
-133.2979790248352
 30
0.0
 10
107.2230848256248
 20
-133.1984157653115
 30
0.0
 10
107.2230848256248
 20
-132.9658718200571
 30
0.0
 10
107.2230848256248
 20
-132.7099012255031
 30
0.0
 10
107.0315375166449
 20
-132.6399657871525
 30
0.0
 10
106.9026909454966
 20
-132.6399657871525
 30
0.0
 10
106.8682399906441
 20
-132.6399657871525
 30
0.0
 10
106.7166557892931
 20
-132.6399657871525
 30
0.0
 10
106.6222601729972
 20
-132.7691568678494
 30
0.0
 10
106.6222601729972
 20
-132.7691568678494
 30
0.0
 10
106.4341579595026
 20
-132.7502088426805
 30
0.0
 10
106.4341579595026
 20
-132.7502088426805
 30
0.0
 10
106.4341579595026
 20
-132.7502088426805
 30
0.0
 10
106.5630045306509
 20
-131.9037488819546
 30
0.0
 10
106.5630045306509
 20
-131.9037488819546
 30
0.0
 10
106.5630045306509
 20
-131.9037488819546
 30
0.0
 10
107.3953395998873
 20
-131.9037488819546
 30
0.0
 10
107.3953395998873
 20
-131.9037488819546
 30
0.0
 10
107.3953395998873
 20
-131.9037488819546
 30
0.0
 10
107.3953395998873
 20
-132.0983967768712
 30
0.0
 10
107.3953395998873
 20
-132.0983967768712
 30
0.0
 10
107.3953395998873
 20
-132.0983967768712
 30
0.0
 10
106.7373263622046
 20
-132.0983967768712
 30
0.0
 10
106.7373263622046
 20
-132.0983967768712
 30
0.0
 10
106.7373263622046
 20
-132.0983967768712
 30
0.0
 10
106.6670464143055
 20
-132.5214545024599
 30
0.0
 10
106.6670464143055
 20
-132.5214545024599
 30
0.0
 10
106.7325032285252
 20
-132.4876925667045
 30
0.0
 10
106.8206976729476
 20
-132.447384949527
 30
0.0
 10
106.9474771868048
 20
-132.447384949527
 30
0.0
 10
107.2189507110425
 20
-132.447384949527
 30
0.0
 10
107.4718207196598
 20
-132.6337646152791
 30
0.0
 10
107.4718207196598
 20
-132.9469237948883
 30
0.0
 10
107.4718207196598
 20
-133.2642170890798
 30
0.0
 10
107.2327310929835
 20
-133.4988280916253
 30
0.0
 10
106.90889211737
 20
-133.4988280916253
 30
0.0
  0
HATCH
  5
B3
330
AC
100
AcDbEntity
  8
_U+30EC_U+30A4_U+30E4_U+30FC 1
 62
     7
420
 16777215
100
AcDbHatch
 10
0.0
 20
0.0
 30
0.0
210
0.0
220
0.0
230
1.0
  2
SOLID
 70
     1
 71
     0
 91
        1
 92
        1
 93
        1
 72
     4
 94
        3
 73
     0
 74
     1
 95
       53
 96
       49
 40
0.0
 40
0.0
 40
0.0
 40
0.0
 40
1.0
 40
1.0
 40
1.0
 40
2.0
 40
2.0
 40
2.0
 40
3.0
 40
3.0
 40
3.0
 40
4.0
 40
4.0
 40
4.0
 40
5.0
 40
5.0
 40
5.0
 40
6.0
 40
6.0
 40
6.0
 40
7.0
 40
7.0
 40
7.0
 40
8.0
 40
8.0
 40
8.0
 40
9.0
 40
9.0
 40
9.0
 40
10.0
 40
10.0
 40
10.0
 40
11.0
 40
11.0
 40
11.0
 40
12.0
 40
12.0
 40
12.0
 40
13.0
 40
13.0
 40
13.0
 40
14.0
 40
14.0
 40
14.0
 40
15.0
 40
15.0
 40
15.0
 40
16.0
 40
16.0
 40
16.0
 40
16.0
 10
106.90889211737
 20
-133.4988280916253
 10
106.825520806627
 20
-133.4988280916253
 10
106.7166557892931
 20
-133.4819471237476
 10
106.6084797910562
 20
-133.418557366819
 10
106.4231336539498
 20
-133.3086588208395
 10
106.4003960237471
 20
-133.1774006828515
 10
106.3804144699327
 20
-133.0695691941632
 10
106.3804144699327
 20
-133.0695691941632
 10
106.6174370393179
 20
-133.0695691941632
 10
106.6174370393179
 20
-133.0695691941632
 10
106.6760036625671
 20
-133.2683512036621
 10
106.811740424686
 20
-133.2979790248352
 10
106.9116481937582
 20
-133.2979790248352
 10
107.060476318721
 20
-133.2979790248352
 10
107.2230848256248
 20
-133.1984157653115
 10
107.2230848256248
 20
-132.9658718200571
 10
107.2230848256248
 20
-132.7099012255031
 10
107.0315375166449
 20
-132.6399657871525
 10
106.9026909454966
 20
-132.6399657871525
 10
106.8682399906441
 20
-132.6399657871525
 10
106.7166557892931
 20
-132.6399657871525
 10
106.6222601729972
 20
-132.7691568678494
 10
106.6222601729972
 20
-132.7691568678494
 10
106.4341579595026
 20
-132.7502088426805
 10
106.4341579595026
 20
-132.7502088426805
 10
106.4341579595026
 20
-132.7502088426805
 10
106.5630045306509
 20
-131.9037488819546
 10
106.5630045306509
 20
-131.9037488819546
 10
106.5630045306509
 20
-131.9037488819546
 10
107.3953395998873
 20
-131.9037488819546
 10
107.3953395998873
 20
-131.9037488819546
 10
107.3953395998873
 20
-131.9037488819546
 10
107.3953395998873
 20
-132.0983967768712
 10
107.3953395998873
 20
-132.0983967768712
 10
107.3953395998873
 20
-132.0983967768712
 10
106.7373263622046
 20
-132.0983967768712
 10
106.7373263622046
 20
-132.0983967768712
 10
106.7373263622046
 20
-132.0983967768712
 10
106.6670464143055
 20
-132.5214545024599
 10
106.6670464143055
 20
-132.5214545024599
 10
106.7325032285252
 20
-132.4876925667045
 10
106.8206976729476
 20
-132.447384949527
 10
106.9474771868048
 20
-132.447384949527
 10
107.2189507110425
 20
-132.447384949527
 10
107.4718207196598
 20
-132.6337646152791
 10
107.4718207196598
 20
-132.9469237948883
 10
107.4718207196598
 20
-133.2642170890798
 10
107.2327310929835
 20
-133.4988280916253
 10
106.90889211737
 20
-133.4988280916253
 97
        0
 97
        0
 75
     2
 76
     1
 98
        0
  0
ENDBLK
  5
AF
330
AC
100
AcDbEntity
  8
0
100
AcDbBlockEnd
  0
BLOCK
  5
BE
330
BC
100
AcDbEntity
  8
0
100
AcDbBlockBegin
  2
block 5
 70
     0
 10
0.0
 20
0.0
 30
0.0
  3
block 5
  1

  0
SPLINE
  5
C0
330
BC
100
AcDbEntity
  8
_U+30EC_U+30A4_U+30E4_U+30FC 1
370
     0
100
AcDbSpline
210
0.0
220
0.0
230
1.0
 70
    11
 71
     3
 72
    26
 73
    22
 74
     0
 42
0.0000000001
 43
0.0000000001
 12
1.0
 22
0.0
 32
0.0
 13
1.0
 23
0.0
 33
0.0
 40
0.0
 40
0.0
 40
0.0
 40
0.0
 40
1.0
 40
1.0
 40
1.0
 40
2.0
 40
2.0
 40
2.0
 40
3.0
 40
3.0
 40
3.0
 40
4.0
 40
4.0
 40
4.0
 40
5.0
 40
5.0
 40
5.0
 40
6.0
 40
6.0
 40
6.0
 40
7.0
 40
7.0
 40
7.0
 40
7.0
 10
93.28646780436937
 20
-133.4481851879921
 30
0.0
 10
93.28646780436937
 20
-133.4481851879921
 30
0.0
 10
93.28646780436937
 20
-132.3438598301953
 30
0.0
 10
93.28646780436937
 20
-132.3438598301953
 30
0.0
 10
93.28646780436937
 20
-132.3438598301953
 30
0.0
 10
92.93369002667977
 20
-132.3438598301953
 30
0.0
 10
92.93369002667977
 20
-132.3438598301953
 30
0.0
 10
92.93369002667977
 20
-132.3438598301953
 30
0.0
 10
92.93369002667977
 20
-132.1958929791038
 30
0.0
 10
92.93369002667977
 20
-132.1958929791038
 30
0.0
 10
93.28870711643478
 20
-132.1810790685172
 30
0.0
 10
93.33848874619663
 20
-132.0181260520649
 30
0.0
 10
93.37001136988667
 20
-131.9039211367289
 30
0.0
 10
93.37001136988667
 20
-131.9039211367289
 30
0.0
 10
93.52607419536848
 20
-131.9039211367289
 30
0.0
 10
93.52607419536848
 20
-131.9039211367289
 30
0.0
 10
93.52607419536848
 20
-131.9039211367289
 30
0.0
 10
93.52607419536848
 20
-133.4481851879921
 30
0.0
 10
93.52607419536848
 20
-133.4481851879921
 30
0.0
 10
93.52607419536848
 20
-133.4481851879921
 30
0.0
 10
93.28646780436937
 20
-133.4481851879921
 30
0.0
 10
93.28646780436937
 20
-133.4481851879921
 30
0.0
  0
HATCH
  5
C1
330
BC
100
AcDbEntity
  8
_U+30EC_U+30A4_U+30E4_U+30FC 1
 62
     7
420
 16777215
100
AcDbHatch
 10
0.0
 20
0.0
 30
0.0
210
0.0
220
0.0
230
1.0
  2
SOLID
 70
     1
 71
     0
 91
        1
 92
        1
 93
        1
 72
     4
 94
        3
 73
     0
 74
     1
 95
       26
 96
       22
 40
0.0
 40
0.0
 40
0.0
 40
0.0
 40
1.0
 40
1.0
 40
1.0
 40
2.0
 40
2.0
 40
2.0
 40
3.0
 40
3.0
 40
3.0
 40
4.0
 40
4.0
 40
4.0
 40
5.0
 40
5.0
 40
5.0
 40
6.0
 40
6.0
 40
6.0
 40
7.0
 40
7.0
 40
7.0
 40
7.0
 10
93.28646780436937
 20
-133.4481851879921
 10
93.28646780436937
 20
-133.4481851879921
 10
93.28646780436937
 20
-132.3438598301953
 10
93.28646780436937
 20
-132.3438598301953
 10
93.28646780436937
 20
-132.3438598301953
 10
92.93369002667977
 20
-132.3438598301953
 10
92.93369002667977
 20
-132.3438598301953
 10
92.93369002667977
 20
-132.3438598301953
 10
92.93369002667977
 20
-132.1958929791038
 10
92.93369002667977
 20
-132.1958929791038
 10
93.28870711643478
 20
-132.1810790685172
 10
93.33848874619663
 20
-132.0181260520649
 10
93.37001136988667
 20
-131.9039211367289
 10
93.37001136988667
 20
-131.9039211367289
 10
93.52607419536848
 20
-131.9039211367289
 10
93.52607419536848
 20
-131.9039211367289
 10
93.52607419536848
 20
-131.9039211367289
 10
93.52607419536848
 20
-133.4481851879921
 10
93.52607419536848
 20
-133.4481851879921
 10
93.52607419536848
 20
-133.4481851879921
 10
93.28646780436937
 20
-133.4481851879921
 10
93.28646780436937
 20
-133.4481851879921
 97
        0
 97
        0
 75
     2
 76
     1
 98
        0
  0
ENDBLK
  5
BF
330
BC
100
AcDbEntity
  8
0
100
AcDbBlockEnd
  0
BLOCK
  5
D0
330
CE
100
AcDbEntity
  8
0
100
AcDbBlockBegin
  2
block 6
 70
     0
 10
0.0
 20
0.0
 30
0.0
  3
block 6
  1

  0
SPLINE
  5
D2
330
CE
100
AcDbEntity
  8
_U+30EC_U+30A4_U+30E4_U+30FC 1
370
     0
100
AcDbSpline
210
0.0
220
0.0
230
1.0
 70
    11
 71
     3
 72
    29
 73
    25
 74
     0
 42
0.0000000001
 43
0.0000000001
 12
1.0
 22
0.0
 32
0.0
 13
1.0
 23
0.0
 33
0.0
 40
0.0
 40
0.0
 40
0.0
 40
0.0
 40
1.0
 40
1.0
 40
1.0
 40
2.0
 40
2.0
 40
2.0
 40
3.0
 40
3.0
 40
3.0
 40
4.0
 40
4.0
 40
4.0
 40
5.0
 40
5.0
 40
5.0
 40
6.0
 40
6.0
 40
6.0
 40
7.0
 40
7.0
 40
7.0
 40
8.0
 40
8.0
 40
8.0
 40
8.0
 10
106.0214355203696
 20
-152.8037651527713
 30
0.0
 10
106.2308973258728
 20
-152.9191758515272
 30
0.0
 10
106.2501898605902
 20
-153.1045219886336
 30
0.0
 10
106.2501898605902
 20
-153.2288899356511
 30
0.0
 10
106.2501898605902
 20
-153.4004556908166
 30
0.0
 10
106.2033365619908
 20
-153.5520398921676
 30
0.0
 10
106.0214355203696
 20
-153.6536702089824
 30
0.0
 10
105.8271321350015
 20
-153.7646022836075
 30
0.0
 10
105.5901095656164
 20
-153.7849283469704
 30
0.0
 10
105.4273288039383
 20
-153.7849283469704
 30
0.0
 10
105.2833238126549
 20
-153.7849283469704
 30
0.0
 10
105.0314873326831
 20
-153.7670138504471
 30
0.0
 10
104.8327053231842
 20
-153.6536702089824
 30
0.0
 10
104.629789199103
 20
-153.5386040197751
 30
0.0
 10
104.6063625498033
 20
-153.3666937550611
 30
0.0
 10
104.6063625498033
 20
-153.2288899356511
 30
0.0
 10
104.6063625498033
 20
-153.0590467282283
 30
0.0
 10
104.650804281563
 20
-152.9053954695862
 30
0.0
 10
104.8327053231842
 20
-152.8037651527713
 30
0.0
 10
105.0252861608097
 20
-152.6973117022771
 30
0.0
 10
105.2536959914817
 20
-152.6725070147833
 30
0.0
 10
105.4273288039383
 20
-152.6725070147833
 30
0.0
 10
105.598377794781
 20
-152.6725070147833
 30
0.0
 10
105.8291991922927
 20
-152.6952446449859
 30
0.0
 10
106.0214355203696
 20
-152.8037651527713
 30
0.0
  0
SPLINE
  5
D3
330
CE
100
AcDbEntity
  8
_U+30EC_U+30A4_U+30E4_U+30FC 1
370
     0
100
AcDbSpline
210
0.0
220
0.0
230
1.0
 70
    11
 71
     3
 72
    17
 73
    13
 74
     0
 42
0.0000000001
 43
0.0000000001
 12
1.0
 22
0.0
 32
0.0
 13
1.0
 23
0.0
 33
0.0
 40
0.0
 40
0.0
 40
0.0
 40
0.0
 40
1.0
 40
1.0
 40
1.0
 40
2.0
 40
2.0
 40
2.0
 40
3.0
 40
3.0
 40
3.0
 40
4.0
 40
4.0
 40
4.0
 40
4.0
 10
104.7989433874287
 20
-153.2288899356511
 30
0.0
 10
104.7989433874287
 20
-153.4955403262095
 30
0.0
 10
105.0824747458648
 20
-153.5451497011971
 30
0.0
 10
105.4273288039383
 20
-153.5451497011971
 30
0.0
 10
105.7465169006467
 20
-153.5451497011971
 30
0.0
 10
106.0551974561251
 20
-153.5069091413108
 30
0.0
 10
106.0551974561251
 20
-153.2288899356511
 30
0.0
 10
106.0551974561251
 20
-152.9643066023839
 30
0.0
 10
105.7740776645287
 20
-152.9122856605566
 30
0.0
 10
105.4273288039383
 20
-152.9122856605566
 30
0.0
 10
105.1076239429071
 20
-152.9122856605566
 30
0.0
 10
104.7989433874287
 20
-152.9529377872826
 30
0.0
 10
104.7989433874287
 20
-153.2288899356511
 30
0.0
  0
HATCH
  5
D4
330
CE
100
AcDbEntity
  8
_U+30EC_U+30A4_U+30E4_U+30FC 1
 62
     7
420
 16777215
100
AcDbHatch
 10
0.0
 20
0.0
 30
0.0
210
0.0
220
0.0
230
1.0
  2
SOLID
 70
     1
 71
     0
 91
        2
 92
        1
 93
        1
 72
     4
 94
        3
 73
     0
 74
     1
 95
       29
 96
       25
 40
0.0
 40
0.0
 40
0.0
 40
0.0
 40
1.0
 40
1.0
 40
1.0
 40
2.0
 40
2.0
 40
2.0
 40
3.0
 40
3.0
 40
3.0
 40
4.0
 40
4.0
 40
4.0
 40
5.0
 40
5.0
 40
5.0
 40
6.0
 40
6.0
 40
6.0
 40
7.0
 40
7.0
 40
7.0
 40
8.0
 40
8.0
 40
8.0
 40
8.0
 10
106.0214355203696
 20
-152.8037651527713
 10
106.2308973258728
 20
-152.9191758515272
 10
106.2501898605902
 20
-153.1045219886336
 10
106.2501898605902
 20
-153.2288899356511
 10
106.2501898605902
 20
-153.4004556908166
 10
106.2033365619908
 20
-153.5520398921676
 10
106.0214355203696
 20
-153.6536702089824
 10
105.8271321350015
 20
-153.7646022836075
 10
105.5901095656164
 20
-153.7849283469704
 10
105.4273288039383
 20
-153.7849283469704
 10
105.2833238126549
 20
-153.7849283469704
 10
105.0314873326831
 20
-153.7670138504471
 10
104.8327053231842
 20
-153.6536702089824
 10
104.629789199103
 20
-153.5386040197751
 10
104.6063625498033
 20
-153.3666937550611
 10
104.6063625498033
 20
-153.2288899356511
 10
104.6063625498033
 20
-153.0590467282283
 10
104.650804281563
 20
-152.9053954695862
 10
104.8327053231842
 20
-152.8037651527713
 10
105.0252861608097
 20
-152.6973117022771
 10
105.2536959914817
 20
-152.6725070147833
 10
105.4273288039383
 20
-152.6725070147833
 10
105.598377794781
 20
-152.6725070147833
 10
105.8291991922927
 20
-152.6952446449859
 10
106.0214355203696
 20
-152.8037651527713
 97
        0
 97
        0
 92
        1
 93
        1
 72
     4
 94
        3
 73
     0
 74
     1
 95
       17
 96
       13
 40
0.0
 40
0.0
 40
0.0
 40
0.0
 40
1.0
 40
1.0
 40
1.0
 40
2.0
 40
2.0
 40
2.0
 40
3.0
 40
3.0
 40
3.0
 40
4.0
 40
4.0
 40
4.0
 40
4.0
 10
104.7989433874287
 20
-153.2288899356511
 10
104.7989433874287
 20
-153.4955403262095
 10
105.0824747458648
 20
-153.5451497011971
 10
105.4273288039383
 20
-153.5451497011971
 10
105.7465169006467
 20
-153.5451497011971
 10
106.0551974561251
 20
-153.5069091413108
 10
106.0551974561251
 20
-153.2288899356511
 10
106.0551974561251
 20
-152.9643066023839
 10
105.7740776645287
 20
-152.9122856605566
 10
105.4273288039383
 20
-152.9122856605566
 10
105.1076239429071
 20
-152.9122856605566
 10
104.7989433874287
 20
-152.9529377872826
 10
104.7989433874287
 20
-153.2288899356511
 97
        0
 97
        0
 75
     2
 76
     1
 98
        0
  0
POLYLINE
  5
D5
330
CE
100
AcDbEntity
  8
_U+30EC_U+30A4_U+30E4_U+30FC 1
370
     0
100
AcDb2dPolyline
 66
     1
 10
0.0
 20
0.0
 30
0.0
  0
VERTEX
  5
D6
330
D5
100
AcDbEntity
  8
_U+30EC_U+30A4_U+30E4_U+30FC 1
370
     0
100
AcDbVertex
100
AcDb2dVertex
 10
106.1992024474085
 20
-152.441341107723
 30
0.0
  0
VERTEX
  5
D7
330
D5
100
AcDbEntity
  8
_U+30EC_U+30A4_U+30E4_U+30FC 1
370
     0
100
AcDbVertex
100
AcDb2dVertex
 10
105.9477104769853
 20
-152.441341107723
 30
0.0
  0
VERTEX
  5
D8
330
D5
100
AcDbEntity
  8
_U+30EC_U+30A4_U+30E4_U+30FC 1
370
     0
100
AcDbVertex
100
AcDb2dVertex
 10
105.9477104769853
 20
-152.172279150325
 30
0.0
  0
VERTEX
  5
D9
330
D5
100
AcDbEntity
  8
_U+30EC_U+30A4_U+30E4_U+30FC 1
370
     0
100
AcDbVertex
100
AcDb2dVertex
 10
106.1992024474085
 20
-152.172279150325
 30
0.0
  0
VERTEX
  5
DA
330
D5
100
AcDbEntity
  8
_U+30EC_U+30A4_U+30E4_U+30FC 1
370
     0
100
AcDbVertex
100
AcDb2dVertex
 10
106.1992024474085
 20
-152.441341107723
 30
0.0
  0
SEQEND
  5
DB
330
D5
100
AcDbEntity
  8
_U+30EC_U+30A4_U+30E4_U+30FC 1
370
     0
  0
HATCH
  5
DC
330
CE
100
AcDbEntity
  8
_U+30EC_U+30A4_U+30E4_U+30FC 1
 62
     7
420
 16777215
100
AcDbHatch
 10
0.0
 20
0.0
 30
0.0
210
0.0
220
0.0
230
1.0
  2
SOLID
 70
     1
 71
     0
 91
        1
 92
        1
 93
        4
 72
     1
 10
106.1992024474085
 20
-152.441341107723
 11
105.9477104769853
 21
-152.441341107723
 72
     1
 10
105.9477104769853
 20
-152.441341107723
 11
105.9477104769853
 21
-152.172279150325
 72
     1
 10
105.9477104769853
 20
-152.172279150325
 11
106.1992024474085
 21
-152.172279150325
 72
     1
 10
106.1992024474085
 20
-152.172279150325
 11
106.1992024474085
 21
-152.441341107723
 97
        0
 75
     2
 76
     1
 98
        0
  0
SPLINE
  5
DD
330
CE
100
AcDbEntity
  8
_U+30EC_U+30A4_U+30E4_U+30FC 1
370
     0
100
AcDbSpline
210
0.0
220
0.0
230
1.0
 70
    11
 71
     3
 72
    62
 73
    58
 74
     0
 42
0.0000000001
 43
0.0000000001
 12
1.0
 22
0.0
 32
0.0
 13
1.0
 23
0.0
 33
0.0
 40
0.0
 40
0.0
 40
0.0
 40
0.0
 40
1.0
 40
1.0
 40
1.0
 40
2.0
 40
2.0
 40
2.0
 40
3.0
 40
3.0
 40
3.0
 40
4.0
 40
4.0
 40
4.0
 40
5.0
 40
5.0
 40
5.0
 40
6.0
 40
6.0
 40
6.0
 40
7.0
 40
7.0
 40
7.0
 40
8.0
 40
8.0
 40
8.0
 40
9.0
 40
9.0
 40
9.0
 40
10.0
 40
10.0
 40
10.0
 40
11.0
 40
11.0
 40
11.0
 40
12.0
 40
12.0
 40
12.0
 40
13.0
 40
13.0
 40
13.0
 40
14.0
 40
14.0
 40
14.0
 40
15.0
 40
15.0
 40
15.0
 40
16.0
 40
16.0
 40
16.0
 40
17.0
 40
17.0
 40
17.0
 40
18.0
 40
18.0
 40
18.0
 40
19.0
 40
19.0
 40
19.0
 40
19.0
 10
106.2501898605902
 20
-151.394032080207
 30
0.0
 10
106.2501898605902
 20
-151.4956623970219
 30
0.0
 10
106.2288302685817
 20
-151.7285508518248
 30
0.0
 10
106.0427951123782
 20
-151.861876047104
 30
0.0
 10
105.9304849995591
 20
-151.9411132432647
 30
0.0
 10
105.8312662495838
 20
-151.9455918673956
 30
0.0
 10
105.7465169006467
 20
-151.9500704915264
 30
0.0
 10
105.7465169006467
 20
-151.9500704915264
 30
0.0
 10
105.7465169006467
 20
-151.7151149794323
 30
0.0
 10
105.7465169006467
 20
-151.7151149794323
 30
0.0
 10
105.8209309631281
 20
-151.7127034125927
 30
0.0
 10
106.0551974561251
 20
-151.7013345974914
 30
0.0
 10
106.0551974561251
 20
-151.3985107043379
 30
0.0
 10
106.0551974561251
 20
-151.2514051271177
 30
0.0
 10
105.985606527323
 20
-151.0887966202139
 30
0.0
 10
105.7575412061995
 20
-151.0887966202139
 30
0.0
 10
105.6410969787981
 20
-151.0887966202139
 30
0.0
 10
105.5921766229075
 20
-151.1294487469399
 30
0.0
 10
105.5604817444432
 20
-151.1632106826953
 30
0.0
 10
105.4867567010589
 20
-151.2424478788561
 30
0.0
 10
105.4738375929892
 20
-151.3668158258736
 30
0.0
 10
105.4738375929892
 20
-151.4257269586714
 30
0.0
 10
105.4738375929892
 20
-151.4460530220343
 30
0.0
 10
105.4759046502803
 20
-151.4842935819206
 30
0.0
 10
105.4800387648626
 20
-151.5139214030937
 30
0.0
 10
105.4800387648626
 20
-151.5139214030937
 30
0.0
 10
105.285390869946
 20
-151.5139214030937
 30
0.0
 10
105.285390869946
 20
-151.5139214030937
 30
0.0
 10
105.291936551368
 20
-151.4732692763678
 30
0.0
 10
105.2940036086591
 20
-151.4277940159625
 30
0.0
 10
105.2940036086591
 20
-151.4212483345405
 30
0.0
 10
105.2940036086591
 20
-151.3509683866414
 30
0.0
 10
105.2726440166506
 20
-151.1384059952015
 30
0.0
 10
105.0359659568139
 20
-151.1384059952015
 30
0.0
 10
104.858199029775
 20
-151.1384059952015
 30
0.0
 10
104.803077502011
 20
-151.2786213814512
 30
0.0
 10
104.803077502011
 20
-151.3960991374982
 30
0.0
 10
104.803077502011
 20
-151.6789414768372
 30
0.0
 10
105.0359659568139
 20
-151.6878987250989
 30
0.0
 10
105.1076239429071
 20
-151.6923773492297
 30
0.0
 10
105.1076239429071
 20
-151.6923773492297
 30
0.0
 10
105.1076239429071
 20
-151.9094183648004
 30
0.0
 10
105.1076239429071
 20
-151.9094183648004
 30
0.0
 10
104.9829114863411
 20
-151.9004611165388
 30
0.0
 10
104.6063625498033
 20
-151.8711778049142
 30
0.0
 10
104.6063625498033
 20
-151.3826632651057
 30
0.0
 10
104.6063625498033
 20
-151.1428846193323
 30
0.0
 10
104.733486573209
 20
-150.8851914770356
 30
0.0
 10
105.029420275392
 20
-150.8851914770356
 30
0.0
 10
105.215799941144
 20
-150.8851914770356
 30
0.0
 10
105.2981377232414
 20
-150.9871663033991
 30
0.0
 10
105.3594604228789
 20
-151.0932752443447
 30
0.0
 10
105.3870211867609
 20
-151.027818430125
 30
0.0
 10
105.4672919115672
 20
-150.8331705352084
 30
0.0
 10
105.7444498433556
 20
-150.8331705352084
 30
0.0
 10
106.0827582200071
 20
-150.8331705352084
 30
0.0
 10
106.2501898605902
 20
-151.0977538684756
 30
0.0
 10
106.2501898605902
 20
-151.394032080207
 30
0.0
  0
HATCH
  5
DE
330
CE
100
AcDbEntity
  8
_U+30EC_U+30A4_U+30E4_U+30FC 1
 62
     7
420
 16777215
100
AcDbHatch
 10
0.0
 20
0.0
 30
0.0
210
0.0
220
0.0
230
1.0
  2
SOLID
 70
     1
 71
     0
 91
        1
 92
        1
 93
        1
 72
     4
 94
        3
 73
     0
 74
     1
 95
       62
 96
       58
 40
0.0
 40
0.0
 40
0.0
 40
0.0
 40
1.0
 40
1.0
 40
1.0
 40
2.0
 40
2.0
 40
2.0
 40
3.0
 40
3.0
 40
3.0
 40
4.0
 40
4.0
 40
4.0
 40
5.0
 40
5.0
 40
5.0
 40
6.0
 40
6.0
 40
6.0
 40
7.0
 40
7.0
 40
7.0
 40
8.0
 40
8.0
 40
8.0
 40
9.0
 40
9.0
 40
9.0
 40
10.0
 40
10.0
 40
10.0
 40
11.0
 40
11.0
 40
11.0
 40
12.0
 40
12.0
 40
12.0
 40
13.0
 40
13.0
 40
13.0
 40
14.0
 40
14.0
 40
14.0
 40
15.0
 40
15.0
 40
15.0
 40
16.0
 40
16.0
 40
16.0
 40
17.0
 40
17.0
 40
17.0
 40
18.0
 40
18.0
 40
18.0
 40
19.0
 40
19.0
 40
19.0
 40
19.0
 10
106.2501898605902
 20
-151.394032080207
 10
106.2501898605902
 20
-151.4956623970219
 10
106.2288302685817
 20
-151.7285508518248
 10
106.0427951123782
 20
-151.861876047104
 10
105.9304849995591
 20
-151.9411132432647
 10
105.8312662495838
 20
-151.9455918673956
 10
105.7465169006467
 20
-151.9500704915264
 10
105.7465169006467
 20
-151.9500704915264
 10
105.7465169006467
 20
-151.7151149794323
 10
105.7465169006467
 20
-151.7151149794323
 10
105.8209309631281
 20
-151.7127034125927
 10
106.0551974561251
 20
-151.7013345974914
 10
106.0551974561251
 20
-151.3985107043379
 10
106.0551974561251
 20
-151.2514051271177
 10
105.985606527323
 20
-151.0887966202139
 10
105.7575412061995
 20
-151.0887966202139
 10
105.6410969787981
 20
-151.0887966202139
 10
105.5921766229075
 20
-151.1294487469399
 10
105.5604817444432
 20
-151.1632106826953
 10
105.4867567010589
 20
-151.2424478788561
 10
105.4738375929892
 20
-151.3668158258736
 10
105.4738375929892
 20
-151.4257269586714
 10
105.4738375929892
 20
-151.4460530220343
 10
105.4759046502803
 20
-151.4842935819206
 10
105.4800387648626
 20
-151.5139214030937
 10
105.4800387648626
 20
-151.5139214030937
 10
105.285390869946
 20
-151.5139214030937
 10
105.285390869946
 20
-151.5139214030937
 10
105.291936551368
 20
-151.4732692763678
 10
105.2940036086591
 20
-151.4277940159625
 10
105.2940036086591
 20
-151.4212483345405
 10
105.2940036086591
 20
-151.3509683866414
 10
105.2726440166506
 20
-151.1384059952015
 10
105.0359659568139
 20
-151.1384059952015
 10
104.858199029775
 20
-151.1384059952015
 10
104.803077502011
 20
-151.2786213814512
 10
104.803077502011
 20
-151.3960991374982
 10
104.803077502011
 20
-151.6789414768372
 10
105.0359659568139
 20
-151.6878987250989
 10
105.1076239429071
 20
-151.6923773492297
 10
105.1076239429071
 20
-151.6923773492297
 10
105.1076239429071
 20
-151.9094183648004
 10
105.1076239429071
 20
-151.9094183648004
 10
104.9829114863411
 20
-151.9004611165388
 10
104.6063625498033
 20
-151.8711778049142
 10
104.6063625498033
 20
-151.3826632651057
 10
104.6063625498033
 20
-151.1428846193323
 10
104.733486573209
 20
-150.8851914770356
 10
105.029420275392
 20
-150.8851914770356
 10
105.215799941144
 20
-150.8851914770356
 10
105.2981377232414
 20
-150.9871663033991
 10
105.3594604228789
 20
-151.0932752443447
 10
105.3870211867609
 20
-151.027818430125
 10
105.4672919115672
 20
-150.8331705352084
 10
105.7444498433556
 20
-150.8331705352084
 10
106.0827582200071
 20
-150.8331705352084
 10
106.2501898605902
 20
-151.0977538684756
 10
106.2501898605902
 20
-151.394032080207
 97
        0
 97
        0
 75
     2
 76
     1
 98
        0
  0
ENDBLK
  5
D1
330
CE
100
AcDbEntity
  8
0
100
AcDbBlockEnd
  0
BLOCK
  5
ED
330
EB
100
AcDbEntity
  8
0
100
AcDbBlockBegin
  2
block 7
 70
     0
 10
0.0
 20
0.0
 30
0.0
  3
block 7
  1

  0
SPLINE
  5
EF
330
EB
100
AcDbEntity
  8
_U+30EC_U+30A4_U+30E4_U+30FC 1
370
     0
100
AcDbSpline
210
0.0
220
0.0
230
1.0
 70
    11
 71
     3
 72
    53
 73
    49
 74
     0
 42
0.0000000001
 43
0.0000000001
 12
1.0
 22
0.0
 32
0.0
 13
1.0
 23
0.0
 33
0.0
 40
0.0
 40
0.0
 40
0.0
 40
0.0
 40
1.0
 40
1.0
 40
1.0
 40
2.0
 40
2.0
 40
2.0
 40
3.0
 40
3.0
 40
3.0
 40
4.0
 40
4.0
 40
4.0
 40
5.0
 40
5.0
 40
5.0
 40
6.0
 40
6.0
 40
6.0
 40
7.0
 40
7.0
 40
7.0
 40
8.0
 40
8.0
 40
8.0
 40
9.0
 40
9.0
 40
9.0
 40
10.0
 40
10.0
 40
10.0
 40
11.0
 40
11.0
 40
11.0
 40
12.0
 40
12.0
 40
12.0
 40
13.0
 40
13.0
 40
13.0
 40
14.0
 40
14.0
 40
14.0
 40
15.0
 40
15.0
 40
15.0
 40
16.0
 40
16.0
 40
16.0
 40
16.0
 10
95.31356198789037
 20
-160.1046115051128
 30
0.0
 10
95.2298461675988
 20
-160.1046115051128
 30
0.0
 10
95.12132565981342
 20
-160.087730537235
 30
0.0
 10
95.01280515202805
 20
-160.0243407803064
 30
0.0
 10
94.82745901492162
 20
-159.9144422343269
 30
0.0
 10
94.80489363949323
 20
-159.7831840963389
 30
0.0
 10
94.78439532135599
 20
-159.6753526076506
 30
0.0
 10
94.78439532135599
 20
-159.6753526076506
 30
0.0
 10
95.02193465506396
 20
-159.6753526076506
 30
0.0
 10
95.02193465506396
 20
-159.6753526076506
 30
0.0
 10
95.08067353308748
 20
-159.8741346171495
 30
0.0
 10
95.21623804043206
 20
-159.9037624383227
 30
0.0
 10
95.31580129995578
 20
-159.9037624383227
 30
0.0
 10
95.4649739344671
 20
-159.9037624383227
 30
0.0
 10
95.62775469614515
 20
-159.804199178799
 30
0.0
 10
95.62775469614515
 20
-159.5716552335446
 30
0.0
 10
95.62775469614515
 20
-159.3156846389905
 30
0.0
 10
95.4355183680682
 20
-159.2457492006399
 30
0.0
 10
95.30667179691986
 20
-159.2457492006399
 30
0.0
 10
95.27273760639015
 20
-159.2457492006399
 30
0.0
 10
95.12132565981342
 20
-159.2457492006399
 30
0.0
 10
95.02641327919478
 20
-159.3749402813368
 30
0.0
 10
95.02641327919478
 20
-159.3749402813368
 30
0.0
 10
94.83865557524868
 20
-159.355992256168
 30
0.0
 10
94.83865557524868
 20
-159.355992256168
 30
0.0
 10
94.83865557524868
 20
-159.355992256168
 30
0.0
 10
94.96750214639702
 20
-158.5095322954421
 30
0.0
 10
94.96750214639702
 20
-158.5095322954421
 30
0.0
 10
94.96750214639702
 20
-158.5095322954421
 30
0.0
 10
95.79949270608485
 20
-158.5095322954421
 30
0.0
 10
95.79949270608485
 20
-158.5095322954421
 30
0.0
 10
95.79949270608485
 20
-158.5095322954421
 30
0.0
 10
95.79949270608485
 20
-158.7041801903587
 30
0.0
 10
95.79949270608485
 20
-158.7041801903587
 30
0.0
 10
95.79949270608485
 20
-158.7041801903587
 30
0.0
 10
95.1416517231764
 20
-158.7041801903587
 30
0.0
 10
95.1416517231764
 20
-158.7041801903587
 30
0.0
 10
95.1416517231764
 20
-158.7041801903587
 30
0.0
 10
95.07154403005157
 20
-159.1272379159474
 30
0.0
 10
95.07154403005157
 20
-159.1272379159474
 30
0.0
 10
95.13717309904557
 20
-159.0934759801919
 30
0.0
 10
95.22536754346797
 20
-159.0531683630145
 30
0.0
 10
95.3519748025509
 20
-159.0531683630145
 30
0.0
 10
95.62327607201432
 20
-159.0531683630145
 30
0.0
 10
95.87649059018018
 20
-159.2395480287665
 30
0.0
 10
95.87649059018018
 20
-159.5527072083757
 30
0.0
 10
95.87649059018018
 20
-159.8700005025672
 30
0.0
 10
95.63688419918105
 20
-160.1046115051128
 30
0.0
 10
95.31356198789037
 20
-160.1046115051128
 30
0.0
  0
HATCH
  5
F0
330
EB
100
AcDbEntity
  8
_U+30EC_U+30A4_U+30E4_U+30FC 1
 62
     7
420
 16777215
100
AcDbHatch
 10
0.0
 20
0.0
 30
0.0
210
0.0
220
0.0
230
1.0
  2
SOLID
 70
     1
 71
     0
 91
        1
 92
        1
 93
        1
 72
     4
 94
        3
 73
     0
 74
     1
 95
       53
 96
       49
 40
0.0
 40
0.0
 40
0.0
 40
0.0
 40
1.0
 40
1.0
 40
1.0
 40
2.0
 40
2.0
 40
2.0
 40
3.0
 40
3.0
 40
3.0
 40
4.0
 40
4.0
 40
4.0
 40
5.0
 40
5.0
 40
5.0
 40
6.0
 40
6.0
 40
6.0
 40
7.0
 40
7.0
 40
7.0
 40
8.0
 40
8.0
 40
8.0
 40
9.0
 40
9.0
 40
9.0
 40
10.0
 40
10.0
 40
10.0
 40
11.0
 40
11.0
 40
11.0
 40
12.0
 40
12.0
 40
12.0
 40
13.0
 40
13.0
 40
13.0
 40
14.0
 40
14.0
 40
14.0
 40
15.0
 40
15.0
 40
15.0
 40
16.0
 40
16.0
 40
16.0
 40
16.0
 10
95.31356198789037
 20
-160.1046115051128
 10
95.2298461675988
 20
-160.1046115051128
 10
95.12132565981342
 20
-160.087730537235
 10
95.01280515202805
 20
-160.0243407803064
 10
94.82745901492162
 20
-159.9144422343269
 10
94.80489363949323
 20
-159.7831840963389
 10
94.78439532135599
 20
-159.6753526076506
 10
94.78439532135599
 20
-159.6753526076506
 10
95.02193465506396
 20
-159.6753526076506
 10
95.02193465506396
 20
-159.6753526076506
 10
95.08067353308748
 20
-159.8741346171495
 10
95.21623804043206
 20
-159.9037624383227
 10
95.31580129995578
 20
-159.9037624383227
 10
95.4649739344671
 20
-159.9037624383227
 10
95.62775469614515
 20
-159.804199178799
 10
95.62775469614515
 20
-159.5716552335446
 10
95.62775469614515
 20
-159.3156846389905
 10
95.4355183680682
 20
-159.2457492006399
 10
95.30667179691986
 20
-159.2457492006399
 10
95.27273760639015
 20
-159.2457492006399
 10
95.12132565981342
 20
-159.2457492006399
 10
95.02641327919478
 20
-159.3749402813368
 10
95.02641327919478
 20
-159.3749402813368
 10
94.83865557524868
 20
-159.355992256168
 10
94.83865557524868
 20
-159.355992256168
 10
94.83865557524868
 20
-159.355992256168
 10
94.96750214639702
 20
-158.5095322954421
 10
94.96750214639702
 20
-158.5095322954421
 10
94.96750214639702
 20
-158.5095322954421
 10
95.79949270608485
 20
-158.5095322954421
 10
95.79949270608485
 20
-158.5095322954421
 10
95.79949270608485
 20
-158.5095322954421
 10
95.79949270608485
 20
-158.7041801903587
 10
95.79949270608485
 20
-158.7041801903587
 10
95.79949270608485
 20
-158.7041801903587
 10
95.1416517231764
 20
-158.7041801903587
 10
95.1416517231764
 20
-158.7041801903587
 10
95.1416517231764
 20
-158.7041801903587
 10
95.07154403005157
 20
-159.1272379159474
 10
95.07154403005157
 20
-159.1272379159474
 10
95.13717309904557
 20
-159.0934759801919
 10
95.22536754346797
 20
-159.0531683630145
 10
95.3519748025509
 20
-159.0531683630145
 10
95.62327607201432
 20
-159.0531683630145
 10
95.87649059018018
 20
-159.2395480287665
 10
95.87649059018018
 20
-159.5527072083757
 10
95.87649059018018
 20
-159.8700005025672
 10
95.63688419918105
 20
-160.1046115051128
 10
95.31356198789037
 20
-160.1046115051128
 97
        0
 97
        0
 75
     2
 76
     1
 98
        0
  0
ENDBLK
  5
EE
330
EB
100
AcDbEntity
  8
0
100
AcDbBlockEnd
  0
BLOCK
  5
FF
330
FD
100
AcDbEntity
  8
0
100
AcDbBlockBegin
  2
block 8
 70
     0
 10
0.0
 20
0.0
 30
0.0
  3
block 8
  1

  0
SPLINE
  5
101
330
FD
100
AcDbEntity
  8
_U+30EC_U+30A4_U+30E4_U+30FC 1
370
     0
100
AcDbSpline
210
0.0
220
0.0
230
1.0
 70
    11
 71
     3
 72
    26
 73
    22
 74
     0
 42
0.0000000001
 43
0.0000000001
 12
1.0
 22
0.0
 32
0.0
 13
1.0
 23
0.0
 33
0.0
 40
0.0
 40
0.0
 40
0.0
 40
0.0
 40
1.0
 40
1.0
 40
1.0
 40
2.0
 40
2.0
 40
2.0
 40
3.0
 40
3.0
 40
3.0
 40
4.0
 40
4.0
 40
4.0
 40
5.0
 40
5.0
 40
5.0
 40
6.0
 40
6.0
 40
6.0
 40
7.0
 40
7.0
 40
7.0
 40
7.0
 10
97.11982555080685
 20
-164.0537244598546
 30
0.0
 10
97.11982555080685
 20
-164.0537244598546
 30
0.0
 10
97.11982555080685
 20
-162.9495713568321
 30
0.0
 10
97.11982555080685
 20
-162.9495713568321
 30
0.0
 10
97.11982555080685
 20
-162.9495713568321
 30
0.0
 10
96.7673922826658
 20
-162.9495713568321
 30
0.0
 10
96.7673922826658
 20
-162.9495713568321
 30
0.0
 10
96.7673922826658
 20
-162.9495713568321
 30
0.0
 10
96.7673922826658
 20
-162.8014322509663
 30
0.0
 10
96.7673922826658
 20
-162.8014322509663
 30
0.0
 10
97.12223711764653
 20
-162.7866183403797
 30
0.0
 10
97.17184649263413
 20
-162.6236653239274
 30
0.0
 10
97.20354137109842
 20
-162.5092881538171
 30
0.0
 10
97.20354137109842
 20
-162.5092881538171
 30
0.0
 10
97.35960419658024
 20
-162.5092881538171
 30
0.0
 10
97.35960419658024
 20
-162.5092881538171
 30
0.0
 10
97.35960419658024
 20
-162.5092881538171
 30
0.0
 10
97.35960419658024
 20
-164.0537244598546
 30
0.0
 10
97.35960419658024
 20
-164.0537244598546
 30
0.0
 10
97.35960419658024
 20
-164.0537244598546
 30
0.0
 10
97.11982555080685
 20
-164.0537244598546
 30
0.0
 10
97.11982555080685
 20
-164.0537244598546
 30
0.0
  0
HATCH
  5
102
330
FD
100
AcDbEntity
  8
_U+30EC_U+30A4_U+30E4_U+30FC 1
 62
     7
420
 16777215
100
AcDbHatch
 10
0.0
 20
0.0
 30
0.0
210
0.0
220
0.0
230
1.0
  2
SOLID
 70
     1
 71
     0
 91
        1
 92
        1
 93
        1
 72
     4
 94
        3
 73
     0
 74
     1
 95
       26
 96
       22
 40
0.0
 40
0.0
 40
0.0
 40
0.0
 40
1.0
 40
1.0
 40
1.0
 40
2.0
 40
2.0
 40
2.0
 40
3.0
 40
3.0
 40
3.0
 40
4.0
 40
4.0
 40
4.0
 40
5.0
 40
5.0
 40
5.0
 40
6.0
 40
6.0
 40
6.0
 40
7.0
 40
7.0
 40
7.0
 40
7.0
 10
97.11982555080685
 20
-164.0537244598546
 10
97.11982555080685
 20
-164.0537244598546
 10
97.11982555080685
 20
-162.9495713568321
 10
97.11982555080685
 20
-162.9495713568321
 10
97.11982555080685
 20
-162.9495713568321
 10
96.7673922826658
 20
-162.9495713568321
 10
96.7673922826658
 20
-162.9495713568321
 10
96.7673922826658
 20
-162.9495713568321
 10
96.7673922826658
 20
-162.8014322509663
 10
96.7673922826658
 20
-162.8014322509663
 10
97.12223711764653
 20
-162.7866183403797
 10
97.17184649263413
 20
-162.6236653239274
 10
97.20354137109842
 20
-162.5092881538171
 10
97.20354137109842
 20
-162.5092881538171
 10
97.35960419658024
 20
-162.5092881538171
 10
97.35960419658024
 20
-162.5092881538171
 10
97.35960419658024
 20
-162.5092881538171
 10
97.35960419658024
 20
-164.0537244598546
 10
97.35960419658024
 20
-164.0537244598546
 10
97.35960419658024
 20
-164.0537244598546
 10
97.11982555080685
 20
-164.0537244598546
 10
97.11982555080685
 20
-164.0537244598546
 97
        0
 97
        0
 75
     2
 76
     1
 98
        0
  0
SPLINE
  5
103
330
FD
100
AcDbEntity
  8
_U+30EC_U+30A4_U+30E4_U+30FC 1
370
     0
100
AcDbSpline
210
0.0
220
0.0
230
1.0
 70
    11
 71
     3
 72
    29
 73
    25
 74
     0
 42
0.0000000001
 43
0.0000000001
 12
1.0
 22
0.0
 32
0.0
 13
1.0
 23
0.0
 33
0.0
 40
0.0
 40
0.0
 40
0.0
 40
0.0
 40
1.0
 40
1.0
 40
1.0
 40
2.0
 40
2.0
 40
2.0
 40
3.0
 40
3.0
 40
3.0
 40
4.0
 40
4.0
 40
4.0
 40
5.0
 40
5.0
 40
5.0
 40
6.0
 40
6.0
 40
6.0
 40
7.0
 40
7.0
 40
7.0
 40
8.0
 40
8.0
 40
8.0
 40
8.0
 10
98.85477563717868
 20
-163.8759575328157
 30
0.0
 10
98.7393649384228
 20
-164.0854193383189
 30
0.0
 10
98.55401880131636
 20
-164.1043673634878
 30
0.0
 10
98.42965085429884
 20
-164.1043673634878
 30
0.0
 10
98.2580850991334
 20
-164.1043673634878
 30
0.0
 10
98.10650089778241
 20
-164.0578585744369
 30
0.0
 10
98.00487058096753
 20
-163.8759575328157
 30
0.0
 10
97.8939385063425
 20
-163.6813096378991
 30
0.0
 10
97.87361244297952
 20
-163.4442870685139
 30
0.0
 10
97.87361244297952
 20
-163.2816785616101
 30
0.0
 10
97.87361244297952
 20
-163.1376735703267
 30
0.0
 10
97.89187144905134
 20
-162.8858370903549
 30
0.0
 10
98.00487058096753
 20
-162.687055080856
 30
0.0
 10
98.11993677017489
 20
-162.4841389567748
 30
0.0
 10
98.29184703488885
 20
-162.4607123074751
 30
0.0
 10
98.42965085429884
 20
-162.4607123074751
 30
0.0
 10
98.59949406172166
 20
-162.4607123074751
 30
0.0
 10
98.7531453203638
 20
-162.5051540392348
 30
0.0
 10
98.85477563717868
 20
-162.687055080856
 30
0.0
 10
98.96122908767289
 20
-162.8796359184815
 30
0.0
 10
98.98603377516669
 20
-163.1080457491535
 30
0.0
 10
98.98603377516669
 20
-163.2816785616101
 30
0.0
 10
98.98603377516669
 20
-163.4528998072271
 30
0.0
 10
98.96329614496405
 20
-163.6833766951903
 30
0.0
 10
98.85477563717868
 20
-163.8759575328157
 30
0.0
  0
SPLINE
  5
104
330
FD
100
AcDbEntity
  8
_U+30EC_U+30A4_U+30E4_U+30FC 1
370
     0
100
AcDbSpline
210
0.0
220
0.0
230
1.0
 70
    11
 71
     3
 72
    17
 73
    13
 74
     0
 42
0.0000000001
 43
0.0000000001
 12
1.0
 22
0.0
 32
0.0
 13
1.0
 23
0.0
 33
0.0
 40
0.0
 40
0.0
 40
0.0
 40
0.0
 40
1.0
 40
1.0
 40
1.0
 40
2.0
 40
2.0
 40
2.0
 40
3.0
 40
3.0
 40
3.0
 40
4.0
 40
4.0
 40
4.0
 40
4.0
 10
98.42965085429884
 20
-162.6532931451006
 30
0.0
 10
98.1630004637405
 20
-162.6532931451006
 30
0.0
 10
98.1133910887529
 20
-162.9368245035366
 30
0.0
 10
98.1133910887529
 20
-163.2816785616101
 30
0.0
 10
98.1133910887529
 20
-163.6010389130928
 30
0.0
 10
98.15163164863918
 20
-163.9097194685712
 30
0.0
 10
98.42965085429884
 20
-163.9097194685712
 30
0.0
 10
98.69423418756602
 20
-163.9097194685712
 30
0.0
 10
98.7462551293933
 20
-163.6285996769748
 30
0.0
 10
98.7462551293933
 20
-163.2816785616101
 30
0.0
 10
98.7462551293933
 20
-162.961973700579
 30
0.0
 10
98.70560300266736
 20
-162.6532931451006
 30
0.0
 10
98.42965085429884
 20
-162.6532931451006
 30
0.0
  0
HATCH
  5
105
330
FD
100
AcDbEntity
  8
_U+30EC_U+30A4_U+30E4_U+30FC 1
 62
     7
420
 16777215
100
AcDbHatch
 10
0.0
 20
0.0
 30
0.0
210
0.0
220
0.0
230
1.0
  2
SOLID
 70
     1
 71
     0
 91
        2
 92
        1
 93
        1
 72
     4
 94
        3
 73
     0
 74
     1
 95
       29
 96
       25
 40
0.0
 40
0.0
 40
0.0
 40
0.0
 40
1.0
 40
1.0
 40
1.0
 40
2.0
 40
2.0
 40
2.0
 40
3.0
 40
3.0
 40
3.0
 40
4.0
 40
4.0
 40
4.0
 40
5.0
 40
5.0
 40
5.0
 40
6.0
 40
6.0
 40
6.0
 40
7.0
 40
7.0
 40
7.0
 40
8.0
 40
8.0
 40
8.0
 40
8.0
 10
98.85477563717868
 20
-163.8759575328157
 10
98.7393649384228
 20
-164.0854193383189
 10
98.55401880131636
 20
-164.1043673634878
 10
98.42965085429884
 20
-164.1043673634878
 10
98.2580850991334
 20
-164.1043673634878
 10
98.10650089778241
 20
-164.0578585744369
 10
98.00487058096753
 20
-163.8759575328157
 10
97.8939385063425
 20
-163.6813096378991
 10
97.87361244297952
 20
-163.4442870685139
 10
97.87361244297952
 20
-163.2816785616101
 10
97.87361244297952
 20
-163.1376735703267
 10
97.89187144905134
 20
-162.8858370903549
 10
98.00487058096753
 20
-162.687055080856
 10
98.11993677017489
 20
-162.4841389567748
 10
98.29184703488885
 20
-162.4607123074751
 10
98.42965085429884
 20
-162.4607123074751
 10
98.59949406172166
 20
-162.4607123074751
 10
98.7531453203638
 20
-162.5051540392348
 10
98.85477563717868
 20
-162.687055080856
 10
98.96122908767289
 20
-162.8796359184815
 10
98.98603377516669
 20
-163.1080457491535
 10
98.98603377516669
 20
-163.2816785616101
 10
98.98603377516669
 20
-163.4528998072271
 10
98.96329614496405
 20
-163.6833766951903
 10
98.85477563717868
 20
-163.8759575328157
 97
        0
 97
        0
 92
        1
 93
        1
 72
     4
 94
        3
 73
     0
 74
     1
 95
       17
 96
       13
 40
0.0
 40
0.0
 40
0.0
 40
0.0
 40
1.0
 40
1.0
 40
1.0
 40
2.0
 40
2.0
 40
2.0
 40
3.0
 40
3.0
 40
3.0
 40
4.0
 40
4.0
 40
4.0
 40
4.0
 10
98.42965085429884
 20
-162.6532931451006
 10
98.1630004637405
 20
-162.6532931451006
 10
98.1133910887529
 20
-162.9368245035366
 10
98.1133910887529
 20
-163.2816785616101
 10
98.1133910887529
 20
-163.6010389130928
 10
98.15163164863918
 20
-163.9097194685712
 10
98.42965085429884
 20
-163.9097194685712
 10
98.69423418756602
 20
-163.9097194685712
 10
98.7462551293933
 20
-163.6285996769748
 10
98.7462551293933
 20
-163.2816785616101
 10
98.7462551293933
 20
-162.961973700579
 10
98.70560300266736
 20
-162.6532931451006
 10
98.42965085429884
 20
-162.6532931451006
 97
        0
 97
        0
 75
     2
 76
     1
 98
        0
  0
ENDBLK
  5
100
330
FD
100
AcDbEntity
  8
0
100
AcDbBlockEnd
  0
BLOCK
  5
114
330
112
100
AcDbEntity
  8
0
100
AcDbBlockBegin
  2
block 9
 70
     0
 10
0.0
 20
0.0
 30
0.0
  3
block 9
  1

  0
SPLINE
  5
116
330
112
100
AcDbEntity
  8
_U+30EC_U+30A4_U+30E4_U+30FC 1
370
     0
100
AcDbSpline
210
0.0
220
0.0
230
1.0
 70
    11
 71
     3
 72
    26
 73
    22
 74
     0
 42
0.0000000001
 43
0.0000000001
 12
1.0
 22
0.0
 32
0.0
 13
1.0
 23
0.0
 33
0.0
 40
0.0
 40
0.0
 40
0.0
 40
0.0
 40
1.0
 40
1.0
 40
1.0
 40
2.0
 40
2.0
 40
2.0
 40
3.0
 40
3.0
 40
3.0
 40
4.0
 40
4.0
 40
4.0
 40
5.0
 40
5.0
 40
5.0
 40
6.0
 40
6.0
 40
6.0
 40
7.0
 40
7.0
 40
7.0
 40
7.0
 10
122.1996039191029
 20
-149.3080267638883
 30
0.0
 10
122.1996039191029
 20
-149.3080267638883
 30
0.0
 10
121.0957953256288
 20
-149.3080267638883
 30
0.0
 10
121.0957953256288
 20
-149.3080267638883
 30
0.0
 10
121.0957953256288
 20
-149.3080267638883
 30
0.0
 10
121.0957953256288
 20
-149.6604600320293
 30
0.0
 10
121.0957953256288
 20
-149.6604600320293
 30
0.0
 10
121.0957953256288
 20
-149.6604600320293
 30
0.0
 10
120.9476562197631
 20
-149.6604600320293
 30
0.0
 10
120.9476562197631
 20
-149.6604600320293
 30
0.0
 10
120.932497799628
 20
-149.3056151970486
 30
0.0
 10
120.7698892927242
 20
-149.256005822061
 30
0.0
 10
120.6555121226139
 20
-149.2243109435967
 30
0.0
 10
120.6555121226139
 20
-149.2243109435967
 30
0.0
 10
120.6555121226139
 20
-149.0682481181149
 30
0.0
 10
120.6555121226139
 20
-149.0682481181149
 30
0.0
 10
120.6555121226139
 20
-149.0682481181149
 30
0.0
 10
122.1996039191029
 20
-149.0682481181149
 30
0.0
 10
122.1996039191029
 20
-149.0682481181149
 30
0.0
 10
122.1996039191029
 20
-149.0682481181149
 30
0.0
 10
122.1996039191029
 20
-149.3080267638883
 30
0.0
 10
122.1996039191029
 20
-149.3080267638883
 30
0.0
  0
HATCH
  5
117
330
112
100
AcDbEntity
  8
_U+30EC_U+30A4_U+30E4_U+30FC 1
 62
     7
420
 16777215
100
AcDbHatch
 10
0.0
 20
0.0
 30
0.0
210
0.0
220
0.0
230
1.0
  2
SOLID
 70
     1
 71
     0
 91
        1
 92
        1
 93
        1
 72
     4
 94
        3
 73
     0
 74
     1
 95
       26
 96
       22
 40
0.0
 40
0.0
 40
0.0
 40
0.0
 40
1.0
 40
1.0
 40
1.0
 40
2.0
 40
2.0
 40
2.0
 40
3.0
 40
3.0
 40
3.0
 40
4.0
 40
4.0
 40
4.0
 40
5.0
 40
5.0
 40
5.0
 40
6.0
 40
6.0
 40
6.0
 40
7.0
 40
7.0
 40
7.0
 40
7.0
 10
122.1996039191029
 20
-149.3080267638883
 10
122.1996039191029
 20
-149.3080267638883
 10
121.0957953256288
 20
-149.3080267638883
 10
121.0957953256288
 20
-149.3080267638883
 10
121.0957953256288
 20
-149.3080267638883
 10
121.0957953256288
 20
-149.6604600320293
 10
121.0957953256288
 20
-149.6604600320293
 10
121.0957953256288
 20
-149.6604600320293
 10
120.9476562197631
 20
-149.6604600320293
 10
120.9476562197631
 20
-149.6604600320293
 10
120.932497799628
 20
-149.3056151970486
 10
120.7698892927242
 20
-149.256005822061
 10
120.6555121226139
 20
-149.2243109435967
 10
120.6555121226139
 20
-149.2243109435967
 10
120.6555121226139
 20
-149.0682481181149
 10
120.6555121226139
 20
-149.0682481181149
 10
120.6555121226139
 20
-149.0682481181149
 10
122.1996039191029
 20
-149.0682481181149
 10
122.1996039191029
 20
-149.0682481181149
 10
122.1996039191029
 20
-149.0682481181149
 10
122.1996039191029
 20
-149.3080267638883
 10
122.1996039191029
 20
-149.3080267638883
 97
        0
 97
        0
 75
     2
 76
     1
 98
        0
  0
SPLINE
  5
118
330
112
100
AcDbEntity
  8
_U+30EC_U+30A4_U+30E4_U+30FC 1
370
     0
100
AcDbSpline
210
0.0
220
0.0
230
1.0
 70
    11
 71
     3
 72
    53
 73
    49
 74
     0
 42
0.0000000001
 43
0.0000000001
 12
1.0
 22
0.0
 32
0.0
 13
1.0
 23
0.0
 33
0.0
 40
0.0
 40
0.0
 40
0.0
 40
0.0
 40
1.0
 40
1.0
 40
1.0
 40
2.0
 40
2.0
 40
2.0
 40
3.0
 40
3.0
 40
3.0
 40
4.0
 40
4.0
 40
4.0
 40
5.0
 40
5.0
 40
5.0
 40
6.0
 40
6.0
 40
6.0
 40
7.0
 40
7.0
 40
7.0
 40
8.0
 40
8.0
 40
8.0
 40
9.0
 40
9.0
 40
9.0
 40
10.0
 40
10.0
 40
10.0
 40
11.0
 40
11.0
 40
11.0
 40
12.0
 40
12.0
 40
12.0
 40
13.0
 40
13.0
 40
13.0
 40
14.0
 40
14.0
 40
14.0
 40
15.0
 40
15.0
 40
15.0
 40
16.0
 40
16.0
 40
16.0
 40
16.0
 10
122.2505913322846
 20
-148.0185275237593
 30
0.0
 10
122.2505913322846
 20
-148.1018988345023
 30
0.0
 10
122.2333658548583
 20
-148.2107638518362
 30
0.0
 10
122.1699760979297
 20
-148.318939850073
 30
0.0
 10
122.0604220614988
 20
-148.504630496728
 30
0.0
 10
121.9288194139622
 20
-148.5270236173821
 30
0.0
 10
121.8213324348225
 20
-148.5473496807451
 30
0.0
 10
121.8213324348225
 20
-148.5473496807451
 30
0.0
 10
121.8213324348225
 20
-148.3099826018114
 30
0.0
 10
121.8213324348225
 20
-148.3099826018114
 30
0.0
 10
122.0197699347728
 20
-148.2514159785622
 30
0.0
 10
122.049397755946
 20
-148.1156792164433
 30
0.0
 10
122.049397755946
 20
-148.0161159569196
 30
0.0
 10
122.049397755946
 20
-147.8669433224083
 30
0.0
 10
121.9501790059708
 20
-147.7043348155045
 30
0.0
 10
121.7172905511679
 20
-147.7043348155045
 30
0.0
 10
121.4616644661624
 20
-147.7043348155045
 30
0.0
 10
121.3913845182633
 20
-147.8962266340329
 30
0.0
 10
121.3913845182633
 20
-148.0250732051812
 30
0.0
 10
121.3913845182633
 20
-148.0591796504852
 30
0.0
 10
121.3913845182633
 20
-148.2107638518362
 30
0.0
 10
121.5209201085087
 20
-148.3055039776806
 30
0.0
 10
121.5209201085087
 20
-148.3055039776806
 30
0.0
 10
121.5016275737913
 20
-148.4932616816267
 30
0.0
 10
121.5016275737913
 20
-148.4932616816267
 30
0.0
 10
121.5016275737913
 20
-148.4932616816267
 30
0.0
 10
120.6555121226139
 20
-148.3644151104783
 30
0.0
 10
120.6555121226139
 20
-148.3644151104783
 30
0.0
 10
120.6555121226139
 20
-148.3644151104783
 30
0.0
 10
120.6555121226139
 20
-147.5324245507905
 30
0.0
 10
120.6555121226139
 20
-147.5324245507905
 30
0.0
 10
120.6555121226139
 20
-147.5324245507905
 30
0.0
 10
120.849815507982
 20
-147.5324245507905
 30
0.0
 10
120.849815507982
 20
-147.5324245507905
 30
0.0
 10
120.849815507982
 20
-147.5324245507905
 30
0.0
 10
120.849815507982
 20
-148.1900932789247
 30
0.0
 10
120.849815507982
 20
-148.1900932789247
 30
0.0
 10
120.849815507982
 20
-148.1900932789247
 30
0.0
 10
121.2728732335707
 20
-148.2603732268238
 30
0.0
 10
121.2728732335707
 20
-148.2603732268238
 30
0.0
 10
121.2391112978152
 20
-148.194916412604
 30
0.0
 10
121.1991481901863
 20
-148.1067219681817
 30
0.0
 10
121.1991481901863
 20
-147.9799424543245
 30
0.0
 10
121.1991481901863
 20
-147.7088134396353
 30
0.0
 10
121.3851833463898
 20
-147.4555989214694
 30
0.0
 10
121.6986870355476
 20
-147.4555989214694
 30
0.0
 10
122.0156358201905
 20
-147.4555989214694
 30
0.0
 10
122.2505913322846
 20
-147.6950330576943
 30
0.0
 10
122.2505913322846
 20
-148.0185275237593
 30
0.0
  0
HATCH
  5
119
330
112
100
AcDbEntity
  8
_U+30EC_U+30A4_U+30E4_U+30FC 1
 62
     7
420
 16777215
100
AcDbHatch
 10
0.0
 20
0.0
 30
0.0
210
0.0
220
0.0
230
1.0
  2
SOLID
 70
     1
 71
     0
 91
        1
 92
        1
 93
        1
 72
     4
 94
        3
 73
     0
 74
     1
 95
       53
 96
       49
 40
0.0
 40
0.0
 40
0.0
 40
0.0
 40
1.0
 40
1.0
 40
1.0
 40
2.0
 40
2.0
 40
2.0
 40
3.0
 40
3.0
 40
3.0
 40
4.0
 40
4.0
 40
4.0
 40
5.0
 40
5.0
 40
5.0
 40
6.0
 40
6.0
 40
6.0
 40
7.0
 40
7.0
 40
7.0
 40
8.0
 40
8.0
 40
8.0
 40
9.0
 40
9.0
 40
9.0
 40
10.0
 40
10.0
 40
10.0
 40
11.0
 40
11.0
 40
11.0
 40
12.0
 40
12.0
 40
12.0
 40
13.0
 40
13.0
 40
13.0
 40
14.0
 40
14.0
 40
14.0
 40
15.0
 40
15.0
 40
15.0
 40
16.0
 40
16.0
 40
16.0
 40
16.0
 10
122.2505913322846
 20
-148.0185275237593
 10
122.2505913322846
 20
-148.1018988345023
 10
122.2333658548583
 20
-148.2107638518362
 10
122.1699760979297
 20
-148.318939850073
 10
122.0604220614988
 20
-148.504630496728
 10
121.9288194139622
 20
-148.5270236173821
 10
121.8213324348225
 20
-148.5473496807451
 10
121.8213324348225
 20
-148.5473496807451
 10
121.8213324348225
 20
-148.3099826018114
 10
121.8213324348225
 20
-148.3099826018114
 10
122.0197699347728
 20
-148.2514159785622
 10
122.049397755946
 20
-148.1156792164433
 10
122.049397755946
 20
-148.0161159569196
 10
122.049397755946
 20
-147.8669433224083
 10
121.9501790059708
 20
-147.7043348155045
 10
121.7172905511679
 20
-147.7043348155045
 10
121.4616644661624
 20
-147.7043348155045
 10
121.3913845182633
 20
-147.8962266340329
 10
121.3913845182633
 20
-148.0250732051812
 10
121.3913845182633
 20
-148.0591796504852
 10
121.3913845182633
 20
-148.2107638518362
 10
121.5209201085087
 20
-148.3055039776806
 10
121.5209201085087
 20
-148.3055039776806
 10
121.5016275737913
 20
-148.4932616816267
 10
121.5016275737913
 20
-148.4932616816267
 10
121.5016275737913
 20
-148.4932616816267
 10
120.6555121226139
 20
-148.3644151104783
 10
120.6555121226139
 20
-148.3644151104783
 10
120.6555121226139
 20
-148.3644151104783
 10
120.6555121226139
 20
-147.5324245507905
 10
120.6555121226139
 20
-147.5324245507905
 10
120.6555121226139
 20
-147.5324245507905
 10
120.849815507982
 20
-147.5324245507905
 10
120.849815507982
 20
-147.5324245507905
 10
120.849815507982
 20
-147.5324245507905
 10
120.849815507982
 20
-148.1900932789247
 10
120.849815507982
 20
-148.1900932789247
 10
120.849815507982
 20
-148.1900932789247
 10
121.2728732335707
 20
-148.2603732268238
 10
121.2728732335707
 20
-148.2603732268238
 10
121.2391112978152
 20
-148.194916412604
 10
121.1991481901863
 20
-148.1067219681817
 10
121.1991481901863
 20
-147.9799424543245
 10
121.1991481901863
 20
-147.7088134396353
 10
121.3851833463898
 20
-147.4555989214694
 10
121.6986870355476
 20
-147.4555989214694
 10
122.0156358201905
 20
-147.4555989214694
 10
122.2505913322846
 20
-147.6950330576943
 10
122.2505913322846
 20
-148.0185275237593
 97
        0
 97
        0
 75
     2
 76
     1
 98
        0
  0
POLYLINE
  5
11A
330
112
100
AcDbEntity
  8
_U+30EC_U+30A4_U+30E4_U+30FC 1
370
     0
100
AcDb2dPolyline
 66
     1
 10
0.0
 20
0.0
 30
0.0
  0
VERTEX
  5
11B
330
11A
100
AcDbEntity
  8
_U+30EC_U+30A4_U+30E4_U+30FC 1
370
     0
100
AcDbVertex
100
AcDb2dVertex
 10
122.1996039191029
 20
-147.2106526324682
 30
0.0
  0
VERTEX
  5
11C
330
11A
100
AcDbEntity
  8
_U+30EC_U+30A4_U+30E4_U+30FC 1
370
     0
100
AcDbVertex
100
AcDb2dVertex
 10
121.9481119486796
 20
-147.2106526324682
 30
0.0
  0
VERTEX
  5
11D
330
11A
100
AcDbEntity
  8
_U+30EC_U+30A4_U+30E4_U+30FC 1
370
     0
100
AcDbVertex
100
AcDb2dVertex
 10
121.9481119486796
 20
-146.9415906750702
 30
0.0
  0
VERTEX
  5
11E
330
11A
100
AcDbEntity
  8
_U+30EC_U+30A4_U+30E4_U+30FC 1
370
     0
100
AcDbVertex
100
AcDb2dVertex
 10
122.1996039191029
 20
-146.9415906750702
 30
0.0
  0
VERTEX
  5
11F
330
11A
100
AcDbEntity
  8
_U+30EC_U+30A4_U+30E4_U+30FC 1
370
     0
100
AcDbVertex
100
AcDb2dVertex
 10
122.1996039191029
 20
-147.2106526324682
 30
0.0
  0
SEQEND
  5
120
330
11A
100
AcDbEntity
  8
_U+30EC_U+30A4_U+30E4_U+30FC 1
370
     0
  0
HATCH
  5
121
330
112
100
AcDbEntity
  8
_U+30EC_U+30A4_U+30E4_U+30FC 1
 62
     7
420
 16777215
100
AcDbHatch
 10
0.0
 20
0.0
 30
0.0
210
0.0
220
0.0
230
1.0
  2
SOLID
 70
     1
 71
     0
 91
        1
 92
        1
 93
        4
 72
     1
 10
122.1996039191029
 20
-147.2106526324682
 11
121.9481119486796
 21
-147.2106526324682
 72
     1
 10
121.9481119486796
 20
-147.2106526324682
 11
121.9481119486796
 21
-146.9415906750702
 72
     1
 10
121.9481119486796
 20
-146.9415906750702
 11
122.1996039191029
 21
-146.9415906750702
 72
     1
 10
122.1996039191029
 20
-146.9415906750702
 11
122.1996039191029
 21
-147.2106526324682
 97
        0
 75
     2
 76
     1
 98
        0
  0
SPLINE
  5
122
330
112
100
AcDbEntity
  8
_U+30EC_U+30A4_U+30E4_U+30FC 1
370
     0
100
AcDbSpline
210
0.0
220
0.0
230
1.0
 70
    11
 71
     3
 72
    53
 73
    49
 74
     0
 42
0.0000000001
 43
0.0000000001
 12
1.0
 22
0.0
 32
0.0
 13
1.0
 23
0.0
 33
0.0
 40
0.0
 40
0.0
 40
0.0
 40
0.0
 40
1.0
 40
1.0
 40
1.0
 40
2.0
 40
2.0
 40
2.0
 40
3.0
 40
3.0
 40
3.0
 40
4.0
 40
4.0
 40
4.0
 40
5.0
 40
5.0
 40
5.0
 40
6.0
 40
6.0
 40
6.0
 40
7.0
 40
7.0
 40
7.0
 40
8.0
 40
8.0
 40
8.0
 40
9.0
 40
9.0
 40
9.0
 40
10.0
 40
10.0
 40
10.0
 40
11.0
 40
11.0
 40
11.0
 40
12.0
 40
12.0
 40
12.0
 40
13.0
 40
13.0
 40
13.0
 40
14.0
 40
14.0
 40
14.0
 40
15.0
 40
15.0
 40
15.0
 40
16.0
 40
16.0
 40
16.0
 40
16.0
 10
122.2505913322846
 20
-146.1747124200535
 30
0.0
 10
122.2505913322846
 20
-146.2580837307966
 30
0.0
 10
122.2333658548583
 20
-146.3669487481305
 30
0.0
 10
122.1699760979297
 20
-146.4751247463673
 30
0.0
 10
122.0604220614988
 20
-146.6608153930223
 30
0.0
 10
121.9288194139622
 20
-146.6832085136764
 30
0.0
 10
121.8213324348225
 20
-146.7035345770394
 30
0.0
 10
121.8213324348225
 20
-146.7035345770394
 30
0.0
 10
121.8213324348225
 20
-146.4661674981057
 30
0.0
 10
121.8213324348225
 20
-146.4661674981057
 30
0.0
 10
122.0197699347728
 20
-146.4076008748564
 30
0.0
 10
122.049397755946
 20
-146.2718641127376
 30
0.0
 10
122.049397755946
 20
-146.1723008532139
 30
0.0
 10
122.049397755946
 20
-146.0231282187026
 30
0.0
 10
121.9501790059708
 20
-145.8605197117988
 30
0.0
 10
121.7172905511679
 20
-145.8605197117988
 30
0.0
 10
121.4616644661624
 20
-145.8605197117988
 30
0.0
 10
121.3913845182633
 20
-146.0524115303272
 30
0.0
 10
121.3913845182633
 20
-146.1812581014755
 30
0.0
 10
121.3913845182633
 20
-146.2153645467795
 30
0.0
 10
121.3913845182633
 20
-146.3669487481305
 30
0.0
 10
121.5209201085087
 20
-146.4616888739749
 30
0.0
 10
121.5209201085087
 20
-146.4616888739749
 30
0.0
 10
121.5016275737913
 20
-146.649446577921
 30
0.0
 10
121.5016275737913
 20
-146.649446577921
 30
0.0
 10
121.5016275737913
 20
-146.649446577921
 30
0.0
 10
120.6555121226139
 20
-146.5206000067726
 30
0.0
 10
120.6555121226139
 20
-146.5206000067726
 30
0.0
 10
120.6555121226139
 20
-146.5206000067726
 30
0.0
 10
120.6555121226139
 20
-145.6886094470848
 30
0.0
 10
120.6555121226139
 20
-145.6886094470848
 30
0.0
 10
120.6555121226139
 20
-145.6886094470848
 30
0.0
 10
120.849815507982
 20
-145.6886094470848
 30
0.0
 10
120.849815507982
 20
-145.6886094470848
 30
0.0
 10
120.849815507982
 20
-145.6886094470848
 30
0.0
 10
120.849815507982
 20
-146.346278175219
 30
0.0
 10
120.849815507982
 20
-146.346278175219
 30
0.0
 10
120.849815507982
 20
-146.346278175219
 30
0.0
 10
121.2728732335707
 20
-146.4165581231181
 30
0.0
 10
121.2728732335707
 20
-146.4165581231181
 30
0.0
 10
121.2391112978152
 20
-146.3511013088983
 30
0.0
 10
121.1991481901863
 20
-146.262906864476
 30
0.0
 10
121.1991481901863
 20
-146.1361273506188
 30
0.0
 10
121.1991481901863
 20
-145.8649983359296
 30
0.0
 10
121.3851833463898
 20
-145.6117838177637
 30
0.0
 10
121.6986870355476
 20
-145.6117838177637
 30
0.0
 10
122.0156358201905
 20
-145.6117838177637
 30
0.0
 10
122.2505913322846
 20
-145.8512179539886
 30
0.0
 10
122.2505913322846
 20
-146.1747124200535
 30
0.0
  0
HATCH
  5
123
330
112
100
AcDbEntity
  8
_U+30EC_U+30A4_U+30E4_U+30FC 1
 62
     7
420
 16777215
100
AcDbHatch
 10
0.0
 20
0.0
 30
0.0
210
0.0
220
0.0
230
1.0
  2
SOLID
 70
     1
 71
     0
 91
        1
 92
        1
 93
        1
 72
     4
 94
        3
 73
     0
 74
     1
 95
       53
 96
       49
 40
0.0
 40
0.0
 40
0.0
 40
0.0
 40
1.0
 40
1.0
 40
1.0
 40
2.0
 40
2.0
 40
2.0
 40
3.0
 40
3.0
 40
3.0
 40
4.0
 40
4.0
 40
4.0
 40
5.0
 40
5.0
 40
5.0
 40
6.0
 40
6.0
 40
6.0
 40
7.0
 40
7.0
 40
7.0
 40
8.0
 40
8.0
 40
8.0
 40
9.0
 40
9.0
 40
9.0
 40
10.0
 40
10.0
 40
10.0
 40
11.0
 40
11.0
 40
11.0
 40
12.0
 40
12.0
 40
12.0
 40
13.0
 40
13.0
 40
13.0
 40
14.0
 40
14.0
 40
14.0
 40
15.0
 40
15.0
 40
15.0
 40
16.0
 40
16.0
 40
16.0
 40
16.0
 10
122.2505913322846
 20
-146.1747124200535
 10
122.2505913322846
 20
-146.2580837307966
 10
122.2333658548583
 20
-146.3669487481305
 10
122.1699760979297
 20
-146.4751247463673
 10
122.0604220614988
 20
-146.6608153930223
 10
121.9288194139622
 20
-146.6832085136764
 10
121.8213324348225
 20
-146.7035345770394
 10
121.8213324348225
 20
-146.7035345770394
 10
121.8213324348225
 20
-146.4661674981057
 10
121.8213324348225
 20
-146.4661674981057
 10
122.0197699347728
 20
-146.4076008748564
 10
122.049397755946
 20
-146.2718641127376
 10
122.049397755946
 20
-146.1723008532139
 10
122.049397755946
 20
-146.0231282187026
 10
121.9501790059708
 20
-145.8605197117988
 10
121.7172905511679
 20
-145.8605197117988
 10
121.4616644661624
 20
-145.8605197117988
 10
121.3913845182633
 20
-146.0524115303272
 10
121.3913845182633
 20
-146.1812581014755
 10
121.3913845182633
 20
-146.2153645467795
 10
121.3913845182633
 20
-146.3669487481305
 10
121.5209201085087
 20
-146.4616888739749
 10
121.5209201085087
 20
-146.4616888739749
 10
121.5016275737913
 20
-146.649446577921
 10
121.5016275737913
 20
-146.649446577921
 10
121.5016275737913
 20
-146.649446577921
 10
120.6555121226139
 20
-146.5206000067726
 10
120.6555121226139
 20
-146.5206000067726
 10
120.6555121226139
 20
-146.5206000067726
 10
120.6555121226139
 20
-145.6886094470848
 10
120.6555121226139
 20
-145.6886094470848
 10
120.6555121226139
 20
-145.6886094470848
 10
120.849815507982
 20
-145.6886094470848
 10
120.849815507982
 20
-145.6886094470848
 10
120.849815507982
 20
-145.6886094470848
 10
120.849815507982
 20
-146.346278175219
 10
120.849815507982
 20
-146.346278175219
 10
120.849815507982
 20
-146.346278175219
 10
121.2728732335707
 20
-146.4165581231181
 10
121.2728732335707
 20
-146.4165581231181
 10
121.2391112978152
 20
-146.3511013088983
 10
121.1991481901863
 20
-146.262906864476
 10
121.1991481901863
 20
-146.1361273506188
 10
121.1991481901863
 20
-145.8649983359296
 10
121.3851833463898
 20
-145.6117838177637
 10
121.6986870355476
 20
-145.6117838177637
 10
122.0156358201905
 20
-145.6117838177637
 10
122.2505913322846
 20
-145.8512179539886
 10
122.2505913322846
 20
-146.1747124200535
 97
        0
 97
        0
 75
     2
 76
     1
 98
        0
  0
ENDBLK
  5
115
330
112
100
AcDbEntity
  8
0
100
AcDbBlockEnd
  0
BLOCK
  5
126
330
124
100
AcDbEntity
  8
0
100
AcDbBlockBegin
  2
block 10
 70
     0
 10
0.0
 20
0.0
 30
0.0
  3
block 10
  1

  0
SPLINE
  5
128
330
124
100
AcDbEntity
  8
_U+30EC_U+30A4_U+30E4_U+30FC 1
 62
   179
420
  2234388
370
     9
100
AcDbSpline
210
0.0
220
0.0
230
1.0
 70
    11
 71
     3
 72
    17
 73
    13
 74
     0
 42
0.0000000001
 43
0.0000000001
 12
1.0
 22
0.0
 32
0.0
 13
1.0
 23
0.0
 33
0.0
 40
0.0
 40
0.0
 40
0.0
 40
0.0
 40
1.0
 40
1.0
 40
1.0
 40
2.0
 40
2.0
 40
2.0
 40
3.0
 40
3.0
 40
3.0
 40
4.0
 40
4.0
 40
4.0
 40
4.0
 10
122.8962035313233
 20
-138.9548274652614
 30
0.0
 10
122.8962035313233
 20
-138.8996882986083
 30
0.0
 10
122.8514007546885
 20
-138.8549207986197
 30
0.0
 10
122.7962999693012
 20
-138.8549207986197
 30
0.0
 10
122.7404874241848
 20
-138.8549207986197
 30
0.0
 10
122.6956846475501
 20
-138.8996882986083
 30
0.0
 10
122.6956846475501
 20
-138.9548274652614
 30
0.0
 10
122.6956846475501
 20
-139.0099313541363
 30
0.0
 10
122.7404874241848
 20
-139.054734131903
 30
0.0
 10
122.7962999693012
 20
-139.054734131903
 30
0.0
 10
122.8514007546885
 20
-139.054734131903
 30
0.0
 10
122.8962035313233
 20
-139.0099313541363
 30
0.0
 10
122.8962035313233
 20
-138.9548274652614
 30
0.0
  0
POLYLINE
  5
129
330
124
100
AcDbEntity
  8
_U+30EC_U+30A4_U+30E4_U+30FC 1
 62
   179
420
  2234388
370
     9
100
AcDb2dPolyline
 66
     1
 10
0.0
 20
0.0
 30
0.0
  0
VERTEX
  5
12A
330
129
100
AcDbEntity
  8
_U+30EC_U+30A4_U+30E4_U+30FC 1
 62
   179
420
  2234388
370
     9
100
AcDbVertex
100
AcDb2dVertex
 10
122.7962999693012
 20
-138.9548274652614
 30
0.0
  0
VERTEX
  5
12B
330
129
100
AcDbEntity
  8
_U+30EC_U+30A4_U+30E4_U+30FC 1
 62
   179
420
  2234388
370
     9
100
AcDbVertex
100
AcDb2dVertex
 10
122.7962999693012
 20
-135.1845149662039
 30
0.0
  0
SEQEND
  5
12C
330
129
100
AcDbEntity
  8
_U+30EC_U+30A4_U+30E4_U+30FC 1
 62
   179
420
  2234388
370
     9
  0
POLYLINE
  5
12D
330
124
100
AcDbEntity
  8
_U+30EC_U+30A4_U+30E4_U+30FC 1
 62
   179
420
  2234388
370
     9
100
AcDb2dPolyline
 66
     1
 10
0.0
 20
0.0
 30
0.0
  0
VERTEX
  5
12E
330
12D
100
AcDbEntity
  8
_U+30EC_U+30A4_U+30E4_U+30FC 1
 62
   179
420
  2234388
370
     9
100
AcDbVertex
100
AcDb2dVertex
 10
122.7962999693012
 20
-138.9548274652614
 30
0.0
  0
VERTEX
  5
12F
330
12D
100
AcDbEntity
  8
_U+30EC_U+30A4_U+30E4_U+30FC 1
 62
   179
420
  2234388
370
     9
100
AcDbVertex
100
AcDb2dVertex
 10
122.7962999693012
 20
-139.9545996872336
 30
0.0
  0
SEQEND
  5
130
330
12D
100
AcDbEntity
  8
_U+30EC_U+30A4_U+30E4_U+30FC 1
 62
   179
420
  2234388
370
     9
  0
POLYLINE
  5
131
330
124
100
AcDbEntity
  8
_U+30EC_U+30A4_U+30E4_U+30FC 1
 62
   179
420
  2234388
370
     9
100
AcDb2dPolyline
 66
     1
 10
0.0
 20
0.0
 30
0.0
  0
VERTEX
  5
132
330
131
100
AcDbEntity
  8
_U+30EC_U+30A4_U+30E4_U+30FC 1
 62
   179
420
  2234388
370
     9
100
AcDbVertex
100
AcDb2dVertex
 10
121.3362555155653
 20
-138.9548274652614
 30
0.0
  0
VERTEX
  5
133
330
131
100
AcDbEntity
  8
_U+30EC_U+30A4_U+30E4_U+30FC 1
 62
   179
420
  2234388
370
     9
100
AcDbVertex
100
AcDb2dVertex
 10
123.7957194134953
 20
-138.9548274652614
 30
0.0
  0
SEQEND
  5
134
330
131
100
AcDbEntity
  8
_U+30EC_U+30A4_U+30E4_U+30FC 1
 62
   179
420
  2234388
370
     9
  0
INSERT
  5
136
330
124
100
AcDbEntity
  8
_U+30EC_U+30A4_U+30E4_U+30FC 1
100
AcDbBlockReference
  2
block 11
 10
0.0
 20
0.0
 30
0.0
  0
ENDBLK
  5
127
330
124
100
AcDbEntity
  8
0
100
AcDbBlockEnd
  0
BLOCK
  5
137
330
135
100
AcDbEntity
  8
0
100
AcDbBlockBegin
  2
block 11
 70
     0
 10
0.0
 20
0.0
 30
0.0
  3
block 11
  1

  0
SPLINE
  5
139
330
135
100
AcDbEntity
  8
_U+30EC_U+30A4_U+30E4_U+30FC 1
370
     0
100
AcDbSpline
210
0.0
220
0.0
230
1.0
 70
    11
 71
     3
 72
    26
 73
    22
 74
     0
 42
0.0000000001
 43
0.0000000001
 12
1.0
 22
0.0
 32
0.0
 13
1.0
 23
0.0
 33
0.0
 40
0.0
 40
0.0
 40
0.0
 40
0.0
 40
1.0
 40
1.0
 40
1.0
 40
2.0
 40
2.0
 40
2.0
 40
3.0
 40
3.0
 40
3.0
 40
4.0
 40
4.0
 40
4.0
 40
5.0
 40
5.0
 40
5.0
 40
6.0
 40
6.0
 40
6.0
 40
7.0
 40
7.0
 40
7.0
 40
7.0
 10
122.1996039191029
 20
-135.9639661660958
 30
0.0
 10
122.1996039191029
 20
-135.9639661660958
 30
0.0
 10
121.0954508160803
 20
-135.9639661660958
 30
0.0
 10
121.0954508160803
 20
-135.9639661660958
 30
0.0
 10
121.0954508160803
 20
-135.9639661660958
 30
0.0
 10
121.0954508160803
 20
-136.3167439437854
 30
0.0
 10
121.0954508160803
 20
-136.3167439437854
 30
0.0
 10
121.0954508160803
 20
-136.3167439437854
 30
0.0
 10
120.9473117102146
 20
-136.3167439437854
 30
0.0
 10
120.9473117102146
 20
-136.3167439437854
 30
0.0
 10
120.932497799628
 20
-135.9617268540304
 30
0.0
 10
120.7695447831757
 20
-135.9119452242685
 30
0.0
 10
120.6551676130654
 20
-135.8804226005785
 30
0.0
 10
120.6551676130654
 20
-135.8804226005785
 30
0.0
 10
120.6551676130654
 20
-135.7243597750967
 30
0.0
 10
120.6551676130654
 20
-135.7243597750967
 30
0.0
 10
120.6551676130654
 20
-135.7243597750967
 30
0.0
 10
122.1996039191029
 20
-135.7243597750967
 30
0.0
 10
122.1996039191029
 20
-135.7243597750967
 30
0.0
 10
122.1996039191029
 20
-135.7243597750967
 30
0.0
 10
122.1996039191029
 20
-135.9639661660958
 30
0.0
 10
122.1996039191029
 20
-135.9639661660958
 30
0.0
  0
HATCH
  5
13A
330
135
100
AcDbEntity
  8
_U+30EC_U+30A4_U+30E4_U+30FC 1
 62
   179
420
  2234388
100
AcDbHatch
 10
0.0
 20
0.0
 30
0.0
210
0.0
220
0.0
230
1.0
  2
SOLID
 70
     1
 71
     0
 91
        1
 92
        1
 93
        1
 72
     4
 94
        3
 73
     0
 74
     1
 95
       26
 96
       22
 40
0.0
 40
0.0
 40
0.0
 40
0.0
 40
1.0
 40
1.0
 40
1.0
 40
2.0
 40
2.0
 40
2.0
 40
3.0
 40
3.0
 40
3.0
 40
4.0
 40
4.0
 40
4.0
 40
5.0
 40
5.0
 40
5.0
 40
6.0
 40
6.0
 40
6.0
 40
7.0
 40
7.0
 40
7.0
 40
7.0
 10
122.1996039191029
 20
-135.9639661660958
 10
122.1996039191029
 20
-135.9639661660958
 10
121.0954508160803
 20
-135.9639661660958
 10
121.0954508160803
 20
-135.9639661660958
 10
121.0954508160803
 20
-135.9639661660958
 10
121.0954508160803
 20
-136.3167439437854
 10
121.0954508160803
 20
-136.3167439437854
 10
121.0954508160803
 20
-136.3167439437854
 10
120.9473117102146
 20
-136.3167439437854
 10
120.9473117102146
 20
-136.3167439437854
 10
120.932497799628
 20
-135.9617268540304
 10
120.7695447831757
 20
-135.9119452242685
 10
120.6551676130654
 20
-135.8804226005785
 10
120.6551676130654
 20
-135.8804226005785
 10
120.6551676130654
 20
-135.7243597750967
 10
120.6551676130654
 20
-135.7243597750967
 10
120.6551676130654
 20
-135.7243597750967
 10
122.1996039191029
 20
-135.7243597750967
 10
122.1996039191029
 20
-135.7243597750967
 10
122.1996039191029
 20
-135.7243597750967
 10
122.1996039191029
 20
-135.9639661660958
 10
122.1996039191029
 20
-135.9639661660958
 97
        0
 97
        0
 75
     2
 76
     1
 98
        0
  0
ENDBLK
  5
138
330
135
100
AcDbEntity
  8
0
100
AcDbBlockEnd
  0
ENDSEC
  0
SECTION
  2
ENTITIES
  0
INSERT
  5
42
330
1F
100
AcDbEntity
  8
_U+30EC_U+30A4_U+30E4_U+30FC 1
100
AcDbBlockReference
  2
block 2
 10
0.0
 20
0.0
 30
0.0
  0
INSERT
  5
125
330
1F
100
AcDbEntity
  8
_U+30EC_U+30A4_U+30E4_U+30FC 1
100
AcDbBlockReference
  2
block 10
 10
0.0
 20
0.0
 30
0.0
  0
ENDSEC
  0
SECTION
  2
OBJECTS
  0
DICTIONARY
  5
C
330
0
100
AcDbDictionary
281
     1
  3
ACAD_GROUP
350
D
  3
ACAD_LAYOUT
350
1A
  3
ACAD_MATERIAL
350
3B
  3
ACAD_MLEADERSTYLE
350
13C
  3
ACAD_MLINESTYLE
350
17
  3
ACAD_PLOTSETTINGS
350
19
  3
ACAD_PLOTSTYLENAME
350
E
  3
ACAD_TABLESTYLE
350
13B
  3
ACAD_VISUALSTYLE
350
2A
  0
SUN
  5
3F
330
29
100
AcDbSun
 90
        1
290
     0
 63
     7
421
 16777215
 40
1.0
291
     1
 91
  2455826
 92
 54000000
292
     0
 70
     2
 71
   256
280
     1
  0
DICTIONARY
  5
D
102
{ACAD_REACTORS
330
C
102
}
330
C
100
AcDbDictionary
281
     1
  0
DICTIONARY
  5
1A
102
{ACAD_REACTORS
330
C
102
}
330
C
100
AcDbDictionary
281
     1
  3
Layout1
350
1E
  3
Layout2
350
26
  3
Model
350
22
  0
DICTIONARY
  5
3B
102
{ACAD_REACTORS
330
C
102
}
330
C
100
AcDbDictionary
281
     1
  3
ByBlock
350
3D
  3
ByLayer
350
3C
  3
Global
350
3E
  0
DICTIONARY
  5
13C
102
{ACAD_REACTORS
330
C
102
}
330
C
100
AcDbDictionary
281
     1
  0
DICTIONARY
  5
17
102
{ACAD_REACTORS
330
C
102
}
330
C
100
AcDbDictionary
281
     1
  3
Standard
350
18
  0
DICTIONARY
  5
19
102
{ACAD_REACTORS
330
C
102
}
330
C
100
AcDbDictionary
281
     1
  0
ACDBDICTIONARYWDFLT
  5
E
102
{ACAD_REACTORS
330
C
102
}
330
C
100
AcDbDictionary
281
     1
  3
Normal
350
F
100
AcDbDictionaryWithDefault
340
F
  0
DICTIONARY
  5
13B
102
{ACAD_REACTORS
330
C
102
}
330
C
100
AcDbDictionary
281
     1
  0
DICTIONARY
  5
2A
102
{ACAD_REACTORS
330
C
102
}
330
C
100
AcDbDictionary
281
     1
  3
2dWireframe
350
2F
  3
3D Hidden
350
31
  3
3dWireframe
350
30
  3
Basic
350
32
  3
Brighten
350
36
  3
ColorChange
350
3A
  3
Conceptual
350
34
  3
Dim
350
35
  3
Facepattern
350
39
  3
Flat
350
2B
  3
FlatWithEdges
350
2C
  3
Gouraud
350
2D
  3
GouraudWithEdges
350
2E
  3
Linepattern
350
38
  3
Realistic
350
33
  3
Thicken
350
37
  0
LAYOUT
  5
1E
102
{ACAD_REACTORS
330
1A
102
}
330
1A
100
AcDbPlotSettings
  1

  2
none_device
  4

  6

 40
0.0
 41
0.0
 42
0.0
 43
0.0
 44
0.0
 45
0.0
 46
0.0
 47
0.0
 48
0.0
 49
0.0
140
0.0
141
0.0
142
1.0
143
1.0
 70
   688
 72
     0
 73
     0
 74
     5
  7

 75
    16
 76
     0
 77
     2
 78
   300
147
1.0
148
0.0
149
0.0
100
AcDbLayout
  1
Layout1
 70
     1
 71
     1
 10
0.0
 20
0.0
 11
12.0
 21
9.0
 12
0.0
 22
0.0
 32
0.0
 14
1.000000000000000E+20
 24
1.000000000000000E+20
 34
1.000000000000000E+20
 15
-1.000000000000000E+20
 25
-1.000000000000000E+20
 35
-1.000000000000000E+20
146
0.0
 13
0.0
 23
0.0
 33
0.0
 16
1.0
 26
0.0
 36
0.0
 17
0.0
 27
1.0
 37
0.0
 76
     0
330
1B
  0
LAYOUT
  5
26
102
{ACAD_REACTORS
330
1A
102
}
330
1A
100
AcDbPlotSettings
  1

  2
none_device
  4

  6

 40
0.0
 41
0.0
 42
0.0
 43
0.0
 44
0.0
 45
0.0
 46
0.0
 47
0.0
 48
0.0
 49
0.0
140
0.0
141
0.0
142
1.0
143
1.0
 70
   688
 72
     0
 73
     0
 74
     5
  7

 75
    16
 76
     0
 77
     2
 78
   300
147
1.0
148
0.0
149
0.0
100
AcDbLayout
  1
Layout2
 70
     1
 71
     2
 10
0.0
 20
0.0
 11
0.0
 21
0.0
 12
0.0
 22
0.0
 32
0.0
 14
0.0
 24
0.0
 34
0.0
 15
0.0
 25
0.0
 35
0.0
146
0.0
 13
0.0
 23
0.0
 33
0.0
 16
1.0
 26
0.0
 36
0.0
 17
0.0
 27
1.0
 37
0.0
 76
     0
330
23
  0
LAYOUT
  5
22
102
{ACAD_REACTORS
330
1A
102
}
330
1A
100
AcDbPlotSettings
  1

  2
none_device
  4

  6

 40
0.0
 41
0.0
 42
0.0
 43
0.0
 44
0.0
 45
0.0
 46
0.0
 47
0.0
 48
0.0
 49
0.0
140
0.0
141
0.0
142
1.0
143
1.0
 70
  1712
 72
     0
 73
     0
 74
     0
  7

 75
     0
 76
     0
 77
     2
 78
   300
147
1.0
148
0.0
149
0.0
100
AcDbLayout
  1
Model
 70
     1
 71
     0
 10
0.0
 20
0.0
 11
12.0
 21
9.0
 12
0.0
 22
0.0
 32
0.0
 14
1.000000000000000E+20
 24
1.000000000000000E+20
 34
1.000000000000000E+20
 15
-1.000000000000000E+20
 25
-1.000000000000000E+20
 35
-1.000000000000000E+20
146
0.0
 13
0.0
 23
0.0
 33
0.0
 16
1.0
 26
0.0
 36
0.0
 17
0.0
 27
1.0
 37
0.0
 76
     0
330
1F
331
29
  0
MATERIAL
  5
3D
102
{ACAD_REACTORS
330
3B
102
}
330
3B
100
AcDbMaterial
  1
ByBlock
 72
     1
 94
      127
  0
MATERIAL
  5
3C
102
{ACAD_REACTORS
330
3B
102
}
330
3B
100
AcDbMaterial
  1
ByLayer
 72
     1
 94
      127
  0
MATERIAL
  5
3E
102
{ACAD_REACTORS
330
3B
102
}
330
3B
100
AcDbMaterial
  1
Global
 72
     1
 94
      127
  0
MLINESTYLE
  5
18
102
{ACAD_REACTORS
330
17
102
}
330
17
100
AcDbMlineStyle
  2
Standard
 70
     0
  3

 62
   256
 51
90.0
 52
90.0
 71
     2
 49
0.5
 62
   256
  6
BYLAYER
 49
-0.5
 62
   256
  6
BYLAYER
  0
ACDBPLACEHOLDER
  5
F
102
{ACAD_REACTORS
330
E
102
}
330
E
  0
VISUALSTYLE
  5
2F
102
{ACAD_REACTORS
330
2A
102
}
330
2A
100
AcDbVisualStyle
  2
2dWireframe
 70
     4
177
     2
291
     0
 71
     0
176
     1
 72
     2
176
     1
 73
     0
176
     1
 90
        0
176
     1
 40
-0.6
176
     1
 41
-30.0
176
     1
 62
     5
 63
     7
421
 16777215
176
     1
 74
     1
176
     1
 91
        4
176
     1
 64
     7
176
     1
 65
   257
176
     1
 75
     1
176
     1
175
     1
176
     1
 42
1.0
176
     1
 92
        0
176
     1
 66
   257
176
     1
 43
1.0
176
     1
 76
     1
176
     1
 77
     6
176
     1
 78
     2
176
     1
 67
     7
176
     1
 79
     5
176
     1
170
     0
176
     1
171
     0
176
     1
290
     0
176
     1
 93
        1
176
     1
 44
0.0
176
     1
173
     0
176
     1
  0
VISUALSTYLE
  5
31
102
{ACAD_REACTORS
330
2A
102
}
330
2A
100
AcDbVisualStyle
  2
3D Hidden
 70
     6
177
     2
291
     0
 71
     1
176
     1
 72
     2
176
     1
 73
     2
176
     1
 90
        0
176
     1
 40
-0.6
176
     1
 41
-30.0
176
     1
 62
     5
 63
     7
421
 16777215
176
     1
 74
     2
176
     1
 91
        2
176
     1
 64
     7
176
     1
 65
   257
176
     1
 75
     2
176
     1
175
     1
176
     1
 42
40.0
176
     1
 92
        0
176
     1
 66
   257
176
     1
 43
1.0
176
     1
 76
     1
176
     1
 77
     6
176
     1
 78
     2
176
     1
 67
     7
176
     1
 79
     3
176
     1
170
     0
176
     1
171
     0
176
     1
290
     0
176
     1
 93
        1
176
     1
 44
0.0
176
     1
173
     0
176
     1
  0
VISUALSTYLE
  5
30
102
{ACAD_REACTORS
330
2A
102
}
330
2A
100
AcDbVisualStyle
  2
3dWireframe
 70
     5
177
     2
291
     0
 71
     0
176
     1
 72
     2
176
     1
 73
     0
176
     1
 90
        0
176
     1
 40
-0.6
176
     1
 41
-30.0
176
     1
 62
     5
 63
     7
421
 16777215
176
     1
 74
     1
176
     1
 91
        4
176
     1
 64
     7
176
     1
 65
   257
176
     1
 75
     1
176
     1
175
     1
176
     1
 42
1.0
176
     1
 92
        0
176
     1
 66
   257
176
     1
 43
1.0
176
     1
 76
     1
176
     1
 77
     6
176
     1
 78
     2
176
     1
 67
     7
176
     1
 79
     5
176
     1
170
     0
176
     1
171
     0
176
     1
290
     0
176
     1
 93
        1
176
     1
 44
0.0
176
     1
173
     0
176
     1
  0
VISUALSTYLE
  5
32
102
{ACAD_REACTORS
330
2A
102
}
330
2A
100
AcDbVisualStyle
  2
Basic
 70
     7
177
     2
291
     1
 71
     1
176
     1
 72
     0
176
     1
 73
     1
176
     1
 90
        0
176
     1
 40
-0.6
176
     1
 41
-30.0
176
     1
 62
     5
 63
     7
421
 16777215
176
     1
 74
     0
176
     1
 91
        4
176
     1
 64
     7
176
     1
 65
   257
176
     1
 75
     1
176
     1
175
     1
176
     1
 42
1.0
176
     1
 92
        8
176
     1
 66
     7
176
     1
 43
1.0
176
     1
 76
     1
176
     1
 77
     6
176
     1
 78
     2
176
     1
 67
     7
176
     1
 79
     5
176
     1
170
     0
176
     1
171
     0
176
     1
290
     0
176
     1
 93
        1
176
     1
 44
0.0
176
     1
173
     0
176
     1
  0
VISUALSTYLE
  5
36
102
{ACAD_REACTORS
330
2A
102
}
330
2A
100
AcDbVisualStyle
  2
Brighten
 70
    12
177
     2
291
     1
 71
     2
176
     1
 72
     2
176
     1
 73
     0
176
     1
 90
        0
176
     1
 40
-0.6
176
     1
 41
-30.0
176
     1
 62
     5
 63
     7
421
 16777215
176
     1
 74
     1
176
     1
 91
        4
176
     1
 64
     7
176
     1
 65
   257
176
     1
 75
     1
176
     1
175
     1
176
     1
 42
1.0
176
     1
 92
        8
176
     1
 66
     7
176
     1
 43
1.0
176
     1
 76
     1
176
     1
 77
     6
176
     1
 78
     2
176
     1
 67
     7
176
     1
 79
     5
176
     1
170
     0
176
     1
171
     0
176
     1
290
     0
176
     1
 93
        1
176
     1
 44
50.0
176
     1
173
     0
176
     1
  0
VISUALSTYLE
  5
3A
102
{ACAD_REACTORS
330
2A
102
}
330
2A
100
AcDbVisualStyle
  2
ColorChange
 70
    16
177
     2
291
     1
 71
     2
176
     1
 72
     2
176
     1
 73
     3
176
     1
 90
        0
176
     1
 40
-0.6
176
     1
 41
-30.0
176
     1
 62
     5
 63
     8
421
  8421504
176
     1
 74
     1
176
     1
 91
        4
176
     1
 64
     7
176
     1
 65
   257
176
     1
 75
     1
176
     1
175
     1
176
     1
 42
1.0
176
     1
 92
        8
176
     1
 66
     8
424
  8421504
176
     1
 43
1.0
176
     1
 76
     1
176
     1
 77
     6
176
     1
 78
     2
176
     1
 67
     7
176
     1
 79
     5
176
     1
170
     0
176
     1
171
     0
176
     1
290
     0
176
     1
 93
        1
176
     1
 44
0.0
176
     1
173
     0
176
     1
  0
VISUALSTYLE
  5
34
102
{ACAD_REACTORS
330
2A
102
}
330
2A
100
AcDbVisualStyle
  2
Conceptual
 70
     9
177
     2
291
     0
 71
     3
176
     1
 72
     2
176
     1
 73
     0
176
     1
 90
        0
176
     1
 40
-0.6
176
     1
 41
-30.0
176
     1
 62
     5
 63
     7
421
 16777215
176
     1
 74
     2
176
     1
 91
        2
176
     1
 64
     7
176
     1
 65
   257
176
     1
 75
     1
176
     1
175
     1
176
     1
 42
40.0
176
     1
 92
        8
176
     1
 66
     7
176
     1
 43
1.0
176
     1
 76
     1
176
     1
 77
     6
176
     1
 78
     2
176
     1
 67
     7
176
     1
 79
     3
176
     1
170
     0
176
     1
171
     0
176
     1
290
     0
176
     1
 93
        1
176
     1
 44
0.0
176
     1
173
     0
176
     1
  0
VISUALSTYLE
  5
35
102
{ACAD_REACTORS
330
2A
102
}
330
2A
100
AcDbVisualStyle
  2
Dim
 70
    11
177
     2
291
     1
 71
     2
176
     1
 72
     2
176
     1
 73
     0
176
     1
 90
        0
176
     1
 40
-0.6
176
     1
 41
-30.0
176
     1
 62
     5
 63
     7
421
 16777215
176
     1
 74
     1
176
     1
 91
        4
176
     1
 64
     7
176
     1
 65
   257
176
     1
 75
     1
176
     1
175
     1
176
     1
 42
1.0
176
     1
 92
        8
176
     1
 66
     7
176
     1
 43
1.0
176
     1
 76
     1
176
     1
 77
     6
176
     1
 78
     2
176
     1
 67
     7
176
     1
 79
     5
176
     1
170
     0
176
     1
171
     0
176
     1
290
     0
176
     1
 93
        1
176
     1
 44
-50.0
176
     1
173
     0
176
     1
  0
VISUALSTYLE
  5
39
102
{ACAD_REACTORS
330
2A
102
}
330
2A
100
AcDbVisualStyle
  2
Facepattern
 70
    15
177
     2
291
     1
 71
     2
176
     1
 72
     2
176
     1
 73
     0
176
     1
 90
        0
176
     1
 40
-0.6
176
     1
 41
-30.0
176
     1
 62
     5
 63
     7
421
 16777215
176
     1
 74
     1
176
     1
 91
        4
176
     1
 64
     7
176
     1
 65
   257
176
     1
 75
     1
176
     1
175
     1
176
     1
 42
1.0
176
     1
 92
        8
176
     1
 66
     7
176
     1
 43
1.0
176
     1
 76
     1
176
     1
 77
     6
176
     1
 78
     2
176
     1
 67
     7
176
     1
 79
     5
176
     1
170
     0
176
     1
171
     0
176
     1
290
     0
176
     1
 93
        1
176
     1
 44
0.0
176
     1
173
     0
176
     1
  0
VISUALSTYLE
  5
2B
102
{ACAD_REACTORS
330
2A
102
}
330
2A
100
AcDbVisualStyle
  2
Flat
 70
     0
177
     2
291
     1
 71
     2
176
     1
 72
     1
176
     1
 73
     1
176
     1
 90
        2
176
     1
 40
-0.6
176
     1
 41
30.0
176
     1
 62
     5
 63
     7
421
 16777215
176
     1
 74
     0
176
     1
 91
        4
176
     1
 64
     7
176
     1
 65
   257
176
     1
 75
     1
176
     1
175
     1
176
     1
 42
1.0
176
     1
 92
        8
176
     1
 66
     7
176
     1
 43
1.0
176
     1
 76
     1
176
     1
 77
     6
176
     1
 78
     2
176
     1
 67
     7
176
     1
 79
     5
176
     1
170
     0
176
     1
171
     0
176
     1
290
     0
176
     1
 93
       13
176
     1
 44
0.0
176
     1
173
     0
176
     1
  0
VISUALSTYLE
  5
2C
102
{ACAD_REACTORS
330
2A
102
}
330
2A
100
AcDbVisualStyle
  2
FlatWithEdges
 70
     1
177
     2
291
     1
 71
     2
176
     1
 72
     1
176
     1
 73
     1
176
     1
 90
        2
176
     1
 40
-0.6
176
     1
 41
30.0
176
     1
 62
     5
 63
     7
421
 16777215
176
     1
 74
     1
176
     1
 91
        4
176
     1
 64
     7
176
     1
 65
   257
176
     1
 75
     1
176
     1
175
     1
176
     1
 42
1.0
176
     1
 92
        0
176
     1
 66
   257
176
     1
 43
1.0
176
     1
 76
     1
176
     1
 77
     6
176
     1
 78
     2
176
     1
 67
     7
176
     1
 79
     5
176
     1
170
     0
176
     1
171
     0
176
     1
290
     0
176
     1
 93
       13
176
     1
 44
0.0
176
     1
173
     0
176
     1
  0
VISUALSTYLE
  5
2D
102
{ACAD_REACTORS
330
2A
102
}
330
2A
100
AcDbVisualStyle
  2
Gouraud
 70
     2
177
     2
291
     1
 71
     2
176
     1
 72
     2
176
     1
 73
     1
176
     1
 90
        2
176
     1
 40
-0.6
176
     1
 41
30.0
176
     1
 62
     5
 63
     7
421
 16777215
176
     1
 74
     0
176
     1
 91
        4
176
     1
 64
     7
176
     1
 65
   257
176
     1
 75
     1
176
     1
175
     1
176
     1
 42
1.0
176
     1
 92
        0
176
     1
 66
     7
176
     1
 43
1.0
176
     1
 76
     1
176
     1
 77
     6
176
     1
 78
     2
176
     1
 67
     7
176
     1
 79
     5
176
     1
170
     0
176
     1
171
     0
176
     1
290
     0
176
     1
 93
       13
176
     1
 44
0.0
176
     1
173
     0
176
     1
  0
VISUALSTYLE
  5
2E
102
{ACAD_REACTORS
330
2A
102
}
330
2A
100
AcDbVisualStyle
  2
GouraudWithEdges
 70
     3
177
     2
291
     1
 71
     2
176
     1
 72
     2
176
     1
 73
     1
176
     1
 90
        2
176
     1
 40
-0.6
176
     1
 41
30.0
176
     1
 62
     5
 63
     7
421
 16777215
176
     1
 74
     1
176
     1
 91
        4
176
     1
 64
     7
176
     1
 65
   257
176
     1
 75
     1
176
     1
175
     1
176
     1
 42
1.0
176
     1
 92
        0
176
     1
 66
   257
176
     1
 43
1.0
176
     1
 76
     1
176
     1
 77
     6
176
     1
 78
     2
176
     1
 67
     7
176
     1
 79
     5
176
     1
170
     0
176
     1
171
     0
176
     1
290
     0
176
     1
 93
       13
176
     1
 44
0.0
176
     1
173
     0
176
     1
  0
VISUALSTYLE
  5
38
102
{ACAD_REACTORS
330
2A
102
}
330
2A
100
AcDbVisualStyle
  2
Linepattern
 70
    14
177
     2
291
     1
 71
     2
176
     1
 72
     2
176
     1
 73
     0
176
     1
 90
        0
176
     1
 40
-0.6
176
     1
 41
-30.0
176
     1
 62
     5
 63
     7
421
 16777215
176
     1
 74
     1
176
     1
 91
        4
176
     1
 64
     7
176
     1
 65
   257
176
     1
 75
     7
176
     1
175
     7
176
     1
 42
1.0
176
     1
 92
        8
176
     1
 66
     7
176
     1
 43
1.0
176
     1
 76
     1
176
     1
 77
     6
176
     1
 78
     2
176
     1
 67
     7
176
     1
 79
     5
176
     1
170
     0
176
     1
171
     0
176
     1
290
     0
176
     1
 93
        1
176
     1
 44
0.0
176
     1
173
     0
176
     1
  0
VISUALSTYLE
  5
33
102
{ACAD_REACTORS
330
2A
102
}
330
2A
100
AcDbVisualStyle
  2
Realistic
 70
     8
177
     2
291
     0
 71
     2
176
     1
 72
     2
176
     1
 73
     0
176
     1
 90
        0
176
     1
 40
-0.6
176
     1
 41
-30.0
176
     1
 62
     5
 63
     7
421
 16777215
176
     1
 74
     1
176
     1
 91
        0
176
     1
 64
     7
176
     1
 65
   257
176
     1
 75
     1
176
     1
175
     1
176
     1
 42
1.0
176
     1
 92
        8
176
     1
 66
     8
424
  7895160
176
     1
 43
1.0
176
     1
 76
     1
176
     1
 77
     6
176
     1
 78
     2
176
     1
 67
     7
176
     1
 79
     5
176
     1
170
     0
176
     1
171
     0
176
     1
290
     0
176
     1
 93
       13
176
     1
 44
0.0
176
     1
173
     0
176
     1
  0
VISUALSTYLE
  5
37
102
{ACAD_REACTORS
330
2A
102
}
330
2A
100
AcDbVisualStyle
  2
Thicken
 70
    13
177
     2
291
     1
 71
     2
176
     1
 72
     2
176
     1
 73
     0
176
     1
 90
        0
176
     1
 40
-0.6
176
     1
 41
-30.0
176
     1
 62
     5
 63
     7
421
 16777215
176
     1
 74
     1
176
     1
 91
        4
176
     1
 64
     7
176
     1
 65
   257
176
     1
 75
     1
176
     1
175
     1
176
     1
 42
1.0
176
     1
 92
       12
176
     1
 66
     7
176
     1
 43
1.0
176
     1
 76
     1
176
     1
 77
     6
176
     1
 78
     2
176
     1
 67
     7
176
     1
 79
     5
176
     1
170
     0
176
     1
171
     0
176
     1
290
     0
176
     1
 93
        1
176
     1
 44
0.0
176
     1
173
     0
176
     1
  0
ENDSEC
  0
EOF
